 0
SECTION
 2
HEADER
 9
$ACADVER
 1
AC1009
 0
ENDSEC
 0
SECTION
 2
TABLES
 0
TABLE
 2
LTYPE
 70
1
 0
LTYPE
 2
CONTINUOUS
 70
64
 3
solid line
 72
65
 73
0
 40
0.0
 0
ENDTAB
 0
TABLE
 2
LAYER
 70
6
 0
LAYER
 2
0
 70
0
 62
7
 6
CONTINUOUS
 0
LAYER
 2
F7IT36S1
 70
64
 62
7
 6
CONTINUOUS
 0
LAYER
 2
PIANO_3
 70
64
 62
253
 6
CONTINUOUS
 0
LAYER
 2
PIANO_4
 70
64
 62
253
 6
CONTINUOUS
 0
LAYER
 2
PIANO_2
 70
64
 62
253
 6
CONTINUOUS
 0
LAYER
 2
PIANO_1
 70
64
 62
253
 6
CONTINUOUS
 0
LAYER
 2
PIANO_0
 70
64
 62
253
 6
CONTINUOUS
 0
LAYER
 2
PIANO
 70
64
 62
253
 6
CONTINUOUS
 0
LAYER
 2
DISCO_3
 70
64
 62
253
 6
CONTINUOUS
 0
LAYER
 2
DISCO_2
 70
64
 62
253
 6
CONTINUOUS
 0
LAYER
 2
DISCO_1
 70
64
 62
253
 6
CONTINUOUS
 0
LAYER
 2
PIASTRA
 70
64
 62
39
 6
CONTINUOUS
 0
LAYER
 2
BORDO
 70
64
 62
253
 6
CONTINUOUS
 0
LAYER
 2
CUBO
 70
64
 62
253
 6
CONTINUOUS
 0
ENDTAB
 0
ENDSEC
 0
SECTION
 2
BLOCKS
 0
ENDSEC
 0
SECTION
 2
ENTITIES
 0
POLYLINE
 8
PIANO_3
 66
1
 10
0.0
 20
0.0
 30
0.0
 70
64
 71
9
 72
1
 0
VERTEX
 8
PIANO_3
 10
38.2806
 20
4.4705
 30
0.451
 70
192
 0
VERTEX
 8
PIANO_3
 10
38.1809
 20
4.4705
 30
0.451
 70
192
 0
VERTEX
 8
PIANO_3
 10
36.2806
 20
4.4705
 30
0.451
 70
192
 0
VERTEX
 8
PIANO_3
 10
38.2806
 20
2.5702
 30
0.451
 70
192
 0
VERTEX
 8
PIANO_3
 10
38.1809
 20
2.5702
 30
0.451
 70
192
 0
VERTEX
 8
PIANO_3
 10
36.2806
 20
2.5702
 30
0.451
 70
192
 0
VERTEX
 8
PIANO_3
 10
38.2806
 20
2.4705
 30
0.451
 70
192
 0
VERTEX
 8
PIANO_3
 10
38.1809
 20
2.4705
 30
0.451
 70
192
 0
VERTEX
 8
PIANO_3
 10
36.2806
 20
2.4705
 30
0.451
 70
192
 0
VERTEX
 8
PIANO_3
 10
0
 20
0
 30
0
 70
128
 71
5
 72
8
 73
9
 74
6
 0
SEQEND
 0
POLYLINE
 8
PIANO_4
 66
1
 10
0.0
 20
0.0
 30
0.0
 70
64
 71
9
 72
1
 0
VERTEX
 8
PIANO_4
 10
22.1617
 20
2.4705
 30
0.451
 70
192
 0
VERTEX
 8
PIANO_4
 10
22.1617
 20
2.5702
 30
0.451
 70
192
 0
VERTEX
 8
PIANO_4
 10
20.206
 20
4.4705
 30
0.451
 70
192
 0
VERTEX
 8
PIANO_4
 10
20.2614
 20
2.4705
 30
0.451
 70
192
 0
VERTEX
 8
PIANO_4
 10
20.2614
 20
2.5702
 30
0.451
 70
192
 0
VERTEX
 8
PIANO_4
 10
18.3057
 20
4.4705
 30
0.451
 70
192
 0
VERTEX
 8
PIANO_4
 10
18.206
 20
2.4705
 30
0.451
 70
192
 0
VERTEX
 8
PIANO_4
 10
18.206
 20
2.5702
 30
0.451
 70
192
 0
VERTEX
 8
PIANO_4
 10
18.206
 20
4.4705
 30
0.451
 70
192
 0
VERTEX
 8
PIANO_4
 10
0
 20
0
 30
0
 70
128
 71
1
 72
4
 73
5
 74
2
 0
SEQEND
 0
POLYLINE
 8
PIANO_2
 66
1
 10
0.0
 20
0.0
 30
0.0
 70
64
 71
9
 72
3
 0
VERTEX
 8
PIANO_2
 10
40.2037
 20
-14.7324
 30
0.451
 70
192
 0
VERTEX
 8
PIANO_2
 10
40.104
 20
-14.7324
 30
0.451
 70
192
 0
VERTEX
 8
PIANO_2
 10
38.2037
 20
-14.7324
 30
0.451
 70
192
 0
VERTEX
 8
PIANO_2
 10
40.2037
 20
-16.6327
 30
0.451
 70
192
 0
VERTEX
 8
PIANO_2
 10
40.104
 20
-16.6327
 30
0.451
 70
192
 0
VERTEX
 8
PIANO_2
 10
38.2037
 20
-16.6327
 30
0.451
 70
192
 0
VERTEX
 8
PIANO_2
 10
40.2037
 20
-16.7324
 30
0.451
 70
192
 0
VERTEX
 8
PIANO_2
 10
40.104
 20
-16.7324
 30
0.451
 70
192
 0
VERTEX
 8
PIANO_2
 10
38.2037
 20
-16.7324
 30
0.451
 70
192
 0
VERTEX
 8
PIANO_2
 10
0
 20
0
 30
0
 70
128
 71
1
 72
4
 73
5
 74
2
 0
VERTEX
 8
PIANO_2
 10
0
 20
0
 30
0
 70
128
 71
5
 72
8
 73
9
 74
6
 0
VERTEX
 8
PIANO_2
 10
0
 20
0
 30
0
 70
128
 71
4
 72
7
 73
8
 74
5
 0
SEQEND
 0
POLYLINE
 8
PIANO_1
 66
1
 10
0.0
 20
0.0
 30
0.0
 70
64
 71
9
 72
3
 0
VERTEX
 8
PIANO_1
 10
20.206
 20
-16.7324
 30
0.451
 70
192
 0
VERTEX
 8
PIANO_1
 10
20.206
 20
-16.6327
 30
0.451
 70
192
 0
VERTEX
 8
PIANO_1
 10
20.206
 20
-14.7324
 30
0.451
 70
192
 0
VERTEX
 8
PIANO_1
 10
18.3057
 20
-16.7324
 30
0.451
 70
192
 0
VERTEX
 8
PIANO_1
 10
18.3057
 20
-16.6327
 30
0.451
 70
192
 0
VERTEX
 8
PIANO_1
 10
18.3057
 20
-14.7324
 30
0.451
 70
192
 0
VERTEX
 8
PIANO_1
 10
18.206
 20
-16.7324
 30
0.451
 70
192
 0
VERTEX
 8
PIANO_1
 10
18.206
 20
-16.6327
 30
0.451
 70
192
 0
VERTEX
 8
PIANO_1
 10
18.206
 20
-14.7324
 30
0.451
 70
192
 0
VERTEX
 8
PIANO_1
 10
0
 20
0
 30
0
 70
128
 71
1
 72
4
 73
5
 74
2
 0
VERTEX
 8
PIANO_1
 10
0
 20
0
 30
0
 70
128
 71
5
 72
8
 73
9
 74
6
 0
VERTEX
 8
PIANO_1
 10
0
 20
0
 30
0
 70
128
 71
4
 72
7
 73
8
 74
5
 0
SEQEND
 0
POLYLINE
 8
PIANO_0
 66
1
 10
0.0
 20
0.0
 30
0.0
 70
64
 71
9
 72
3
 0
VERTEX
 8
PIANO_0
 10
18.206
 20
19.7671
 30
0.451
 70
192
 0
VERTEX
 8
PIANO_0
 10
18.3057
 20
19.7671
 30
0.451
 70
192
 0
VERTEX
 8
PIANO_0
 10
20.206
 20
19.7671
 30
0.451
 70
192
 0
VERTEX
 8
PIANO_0
 10
18.206
 20
21.6674
 30
0.451
 70
192
 0
VERTEX
 8
PIANO_0
 10
18.3057
 20
21.6674
 30
0.451
 70
192
 0
VERTEX
 8
PIANO_0
 10
20.206
 20
21.6674
 30
0.451
 70
192
 0
VERTEX
 8
PIANO_0
 10
18.206
 20
21.7671
 30
0.451
 70
192
 0
VERTEX
 8
PIANO_0
 10
18.3057
 20
21.7671
 30
0.451
 70
192
 0
VERTEX
 8
PIANO_0
 10
20.206
 20
21.7671
 30
0.451
 70
192
 0
VERTEX
 8
PIANO_0
 10
0
 20
0
 30
0
 70
128
 71
1
 72
4
 73
5
 74
2
 0
VERTEX
 8
PIANO_0
 10
0
 20
0
 30
0
 70
128
 71
5
 72
8
 73
9
 74
6
 0
VERTEX
 8
PIANO_0
 10
0
 20
0
 30
0
 70
128
 71
4
 72
7
 73
8
 74
5
 0
SEQEND
 0
POLYLINE
 8
PIANO
 66
1
 10
0.0
 20
0.0
 30
0.0
 70
64
 71
9
 72
3
 0
VERTEX
 8
PIANO
 10
38.2037
 20
21.7671
 30
0.451
 70
192
 0
VERTEX
 8
PIANO
 10
38.2037
 20
21.6674
 30
0.451
 70
192
 0
VERTEX
 8
PIANO
 10
38.2037
 20
19.7671
 30
0.451
 70
192
 0
VERTEX
 8
PIANO
 10
40.104
 20
21.7671
 30
0.451
 70
192
 0
VERTEX
 8
PIANO
 10
40.104
 20
21.6674
 30
0.451
 70
192
 0
VERTEX
 8
PIANO
 10
40.104
 20
19.7671
 30
0.451
 70
192
 0
VERTEX
 8
PIANO
 10
40.2037
 20
21.7671
 30
0.451
 70
192
 0
VERTEX
 8
PIANO
 10
40.2037
 20
21.6674
 30
0.451
 70
192
 0
VERTEX
 8
PIANO
 10
40.2037
 20
19.7671
 30
0.451
 70
192
 0
VERTEX
 8
PIANO
 10
0
 20
0
 30
0
 70
128
 71
1
 72
4
 73
5
 74
2
 0
VERTEX
 8
PIANO
 10
0
 20
0
 30
0
 70
128
 71
5
 72
8
 73
9
 74
6
 0
VERTEX
 8
PIANO
 10
0
 20
0
 30
0
 70
128
 71
4
 72
7
 73
8
 74
5
 0
SEQEND
 0
POLYLINE
 8
DISCO_3
 66
1
 10
0.0
 20
0.0
 30
0.0
 70
64
 71
192
 72
96
 0
VERTEX
 8
DISCO_3
 10
-12.6842
 20
2.0369
 30
0.4513
 70
192
 0
VERTEX
 8
DISCO_3
 10
-12.7838
 20
2.0369
 30
0.4513
 70
192
 0
VERTEX
 8
DISCO_3
 10
-12.7143
 20
2.9556
 30
0.4513
 70
192
 0
VERTEX
 8
DISCO_3
 10
-12.8137
 20
2.9491
 30
0.4513
 70
192
 0
VERTEX
 8
DISCO_3
 10
-12.8044
 20
3.8703
 30
0.4513
 70
192
 0
VERTEX
 8
DISCO_3
 10
-12.9031
 20
3.8573
 30
0.4513
 70
192
 0
VERTEX
 8
DISCO_3
 10
-12.9541
 20
4.7771
 30
0.4513
 70
192
 0
VERTEX
 8
DISCO_3
 10
-13.0518
 20
4.7577
 30
0.4513
 70
192
 0
VERTEX
 8
DISCO_3
 10
-13.1628
 20
5.6722
 30
0.4513
 70
192
 0
VERTEX
 8
DISCO_3
 10
-13.259
 20
5.6464
 30
0.4513
 70
192
 0
VERTEX
 8
DISCO_3
 10
-13.4296
 20
6.5518
 30
0.4513
 70
192
 0
VERTEX
 8
DISCO_3
 10
-13.5239
 20
6.5197
 30
0.4513
 70
192
 0
VERTEX
 8
DISCO_3
 10
-13.7534
 20
7.412
 30
0.4513
 70
192
 0
VERTEX
 8
DISCO_3
 10
-13.8454
 20
7.3738
 30
0.4513
 70
192
 0
VERTEX
 8
DISCO_3
 10
-14.1327
 20
8.2491
 30
0.4513
 70
192
 0
VERTEX
 8
DISCO_3
 10
-14.222
 20
8.2051
 30
0.4513
 70
192
 0
VERTEX
 8
DISCO_3
 10
-14.566
 20
9.0597
 30
0.4513
 70
192
 0
VERTEX
 8
DISCO_3
 10
-14.6522
 20
9.0099
 30
0.4513
 70
192
 0
VERTEX
 8
DISCO_3
 10
-15.0513
 20
9.8403
 30
0.4513
 70
192
 0
VERTEX
 8
DISCO_3
 10
-15.1341
 20
9.7849
 30
0.4513
 70
192
 0
VERTEX
 8
DISCO_3
 10
-15.5867
 20
10.5874
 30
0.4513
 70
192
 0
VERTEX
 8
DISCO_3
 10
-15.6657
 20
10.5267
 30
0.4513
 70
192
 0
VERTEX
 8
DISCO_3
 10
-16.1698
 20
11.2978
 30
0.4513
 70
192
 0
VERTEX
 8
DISCO_3
 10
-16.2447
 20
11.2322
 30
0.4513
 70
192
 0
VERTEX
 8
DISCO_3
 10
-16.7981
 20
11.9687
 30
0.4513
 70
192
 0
VERTEX
 8
DISCO_3
 10
-16.8685
 20
11.8983
 30
0.4513
 70
192
 0
VERTEX
 8
DISCO_3
 10
-17.4689
 20
12.597
 30
0.4513
 70
192
 0
VERTEX
 8
DISCO_3
 10
-17.5346
 20
12.5221
 30
0.4513
 70
192
 0
VERTEX
 8
DISCO_3
 10
-18.1794
 20
13.1801
 30
0.4513
 70
192
 0
VERTEX
 8
DISCO_3
 10
-18.24
 20
13.1011
 30
0.4513
 70
192
 0
VERTEX
 8
DISCO_3
 10
-18.9265
 20
13.7154
 30
0.4513
 70
192
 0
VERTEX
 8
DISCO_3
 10
-18.9818
 20
13.6326
 30
0.4513
 70
192
 0
VERTEX
 8
DISCO_3
 10
-19.707
 20
14.2008
 30
0.4513
 70
192
 0
VERTEX
 8
DISCO_3
 10
-19.7568
 20
14.1145
 30
0.4513
 70
192
 0
VERTEX
 8
DISCO_3
 10
-20.5176
 20
14.634
 30
0.4513
 70
192
 0
VERTEX
 8
DISCO_3
 10
-20.5617
 20
14.5447
 30
0.4513
 70
192
 0
VERTEX
 8
DISCO_3
 10
-21.3548
 20
15.0134
 30
0.4513
 70
192
 0
VERTEX
 8
DISCO_3
 10
-21.3929
 20
14.9214
 30
0.4513
 70
192
 0
VERTEX
 8
DISCO_3
 10
-22.215
 20
15.3371
 30
0.4513
 70
192
 0
VERTEX
 8
DISCO_3
 10
-22.247
 20
15.2428
 30
0.4513
 70
192
 0
VERTEX
 8
DISCO_3
 10
-23.0945
 20
15.6039
 30
0.4513
 70
192
 0
VERTEX
 8
DISCO_3
 10
-23.1203
 20
15.5077
 30
0.4513
 70
192
 0
VERTEX
 8
DISCO_3
 10
-23.9897
 20
15.8126
 30
0.4513
 70
192
 0
VERTEX
 8
DISCO_3
 10
-24.0091
 20
15.715
 30
0.4513
 70
192
 0
VERTEX
 8
DISCO_3
 10
-24.8965
 20
15.9624
 30
0.4513
 70
192
 0
VERTEX
 8
DISCO_3
 10
-24.9095
 20
15.8636
 30
0.4513
 70
192
 0
VERTEX
 8
DISCO_3
 10
-25.8112
 20
16.0525
 30
0.4513
 70
192
 0
VERTEX
 8
DISCO_3
 10
-25.8177
 20
15.9531
 30
0.4513
 70
192
 0
VERTEX
 8
DISCO_3
 10
-26.7298
 20
16.0825
 30
0.4513
 70
192
 0
VERTEX
 8
DISCO_3
 10
-26.7298
 20
15.9829
 30
0.4513
 70
192
 0
VERTEX
 8
DISCO_3
 10
-27.6484
 20
16.0525
 30
0.4513
 70
192
 0
VERTEX
 8
DISCO_3
 10
-27.6419
 20
15.9531
 30
0.4513
 70
192
 0
VERTEX
 8
DISCO_3
 10
-28.5631
 20
15.9624
 30
0.4513
 70
192
 0
VERTEX
 8
DISCO_3
 10
-28.5501
 20
15.8636
 30
0.4513
 70
192
 0
VERTEX
 8
DISCO_3
 10
-29.47
 20
15.8126
 30
0.4513
 70
192
 0
VERTEX
 8
DISCO_3
 10
-29.4505
 20
15.715
 30
0.4513
 70
192
 0
VERTEX
 8
DISCO_3
 10
-30.3651
 20
15.6039
 30
0.4513
 70
192
 0
VERTEX
 8
DISCO_3
 10
-30.3393
 20
15.5077
 30
0.4513
 70
192
 0
VERTEX
 8
DISCO_3
 10
-31.2446
 20
15.3371
 30
0.4513
 70
192
 0
VERTEX
 8
DISCO_3
 10
-31.2126
 20
15.2428
 30
0.4513
 70
192
 0
VERTEX
 8
DISCO_3
 10
-32.1048
 20
15.0134
 30
0.4513
 70
192
 0
VERTEX
 8
DISCO_3
 10
-32.0667
 20
14.9214
 30
0.4513
 70
192
 0
VERTEX
 8
DISCO_3
 10
-32.942
 20
14.634
 30
0.4513
 70
192
 0
VERTEX
 8
DISCO_3
 10
-32.898
 20
14.5447
 30
0.4513
 70
192
 0
VERTEX
 8
DISCO_3
 10
-33.7526
 20
14.2008
 30
0.4513
 70
192
 0
VERTEX
 8
DISCO_3
 10
-33.7028
 20
14.1145
 30
0.4513
 70
192
 0
VERTEX
 8
DISCO_3
 10
-34.5331
 20
13.7154
 30
0.4513
 70
192
 0
VERTEX
 8
DISCO_3
 10
-34.4778
 20
13.6326
 30
0.4513
 70
192
 0
VERTEX
 8
DISCO_3
 10
-35.2802
 20
13.1801
 30
0.4513
 70
192
 0
VERTEX
 8
DISCO_3
 10
-35.2196
 20
13.1011
 30
0.4513
 70
192
 0
VERTEX
 8
DISCO_3
 10
-35.9907
 20
12.597
 30
0.4513
 70
192
 0
VERTEX
 8
DISCO_3
 10
-35.925
 20
12.5221
 30
0.4513
 70
192
 0
VERTEX
 8
DISCO_3
 10
-36.6615
 20
11.9687
 30
0.4513
 70
192
 0
VERTEX
 8
DISCO_3
 10
-36.5911
 20
11.8983
 30
0.4513
 70
192
 0
VERTEX
 8
DISCO_3
 10
-37.2898
 20
11.2978
 30
0.4513
 70
192
 0
VERTEX
 8
DISCO_3
 10
-37.215
 20
11.2322
 30
0.4513
 70
192
 0
VERTEX
 8
DISCO_3
 10
-37.8729
 20
10.5874
 30
0.4513
 70
192
 0
VERTEX
 8
DISCO_3
 10
-37.7939
 20
10.5267
 30
0.4513
 70
192
 0
VERTEX
 8
DISCO_3
 10
-38.4083
 20
9.8403
 30
0.4513
 70
192
 0
VERTEX
 8
DISCO_3
 10
-38.3255
 20
9.7849
 30
0.4513
 70
192
 0
VERTEX
 8
DISCO_3
 10
-38.8936
 20
9.0597
 30
0.4513
 70
192
 0
VERTEX
 8
DISCO_3
 10
-38.8074
 20
9.0099
 30
0.4513
 70
192
 0
VERTEX
 8
DISCO_3
 10
-39.3269
 20
8.2491
 30
0.4513
 70
192
 0
VERTEX
 8
DISCO_3
 10
-39.2376
 20
8.2051
 30
0.4513
 70
192
 0
VERTEX
 8
DISCO_3
 10
-39.7062
 20
7.412
 30
0.4513
 70
192
 0
VERTEX
 8
DISCO_3
 10
-39.6142
 20
7.3738
 30
0.4513
 70
192
 0
VERTEX
 8
DISCO_3
 10
-40.03
 20
6.5518
 30
0.4513
 70
192
 0
VERTEX
 8
DISCO_3
 10
-39.9357
 20
6.5197
 30
0.4513
 70
192
 0
VERTEX
 8
DISCO_3
 10
-40.2968
 20
5.6722
 30
0.4513
 70
192
 0
VERTEX
 8
DISCO_3
 10
-40.2006
 20
5.6464
 30
0.4513
 70
192
 0
VERTEX
 8
DISCO_3
 10
-40.5055
 20
4.7771
 30
0.4513
 70
192
 0
VERTEX
 8
DISCO_3
 10
-40.4078
 20
4.7577
 30
0.4513
 70
192
 0
VERTEX
 8
DISCO_3
 10
-40.6552
 20
3.8703
 30
0.4513
 70
192
 0
VERTEX
 8
DISCO_3
 10
-40.5565
 20
3.8573
 30
0.4513
 70
192
 0
VERTEX
 8
DISCO_3
 10
-40.7453
 20
2.9556
 30
0.4513
 70
192
 0
VERTEX
 8
DISCO_3
 10
-40.6459
 20
2.9491
 30
0.4513
 70
192
 0
VERTEX
 8
DISCO_3
 10
-40.7754
 20
2.0369
 30
0.4513
 70
192
 0
VERTEX
 8
DISCO_3
 10
-40.6758
 20
2.0369
 30
0.4513
 70
192
 0
VERTEX
 8
DISCO_3
 10
-40.7453
 20
1.1183
 30
0.4513
 70
192
 0
VERTEX
 8
DISCO_3
 10
-40.6459
 20
1.1248
 30
0.4513
 70
192
 0
VERTEX
 8
DISCO_3
 10
-40.6552
 20
0.2036
 30
0.4513
 70
192
 0
VERTEX
 8
DISCO_3
 10
-40.5565
 20
0.2166
 30
0.4513
 70
192
 0
VERTEX
 8
DISCO_3
 10
-40.5055
 20
-0.7032
 30
0.4513
 70
192
 0
VERTEX
 8
DISCO_3
 10
-40.4078
 20
-0.6838
 30
0.4513
 70
192
 0
VERTEX
 8
DISCO_3
 10
-40.2968
 20
-1.5983
 30
0.4513
 70
192
 0
VERTEX
 8
DISCO_3
 10
-40.2006
 20
-1.5725
 30
0.4513
 70
192
 0
VERTEX
 8
DISCO_3
 10
-40.03
 20
-2.4779
 30
0.4513
 70
192
 0
VERTEX
 8
DISCO_3
 10
-39.9357
 20
-2.4458
 30
0.4513
 70
192
 0
VERTEX
 8
DISCO_3
 10
-39.7062
 20
-3.3381
 30
0.4513
 70
192
 0
VERTEX
 8
DISCO_3
 10
-39.6142
 20
-3.3
 30
0.4513
 70
192
 0
VERTEX
 8
DISCO_3
 10
-39.3269
 20
-4.1753
 30
0.4513
 70
192
 0
VERTEX
 8
DISCO_3
 10
-39.2376
 20
-4.1312
 30
0.4513
 70
192
 0
VERTEX
 8
DISCO_3
 10
-38.8936
 20
-4.9858
 30
0.4513
 70
192
 0
VERTEX
 8
DISCO_3
 10
-38.8074
 20
-4.9361
 30
0.4513
 70
192
 0
VERTEX
 8
DISCO_3
 10
-38.4083
 20
-5.7664
 30
0.4513
 70
192
 0
VERTEX
 8
DISCO_3
 10
-38.3255
 20
-5.711
 30
0.4513
 70
192
 0
VERTEX
 8
DISCO_3
 10
-37.8729
 20
-6.5135
 30
0.4513
 70
192
 0
VERTEX
 8
DISCO_3
 10
-37.7939
 20
-6.4528
 30
0.4513
 70
192
 0
VERTEX
 8
DISCO_3
 10
-37.2898
 20
-7.2239
 30
0.4513
 70
192
 0
VERTEX
 8
DISCO_3
 10
-37.215
 20
-7.1583
 30
0.4513
 70
192
 0
VERTEX
 8
DISCO_3
 10
-36.6615
 20
-7.8948
 30
0.4513
 70
192
 0
VERTEX
 8
DISCO_3
 10
-36.5911
 20
-7.8244
 30
0.4513
 70
192
 0
VERTEX
 8
DISCO_3
 10
-35.9907
 20
-8.5231
 30
0.4513
 70
192
 0
VERTEX
 8
DISCO_3
 10
-35.925
 20
-8.4482
 30
0.4513
 70
192
 0
VERTEX
 8
DISCO_3
 10
-35.2802
 20
-9.1062
 30
0.4513
 70
192
 0
VERTEX
 8
DISCO_3
 10
-35.2196
 20
-9.0272
 30
0.4513
 70
192
 0
VERTEX
 8
DISCO_3
 10
-34.5331
 20
-9.6415
 30
0.4513
 70
192
 0
VERTEX
 8
DISCO_3
 10
-34.4778
 20
-9.5587
 30
0.4513
 70
192
 0
VERTEX
 8
DISCO_3
 10
-33.7526
 20
-10.1269
 30
0.4513
 70
192
 0
VERTEX
 8
DISCO_3
 10
-33.7028
 20
-10.0406
 30
0.4513
 70
192
 0
VERTEX
 8
DISCO_3
 10
-32.942
 20
-10.5602
 30
0.4513
 70
192
 0
VERTEX
 8
DISCO_3
 10
-32.898
 20
-10.4708
 30
0.4513
 70
192
 0
VERTEX
 8
DISCO_3
 10
-32.1048
 20
-10.9395
 30
0.4513
 70
192
 0
VERTEX
 8
DISCO_3
 10
-32.0667
 20
-10.8475
 30
0.4513
 70
192
 0
VERTEX
 8
DISCO_3
 10
-31.2446
 20
-11.2632
 30
0.4513
 70
192
 0
VERTEX
 8
DISCO_3
 10
-31.2126
 20
-11.1689
 30
0.4513
 70
192
 0
VERTEX
 8
DISCO_3
 10
-30.3651
 20
-11.53
 30
0.4513
 70
192
 0
VERTEX
 8
DISCO_3
 10
-30.3393
 20
-11.4339
 30
0.4513
 70
192
 0
VERTEX
 8
DISCO_3
 10
-29.47
 20
-11.7388
 30
0.4513
 70
192
 0
VERTEX
 8
DISCO_3
 10
-29.4505
 20
-11.6411
 30
0.4513
 70
192
 0
VERTEX
 8
DISCO_3
 10
-28.5631
 20
-11.8885
 30
0.4513
 70
192
 0
VERTEX
 8
DISCO_3
 10
-28.5501
 20
-11.7897
 30
0.4513
 70
192
 0
VERTEX
 8
DISCO_3
 10
-27.6484
 20
-11.9786
 30
0.4513
 70
192
 0
VERTEX
 8
DISCO_3
 10
-27.6419
 20
-11.8792
 30
0.4513
 70
192
 0
VERTEX
 8
DISCO_3
 10
-26.7298
 20
-12.0086
 30
0.4513
 70
192
 0
VERTEX
 8
DISCO_3
 10
-26.7298
 20
-11.9091
 30
0.4513
 70
192
 0
VERTEX
 8
DISCO_3
 10
-25.8112
 20
-11.9786
 30
0.4513
 70
192
 0
VERTEX
 8
DISCO_3
 10
-25.8177
 20
-11.8792
 30
0.4513
 70
192
 0
VERTEX
 8
DISCO_3
 10
-24.8965
 20
-11.8885
 30
0.4513
 70
192
 0
VERTEX
 8
DISCO_3
 10
-24.9095
 20
-11.7897
 30
0.4513
 70
192
 0
VERTEX
 8
DISCO_3
 10
-23.9897
 20
-11.7388
 30
0.4513
 70
192
 0
VERTEX
 8
DISCO_3
 10
-24.0091
 20
-11.6411
 30
0.4513
 70
192
 0
VERTEX
 8
DISCO_3
 10
-23.0945
 20
-11.53
 30
0.4513
 70
192
 0
VERTEX
 8
DISCO_3
 10
-23.1203
 20
-11.4339
 30
0.4513
 70
192
 0
VERTEX
 8
DISCO_3
 10
-22.215
 20
-11.2632
 30
0.4513
 70
192
 0
VERTEX
 8
DISCO_3
 10
-22.247
 20
-11.1689
 30
0.4513
 70
192
 0
VERTEX
 8
DISCO_3
 10
-21.3548
 20
-10.9395
 30
0.4513
 70
192
 0
VERTEX
 8
DISCO_3
 10
-21.3929
 20
-10.8475
 30
0.4513
 70
192
 0
VERTEX
 8
DISCO_3
 10
-20.5176
 20
-10.5602
 30
0.4513
 70
192
 0
VERTEX
 8
DISCO_3
 10
-20.5617
 20
-10.4708
 30
0.4513
 70
192
 0
VERTEX
 8
DISCO_3
 10
-19.707
 20
-10.1269
 30
0.4513
 70
192
 0
VERTEX
 8
DISCO_3
 10
-19.7568
 20
-10.0406
 30
0.4513
 70
192
 0
VERTEX
 8
DISCO_3
 10
-18.9265
 20
-9.6415
 30
0.4513
 70
192
 0
VERTEX
 8
DISCO_3
 10
-18.9818
 20
-9.5587
 30
0.4513
 70
192
 0
VERTEX
 8
DISCO_3
 10
-18.1794
 20
-9.1062
 30
0.4513
 70
192
 0
VERTEX
 8
DISCO_3
 10
-18.24
 20
-9.0272
 30
0.4513
 70
192
 0
VERTEX
 8
DISCO_3
 10
-17.4689
 20
-8.5231
 30
0.4513
 70
192
 0
VERTEX
 8
DISCO_3
 10
-17.5346
 20
-8.4482
 30
0.4513
 70
192
 0
VERTEX
 8
DISCO_3
 10
-16.7981
 20
-7.8948
 30
0.4513
 70
192
 0
VERTEX
 8
DISCO_3
 10
-16.8685
 20
-7.8244
 30
0.4513
 70
192
 0
VERTEX
 8
DISCO_3
 10
-16.1698
 20
-7.2239
 30
0.4513
 70
192
 0
VERTEX
 8
DISCO_3
 10
-16.2447
 20
-7.1583
 30
0.4513
 70
192
 0
VERTEX
 8
DISCO_3
 10
-15.5867
 20
-6.5135
 30
0.4513
 70
192
 0
VERTEX
 8
DISCO_3
 10
-15.6657
 20
-6.4528
 30
0.4513
 70
192
 0
VERTEX
 8
DISCO_3
 10
-15.0513
 20
-5.7664
 30
0.4513
 70
192
 0
VERTEX
 8
DISCO_3
 10
-15.1341
 20
-5.711
 30
0.4513
 70
192
 0
VERTEX
 8
DISCO_3
 10
-14.566
 20
-4.9858
 30
0.4513
 70
192
 0
VERTEX
 8
DISCO_3
 10
-14.6522
 20
-4.9361
 30
0.4513
 70
192
 0
VERTEX
 8
DISCO_3
 10
-14.1327
 20
-4.1753
 30
0.4513
 70
192
 0
VERTEX
 8
DISCO_3
 10
-14.222
 20
-4.1312
 30
0.4513
 70
192
 0
VERTEX
 8
DISCO_3
 10
-13.7534
 20
-3.3381
 30
0.4513
 70
192
 0
VERTEX
 8
DISCO_3
 10
-13.8454
 20
-3.3
 30
0.4513
 70
192
 0
VERTEX
 8
DISCO_3
 10
-13.4296
 20
-2.4779
 30
0.4513
 70
192
 0
VERTEX
 8
DISCO_3
 10
-13.5239
 20
-2.4458
 30
0.4513
 70
192
 0
VERTEX
 8
DISCO_3
 10
-13.1628
 20
-1.5983
 30
0.4513
 70
192
 0
VERTEX
 8
DISCO_3
 10
-13.259
 20
-1.5725
 30
0.4513
 70
192
 0
VERTEX
 8
DISCO_3
 10
-12.9541
 20
-0.7032
 30
0.4513
 70
192
 0
VERTEX
 8
DISCO_3
 10
-13.0518
 20
-0.6838
 30
0.4513
 70
192
 0
VERTEX
 8
DISCO_3
 10
-12.8044
 20
0.2036
 30
0.4513
 70
192
 0
VERTEX
 8
DISCO_3
 10
-12.9031
 20
0.2166
 30
0.4513
 70
192
 0
VERTEX
 8
DISCO_3
 10
-12.7143
 20
1.1183
 30
0.4513
 70
192
 0
VERTEX
 8
DISCO_3
 10
-12.8137
 20
1.1248
 30
0.4513
 70
192
 0
VERTEX
 8
DISCO_3
 10
0
 20
0
 30
0
 70
128
 71
1
 72
2
 73
4
 74
3
 0
VERTEX
 8
DISCO_3
 10
0
 20
0
 30
0
 70
128
 71
3
 72
4
 73
6
 74
5
 0
VERTEX
 8
DISCO_3
 10
0
 20
0
 30
0
 70
128
 71
5
 72
6
 73
8
 74
7
 0
VERTEX
 8
DISCO_3
 10
0
 20
0
 30
0
 70
128
 71
7
 72
8
 73
10
 74
9
 0
VERTEX
 8
DISCO_3
 10
0
 20
0
 30
0
 70
128
 71
9
 72
10
 73
12
 74
11
 0
VERTEX
 8
DISCO_3
 10
0
 20
0
 30
0
 70
128
 71
11
 72
12
 73
14
 74
13
 0
VERTEX
 8
DISCO_3
 10
0
 20
0
 30
0
 70
128
 71
13
 72
14
 73
16
 74
15
 0
VERTEX
 8
DISCO_3
 10
0
 20
0
 30
0
 70
128
 71
15
 72
16
 73
18
 74
17
 0
VERTEX
 8
DISCO_3
 10
0
 20
0
 30
0
 70
128
 71
17
 72
18
 73
20
 74
19
 0
VERTEX
 8
DISCO_3
 10
0
 20
0
 30
0
 70
128
 71
19
 72
20
 73
22
 74
21
 0
VERTEX
 8
DISCO_3
 10
0
 20
0
 30
0
 70
128
 71
21
 72
22
 73
24
 74
23
 0
VERTEX
 8
DISCO_3
 10
0
 20
0
 30
0
 70
128
 71
23
 72
24
 73
26
 74
25
 0
VERTEX
 8
DISCO_3
 10
0
 20
0
 30
0
 70
128
 71
25
 72
26
 73
28
 74
27
 0
VERTEX
 8
DISCO_3
 10
0
 20
0
 30
0
 70
128
 71
27
 72
28
 73
30
 74
29
 0
VERTEX
 8
DISCO_3
 10
0
 20
0
 30
0
 70
128
 71
29
 72
30
 73
32
 74
31
 0
VERTEX
 8
DISCO_3
 10
0
 20
0
 30
0
 70
128
 71
31
 72
32
 73
34
 74
33
 0
VERTEX
 8
DISCO_3
 10
0
 20
0
 30
0
 70
128
 71
33
 72
34
 73
36
 74
35
 0
VERTEX
 8
DISCO_3
 10
0
 20
0
 30
0
 70
128
 71
35
 72
36
 73
38
 74
37
 0
VERTEX
 8
DISCO_3
 10
0
 20
0
 30
0
 70
128
 71
37
 72
38
 73
40
 74
39
 0
VERTEX
 8
DISCO_3
 10
0
 20
0
 30
0
 70
128
 71
39
 72
40
 73
42
 74
41
 0
VERTEX
 8
DISCO_3
 10
0
 20
0
 30
0
 70
128
 71
41
 72
42
 73
44
 74
43
 0
VERTEX
 8
DISCO_3
 10
0
 20
0
 30
0
 70
128
 71
43
 72
44
 73
46
 74
45
 0
VERTEX
 8
DISCO_3
 10
0
 20
0
 30
0
 70
128
 71
45
 72
46
 73
48
 74
47
 0
VERTEX
 8
DISCO_3
 10
0
 20
0
 30
0
 70
128
 71
47
 72
48
 73
50
 74
49
 0
VERTEX
 8
DISCO_3
 10
0
 20
0
 30
0
 70
128
 71
49
 72
50
 73
52
 74
51
 0
VERTEX
 8
DISCO_3
 10
0
 20
0
 30
0
 70
128
 71
51
 72
52
 73
54
 74
53
 0
VERTEX
 8
DISCO_3
 10
0
 20
0
 30
0
 70
128
 71
53
 72
54
 73
56
 74
55
 0
VERTEX
 8
DISCO_3
 10
0
 20
0
 30
0
 70
128
 71
55
 72
56
 73
58
 74
57
 0
VERTEX
 8
DISCO_3
 10
0
 20
0
 30
0
 70
128
 71
57
 72
58
 73
60
 74
59
 0
VERTEX
 8
DISCO_3
 10
0
 20
0
 30
0
 70
128
 71
59
 72
60
 73
62
 74
61
 0
VERTEX
 8
DISCO_3
 10
0
 20
0
 30
0
 70
128
 71
61
 72
62
 73
64
 74
63
 0
VERTEX
 8
DISCO_3
 10
0
 20
0
 30
0
 70
128
 71
63
 72
64
 73
66
 74
65
 0
VERTEX
 8
DISCO_3
 10
0
 20
0
 30
0
 70
128
 71
65
 72
66
 73
68
 74
67
 0
VERTEX
 8
DISCO_3
 10
0
 20
0
 30
0
 70
128
 71
67
 72
68
 73
70
 74
69
 0
VERTEX
 8
DISCO_3
 10
0
 20
0
 30
0
 70
128
 71
69
 72
70
 73
72
 74
71
 0
VERTEX
 8
DISCO_3
 10
0
 20
0
 30
0
 70
128
 71
71
 72
72
 73
74
 74
73
 0
VERTEX
 8
DISCO_3
 10
0
 20
0
 30
0
 70
128
 71
73
 72
74
 73
76
 74
75
 0
VERTEX
 8
DISCO_3
 10
0
 20
0
 30
0
 70
128
 71
75
 72
76
 73
78
 74
77
 0
VERTEX
 8
DISCO_3
 10
0
 20
0
 30
0
 70
128
 71
77
 72
78
 73
80
 74
79
 0
VERTEX
 8
DISCO_3
 10
0
 20
0
 30
0
 70
128
 71
79
 72
80
 73
82
 74
81
 0
VERTEX
 8
DISCO_3
 10
0
 20
0
 30
0
 70
128
 71
81
 72
82
 73
84
 74
83
 0
VERTEX
 8
DISCO_3
 10
0
 20
0
 30
0
 70
128
 71
83
 72
84
 73
86
 74
85
 0
VERTEX
 8
DISCO_3
 10
0
 20
0
 30
0
 70
128
 71
85
 72
86
 73
88
 74
87
 0
VERTEX
 8
DISCO_3
 10
0
 20
0
 30
0
 70
128
 71
87
 72
88
 73
90
 74
89
 0
VERTEX
 8
DISCO_3
 10
0
 20
0
 30
0
 70
128
 71
89
 72
90
 73
92
 74
91
 0
VERTEX
 8
DISCO_3
 10
0
 20
0
 30
0
 70
128
 71
91
 72
92
 73
94
 74
93
 0
VERTEX
 8
DISCO_3
 10
0
 20
0
 30
0
 70
128
 71
93
 72
94
 73
96
 74
95
 0
VERTEX
 8
DISCO_3
 10
0
 20
0
 30
0
 70
128
 71
95
 72
96
 73
98
 74
97
 0
VERTEX
 8
DISCO_3
 10
0
 20
0
 30
0
 70
128
 71
97
 72
98
 73
100
 74
99
 0
VERTEX
 8
DISCO_3
 10
0
 20
0
 30
0
 70
128
 71
99
 72
100
 73
102
 74
101
 0
VERTEX
 8
DISCO_3
 10
0
 20
0
 30
0
 70
128
 71
101
 72
102
 73
104
 74
103
 0
VERTEX
 8
DISCO_3
 10
0
 20
0
 30
0
 70
128
 71
103
 72
104
 73
106
 74
105
 0
VERTEX
 8
DISCO_3
 10
0
 20
0
 30
0
 70
128
 71
105
 72
106
 73
108
 74
107
 0
VERTEX
 8
DISCO_3
 10
0
 20
0
 30
0
 70
128
 71
107
 72
108
 73
110
 74
109
 0
VERTEX
 8
DISCO_3
 10
0
 20
0
 30
0
 70
128
 71
109
 72
110
 73
112
 74
111
 0
VERTEX
 8
DISCO_3
 10
0
 20
0
 30
0
 70
128
 71
111
 72
112
 73
114
 74
113
 0
VERTEX
 8
DISCO_3
 10
0
 20
0
 30
0
 70
128
 71
113
 72
114
 73
116
 74
115
 0
VERTEX
 8
DISCO_3
 10
0
 20
0
 30
0
 70
128
 71
115
 72
116
 73
118
 74
117
 0
VERTEX
 8
DISCO_3
 10
0
 20
0
 30
0
 70
128
 71
117
 72
118
 73
120
 74
119
 0
VERTEX
 8
DISCO_3
 10
0
 20
0
 30
0
 70
128
 71
119
 72
120
 73
122
 74
121
 0
VERTEX
 8
DISCO_3
 10
0
 20
0
 30
0
 70
128
 71
121
 72
122
 73
124
 74
123
 0
VERTEX
 8
DISCO_3
 10
0
 20
0
 30
0
 70
128
 71
123
 72
124
 73
126
 74
125
 0
VERTEX
 8
DISCO_3
 10
0
 20
0
 30
0
 70
128
 71
125
 72
126
 73
128
 74
127
 0
VERTEX
 8
DISCO_3
 10
0
 20
0
 30
0
 70
128
 71
127
 72
128
 73
130
 74
129
 0
VERTEX
 8
DISCO_3
 10
0
 20
0
 30
0
 70
128
 71
129
 72
130
 73
132
 74
131
 0
VERTEX
 8
DISCO_3
 10
0
 20
0
 30
0
 70
128
 71
131
 72
132
 73
134
 74
133
 0
VERTEX
 8
DISCO_3
 10
0
 20
0
 30
0
 70
128
 71
133
 72
134
 73
136
 74
135
 0
VERTEX
 8
DISCO_3
 10
0
 20
0
 30
0
 70
128
 71
135
 72
136
 73
138
 74
137
 0
VERTEX
 8
DISCO_3
 10
0
 20
0
 30
0
 70
128
 71
137
 72
138
 73
140
 74
139
 0
VERTEX
 8
DISCO_3
 10
0
 20
0
 30
0
 70
128
 71
139
 72
140
 73
142
 74
141
 0
VERTEX
 8
DISCO_3
 10
0
 20
0
 30
0
 70
128
 71
141
 72
142
 73
144
 74
143
 0
VERTEX
 8
DISCO_3
 10
0
 20
0
 30
0
 70
128
 71
143
 72
144
 73
146
 74
145
 0
VERTEX
 8
DISCO_3
 10
0
 20
0
 30
0
 70
128
 71
145
 72
146
 73
148
 74
147
 0
VERTEX
 8
DISCO_3
 10
0
 20
0
 30
0
 70
128
 71
147
 72
148
 73
150
 74
149
 0
VERTEX
 8
DISCO_3
 10
0
 20
0
 30
0
 70
128
 71
149
 72
150
 73
152
 74
151
 0
VERTEX
 8
DISCO_3
 10
0
 20
0
 30
0
 70
128
 71
151
 72
152
 73
154
 74
153
 0
VERTEX
 8
DISCO_3
 10
0
 20
0
 30
0
 70
128
 71
153
 72
154
 73
156
 74
155
 0
VERTEX
 8
DISCO_3
 10
0
 20
0
 30
0
 70
128
 71
155
 72
156
 73
158
 74
157
 0
VERTEX
 8
DISCO_3
 10
0
 20
0
 30
0
 70
128
 71
157
 72
158
 73
160
 74
159
 0
VERTEX
 8
DISCO_3
 10
0
 20
0
 30
0
 70
128
 71
159
 72
160
 73
162
 74
161
 0
VERTEX
 8
DISCO_3
 10
0
 20
0
 30
0
 70
128
 71
161
 72
162
 73
164
 74
163
 0
VERTEX
 8
DISCO_3
 10
0
 20
0
 30
0
 70
128
 71
163
 72
164
 73
166
 74
165
 0
VERTEX
 8
DISCO_3
 10
0
 20
0
 30
0
 70
128
 71
165
 72
166
 73
168
 74
167
 0
VERTEX
 8
DISCO_3
 10
0
 20
0
 30
0
 70
128
 71
167
 72
168
 73
170
 74
169
 0
VERTEX
 8
DISCO_3
 10
0
 20
0
 30
0
 70
128
 71
169
 72
170
 73
172
 74
171
 0
VERTEX
 8
DISCO_3
 10
0
 20
0
 30
0
 70
128
 71
171
 72
172
 73
174
 74
173
 0
VERTEX
 8
DISCO_3
 10
0
 20
0
 30
0
 70
128
 71
173
 72
174
 73
176
 74
175
 0
VERTEX
 8
DISCO_3
 10
0
 20
0
 30
0
 70
128
 71
175
 72
176
 73
178
 74
177
 0
VERTEX
 8
DISCO_3
 10
0
 20
0
 30
0
 70
128
 71
177
 72
178
 73
180
 74
179
 0
VERTEX
 8
DISCO_3
 10
0
 20
0
 30
0
 70
128
 71
179
 72
180
 73
182
 74
181
 0
VERTEX
 8
DISCO_3
 10
0
 20
0
 30
0
 70
128
 71
181
 72
182
 73
184
 74
183
 0
VERTEX
 8
DISCO_3
 10
0
 20
0
 30
0
 70
128
 71
183
 72
184
 73
186
 74
185
 0
VERTEX
 8
DISCO_3
 10
0
 20
0
 30
0
 70
128
 71
185
 72
186
 73
188
 74
187
 0
VERTEX
 8
DISCO_3
 10
0
 20
0
 30
0
 70
128
 71
187
 72
188
 73
190
 74
189
 0
VERTEX
 8
DISCO_3
 10
0
 20
0
 30
0
 70
128
 71
189
 72
190
 73
192
 74
191
 0
VERTEX
 8
DISCO_3
 10
0
 20
0
 30
0
 70
128
 71
191
 72
192
 73
2
 74
1
 0
SEQEND
 0
POLYLINE
 8
DISCO_2
 66
1
 10
0.0
 20
0.0
 30
0.0
 70
64
 71
192
 72
96
 0
VERTEX
 8
DISCO_2
 10
10.4868
 20
-7.9588
 30
0.4513
 70
192
 0
VERTEX
 8
DISCO_2
 10
10.3865
 20
-7.9588
 30
0.4513
 70
192
 0
VERTEX
 8
DISCO_2
 10
10.4712
 20
-7.4831
 30
0.4513
 70
192
 0
VERTEX
 8
DISCO_2
 10
10.3711
 20
-7.4897
 30
0.4513
 70
192
 0
VERTEX
 8
DISCO_2
 10
10.4246
 20
-7.0095
 30
0.4513
 70
192
 0
VERTEX
 8
DISCO_2
 10
10.3251
 20
-7.0225
 30
0.4513
 70
192
 0
VERTEX
 8
DISCO_2
 10
10.347
 20
-6.5399
 30
0.4513
 70
192
 0
VERTEX
 8
DISCO_2
 10
10.2487
 20
-6.5594
 30
0.4513
 70
192
 0
VERTEX
 8
DISCO_2
 10
10.239
 20
-6.0763
 30
0.4513
 70
192
 0
VERTEX
 8
DISCO_2
 10
10.1421
 20
-6.1023
 30
0.4513
 70
192
 0
VERTEX
 8
DISCO_2
 10
10.1008
 20
-5.6209
 30
0.4513
 70
192
 0
VERTEX
 8
DISCO_2
 10
10.0058
 20
-5.6531
 30
0.4513
 70
192
 0
VERTEX
 8
DISCO_2
 10
9.9331
 20
-5.1754
 30
0.4513
 70
192
 0
VERTEX
 8
DISCO_2
 10
9.8405
 20
-5.2138
 30
0.4513
 70
192
 0
VERTEX
 8
DISCO_2
 10
9.7367
 20
-4.7419
 30
0.4513
 70
192
 0
VERTEX
 8
DISCO_2
 10
9.6468
 20
-4.7863
 30
0.4513
 70
192
 0
VERTEX
 8
DISCO_2
 10
9.5123
 20
-4.3222
 30
0.4513
 70
192
 0
VERTEX
 8
DISCO_2
 10
9.4255
 20
-4.3723
 30
0.4513
 70
192
 0
VERTEX
 8
DISCO_2
 10
9.261
 20
-3.918
 30
0.4513
 70
192
 0
VERTEX
 8
DISCO_2
 10
9.1776
 20
-3.9737
 30
0.4513
 70
192
 0
VERTEX
 8
DISCO_2
 10
8.9838
 20
-3.5311
 30
0.4513
 70
192
 0
VERTEX
 8
DISCO_2
 10
8.9042
 20
-3.5922
 30
0.4513
 70
192
 0
VERTEX
 8
DISCO_2
 10
8.6818
 20
-3.1632
 30
0.4513
 70
192
 0
VERTEX
 8
DISCO_2
 10
8.6064
 20
-3.2293
 30
0.4513
 70
192
 0
VERTEX
 8
DISCO_2
 10
8.3565
 20
-2.8158
 30
0.4513
 70
192
 0
VERTEX
 8
DISCO_2
 10
8.2856
 20
-2.8867
 30
0.4513
 70
192
 0
VERTEX
 8
DISCO_2
 10
8.0091
 20
-2.4905
 30
0.4513
 70
192
 0
VERTEX
 8
DISCO_2
 10
7.943
 20
-2.5659
 30
0.4513
 70
192
 0
VERTEX
 8
DISCO_2
 10
7.6412
 20
-2.1885
 30
0.4513
 70
192
 0
VERTEX
 8
DISCO_2
 10
7.5801
 20
-2.2681
 30
0.4513
 70
192
 0
VERTEX
 8
DISCO_2
 10
7.2543
 20
-1.9113
 30
0.4513
 70
192
 0
VERTEX
 8
DISCO_2
 10
7.1986
 20
-1.9947
 30
0.4513
 70
192
 0
VERTEX
 8
DISCO_2
 10
6.8501
 20
-1.66
 30
0.4513
 70
192
 0
VERTEX
 8
DISCO_2
 10
6.8
 20
-1.7468
 30
0.4513
 70
192
 0
VERTEX
 8
DISCO_2
 10
6.4304
 20
-1.4356
 30
0.4513
 70
192
 0
VERTEX
 8
DISCO_2
 10
6.386
 20
-1.5255
 30
0.4513
 70
192
 0
VERTEX
 8
DISCO_2
 10
5.9969
 20
-1.2392
 30
0.4513
 70
192
 0
VERTEX
 8
DISCO_2
 10
5.9585
 20
-1.3318
 30
0.4513
 70
192
 0
VERTEX
 8
DISCO_2
 10
5.5514
 20
-1.0715
 30
0.4513
 70
192
 0
VERTEX
 8
DISCO_2
 10
5.5192
 20
-1.1665
 30
0.4513
 70
192
 0
VERTEX
 8
DISCO_2
 10
5.096
 20
-0.9334
 30
0.4513
 70
192
 0
VERTEX
 8
DISCO_2
 10
5.07
 20
-1.0302
 30
0.4513
 70
192
 0
VERTEX
 8
DISCO_2
 10
4.6324
 20
-0.8253
 30
0.4513
 70
192
 0
VERTEX
 8
DISCO_2
 10
4.6129
 20
-0.9236
 30
0.4513
 70
192
 0
VERTEX
 8
DISCO_2
 10
4.1629
 20
-0.7477
 30
0.4513
 70
192
 0
VERTEX
 8
DISCO_2
 10
4.1498
 20
-0.8472
 30
0.4513
 70
192
 0
VERTEX
 8
DISCO_2
 10
3.6892
 20
-0.7011
 30
0.4513
 70
192
 0
VERTEX
 8
DISCO_2
 10
3.6826
 20
-0.8012
 30
0.4513
 70
192
 0
VERTEX
 8
DISCO_2
 10
3.2135
 20
-0.6855
 30
0.4513
 70
192
 0
VERTEX
 8
DISCO_2
 10
3.2135
 20
-0.7858
 30
0.4513
 70
192
 0
VERTEX
 8
DISCO_2
 10
2.7378
 20
-0.7011
 30
0.4513
 70
192
 0
VERTEX
 8
DISCO_2
 10
2.7444
 20
-0.8012
 30
0.4513
 70
192
 0
VERTEX
 8
DISCO_2
 10
2.2641
 20
-0.7477
 30
0.4513
 70
192
 0
VERTEX
 8
DISCO_2
 10
2.2772
 20
-0.8472
 30
0.4513
 70
192
 0
VERTEX
 8
DISCO_2
 10
1.7946
 20
-0.8253
 30
0.4513
 70
192
 0
VERTEX
 8
DISCO_2
 10
1.8141
 20
-0.9236
 30
0.4513
 70
192
 0
VERTEX
 8
DISCO_2
 10
1.331
 20
-0.9334
 30
0.4513
 70
192
 0
VERTEX
 8
DISCO_2
 10
1.357
 20
-1.0302
 30
0.4513
 70
192
 0
VERTEX
 8
DISCO_2
 10
0.8756
 20
-1.0715
 30
0.4513
 70
192
 0
VERTEX
 8
DISCO_2
 10
0.9078
 20
-1.1665
 30
0.4513
 70
192
 0
VERTEX
 8
DISCO_2
 10
0.4301
 20
-1.2392
 30
0.4513
 70
192
 0
VERTEX
 8
DISCO_2
 10
0.4685
 20
-1.3318
 30
0.4513
 70
192
 0
VERTEX
 8
DISCO_2
 10
-0.0034
 20
-1.4356
 30
0.4513
 70
192
 0
VERTEX
 8
DISCO_2
 10
0.041
 20
-1.5255
 30
0.4513
 70
192
 0
VERTEX
 8
DISCO_2
 10
-0.4231
 20
-1.66
 30
0.4513
 70
192
 0
VERTEX
 8
DISCO_2
 10
-0.373
 20
-1.7468
 30
0.4513
 70
192
 0
VERTEX
 8
DISCO_2
 10
-0.8273
 20
-1.9113
 30
0.4513
 70
192
 0
VERTEX
 8
DISCO_2
 10
-0.7716
 20
-1.9947
 30
0.4513
 70
192
 0
VERTEX
 8
DISCO_2
 10
-1.2142
 20
-2.1885
 30
0.4513
 70
192
 0
VERTEX
 8
DISCO_2
 10
-1.1531
 20
-2.2681
 30
0.4513
 70
192
 0
VERTEX
 8
DISCO_2
 10
-1.5821
 20
-2.4905
 30
0.4513
 70
192
 0
VERTEX
 8
DISCO_2
 10
-1.516
 20
-2.5659
 30
0.4513
 70
192
 0
VERTEX
 8
DISCO_2
 10
-1.9295
 20
-2.8158
 30
0.4513
 70
192
 0
VERTEX
 8
DISCO_2
 10
-1.8586
 20
-2.8867
 30
0.4513
 70
192
 0
VERTEX
 8
DISCO_2
 10
-2.2548
 20
-3.1632
 30
0.4513
 70
192
 0
VERTEX
 8
DISCO_2
 10
-2.1794
 20
-3.2293
 30
0.4513
 70
192
 0
VERTEX
 8
DISCO_2
 10
-2.5568
 20
-3.5311
 30
0.4513
 70
192
 0
VERTEX
 8
DISCO_2
 10
-2.4772
 20
-3.5922
 30
0.4513
 70
192
 0
VERTEX
 8
DISCO_2
 10
-2.834
 20
-3.918
 30
0.4513
 70
192
 0
VERTEX
 8
DISCO_2
 10
-2.7506
 20
-3.9737
 30
0.4513
 70
192
 0
VERTEX
 8
DISCO_2
 10
-3.0853
 20
-4.3222
 30
0.4513
 70
192
 0
VERTEX
 8
DISCO_2
 10
-2.9985
 20
-4.3723
 30
0.4513
 70
192
 0
VERTEX
 8
DISCO_2
 10
-3.3097
 20
-4.7419
 30
0.4513
 70
192
 0
VERTEX
 8
DISCO_2
 10
-3.2198
 20
-4.7863
 30
0.4513
 70
192
 0
VERTEX
 8
DISCO_2
 10
-3.5061
 20
-5.1754
 30
0.4513
 70
192
 0
VERTEX
 8
DISCO_2
 10
-3.4135
 20
-5.2138
 30
0.4513
 70
192
 0
VERTEX
 8
DISCO_2
 10
-3.6738
 20
-5.6209
 30
0.4513
 70
192
 0
VERTEX
 8
DISCO_2
 10
-3.5788
 20
-5.6531
 30
0.4513
 70
192
 0
VERTEX
 8
DISCO_2
 10
-3.812
 20
-6.0763
 30
0.4513
 70
192
 0
VERTEX
 8
DISCO_2
 10
-3.7151
 20
-6.1023
 30
0.4513
 70
192
 0
VERTEX
 8
DISCO_2
 10
-3.92
 20
-6.5399
 30
0.4513
 70
192
 0
VERTEX
 8
DISCO_2
 10
-3.8217
 20
-6.5594
 30
0.4513
 70
192
 0
VERTEX
 8
DISCO_2
 10
-3.9976
 20
-7.0095
 30
0.4513
 70
192
 0
VERTEX
 8
DISCO_2
 10
-3.8981
 20
-7.0225
 30
0.4513
 70
192
 0
VERTEX
 8
DISCO_2
 10
-4.0442
 20
-7.4831
 30
0.4513
 70
192
 0
VERTEX
 8
DISCO_2
 10
-3.9441
 20
-7.4897
 30
0.4513
 70
192
 0
VERTEX
 8
DISCO_2
 10
-4.0598
 20
-7.9588
 30
0.4513
 70
192
 0
VERTEX
 8
DISCO_2
 10
-3.9595
 20
-7.9588
 30
0.4513
 70
192
 0
VERTEX
 8
DISCO_2
 10
-4.0442
 20
-8.4345
 30
0.4513
 70
192
 0
VERTEX
 8
DISCO_2
 10
-3.9441
 20
-8.4279
 30
0.4513
 70
192
 0
VERTEX
 8
DISCO_2
 10
-3.9976
 20
-8.9082
 30
0.4513
 70
192
 0
VERTEX
 8
DISCO_2
 10
-3.8981
 20
-8.8951
 30
0.4513
 70
192
 0
VERTEX
 8
DISCO_2
 10
-3.92
 20
-9.3778
 30
0.4513
 70
192
 0
VERTEX
 8
DISCO_2
 10
-3.8217
 20
-9.3582
 30
0.4513
 70
192
 0
VERTEX
 8
DISCO_2
 10
-3.812
 20
-9.8413
 30
0.4513
 70
192
 0
VERTEX
 8
DISCO_2
 10
-3.7151
 20
-9.8153
 30
0.4513
 70
192
 0
VERTEX
 8
DISCO_2
 10
-3.6738
 20
-10.2967
 30
0.4513
 70
192
 0
VERTEX
 8
DISCO_2
 10
-3.5788
 20
-10.2645
 30
0.4513
 70
192
 0
VERTEX
 8
DISCO_2
 10
-3.5061
 20
-10.7422
 30
0.4513
 70
192
 0
VERTEX
 8
DISCO_2
 10
-3.4135
 20
-10.7038
 30
0.4513
 70
192
 0
VERTEX
 8
DISCO_2
 10
-3.3097
 20
-11.1757
 30
0.4513
 70
192
 0
VERTEX
 8
DISCO_2
 10
-3.2198
 20
-11.1313
 30
0.4513
 70
192
 0
VERTEX
 8
DISCO_2
 10
-3.0853
 20
-11.5954
 30
0.4513
 70
192
 0
VERTEX
 8
DISCO_2
 10
-2.9985
 20
-11.5453
 30
0.4513
 70
192
 0
VERTEX
 8
DISCO_2
 10
-2.834
 20
-11.9996
 30
0.4513
 70
192
 0
VERTEX
 8
DISCO_2
 10
-2.7506
 20
-11.9439
 30
0.4513
 70
192
 0
VERTEX
 8
DISCO_2
 10
-2.5568
 20
-12.3865
 30
0.4513
 70
192
 0
VERTEX
 8
DISCO_2
 10
-2.4772
 20
-12.3255
 30
0.4513
 70
192
 0
VERTEX
 8
DISCO_2
 10
-2.2548
 20
-12.7544
 30
0.4513
 70
192
 0
VERTEX
 8
DISCO_2
 10
-2.1794
 20
-12.6883
 30
0.4513
 70
192
 0
VERTEX
 8
DISCO_2
 10
-1.9295
 20
-13.1018
 30
0.4513
 70
192
 0
VERTEX
 8
DISCO_2
 10
-1.8586
 20
-13.0309
 30
0.4513
 70
192
 0
VERTEX
 8
DISCO_2
 10
-1.5821
 20
-13.4271
 30
0.4513
 70
192
 0
VERTEX
 8
DISCO_2
 10
-1.516
 20
-13.3518
 30
0.4513
 70
192
 0
VERTEX
 8
DISCO_2
 10
-1.2142
 20
-13.7291
 30
0.4513
 70
192
 0
VERTEX
 8
DISCO_2
 10
-1.1531
 20
-13.6495
 30
0.4513
 70
192
 0
VERTEX
 8
DISCO_2
 10
-0.8273
 20
-14.0063
 30
0.4513
 70
192
 0
VERTEX
 8
DISCO_2
 10
-0.7716
 20
-13.9229
 30
0.4513
 70
192
 0
VERTEX
 8
DISCO_2
 10
-0.4231
 20
-14.2577
 30
0.4513
 70
192
 0
VERTEX
 8
DISCO_2
 10
-0.373
 20
-14.1708
 30
0.4513
 70
192
 0
VERTEX
 8
DISCO_2
 10
-0.0034
 20
-14.482
 30
0.4513
 70
192
 0
VERTEX
 8
DISCO_2
 10
0.041
 20
-14.3921
 30
0.4513
 70
192
 0
VERTEX
 8
DISCO_2
 10
0.4301
 20
-14.6784
 30
0.4513
 70
192
 0
VERTEX
 8
DISCO_2
 10
0.4685
 20
-14.5858
 30
0.4513
 70
192
 0
VERTEX
 8
DISCO_2
 10
0.8756
 20
-14.8461
 30
0.4513
 70
192
 0
VERTEX
 8
DISCO_2
 10
0.9078
 20
-14.7511
 30
0.4513
 70
192
 0
VERTEX
 8
DISCO_2
 10
1.331
 20
-14.9843
 30
0.4513
 70
192
 0
VERTEX
 8
DISCO_2
 10
1.357
 20
-14.8874
 30
0.4513
 70
192
 0
VERTEX
 8
DISCO_2
 10
1.7946
 20
-15.0923
 30
0.4513
 70
192
 0
VERTEX
 8
DISCO_2
 10
1.8141
 20
-14.994
 30
0.4513
 70
192
 0
VERTEX
 8
DISCO_2
 10
2.2641
 20
-15.1699
 30
0.4513
 70
192
 0
VERTEX
 8
DISCO_2
 10
2.2772
 20
-15.0704
 30
0.4513
 70
192
 0
VERTEX
 8
DISCO_2
 10
2.7378
 20
-15.2165
 30
0.4513
 70
192
 0
VERTEX
 8
DISCO_2
 10
2.7444
 20
-15.1164
 30
0.4513
 70
192
 0
VERTEX
 8
DISCO_2
 10
3.2135
 20
-15.2321
 30
0.4513
 70
192
 0
VERTEX
 8
DISCO_2
 10
3.2135
 20
-15.1318
 30
0.4513
 70
192
 0
VERTEX
 8
DISCO_2
 10
3.6892
 20
-15.2165
 30
0.4513
 70
192
 0
VERTEX
 8
DISCO_2
 10
3.6826
 20
-15.1164
 30
0.4513
 70
192
 0
VERTEX
 8
DISCO_2
 10
4.1629
 20
-15.1699
 30
0.4513
 70
192
 0
VERTEX
 8
DISCO_2
 10
4.1498
 20
-15.0704
 30
0.4513
 70
192
 0
VERTEX
 8
DISCO_2
 10
4.6324
 20
-15.0923
 30
0.4513
 70
192
 0
VERTEX
 8
DISCO_2
 10
4.6129
 20
-14.994
 30
0.4513
 70
192
 0
VERTEX
 8
DISCO_2
 10
5.096
 20
-14.9843
 30
0.4513
 70
192
 0
VERTEX
 8
DISCO_2
 10
5.07
 20
-14.8874
 30
0.4513
 70
192
 0
VERTEX
 8
DISCO_2
 10
5.5514
 20
-14.8461
 30
0.4513
 70
192
 0
VERTEX
 8
DISCO_2
 10
5.5192
 20
-14.7511
 30
0.4513
 70
192
 0
VERTEX
 8
DISCO_2
 10
5.9969
 20
-14.6784
 30
0.4513
 70
192
 0
VERTEX
 8
DISCO_2
 10
5.9585
 20
-14.5858
 30
0.4513
 70
192
 0
VERTEX
 8
DISCO_2
 10
6.4304
 20
-14.482
 30
0.4513
 70
192
 0
VERTEX
 8
DISCO_2
 10
6.386
 20
-14.3921
 30
0.4513
 70
192
 0
VERTEX
 8
DISCO_2
 10
6.8501
 20
-14.2577
 30
0.4513
 70
192
 0
VERTEX
 8
DISCO_2
 10
6.8
 20
-14.1708
 30
0.4513
 70
192
 0
VERTEX
 8
DISCO_2
 10
7.2543
 20
-14.0063
 30
0.4513
 70
192
 0
VERTEX
 8
DISCO_2
 10
7.1986
 20
-13.9229
 30
0.4513
 70
192
 0
VERTEX
 8
DISCO_2
 10
7.6412
 20
-13.7291
 30
0.4513
 70
192
 0
VERTEX
 8
DISCO_2
 10
7.5801
 20
-13.6495
 30
0.4513
 70
192
 0
VERTEX
 8
DISCO_2
 10
8.0091
 20
-13.4271
 30
0.4513
 70
192
 0
VERTEX
 8
DISCO_2
 10
7.943
 20
-13.3518
 30
0.4513
 70
192
 0
VERTEX
 8
DISCO_2
 10
8.3565
 20
-13.1018
 30
0.4513
 70
192
 0
VERTEX
 8
DISCO_2
 10
8.2856
 20
-13.0309
 30
0.4513
 70
192
 0
VERTEX
 8
DISCO_2
 10
8.6818
 20
-12.7544
 30
0.4513
 70
192
 0
VERTEX
 8
DISCO_2
 10
8.6064
 20
-12.6883
 30
0.4513
 70
192
 0
VERTEX
 8
DISCO_2
 10
8.9838
 20
-12.3865
 30
0.4513
 70
192
 0
VERTEX
 8
DISCO_2
 10
8.9042
 20
-12.3255
 30
0.4513
 70
192
 0
VERTEX
 8
DISCO_2
 10
9.261
 20
-11.9996
 30
0.4513
 70
192
 0
VERTEX
 8
DISCO_2
 10
9.1776
 20
-11.9439
 30
0.4513
 70
192
 0
VERTEX
 8
DISCO_2
 10
9.5123
 20
-11.5954
 30
0.4513
 70
192
 0
VERTEX
 8
DISCO_2
 10
9.4255
 20
-11.5453
 30
0.4513
 70
192
 0
VERTEX
 8
DISCO_2
 10
9.7367
 20
-11.1757
 30
0.4513
 70
192
 0
VERTEX
 8
DISCO_2
 10
9.6468
 20
-11.1313
 30
0.4513
 70
192
 0
VERTEX
 8
DISCO_2
 10
9.9331
 20
-10.7422
 30
0.4513
 70
192
 0
VERTEX
 8
DISCO_2
 10
9.8405
 20
-10.7038
 30
0.4513
 70
192
 0
VERTEX
 8
DISCO_2
 10
10.1008
 20
-10.2967
 30
0.4513
 70
192
 0
VERTEX
 8
DISCO_2
 10
10.0058
 20
-10.2645
 30
0.4513
 70
192
 0
VERTEX
 8
DISCO_2
 10
10.239
 20
-9.8413
 30
0.4513
 70
192
 0
VERTEX
 8
DISCO_2
 10
10.1421
 20
-9.8153
 30
0.4513
 70
192
 0
VERTEX
 8
DISCO_2
 10
10.347
 20
-9.3778
 30
0.4513
 70
192
 0
VERTEX
 8
DISCO_2
 10
10.2487
 20
-9.3582
 30
0.4513
 70
192
 0
VERTEX
 8
DISCO_2
 10
10.4246
 20
-8.9082
 30
0.4513
 70
192
 0
VERTEX
 8
DISCO_2
 10
10.3251
 20
-8.8951
 30
0.4513
 70
192
 0
VERTEX
 8
DISCO_2
 10
10.4712
 20
-8.4345
 30
0.4513
 70
192
 0
VERTEX
 8
DISCO_2
 10
10.3711
 20
-8.4279
 30
0.4513
 70
192
 0
VERTEX
 8
DISCO_2
 10
0
 20
0
 30
0
 70
128
 71
1
 72
2
 73
4
 74
3
 0
VERTEX
 8
DISCO_2
 10
0
 20
0
 30
0
 70
128
 71
3
 72
4
 73
6
 74
5
 0
VERTEX
 8
DISCO_2
 10
0
 20
0
 30
0
 70
128
 71
5
 72
6
 73
8
 74
7
 0
VERTEX
 8
DISCO_2
 10
0
 20
0
 30
0
 70
128
 71
7
 72
8
 73
10
 74
9
 0
VERTEX
 8
DISCO_2
 10
0
 20
0
 30
0
 70
128
 71
9
 72
10
 73
12
 74
11
 0
VERTEX
 8
DISCO_2
 10
0
 20
0
 30
0
 70
128
 71
11
 72
12
 73
14
 74
13
 0
VERTEX
 8
DISCO_2
 10
0
 20
0
 30
0
 70
128
 71
13
 72
14
 73
16
 74
15
 0
VERTEX
 8
DISCO_2
 10
0
 20
0
 30
0
 70
128
 71
15
 72
16
 73
18
 74
17
 0
VERTEX
 8
DISCO_2
 10
0
 20
0
 30
0
 70
128
 71
17
 72
18
 73
20
 74
19
 0
VERTEX
 8
DISCO_2
 10
0
 20
0
 30
0
 70
128
 71
19
 72
20
 73
22
 74
21
 0
VERTEX
 8
DISCO_2
 10
0
 20
0
 30
0
 70
128
 71
21
 72
22
 73
24
 74
23
 0
VERTEX
 8
DISCO_2
 10
0
 20
0
 30
0
 70
128
 71
23
 72
24
 73
26
 74
25
 0
VERTEX
 8
DISCO_2
 10
0
 20
0
 30
0
 70
128
 71
25
 72
26
 73
28
 74
27
 0
VERTEX
 8
DISCO_2
 10
0
 20
0
 30
0
 70
128
 71
27
 72
28
 73
30
 74
29
 0
VERTEX
 8
DISCO_2
 10
0
 20
0
 30
0
 70
128
 71
29
 72
30
 73
32
 74
31
 0
VERTEX
 8
DISCO_2
 10
0
 20
0
 30
0
 70
128
 71
31
 72
32
 73
34
 74
33
 0
VERTEX
 8
DISCO_2
 10
0
 20
0
 30
0
 70
128
 71
33
 72
34
 73
36
 74
35
 0
VERTEX
 8
DISCO_2
 10
0
 20
0
 30
0
 70
128
 71
35
 72
36
 73
38
 74
37
 0
VERTEX
 8
DISCO_2
 10
0
 20
0
 30
0
 70
128
 71
37
 72
38
 73
40
 74
39
 0
VERTEX
 8
DISCO_2
 10
0
 20
0
 30
0
 70
128
 71
39
 72
40
 73
42
 74
41
 0
VERTEX
 8
DISCO_2
 10
0
 20
0
 30
0
 70
128
 71
41
 72
42
 73
44
 74
43
 0
VERTEX
 8
DISCO_2
 10
0
 20
0
 30
0
 70
128
 71
43
 72
44
 73
46
 74
45
 0
VERTEX
 8
DISCO_2
 10
0
 20
0
 30
0
 70
128
 71
45
 72
46
 73
48
 74
47
 0
VERTEX
 8
DISCO_2
 10
0
 20
0
 30
0
 70
128
 71
47
 72
48
 73
50
 74
49
 0
VERTEX
 8
DISCO_2
 10
0
 20
0
 30
0
 70
128
 71
49
 72
50
 73
52
 74
51
 0
VERTEX
 8
DISCO_2
 10
0
 20
0
 30
0
 70
128
 71
51
 72
52
 73
54
 74
53
 0
VERTEX
 8
DISCO_2
 10
0
 20
0
 30
0
 70
128
 71
53
 72
54
 73
56
 74
55
 0
VERTEX
 8
DISCO_2
 10
0
 20
0
 30
0
 70
128
 71
55
 72
56
 73
58
 74
57
 0
VERTEX
 8
DISCO_2
 10
0
 20
0
 30
0
 70
128
 71
57
 72
58
 73
60
 74
59
 0
VERTEX
 8
DISCO_2
 10
0
 20
0
 30
0
 70
128
 71
59
 72
60
 73
62
 74
61
 0
VERTEX
 8
DISCO_2
 10
0
 20
0
 30
0
 70
128
 71
61
 72
62
 73
64
 74
63
 0
VERTEX
 8
DISCO_2
 10
0
 20
0
 30
0
 70
128
 71
63
 72
64
 73
66
 74
65
 0
VERTEX
 8
DISCO_2
 10
0
 20
0
 30
0
 70
128
 71
65
 72
66
 73
68
 74
67
 0
VERTEX
 8
DISCO_2
 10
0
 20
0
 30
0
 70
128
 71
67
 72
68
 73
70
 74
69
 0
VERTEX
 8
DISCO_2
 10
0
 20
0
 30
0
 70
128
 71
69
 72
70
 73
72
 74
71
 0
VERTEX
 8
DISCO_2
 10
0
 20
0
 30
0
 70
128
 71
71
 72
72
 73
74
 74
73
 0
VERTEX
 8
DISCO_2
 10
0
 20
0
 30
0
 70
128
 71
73
 72
74
 73
76
 74
75
 0
VERTEX
 8
DISCO_2
 10
0
 20
0
 30
0
 70
128
 71
75
 72
76
 73
78
 74
77
 0
VERTEX
 8
DISCO_2
 10
0
 20
0
 30
0
 70
128
 71
77
 72
78
 73
80
 74
79
 0
VERTEX
 8
DISCO_2
 10
0
 20
0
 30
0
 70
128
 71
79
 72
80
 73
82
 74
81
 0
VERTEX
 8
DISCO_2
 10
0
 20
0
 30
0
 70
128
 71
81
 72
82
 73
84
 74
83
 0
VERTEX
 8
DISCO_2
 10
0
 20
0
 30
0
 70
128
 71
83
 72
84
 73
86
 74
85
 0
VERTEX
 8
DISCO_2
 10
0
 20
0
 30
0
 70
128
 71
85
 72
86
 73
88
 74
87
 0
VERTEX
 8
DISCO_2
 10
0
 20
0
 30
0
 70
128
 71
87
 72
88
 73
90
 74
89
 0
VERTEX
 8
DISCO_2
 10
0
 20
0
 30
0
 70
128
 71
89
 72
90
 73
92
 74
91
 0
VERTEX
 8
DISCO_2
 10
0
 20
0
 30
0
 70
128
 71
91
 72
92
 73
94
 74
93
 0
VERTEX
 8
DISCO_2
 10
0
 20
0
 30
0
 70
128
 71
93
 72
94
 73
96
 74
95
 0
VERTEX
 8
DISCO_2
 10
0
 20
0
 30
0
 70
128
 71
95
 72
96
 73
98
 74
97
 0
VERTEX
 8
DISCO_2
 10
0
 20
0
 30
0
 70
128
 71
97
 72
98
 73
100
 74
99
 0
VERTEX
 8
DISCO_2
 10
0
 20
0
 30
0
 70
128
 71
99
 72
100
 73
102
 74
101
 0
VERTEX
 8
DISCO_2
 10
0
 20
0
 30
0
 70
128
 71
101
 72
102
 73
104
 74
103
 0
VERTEX
 8
DISCO_2
 10
0
 20
0
 30
0
 70
128
 71
103
 72
104
 73
106
 74
105
 0
VERTEX
 8
DISCO_2
 10
0
 20
0
 30
0
 70
128
 71
105
 72
106
 73
108
 74
107
 0
VERTEX
 8
DISCO_2
 10
0
 20
0
 30
0
 70
128
 71
107
 72
108
 73
110
 74
109
 0
VERTEX
 8
DISCO_2
 10
0
 20
0
 30
0
 70
128
 71
109
 72
110
 73
112
 74
111
 0
VERTEX
 8
DISCO_2
 10
0
 20
0
 30
0
 70
128
 71
111
 72
112
 73
114
 74
113
 0
VERTEX
 8
DISCO_2
 10
0
 20
0
 30
0
 70
128
 71
113
 72
114
 73
116
 74
115
 0
VERTEX
 8
DISCO_2
 10
0
 20
0
 30
0
 70
128
 71
115
 72
116
 73
118
 74
117
 0
VERTEX
 8
DISCO_2
 10
0
 20
0
 30
0
 70
128
 71
117
 72
118
 73
120
 74
119
 0
VERTEX
 8
DISCO_2
 10
0
 20
0
 30
0
 70
128
 71
119
 72
120
 73
122
 74
121
 0
VERTEX
 8
DISCO_2
 10
0
 20
0
 30
0
 70
128
 71
121
 72
122
 73
124
 74
123
 0
VERTEX
 8
DISCO_2
 10
0
 20
0
 30
0
 70
128
 71
123
 72
124
 73
126
 74
125
 0
VERTEX
 8
DISCO_2
 10
0
 20
0
 30
0
 70
128
 71
125
 72
126
 73
128
 74
127
 0
VERTEX
 8
DISCO_2
 10
0
 20
0
 30
0
 70
128
 71
127
 72
128
 73
130
 74
129
 0
VERTEX
 8
DISCO_2
 10
0
 20
0
 30
0
 70
128
 71
129
 72
130
 73
132
 74
131
 0
VERTEX
 8
DISCO_2
 10
0
 20
0
 30
0
 70
128
 71
131
 72
132
 73
134
 74
133
 0
VERTEX
 8
DISCO_2
 10
0
 20
0
 30
0
 70
128
 71
133
 72
134
 73
136
 74
135
 0
VERTEX
 8
DISCO_2
 10
0
 20
0
 30
0
 70
128
 71
135
 72
136
 73
138
 74
137
 0
VERTEX
 8
DISCO_2
 10
0
 20
0
 30
0
 70
128
 71
137
 72
138
 73
140
 74
139
 0
VERTEX
 8
DISCO_2
 10
0
 20
0
 30
0
 70
128
 71
139
 72
140
 73
142
 74
141
 0
VERTEX
 8
DISCO_2
 10
0
 20
0
 30
0
 70
128
 71
141
 72
142
 73
144
 74
143
 0
VERTEX
 8
DISCO_2
 10
0
 20
0
 30
0
 70
128
 71
143
 72
144
 73
146
 74
145
 0
VERTEX
 8
DISCO_2
 10
0
 20
0
 30
0
 70
128
 71
145
 72
146
 73
148
 74
147
 0
VERTEX
 8
DISCO_2
 10
0
 20
0
 30
0
 70
128
 71
147
 72
148
 73
150
 74
149
 0
VERTEX
 8
DISCO_2
 10
0
 20
0
 30
0
 70
128
 71
149
 72
150
 73
152
 74
151
 0
VERTEX
 8
DISCO_2
 10
0
 20
0
 30
0
 70
128
 71
151
 72
152
 73
154
 74
153
 0
VERTEX
 8
DISCO_2
 10
0
 20
0
 30
0
 70
128
 71
153
 72
154
 73
156
 74
155
 0
VERTEX
 8
DISCO_2
 10
0
 20
0
 30
0
 70
128
 71
155
 72
156
 73
158
 74
157
 0
VERTEX
 8
DISCO_2
 10
0
 20
0
 30
0
 70
128
 71
157
 72
158
 73
160
 74
159
 0
VERTEX
 8
DISCO_2
 10
0
 20
0
 30
0
 70
128
 71
159
 72
160
 73
162
 74
161
 0
VERTEX
 8
DISCO_2
 10
0
 20
0
 30
0
 70
128
 71
161
 72
162
 73
164
 74
163
 0
VERTEX
 8
DISCO_2
 10
0
 20
0
 30
0
 70
128
 71
163
 72
164
 73
166
 74
165
 0
VERTEX
 8
DISCO_2
 10
0
 20
0
 30
0
 70
128
 71
165
 72
166
 73
168
 74
167
 0
VERTEX
 8
DISCO_2
 10
0
 20
0
 30
0
 70
128
 71
167
 72
168
 73
170
 74
169
 0
VERTEX
 8
DISCO_2
 10
0
 20
0
 30
0
 70
128
 71
169
 72
170
 73
172
 74
171
 0
VERTEX
 8
DISCO_2
 10
0
 20
0
 30
0
 70
128
 71
171
 72
172
 73
174
 74
173
 0
VERTEX
 8
DISCO_2
 10
0
 20
0
 30
0
 70
128
 71
173
 72
174
 73
176
 74
175
 0
VERTEX
 8
DISCO_2
 10
0
 20
0
 30
0
 70
128
 71
175
 72
176
 73
178
 74
177
 0
VERTEX
 8
DISCO_2
 10
0
 20
0
 30
0
 70
128
 71
177
 72
178
 73
180
 74
179
 0
VERTEX
 8
DISCO_2
 10
0
 20
0
 30
0
 70
128
 71
179
 72
180
 73
182
 74
181
 0
VERTEX
 8
DISCO_2
 10
0
 20
0
 30
0
 70
128
 71
181
 72
182
 73
184
 74
183
 0
VERTEX
 8
DISCO_2
 10
0
 20
0
 30
0
 70
128
 71
183
 72
184
 73
186
 74
185
 0
VERTEX
 8
DISCO_2
 10
0
 20
0
 30
0
 70
128
 71
185
 72
186
 73
188
 74
187
 0
VERTEX
 8
DISCO_2
 10
0
 20
0
 30
0
 70
128
 71
187
 72
188
 73
190
 74
189
 0
VERTEX
 8
DISCO_2
 10
0
 20
0
 30
0
 70
128
 71
189
 72
190
 73
192
 74
191
 0
VERTEX
 8
DISCO_2
 10
0
 20
0
 30
0
 70
128
 71
191
 72
192
 73
2
 74
1
 0
SEQEND
 0
POLYLINE
 8
DISCO_1
 66
1
 10
0.0
 20
0.0
 30
0.0
 70
64
 71
192
 72
96
 0
VERTEX
 8
DISCO_1
 10
12.2564
 20
12.3257
 30
0.4513
 70
192
 0
VERTEX
 8
DISCO_1
 10
12.156
 20
12.3257
 30
0.4513
 70
192
 0
VERTEX
 8
DISCO_1
 10
12.237
 20
12.9179
 30
0.4513
 70
192
 0
VERTEX
 8
DISCO_1
 10
12.1368
 20
12.9113
 30
0.4513
 70
192
 0
VERTEX
 8
DISCO_1
 10
12.1789
 20
13.5075
 30
0.4513
 70
192
 0
VERTEX
 8
DISCO_1
 10
12.0794
 20
13.4944
 30
0.4513
 70
192
 0
VERTEX
 8
DISCO_1
 10
12.0824
 20
14.0921
 30
0.4513
 70
192
 0
VERTEX
 8
DISCO_1
 10
11.9839
 20
14.0725
 30
0.4513
 70
192
 0
VERTEX
 8
DISCO_1
 10
11.9479
 20
14.6691
 30
0.4513
 70
192
 0
VERTEX
 8
DISCO_1
 10
11.8509
 20
14.6431
 30
0.4513
 70
192
 0
VERTEX
 8
DISCO_1
 10
11.7759
 20
15.2361
 30
0.4513
 70
192
 0
VERTEX
 8
DISCO_1
 10
11.6808
 20
15.2038
 30
0.4513
 70
192
 0
VERTEX
 8
DISCO_1
 10
11.5672
 20
15.7907
 30
0.4513
 70
192
 0
VERTEX
 8
DISCO_1
 10
11.4744
 20
15.7522
 30
0.4513
 70
192
 0
VERTEX
 8
DISCO_1
 10
11.3226
 20
16.3304
 30
0.4513
 70
192
 0
VERTEX
 8
DISCO_1
 10
11.2326
 20
16.2859
 30
0.4513
 70
192
 0
VERTEX
 8
DISCO_1
 10
11.0433
 20
16.8529
 30
0.4513
 70
192
 0
VERTEX
 8
DISCO_1
 10
10.9564
 20
16.8027
 30
0.4513
 70
192
 0
VERTEX
 8
DISCO_1
 10
10.7305
 20
17.3561
 30
0.4513
 70
192
 0
VERTEX
 8
DISCO_1
 10
10.6469
 20
17.3003
 30
0.4513
 70
192
 0
VERTEX
 8
DISCO_1
 10
10.3853
 20
17.8377
 30
0.4513
 70
192
 0
VERTEX
 8
DISCO_1
 10
10.3057
 20
17.7765
 30
0.4513
 70
192
 0
VERTEX
 8
DISCO_1
 10
10.0095
 20
18.2957
 30
0.4513
 70
192
 0
VERTEX
 8
DISCO_1
 10
9.9339
 20
18.2295
 30
0.4513
 70
192
 0
VERTEX
 8
DISCO_1
 10
9.6044
 20
18.7281
 30
0.4513
 70
192
 0
VERTEX
 8
DISCO_1
 10
9.5334
 20
18.6571
 30
0.4513
 70
192
 0
VERTEX
 8
DISCO_1
 10
9.172
 20
19.1332
 30
0.4513
 70
192
 0
VERTEX
 8
DISCO_1
 10
9.1058
 20
19.0577
 30
0.4513
 70
192
 0
VERTEX
 8
DISCO_1
 10
8.714
 20
19.509
 30
0.4513
 70
192
 0
VERTEX
 8
DISCO_1
 10
8.6528
 20
19.4294
 30
0.4513
 70
192
 0
VERTEX
 8
DISCO_1
 10
8.2323
 20
19.8542
 30
0.4513
 70
192
 0
VERTEX
 8
DISCO_1
 10
8.1765
 20
19.7707
 30
0.4513
 70
192
 0
VERTEX
 8
DISCO_1
 10
7.7292
 20
20.1671
 30
0.4513
 70
192
 0
VERTEX
 8
DISCO_1
 10
7.679
 20
20.0801
 30
0.4513
 70
192
 0
VERTEX
 8
DISCO_1
 10
7.2066
 20
20.4464
 30
0.4513
 70
192
 0
VERTEX
 8
DISCO_1
 10
7.1622
 20
20.3563
 30
0.4513
 70
192
 0
VERTEX
 8
DISCO_1
 10
6.667
 20
20.6909
 30
0.4513
 70
192
 0
VERTEX
 8
DISCO_1
 10
6.6285
 20
20.5981
 30
0.4513
 70
192
 0
VERTEX
 8
DISCO_1
 10
6.1124
 20
20.8996
 30
0.4513
 70
192
 0
VERTEX
 8
DISCO_1
 10
6.0801
 20
20.8045
 30
0.4513
 70
192
 0
VERTEX
 8
DISCO_1
 10
5.5454
 20
21.0716
 30
0.4513
 70
192
 0
VERTEX
 8
DISCO_1
 10
5.5194
 20
20.9746
 30
0.4513
 70
192
 0
VERTEX
 8
DISCO_1
 10
4.9684
 20
21.2061
 30
0.4513
 70
192
 0
VERTEX
 8
DISCO_1
 10
4.9488
 20
21.1076
 30
0.4513
 70
192
 0
VERTEX
 8
DISCO_1
 10
4.3838
 20
21.3027
 30
0.4513
 70
192
 0
VERTEX
 8
DISCO_1
 10
4.3707
 20
21.2031
 30
0.4513
 70
192
 0
VERTEX
 8
DISCO_1
 10
3.7942
 20
21.3607
 30
0.4513
 70
192
 0
VERTEX
 8
DISCO_1
 10
3.7876
 20
21.2605
 30
0.4513
 70
192
 0
VERTEX
 8
DISCO_1
 10
3.202
 20
21.3801
 30
0.4513
 70
192
 0
VERTEX
 8
DISCO_1
 10
3.202
 20
21.2797
 30
0.4513
 70
192
 0
VERTEX
 8
DISCO_1
 10
2.6098
 20
21.3607
 30
0.4513
 70
192
 0
VERTEX
 8
DISCO_1
 10
2.6163
 20
21.2605
 30
0.4513
 70
192
 0
VERTEX
 8
DISCO_1
 10
2.0201
 20
21.3027
 30
0.4513
 70
192
 0
VERTEX
 8
DISCO_1
 10
2.0332
 20
21.2031
 30
0.4513
 70
192
 0
VERTEX
 8
DISCO_1
 10
1.4355
 20
21.2061
 30
0.4513
 70
192
 0
VERTEX
 8
DISCO_1
 10
1.4551
 20
21.1076
 30
0.4513
 70
192
 0
VERTEX
 8
DISCO_1
 10
0.8585
 20
21.0716
 30
0.4513
 70
192
 0
VERTEX
 8
DISCO_1
 10
0.8845
 20
20.9746
 30
0.4513
 70
192
 0
VERTEX
 8
DISCO_1
 10
0.2915
 20
20.8996
 30
0.4513
 70
192
 0
VERTEX
 8
DISCO_1
 10
0.3238
 20
20.8045
 30
0.4513
 70
192
 0
VERTEX
 8
DISCO_1
 10
-0.263
 20
20.6909
 30
0.4513
 70
192
 0
VERTEX
 8
DISCO_1
 10
-0.2246
 20
20.5981
 30
0.4513
 70
192
 0
VERTEX
 8
DISCO_1
 10
-0.8027
 20
20.4464
 30
0.4513
 70
192
 0
VERTEX
 8
DISCO_1
 10
-0.7583
 20
20.3563
 30
0.4513
 70
192
 0
VERTEX
 8
DISCO_1
 10
-1.3253
 20
20.1671
 30
0.4513
 70
192
 0
VERTEX
 8
DISCO_1
 10
-1.275
 20
20.0801
 30
0.4513
 70
192
 0
VERTEX
 8
DISCO_1
 10
-1.8284
 20
19.8542
 30
0.4513
 70
192
 0
VERTEX
 8
DISCO_1
 10
-1.7726
 20
19.7707
 30
0.4513
 70
192
 0
VERTEX
 8
DISCO_1
 10
-2.31
 20
19.509
 30
0.4513
 70
192
 0
VERTEX
 8
DISCO_1
 10
-2.2489
 20
19.4294
 30
0.4513
 70
192
 0
VERTEX
 8
DISCO_1
 10
-2.768
 20
19.1332
 30
0.4513
 70
192
 0
VERTEX
 8
DISCO_1
 10
-2.7018
 20
19.0577
 30
0.4513
 70
192
 0
VERTEX
 8
DISCO_1
 10
-3.2005
 20
18.7281
 30
0.4513
 70
192
 0
VERTEX
 8
DISCO_1
 10
-3.1295
 20
18.6571
 30
0.4513
 70
192
 0
VERTEX
 8
DISCO_1
 10
-3.6055
 20
18.2957
 30
0.4513
 70
192
 0
VERTEX
 8
DISCO_1
 10
-3.53
 20
18.2295
 30
0.4513
 70
192
 0
VERTEX
 8
DISCO_1
 10
-3.9814
 20
17.8377
 30
0.4513
 70
192
 0
VERTEX
 8
DISCO_1
 10
-3.9017
 20
17.7765
 30
0.4513
 70
192
 0
VERTEX
 8
DISCO_1
 10
-4.3265
 20
17.3561
 30
0.4513
 70
192
 0
VERTEX
 8
DISCO_1
 10
-4.243
 20
17.3003
 30
0.4513
 70
192
 0
VERTEX
 8
DISCO_1
 10
-4.6394
 20
16.8529
 30
0.4513
 70
192
 0
VERTEX
 8
DISCO_1
 10
-4.5524
 20
16.8027
 30
0.4513
 70
192
 0
VERTEX
 8
DISCO_1
 10
-4.9187
 20
16.3304
 30
0.4513
 70
192
 0
VERTEX
 8
DISCO_1
 10
-4.8286
 20
16.2859
 30
0.4513
 70
192
 0
VERTEX
 8
DISCO_1
 10
-5.1632
 20
15.7907
 30
0.4513
 70
192
 0
VERTEX
 8
DISCO_1
 10
-5.0704
 20
15.7522
 30
0.4513
 70
192
 0
VERTEX
 8
DISCO_1
 10
-5.372
 20
15.2361
 30
0.4513
 70
192
 0
VERTEX
 8
DISCO_1
 10
-5.2768
 20
15.2038
 30
0.4513
 70
192
 0
VERTEX
 8
DISCO_1
 10
-5.5439
 20
14.6691
 30
0.4513
 70
192
 0
VERTEX
 8
DISCO_1
 10
-5.4469
 20
14.6431
 30
0.4513
 70
192
 0
VERTEX
 8
DISCO_1
 10
-5.6785
 20
14.0921
 30
0.4513
 70
192
 0
VERTEX
 8
DISCO_1
 10
-5.58
 20
14.0725
 30
0.4513
 70
192
 0
VERTEX
 8
DISCO_1
 10
-5.775
 20
13.5075
 30
0.4513
 70
192
 0
VERTEX
 8
DISCO_1
 10
-5.6754
 20
13.4944
 30
0.4513
 70
192
 0
VERTEX
 8
DISCO_1
 10
-5.8331
 20
12.9179
 30
0.4513
 70
192
 0
VERTEX
 8
DISCO_1
 10
-5.7329
 20
12.9113
 30
0.4513
 70
192
 0
VERTEX
 8
DISCO_1
 10
-5.8525
 20
12.3257
 30
0.4513
 70
192
 0
VERTEX
 8
DISCO_1
 10
-5.752
 20
12.3257
 30
0.4513
 70
192
 0
VERTEX
 8
DISCO_1
 10
-5.8331
 20
11.7335
 30
0.4513
 70
192
 0
VERTEX
 8
DISCO_1
 10
-5.7329
 20
11.7401
 30
0.4513
 70
192
 0
VERTEX
 8
DISCO_1
 10
-5.775
 20
11.1438
 30
0.4513
 70
192
 0
VERTEX
 8
DISCO_1
 10
-5.6754
 20
11.1569
 30
0.4513
 70
192
 0
VERTEX
 8
DISCO_1
 10
-5.6785
 20
10.5592
 30
0.4513
 70
192
 0
VERTEX
 8
DISCO_1
 10
-5.58
 20
10.5788
 30
0.4513
 70
192
 0
VERTEX
 8
DISCO_1
 10
-5.5439
 20
9.9822
 30
0.4513
 70
192
 0
VERTEX
 8
DISCO_1
 10
-5.4469
 20
10.0082
 30
0.4513
 70
192
 0
VERTEX
 8
DISCO_1
 10
-5.372
 20
9.4152
 30
0.4513
 70
192
 0
VERTEX
 8
DISCO_1
 10
-5.2768
 20
9.4475
 30
0.4513
 70
192
 0
VERTEX
 8
DISCO_1
 10
-5.1632
 20
8.8607
 30
0.4513
 70
192
 0
VERTEX
 8
DISCO_1
 10
-5.0704
 20
8.8991
 30
0.4513
 70
192
 0
VERTEX
 8
DISCO_1
 10
-4.9187
 20
8.321
 30
0.4513
 70
192
 0
VERTEX
 8
DISCO_1
 10
-4.8286
 20
8.3654
 30
0.4513
 70
192
 0
VERTEX
 8
DISCO_1
 10
-4.6394
 20
7.7985
 30
0.4513
 70
192
 0
VERTEX
 8
DISCO_1
 10
-4.5524
 20
7.8487
 30
0.4513
 70
192
 0
VERTEX
 8
DISCO_1
 10
-4.3265
 20
7.2953
 30
0.4513
 70
192
 0
VERTEX
 8
DISCO_1
 10
-4.243
 20
7.3511
 30
0.4513
 70
192
 0
VERTEX
 8
DISCO_1
 10
-3.9814
 20
6.8137
 30
0.4513
 70
192
 0
VERTEX
 8
DISCO_1
 10
-3.9017
 20
6.8748
 30
0.4513
 70
192
 0
VERTEX
 8
DISCO_1
 10
-3.6055
 20
6.3557
 30
0.4513
 70
192
 0
VERTEX
 8
DISCO_1
 10
-3.53
 20
6.4219
 30
0.4513
 70
192
 0
VERTEX
 8
DISCO_1
 10
-3.2005
 20
5.9232
 30
0.4513
 70
192
 0
VERTEX
 8
DISCO_1
 10
-3.1295
 20
5.9942
 30
0.4513
 70
192
 0
VERTEX
 8
DISCO_1
 10
-2.768
 20
5.5182
 30
0.4513
 70
192
 0
VERTEX
 8
DISCO_1
 10
-2.7018
 20
5.5937
 30
0.4513
 70
192
 0
VERTEX
 8
DISCO_1
 10
-2.31
 20
5.1423
 30
0.4513
 70
192
 0
VERTEX
 8
DISCO_1
 10
-2.2489
 20
5.222
 30
0.4513
 70
192
 0
VERTEX
 8
DISCO_1
 10
-1.8284
 20
4.7972
 30
0.4513
 70
192
 0
VERTEX
 8
DISCO_1
 10
-1.7726
 20
4.8807
 30
0.4513
 70
192
 0
VERTEX
 8
DISCO_1
 10
-1.3253
 20
4.4843
 30
0.4513
 70
192
 0
VERTEX
 8
DISCO_1
 10
-1.275
 20
4.5713
 30
0.4513
 70
192
 0
VERTEX
 8
DISCO_1
 10
-0.8027
 20
4.205
 30
0.4513
 70
192
 0
VERTEX
 8
DISCO_1
 10
-0.7583
 20
4.2951
 30
0.4513
 70
192
 0
VERTEX
 8
DISCO_1
 10
-0.263
 20
3.9605
 30
0.4513
 70
192
 0
VERTEX
 8
DISCO_1
 10
-0.2246
 20
4.0533
 30
0.4513
 70
192
 0
VERTEX
 8
DISCO_1
 10
0.2915
 20
3.7518
 30
0.4513
 70
192
 0
VERTEX
 8
DISCO_1
 10
0.3238
 20
3.8469
 30
0.4513
 70
192
 0
VERTEX
 8
DISCO_1
 10
0.8585
 20
3.5798
 30
0.4513
 70
192
 0
VERTEX
 8
DISCO_1
 10
0.8845
 20
3.6768
 30
0.4513
 70
192
 0
VERTEX
 8
DISCO_1
 10
1.4355
 20
3.4452
 30
0.4513
 70
192
 0
VERTEX
 8
DISCO_1
 10
1.4551
 20
3.5437
 30
0.4513
 70
192
 0
VERTEX
 8
DISCO_1
 10
2.0201
 20
3.3487
 30
0.4513
 70
192
 0
VERTEX
 8
DISCO_1
 10
2.0332
 20
3.4483
 30
0.4513
 70
192
 0
VERTEX
 8
DISCO_1
 10
2.6098
 20
3.2906
 30
0.4513
 70
192
 0
VERTEX
 8
DISCO_1
 10
2.6163
 20
3.3908
 30
0.4513
 70
192
 0
VERTEX
 8
DISCO_1
 10
3.202
 20
3.2712
 30
0.4513
 70
192
 0
VERTEX
 8
DISCO_1
 10
3.202
 20
3.3717
 30
0.4513
 70
192
 0
VERTEX
 8
DISCO_1
 10
3.7942
 20
3.2906
 30
0.4513
 70
192
 0
VERTEX
 8
DISCO_1
 10
3.7876
 20
3.3908
 30
0.4513
 70
192
 0
VERTEX
 8
DISCO_1
 10
4.3838
 20
3.3487
 30
0.4513
 70
192
 0
VERTEX
 8
DISCO_1
 10
4.3707
 20
3.4483
 30
0.4513
 70
192
 0
VERTEX
 8
DISCO_1
 10
4.9684
 20
3.4452
 30
0.4513
 70
192
 0
VERTEX
 8
DISCO_1
 10
4.9488
 20
3.5437
 30
0.4513
 70
192
 0
VERTEX
 8
DISCO_1
 10
5.5454
 20
3.5798
 30
0.4513
 70
192
 0
VERTEX
 8
DISCO_1
 10
5.5194
 20
3.6768
 30
0.4513
 70
192
 0
VERTEX
 8
DISCO_1
 10
6.1124
 20
3.7518
 30
0.4513
 70
192
 0
VERTEX
 8
DISCO_1
 10
6.0801
 20
3.8469
 30
0.4513
 70
192
 0
VERTEX
 8
DISCO_1
 10
6.667
 20
3.9605
 30
0.4513
 70
192
 0
VERTEX
 8
DISCO_1
 10
6.6285
 20
4.0533
 30
0.4513
 70
192
 0
VERTEX
 8
DISCO_1
 10
7.2066
 20
4.205
 30
0.4513
 70
192
 0
VERTEX
 8
DISCO_1
 10
7.1622
 20
4.2951
 30
0.4513
 70
192
 0
VERTEX
 8
DISCO_1
 10
7.7292
 20
4.4843
 30
0.4513
 70
192
 0
VERTEX
 8
DISCO_1
 10
7.679
 20
4.5713
 30
0.4513
 70
192
 0
VERTEX
 8
DISCO_1
 10
8.2323
 20
4.7972
 30
0.4513
 70
192
 0
VERTEX
 8
DISCO_1
 10
8.1765
 20
4.8807
 30
0.4513
 70
192
 0
VERTEX
 8
DISCO_1
 10
8.714
 20
5.1423
 30
0.4513
 70
192
 0
VERTEX
 8
DISCO_1
 10
8.6528
 20
5.222
 30
0.4513
 70
192
 0
VERTEX
 8
DISCO_1
 10
9.172
 20
5.5182
 30
0.4513
 70
192
 0
VERTEX
 8
DISCO_1
 10
9.1058
 20
5.5937
 30
0.4513
 70
192
 0
VERTEX
 8
DISCO_1
 10
9.6044
 20
5.9232
 30
0.4513
 70
192
 0
VERTEX
 8
DISCO_1
 10
9.5334
 20
5.9942
 30
0.4513
 70
192
 0
VERTEX
 8
DISCO_1
 10
10.0095
 20
6.3557
 30
0.4513
 70
192
 0
VERTEX
 8
DISCO_1
 10
9.9339
 20
6.4219
 30
0.4513
 70
192
 0
VERTEX
 8
DISCO_1
 10
10.3853
 20
6.8137
 30
0.4513
 70
192
 0
VERTEX
 8
DISCO_1
 10
10.3057
 20
6.8748
 30
0.4513
 70
192
 0
VERTEX
 8
DISCO_1
 10
10.7305
 20
7.2953
 30
0.4513
 70
192
 0
VERTEX
 8
DISCO_1
 10
10.6469
 20
7.3511
 30
0.4513
 70
192
 0
VERTEX
 8
DISCO_1
 10
11.0433
 20
7.7985
 30
0.4513
 70
192
 0
VERTEX
 8
DISCO_1
 10
10.9564
 20
7.8487
 30
0.4513
 70
192
 0
VERTEX
 8
DISCO_1
 10
11.3226
 20
8.321
 30
0.4513
 70
192
 0
VERTEX
 8
DISCO_1
 10
11.2326
 20
8.3654
 30
0.4513
 70
192
 0
VERTEX
 8
DISCO_1
 10
11.5672
 20
8.8607
 30
0.4513
 70
192
 0
VERTEX
 8
DISCO_1
 10
11.4744
 20
8.8991
 30
0.4513
 70
192
 0
VERTEX
 8
DISCO_1
 10
11.7759
 20
9.4152
 30
0.4513
 70
192
 0
VERTEX
 8
DISCO_1
 10
11.6808
 20
9.4475
 30
0.4513
 70
192
 0
VERTEX
 8
DISCO_1
 10
11.9479
 20
9.9822
 30
0.4513
 70
192
 0
VERTEX
 8
DISCO_1
 10
11.8509
 20
10.0082
 30
0.4513
 70
192
 0
VERTEX
 8
DISCO_1
 10
12.0824
 20
10.5592
 30
0.4513
 70
192
 0
VERTEX
 8
DISCO_1
 10
11.9839
 20
10.5788
 30
0.4513
 70
192
 0
VERTEX
 8
DISCO_1
 10
12.1789
 20
11.1438
 30
0.4513
 70
192
 0
VERTEX
 8
DISCO_1
 10
12.0794
 20
11.1569
 30
0.4513
 70
192
 0
VERTEX
 8
DISCO_1
 10
12.237
 20
11.7335
 30
0.4513
 70
192
 0
VERTEX
 8
DISCO_1
 10
12.1368
 20
11.7401
 30
0.4513
 70
192
 0
VERTEX
 8
DISCO_1
 10
0
 20
0
 30
0
 70
128
 71
1
 72
2
 73
4
 74
3
 0
VERTEX
 8
DISCO_1
 10
0
 20
0
 30
0
 70
128
 71
3
 72
4
 73
6
 74
5
 0
VERTEX
 8
DISCO_1
 10
0
 20
0
 30
0
 70
128
 71
5
 72
6
 73
8
 74
7
 0
VERTEX
 8
DISCO_1
 10
0
 20
0
 30
0
 70
128
 71
7
 72
8
 73
10
 74
9
 0
VERTEX
 8
DISCO_1
 10
0
 20
0
 30
0
 70
128
 71
9
 72
10
 73
12
 74
11
 0
VERTEX
 8
DISCO_1
 10
0
 20
0
 30
0
 70
128
 71
11
 72
12
 73
14
 74
13
 0
VERTEX
 8
DISCO_1
 10
0
 20
0
 30
0
 70
128
 71
13
 72
14
 73
16
 74
15
 0
VERTEX
 8
DISCO_1
 10
0
 20
0
 30
0
 70
128
 71
15
 72
16
 73
18
 74
17
 0
VERTEX
 8
DISCO_1
 10
0
 20
0
 30
0
 70
128
 71
17
 72
18
 73
20
 74
19
 0
VERTEX
 8
DISCO_1
 10
0
 20
0
 30
0
 70
128
 71
19
 72
20
 73
22
 74
21
 0
VERTEX
 8
DISCO_1
 10
0
 20
0
 30
0
 70
128
 71
21
 72
22
 73
24
 74
23
 0
VERTEX
 8
DISCO_1
 10
0
 20
0
 30
0
 70
128
 71
23
 72
24
 73
26
 74
25
 0
VERTEX
 8
DISCO_1
 10
0
 20
0
 30
0
 70
128
 71
25
 72
26
 73
28
 74
27
 0
VERTEX
 8
DISCO_1
 10
0
 20
0
 30
0
 70
128
 71
27
 72
28
 73
30
 74
29
 0
VERTEX
 8
DISCO_1
 10
0
 20
0
 30
0
 70
128
 71
29
 72
30
 73
32
 74
31
 0
VERTEX
 8
DISCO_1
 10
0
 20
0
 30
0
 70
128
 71
31
 72
32
 73
34
 74
33
 0
VERTEX
 8
DISCO_1
 10
0
 20
0
 30
0
 70
128
 71
33
 72
34
 73
36
 74
35
 0
VERTEX
 8
DISCO_1
 10
0
 20
0
 30
0
 70
128
 71
35
 72
36
 73
38
 74
37
 0
VERTEX
 8
DISCO_1
 10
0
 20
0
 30
0
 70
128
 71
37
 72
38
 73
40
 74
39
 0
VERTEX
 8
DISCO_1
 10
0
 20
0
 30
0
 70
128
 71
39
 72
40
 73
42
 74
41
 0
VERTEX
 8
DISCO_1
 10
0
 20
0
 30
0
 70
128
 71
41
 72
42
 73
44
 74
43
 0
VERTEX
 8
DISCO_1
 10
0
 20
0
 30
0
 70
128
 71
43
 72
44
 73
46
 74
45
 0
VERTEX
 8
DISCO_1
 10
0
 20
0
 30
0
 70
128
 71
45
 72
46
 73
48
 74
47
 0
VERTEX
 8
DISCO_1
 10
0
 20
0
 30
0
 70
128
 71
47
 72
48
 73
50
 74
49
 0
VERTEX
 8
DISCO_1
 10
0
 20
0
 30
0
 70
128
 71
49
 72
50
 73
52
 74
51
 0
VERTEX
 8
DISCO_1
 10
0
 20
0
 30
0
 70
128
 71
51
 72
52
 73
54
 74
53
 0
VERTEX
 8
DISCO_1
 10
0
 20
0
 30
0
 70
128
 71
53
 72
54
 73
56
 74
55
 0
VERTEX
 8
DISCO_1
 10
0
 20
0
 30
0
 70
128
 71
55
 72
56
 73
58
 74
57
 0
VERTEX
 8
DISCO_1
 10
0
 20
0
 30
0
 70
128
 71
57
 72
58
 73
60
 74
59
 0
VERTEX
 8
DISCO_1
 10
0
 20
0
 30
0
 70
128
 71
59
 72
60
 73
62
 74
61
 0
VERTEX
 8
DISCO_1
 10
0
 20
0
 30
0
 70
128
 71
61
 72
62
 73
64
 74
63
 0
VERTEX
 8
DISCO_1
 10
0
 20
0
 30
0
 70
128
 71
63
 72
64
 73
66
 74
65
 0
VERTEX
 8
DISCO_1
 10
0
 20
0
 30
0
 70
128
 71
65
 72
66
 73
68
 74
67
 0
VERTEX
 8
DISCO_1
 10
0
 20
0
 30
0
 70
128
 71
67
 72
68
 73
70
 74
69
 0
VERTEX
 8
DISCO_1
 10
0
 20
0
 30
0
 70
128
 71
69
 72
70
 73
72
 74
71
 0
VERTEX
 8
DISCO_1
 10
0
 20
0
 30
0
 70
128
 71
71
 72
72
 73
74
 74
73
 0
VERTEX
 8
DISCO_1
 10
0
 20
0
 30
0
 70
128
 71
73
 72
74
 73
76
 74
75
 0
VERTEX
 8
DISCO_1
 10
0
 20
0
 30
0
 70
128
 71
75
 72
76
 73
78
 74
77
 0
VERTEX
 8
DISCO_1
 10
0
 20
0
 30
0
 70
128
 71
77
 72
78
 73
80
 74
79
 0
VERTEX
 8
DISCO_1
 10
0
 20
0
 30
0
 70
128
 71
79
 72
80
 73
82
 74
81
 0
VERTEX
 8
DISCO_1
 10
0
 20
0
 30
0
 70
128
 71
81
 72
82
 73
84
 74
83
 0
VERTEX
 8
DISCO_1
 10
0
 20
0
 30
0
 70
128
 71
83
 72
84
 73
86
 74
85
 0
VERTEX
 8
DISCO_1
 10
0
 20
0
 30
0
 70
128
 71
85
 72
86
 73
88
 74
87
 0
VERTEX
 8
DISCO_1
 10
0
 20
0
 30
0
 70
128
 71
87
 72
88
 73
90
 74
89
 0
VERTEX
 8
DISCO_1
 10
0
 20
0
 30
0
 70
128
 71
89
 72
90
 73
92
 74
91
 0
VERTEX
 8
DISCO_1
 10
0
 20
0
 30
0
 70
128
 71
91
 72
92
 73
94
 74
93
 0
VERTEX
 8
DISCO_1
 10
0
 20
0
 30
0
 70
128
 71
93
 72
94
 73
96
 74
95
 0
VERTEX
 8
DISCO_1
 10
0
 20
0
 30
0
 70
128
 71
95
 72
96
 73
98
 74
97
 0
VERTEX
 8
DISCO_1
 10
0
 20
0
 30
0
 70
128
 71
97
 72
98
 73
100
 74
99
 0
VERTEX
 8
DISCO_1
 10
0
 20
0
 30
0
 70
128
 71
99
 72
100
 73
102
 74
101
 0
VERTEX
 8
DISCO_1
 10
0
 20
0
 30
0
 70
128
 71
101
 72
102
 73
104
 74
103
 0
VERTEX
 8
DISCO_1
 10
0
 20
0
 30
0
 70
128
 71
103
 72
104
 73
106
 74
105
 0
VERTEX
 8
DISCO_1
 10
0
 20
0
 30
0
 70
128
 71
105
 72
106
 73
108
 74
107
 0
VERTEX
 8
DISCO_1
 10
0
 20
0
 30
0
 70
128
 71
107
 72
108
 73
110
 74
109
 0
VERTEX
 8
DISCO_1
 10
0
 20
0
 30
0
 70
128
 71
109
 72
110
 73
112
 74
111
 0
VERTEX
 8
DISCO_1
 10
0
 20
0
 30
0
 70
128
 71
111
 72
112
 73
114
 74
113
 0
VERTEX
 8
DISCO_1
 10
0
 20
0
 30
0
 70
128
 71
113
 72
114
 73
116
 74
115
 0
VERTEX
 8
DISCO_1
 10
0
 20
0
 30
0
 70
128
 71
115
 72
116
 73
118
 74
117
 0
VERTEX
 8
DISCO_1
 10
0
 20
0
 30
0
 70
128
 71
117
 72
118
 73
120
 74
119
 0
VERTEX
 8
DISCO_1
 10
0
 20
0
 30
0
 70
128
 71
119
 72
120
 73
122
 74
121
 0
VERTEX
 8
DISCO_1
 10
0
 20
0
 30
0
 70
128
 71
121
 72
122
 73
124
 74
123
 0
VERTEX
 8
DISCO_1
 10
0
 20
0
 30
0
 70
128
 71
123
 72
124
 73
126
 74
125
 0
VERTEX
 8
DISCO_1
 10
0
 20
0
 30
0
 70
128
 71
125
 72
126
 73
128
 74
127
 0
VERTEX
 8
DISCO_1
 10
0
 20
0
 30
0
 70
128
 71
127
 72
128
 73
130
 74
129
 0
VERTEX
 8
DISCO_1
 10
0
 20
0
 30
0
 70
128
 71
129
 72
130
 73
132
 74
131
 0
VERTEX
 8
DISCO_1
 10
0
 20
0
 30
0
 70
128
 71
131
 72
132
 73
134
 74
133
 0
VERTEX
 8
DISCO_1
 10
0
 20
0
 30
0
 70
128
 71
133
 72
134
 73
136
 74
135
 0
VERTEX
 8
DISCO_1
 10
0
 20
0
 30
0
 70
128
 71
135
 72
136
 73
138
 74
137
 0
VERTEX
 8
DISCO_1
 10
0
 20
0
 30
0
 70
128
 71
137
 72
138
 73
140
 74
139
 0
VERTEX
 8
DISCO_1
 10
0
 20
0
 30
0
 70
128
 71
139
 72
140
 73
142
 74
141
 0
VERTEX
 8
DISCO_1
 10
0
 20
0
 30
0
 70
128
 71
141
 72
142
 73
144
 74
143
 0
VERTEX
 8
DISCO_1
 10
0
 20
0
 30
0
 70
128
 71
143
 72
144
 73
146
 74
145
 0
VERTEX
 8
DISCO_1
 10
0
 20
0
 30
0
 70
128
 71
145
 72
146
 73
148
 74
147
 0
VERTEX
 8
DISCO_1
 10
0
 20
0
 30
0
 70
128
 71
147
 72
148
 73
150
 74
149
 0
VERTEX
 8
DISCO_1
 10
0
 20
0
 30
0
 70
128
 71
149
 72
150
 73
152
 74
151
 0
VERTEX
 8
DISCO_1
 10
0
 20
0
 30
0
 70
128
 71
151
 72
152
 73
154
 74
153
 0
VERTEX
 8
DISCO_1
 10
0
 20
0
 30
0
 70
128
 71
153
 72
154
 73
156
 74
155
 0
VERTEX
 8
DISCO_1
 10
0
 20
0
 30
0
 70
128
 71
155
 72
156
 73
158
 74
157
 0
VERTEX
 8
DISCO_1
 10
0
 20
0
 30
0
 70
128
 71
157
 72
158
 73
160
 74
159
 0
VERTEX
 8
DISCO_1
 10
0
 20
0
 30
0
 70
128
 71
159
 72
160
 73
162
 74
161
 0
VERTEX
 8
DISCO_1
 10
0
 20
0
 30
0
 70
128
 71
161
 72
162
 73
164
 74
163
 0
VERTEX
 8
DISCO_1
 10
0
 20
0
 30
0
 70
128
 71
163
 72
164
 73
166
 74
165
 0
VERTEX
 8
DISCO_1
 10
0
 20
0
 30
0
 70
128
 71
165
 72
166
 73
168
 74
167
 0
VERTEX
 8
DISCO_1
 10
0
 20
0
 30
0
 70
128
 71
167
 72
168
 73
170
 74
169
 0
VERTEX
 8
DISCO_1
 10
0
 20
0
 30
0
 70
128
 71
169
 72
170
 73
172
 74
171
 0
VERTEX
 8
DISCO_1
 10
0
 20
0
 30
0
 70
128
 71
171
 72
172
 73
174
 74
173
 0
VERTEX
 8
DISCO_1
 10
0
 20
0
 30
0
 70
128
 71
173
 72
174
 73
176
 74
175
 0
VERTEX
 8
DISCO_1
 10
0
 20
0
 30
0
 70
128
 71
175
 72
176
 73
178
 74
177
 0
VERTEX
 8
DISCO_1
 10
0
 20
0
 30
0
 70
128
 71
177
 72
178
 73
180
 74
179
 0
VERTEX
 8
DISCO_1
 10
0
 20
0
 30
0
 70
128
 71
179
 72
180
 73
182
 74
181
 0
VERTEX
 8
DISCO_1
 10
0
 20
0
 30
0
 70
128
 71
181
 72
182
 73
184
 74
183
 0
VERTEX
 8
DISCO_1
 10
0
 20
0
 30
0
 70
128
 71
183
 72
184
 73
186
 74
185
 0
VERTEX
 8
DISCO_1
 10
0
 20
0
 30
0
 70
128
 71
185
 72
186
 73
188
 74
187
 0
VERTEX
 8
DISCO_1
 10
0
 20
0
 30
0
 70
128
 71
187
 72
188
 73
190
 74
189
 0
VERTEX
 8
DISCO_1
 10
0
 20
0
 30
0
 70
128
 71
189
 72
190
 73
192
 74
191
 0
VERTEX
 8
DISCO_1
 10
0
 20
0
 30
0
 70
128
 71
191
 72
192
 73
2
 74
1
 0
SEQEND
 0
POLYLINE
 8
PIASTRA
 66
1
 10
0.0
 20
0.0
 30
0.0
 70
64
 71
209
 72
339
 0
VERTEX
 8
PIASTRA
 10
-45.7499
 20
25.6719
 30
-0.1299
 70
192
 0
VERTEX
 8
PIASTRA
 10
-45.7499
 20
25.6719
 30
0.4502
 70
192
 0
VERTEX
 8
PIASTRA
 10
-45.7499
 20
-25.6682
 30
0.4502
 70
192
 0
VERTEX
 8
PIASTRA
 10
-45.7499
 20
-25.6682
 30
-0.1299
 70
192
 0
VERTEX
 8
PIASTRA
 10
-44.7199
 20
-26.6982
 30
-0.1299
 70
192
 0
VERTEX
 8
PIASTRA
 10
-44.7199
 20
-26.6982
 30
0.4502
 70
192
 0
VERTEX
 8
PIASTRA
 10
44.7201
 20
-26.6982
 30
0.4502
 70
192
 0
VERTEX
 8
PIASTRA
 10
44.7201
 20
-26.6982
 30
-0.1299
 70
192
 0
VERTEX
 8
PIASTRA
 10
45.7501
 20
-25.6682
 30
-0.1299
 70
192
 0
VERTEX
 8
PIASTRA
 10
45.7501
 20
-25.6682
 30
0.4502
 70
192
 0
VERTEX
 8
PIASTRA
 10
45.7501
 20
25.6719
 30
0.4502
 70
192
 0
VERTEX
 8
PIASTRA
 10
45.7501
 20
25.6719
 30
-0.1299
 70
192
 0
VERTEX
 8
PIASTRA
 10
44.7201
 20
26.7019
 30
-0.1299
 70
192
 0
VERTEX
 8
PIASTRA
 10
44.7201
 20
26.7019
 30
0.4502
 70
192
 0
VERTEX
 8
PIASTRA
 10
-44.7199
 20
26.7019
 30
0.4502
 70
192
 0
VERTEX
 8
PIASTRA
 10
-44.7199
 20
26.7019
 30
-0.1299
 70
192
 0
VERTEX
 8
PIASTRA
 10
-45.7364
 20
25.8381
 30
-0.1299
 70
192
 0
VERTEX
 8
PIASTRA
 10
-45.6933
 20
26.0086
 30
-0.1299
 70
192
 0
VERTEX
 8
PIASTRA
 10
-45.6183
 20
26.1756
 30
-0.1299
 70
192
 0
VERTEX
 8
PIASTRA
 10
-45.512
 20
26.3302
 30
-0.1299
 70
192
 0
VERTEX
 8
PIASTRA
 10
-45.3782
 20
26.464
 30
-0.1299
 70
192
 0
VERTEX
 8
PIASTRA
 10
-45.2236
 20
26.5703
 30
-0.1299
 70
192
 0
VERTEX
 8
PIASTRA
 10
-45.0566
 20
26.6453
 30
-0.1299
 70
192
 0
VERTEX
 8
PIASTRA
 10
-44.8861
 20
26.6884
 30
-0.1299
 70
192
 0
VERTEX
 8
PIASTRA
 10
-45.7364
 20
25.8381
 30
0.4502
 70
192
 0
VERTEX
 8
PIASTRA
 10
-45.6933
 20
26.0086
 30
0.4502
 70
192
 0
VERTEX
 8
PIASTRA
 10
-45.6183
 20
26.1756
 30
0.4502
 70
192
 0
VERTEX
 8
PIASTRA
 10
-45.512
 20
26.3302
 30
0.4502
 70
192
 0
VERTEX
 8
PIASTRA
 10
-45.3782
 20
26.464
 30
0.4502
 70
192
 0
VERTEX
 8
PIASTRA
 10
-45.2236
 20
26.5703
 30
0.4502
 70
192
 0
VERTEX
 8
PIASTRA
 10
-45.0566
 20
26.6453
 30
0.4502
 70
192
 0
VERTEX
 8
PIASTRA
 10
-44.8861
 20
26.6884
 30
0.4502
 70
192
 0
VERTEX
 8
PIASTRA
 10
-45.7364
 20
-25.8344
 30
0.4502
 70
192
 0
VERTEX
 8
PIASTRA
 10
-45.6933
 20
-26.0049
 30
0.4502
 70
192
 0
VERTEX
 8
PIASTRA
 10
-45.6183
 20
-26.1719
 30
0.4502
 70
192
 0
VERTEX
 8
PIASTRA
 10
-45.512
 20
-26.3265
 30
0.4502
 70
192
 0
VERTEX
 8
PIASTRA
 10
-45.3782
 20
-26.4603
 30
0.4502
 70
192
 0
VERTEX
 8
PIASTRA
 10
-45.2236
 20
-26.5666
 30
0.4502
 70
192
 0
VERTEX
 8
PIASTRA
 10
-45.0566
 20
-26.6416
 30
0.4502
 70
192
 0
VERTEX
 8
PIASTRA
 10
-44.8861
 20
-26.6847
 30
0.4502
 70
192
 0
VERTEX
 8
PIASTRA
 10
-45.7364
 20
-25.8344
 30
-0.1299
 70
192
 0
VERTEX
 8
PIASTRA
 10
-45.6933
 20
-26.0049
 30
-0.1299
 70
192
 0
VERTEX
 8
PIASTRA
 10
-45.6183
 20
-26.1719
 30
-0.1299
 70
192
 0
VERTEX
 8
PIASTRA
 10
-45.512
 20
-26.3265
 30
-0.1299
 70
192
 0
VERTEX
 8
PIASTRA
 10
-45.3782
 20
-26.4603
 30
-0.1299
 70
192
 0
VERTEX
 8
PIASTRA
 10
-45.2236
 20
-26.5666
 30
-0.1299
 70
192
 0
VERTEX
 8
PIASTRA
 10
-45.0566
 20
-26.6416
 30
-0.1299
 70
192
 0
VERTEX
 8
PIASTRA
 10
-44.8861
 20
-26.6847
 30
-0.1299
 70
192
 0
VERTEX
 8
PIASTRA
 10
44.8863
 20
-26.6847
 30
0.4502
 70
192
 0
VERTEX
 8
PIASTRA
 10
45.0568
 20
-26.6416
 30
0.4502
 70
192
 0
VERTEX
 8
PIASTRA
 10
45.2238
 20
-26.5666
 30
0.4502
 70
192
 0
VERTEX
 8
PIASTRA
 10
45.3784
 20
-26.4603
 30
0.4502
 70
192
 0
VERTEX
 8
PIASTRA
 10
45.5122
 20
-26.3265
 30
0.4502
 70
192
 0
VERTEX
 8
PIASTRA
 10
45.6185
 20
-26.1719
 30
0.4502
 70
192
 0
VERTEX
 8
PIASTRA
 10
45.6935
 20
-26.0049
 30
0.4502
 70
192
 0
VERTEX
 8
PIASTRA
 10
45.7366
 20
-25.8344
 30
0.4502
 70
192
 0
VERTEX
 8
PIASTRA
 10
44.8863
 20
-26.6847
 30
-0.1299
 70
192
 0
VERTEX
 8
PIASTRA
 10
45.0568
 20
-26.6416
 30
-0.1299
 70
192
 0
VERTEX
 8
PIASTRA
 10
45.2238
 20
-26.5666
 30
-0.1299
 70
192
 0
VERTEX
 8
PIASTRA
 10
45.3784
 20
-26.4603
 30
-0.1299
 70
192
 0
VERTEX
 8
PIASTRA
 10
45.5122
 20
-26.3265
 30
-0.1299
 70
192
 0
VERTEX
 8
PIASTRA
 10
45.6185
 20
-26.1719
 30
-0.1299
 70
192
 0
VERTEX
 8
PIASTRA
 10
45.6935
 20
-26.0049
 30
-0.1299
 70
192
 0
VERTEX
 8
PIASTRA
 10
45.7366
 20
-25.8344
 30
-0.1299
 70
192
 0
VERTEX
 8
PIASTRA
 10
45.7366
 20
25.8381
 30
0.4502
 70
192
 0
VERTEX
 8
PIASTRA
 10
45.6935
 20
26.0086
 30
0.4502
 70
192
 0
VERTEX
 8
PIASTRA
 10
45.6185
 20
26.1756
 30
0.4502
 70
192
 0
VERTEX
 8
PIASTRA
 10
45.5122
 20
26.3302
 30
0.4502
 70
192
 0
VERTEX
 8
PIASTRA
 10
45.3784
 20
26.464
 30
0.4502
 70
192
 0
VERTEX
 8
PIASTRA
 10
45.2238
 20
26.5703
 30
0.4502
 70
192
 0
VERTEX
 8
PIASTRA
 10
45.0568
 20
26.6453
 30
0.4502
 70
192
 0
VERTEX
 8
PIASTRA
 10
44.8863
 20
26.6884
 30
0.4502
 70
192
 0
VERTEX
 8
PIASTRA
 10
45.7366
 20
25.8381
 30
-0.1299
 70
192
 0
VERTEX
 8
PIASTRA
 10
45.6935
 20
26.0086
 30
-0.1299
 70
192
 0
VERTEX
 8
PIASTRA
 10
45.6185
 20
26.1756
 30
-0.1299
 70
192
 0
VERTEX
 8
PIASTRA
 10
45.5122
 20
26.3302
 30
-0.1299
 70
192
 0
VERTEX
 8
PIASTRA
 10
45.3784
 20
26.464
 30
-0.1299
 70
192
 0
VERTEX
 8
PIASTRA
 10
45.2238
 20
26.5703
 30
-0.1299
 70
192
 0
VERTEX
 8
PIASTRA
 10
45.0568
 20
26.6453
 30
-0.1299
 70
192
 0
VERTEX
 8
PIASTRA
 10
44.8863
 20
26.6884
 30
-0.1299
 70
192
 0
VERTEX
 8
PIASTRA
 10
-45.7499
 20
25.6719
 30
0.4502
 70
192
 0
VERTEX
 8
PIASTRA
 10
-45.7499
 20
25.6719
 30
-0.1299
 70
192
 0
VERTEX
 8
PIASTRA
 10
-44.7199
 20
-26.6982
 30
0.4502
 70
192
 0
VERTEX
 8
PIASTRA
 10
-44.7199
 20
-26.6982
 30
-0.1299
 70
192
 0
VERTEX
 8
PIASTRA
 10
-44.7199
 20
26.7019
 30
0.4502
 70
192
 0
VERTEX
 8
PIASTRA
 10
-44.7199
 20
26.7019
 30
-0.1299
 70
192
 0
VERTEX
 8
PIASTRA
 10
-44.7199
 20
25.6719
 30
0.4502
 70
192
 0
VERTEX
 8
PIASTRA
 10
-44.7199
 20
25.6719
 30
-0.1299
 70
192
 0
VERTEX
 8
PIASTRA
 10
-44.7199
 20
-25.6682
 30
0.4502
 70
192
 0
VERTEX
 8
PIASTRA
 10
-45.7499
 20
-25.6682
 30
0.4502
 70
192
 0
VERTEX
 8
PIASTRA
 10
-45.7499
 20
-25.6682
 30
-0.1299
 70
192
 0
VERTEX
 8
PIASTRA
 10
-44.7199
 20
-25.6682
 30
-0.1299
 70
192
 0
VERTEX
 8
PIASTRA
 10
44.7201
 20
25.6719
 30
-0.1299
 70
192
 0
VERTEX
 8
PIASTRA
 10
44.7201
 20
25.6719
 30
0.4502
 70
192
 0
VERTEX
 8
PIASTRA
 10
44.7201
 20
-25.6682
 30
-0.1299
 70
192
 0
VERTEX
 8
PIASTRA
 10
44.7201
 20
-26.6982
 30
-0.1299
 70
192
 0
VERTEX
 8
PIASTRA
 10
44.7201
 20
-26.6982
 30
0.4502
 70
192
 0
VERTEX
 8
PIASTRA
 10
44.8863
 20
26.6884
 30
0.4502
 70
192
 0
VERTEX
 8
PIASTRA
 10
44.8863
 20
26.6884
 30
-0.1299
 70
192
 0
VERTEX
 8
PIASTRA
 10
45.0568
 20
26.6453
 30
0.4502
 70
192
 0
VERTEX
 8
PIASTRA
 10
45.0568
 20
26.6453
 30
-0.1299
 70
192
 0
VERTEX
 8
PIASTRA
 10
45.0568
 20
26.6453
 30
0.4502
 70
192
 0
VERTEX
 8
PIASTRA
 10
45.0568
 20
26.6453
 30
-0.1299
 70
192
 0
VERTEX
 8
PIASTRA
 10
45.2238
 20
26.5703
 30
0.4502
 70
192
 0
VERTEX
 8
PIASTRA
 10
45.2238
 20
26.5703
 30
-0.1299
 70
192
 0
VERTEX
 8
PIASTRA
 10
45.2238
 20
26.5703
 30
0.4502
 70
192
 0
VERTEX
 8
PIASTRA
 10
45.2238
 20
26.5703
 30
-0.1299
 70
192
 0
VERTEX
 8
PIASTRA
 10
45.3784
 20
26.464
 30
0.4502
 70
192
 0
VERTEX
 8
PIASTRA
 10
45.3784
 20
26.464
 30
-0.1299
 70
192
 0
VERTEX
 8
PIASTRA
 10
45.5122
 20
26.3302
 30
0.4502
 70
192
 0
VERTEX
 8
PIASTRA
 10
45.5122
 20
26.3302
 30
-0.1299
 70
192
 0
VERTEX
 8
PIASTRA
 10
45.5122
 20
26.3302
 30
0.4502
 70
192
 0
VERTEX
 8
PIASTRA
 10
45.5122
 20
26.3302
 30
-0.1299
 70
192
 0
VERTEX
 8
PIASTRA
 10
45.6185
 20
26.1756
 30
0.4502
 70
192
 0
VERTEX
 8
PIASTRA
 10
45.6185
 20
26.1756
 30
-0.1299
 70
192
 0
VERTEX
 8
PIASTRA
 10
45.6935
 20
26.0086
 30
0.4502
 70
192
 0
VERTEX
 8
PIASTRA
 10
45.6935
 20
26.0086
 30
-0.1299
 70
192
 0
VERTEX
 8
PIASTRA
 10
45.7366
 20
25.8381
 30
0.4502
 70
192
 0
VERTEX
 8
PIASTRA
 10
45.7366
 20
25.8381
 30
-0.1299
 70
192
 0
VERTEX
 8
PIASTRA
 10
-44.7199
 20
26.7019
 30
-0.1299
 70
192
 0
VERTEX
 8
PIASTRA
 10
-44.8861
 20
26.6884
 30
0.4502
 70
192
 0
VERTEX
 8
PIASTRA
 10
-44.8861
 20
26.6884
 30
-0.1299
 70
192
 0
VERTEX
 8
PIASTRA
 10
-45.0591
 20
26.6441
 30
-0.1299
 70
192
 0
VERTEX
 8
PIASTRA
 10
-45.0591
 20
26.6441
 30
0.4502
 70
192
 0
VERTEX
 8
PIASTRA
 10
-45.2236
 20
26.5703
 30
0.4502
 70
192
 0
VERTEX
 8
PIASTRA
 10
-45.2236
 20
26.5703
 30
-0.1299
 70
192
 0
VERTEX
 8
PIASTRA
 10
-45.2236
 20
26.5703
 30
-0.1299
 70
192
 0
VERTEX
 8
PIASTRA
 10
-45.2236
 20
26.5703
 30
0.4502
 70
192
 0
VERTEX
 8
PIASTRA
 10
-45.3782
 20
26.464
 30
-0.1299
 70
192
 0
VERTEX
 8
PIASTRA
 10
-45.3782
 20
26.464
 30
0.4502
 70
192
 0
VERTEX
 8
PIASTRA
 10
-45.512
 20
26.3302
 30
0.4502
 70
192
 0
VERTEX
 8
PIASTRA
 10
-45.512
 20
26.3302
 30
-0.1299
 70
192
 0
VERTEX
 8
PIASTRA
 10
-45.6183
 20
26.1756
 30
0.4502
 70
192
 0
VERTEX
 8
PIASTRA
 10
-45.6183
 20
26.1756
 30
-0.1299
 70
192
 0
VERTEX
 8
PIASTRA
 10
-45.6933
 20
26.0086
 30
0.4502
 70
192
 0
VERTEX
 8
PIASTRA
 10
-45.6933
 20
26.0086
 30
-0.1299
 70
192
 0
VERTEX
 8
PIASTRA
 10
-45.7364
 20
25.8381
 30
0.4502
 70
192
 0
VERTEX
 8
PIASTRA
 10
-45.7364
 20
25.8381
 30
-0.1299
 70
192
 0
VERTEX
 8
PIASTRA
 10
-45.7364
 20
25.8381
 30
0.4502
 70
192
 0
VERTEX
 8
PIASTRA
 10
-45.7364
 20
25.8381
 30
-0.1299
 70
192
 0
VERTEX
 8
PIASTRA
 10
-45.7364
 20
-25.8344
 30
-0.1299
 70
192
 0
VERTEX
 8
PIASTRA
 10
-45.7364
 20
-25.8344
 30
0.4502
 70
192
 0
VERTEX
 8
PIASTRA
 10
-45.7364
 20
-25.8344
 30
0.4502
 70
192
 0
VERTEX
 8
PIASTRA
 10
-45.7364
 20
-25.8344
 30
-0.1299
 70
192
 0
VERTEX
 8
PIASTRA
 10
-45.6933
 20
-26.0049
 30
0.4502
 70
192
 0
VERTEX
 8
PIASTRA
 10
-45.6933
 20
-26.0049
 30
-0.1299
 70
192
 0
VERTEX
 8
PIASTRA
 10
-45.6933
 20
-26.0049
 30
-0.1299
 70
192
 0
VERTEX
 8
PIASTRA
 10
-45.6933
 20
-26.0049
 30
0.4502
 70
192
 0
VERTEX
 8
PIASTRA
 10
-45.6183
 20
-26.1719
 30
-0.1299
 70
192
 0
VERTEX
 8
PIASTRA
 10
-45.6183
 20
-26.1719
 30
0.4502
 70
192
 0
VERTEX
 8
PIASTRA
 10
-45.6183
 20
-26.1719
 30
0.4502
 70
192
 0
VERTEX
 8
PIASTRA
 10
-45.6183
 20
-26.1719
 30
-0.1299
 70
192
 0
VERTEX
 8
PIASTRA
 10
-45.512
 20
-26.3265
 30
0.4502
 70
192
 0
VERTEX
 8
PIASTRA
 10
-45.512
 20
-26.3265
 30
-0.1299
 70
192
 0
VERTEX
 8
PIASTRA
 10
-45.512
 20
-26.3265
 30
-0.1299
 70
192
 0
VERTEX
 8
PIASTRA
 10
-45.512
 20
-26.3265
 30
0.4502
 70
192
 0
VERTEX
 8
PIASTRA
 10
-45.3782
 20
-26.4603
 30
0.4502
 70
192
 0
VERTEX
 8
PIASTRA
 10
-45.3782
 20
-26.4603
 30
-0.1299
 70
192
 0
VERTEX
 8
PIASTRA
 10
-45.3782
 20
-26.4603
 30
-0.1299
 70
192
 0
VERTEX
 8
PIASTRA
 10
-45.3782
 20
-26.4603
 30
0.4502
 70
192
 0
VERTEX
 8
PIASTRA
 10
-45.2236
 20
-26.5666
 30
-0.1299
 70
192
 0
VERTEX
 8
PIASTRA
 10
-45.2236
 20
-26.5666
 30
0.4502
 70
192
 0
VERTEX
 8
PIASTRA
 10
-45.2236
 20
-26.5666
 30
0.4502
 70
192
 0
VERTEX
 8
PIASTRA
 10
-45.2236
 20
-26.5666
 30
-0.1299
 70
192
 0
VERTEX
 8
PIASTRA
 10
-45.0837
 20
-26.6294
 30
0.4502
 70
192
 0
VERTEX
 8
PIASTRA
 10
-45.0566
 20
-26.6416
 30
0.4502
 70
192
 0
VERTEX
 8
PIASTRA
 10
-45.0566
 20
-26.6416
 30
-0.1299
 70
192
 0
VERTEX
 8
PIASTRA
 10
-45.0566
 20
-26.6416
 30
-0.1299
 70
192
 0
VERTEX
 8
PIASTRA
 10
-45.0566
 20
-26.6416
 30
0.4502
 70
192
 0
VERTEX
 8
PIASTRA
 10
-44.8861
 20
-26.6847
 30
-0.1299
 70
192
 0
VERTEX
 8
PIASTRA
 10
-44.8861
 20
-26.6847
 30
0.4502
 70
192
 0
VERTEX
 8
PIASTRA
 10
44.7201
 20
-25.6682
 30
0.4502
 70
192
 0
VERTEX
 8
PIASTRA
 10
45.6935
 20
-26.0049
 30
0.4502
 70
192
 0
VERTEX
 8
PIASTRA
 10
45.6935
 20
-26.0049
 30
-0.1299
 70
192
 0
VERTEX
 8
PIASTRA
 10
45.6185
 20
-26.1719
 30
0.4502
 70
192
 0
VERTEX
 8
PIASTRA
 10
45.6185
 20
-26.1719
 30
-0.1299
 70
192
 0
VERTEX
 8
PIASTRA
 10
44.7201
 20
-25.6682
 30
-0.1299
 70
192
 0
VERTEX
 8
PIASTRA
 10
44.8863
 20
-26.6847
 30
0.4502
 70
192
 0
VERTEX
 8
PIASTRA
 10
44.8863
 20
-26.6847
 30
-0.1299
 70
192
 0
VERTEX
 8
PIASTRA
 10
44.7201
 20
-25.6682
 30
-0.1299
 70
192
 0
VERTEX
 8
PIASTRA
 10
44.7201
 20
-25.6682
 30
-0.1299
 70
192
 0
VERTEX
 8
PIASTRA
 10
45.0568
 20
-26.6416
 30
0.4502
 70
192
 0
VERTEX
 8
PIASTRA
 10
45.0568
 20
-26.6416
 30
-0.1299
 70
192
 0
VERTEX
 8
PIASTRA
 10
45.0568
 20
-26.6416
 30
-0.1299
 70
192
 0
VERTEX
 8
PIASTRA
 10
45.0568
 20
-26.6416
 30
0.4502
 70
192
 0
VERTEX
 8
PIASTRA
 10
44.7201
 20
-25.6682
 30
-0.1299
 70
192
 0
VERTEX
 8
PIASTRA
 10
44.7201
 20
-25.6682
 30
-0.1299
 70
192
 0
VERTEX
 8
PIASTRA
 10
44.7201
 20
-25.6682
 30
-0.1299
 70
192
 0
VERTEX
 8
PIASTRA
 10
45.2238
 20
-26.5666
 30
0.4502
 70
192
 0
VERTEX
 8
PIASTRA
 10
45.2238
 20
-26.5666
 30
-0.1299
 70
192
 0
VERTEX
 8
PIASTRA
 10
44.7201
 20
-25.6682
 30
-0.1299
 70
192
 0
VERTEX
 8
PIASTRA
 10
44.7201
 20
-25.6682
 30
-0.1299
 70
192
 0
VERTEX
 8
PIASTRA
 10
44.7201
 20
-25.6682
 30
-0.1299
 70
192
 0
VERTEX
 8
PIASTRA
 10
45.2238
 20
-26.5666
 30
-0.1299
 70
192
 0
VERTEX
 8
PIASTRA
 10
45.2238
 20
-26.5666
 30
0.4502
 70
192
 0
VERTEX
 8
PIASTRA
 10
45.3784
 20
-26.4603
 30
0.4502
 70
192
 0
VERTEX
 8
PIASTRA
 10
45.3784
 20
-26.4603
 30
-0.1299
 70
192
 0
VERTEX
 8
PIASTRA
 10
44.7201
 20
-25.6682
 30
-0.1299
 70
192
 0
VERTEX
 8
PIASTRA
 10
44.7201
 20
-25.6682
 30
-0.1299
 70
192
 0
VERTEX
 8
PIASTRA
 10
44.7201
 20
-25.6682
 30
-0.1299
 70
192
 0
VERTEX
 8
PIASTRA
 10
45.3784
 20
-26.4603
 30
-0.1299
 70
192
 0
VERTEX
 8
PIASTRA
 10
45.3784
 20
-26.4603
 30
0.4502
 70
192
 0
VERTEX
 8
PIASTRA
 10
45.5122
 20
-26.3265
 30
0.4502
 70
192
 0
VERTEX
 8
PIASTRA
 10
45.5122
 20
-26.3265
 30
-0.1299
 70
192
 0
VERTEX
 8
PIASTRA
 10
45.5122
 20
-26.3265
 30
-0.1299
 70
192
 0
VERTEX
 8
PIASTRA
 10
45.5122
 20
-26.3265
 30
0.4502
 70
192
 0
VERTEX
 8
PIASTRA
 10
44.7201
 20
-25.6682
 30
-0.1299
 70
192
 0
VERTEX
 8
PIASTRA
 10
44.7201
 20
-25.6682
 30
-0.1299
 70
192
 0
VERTEX
 8
PIASTRA
 10
44.7201
 20
-25.6682
 30
-0.1299
 70
192
 0
VERTEX
 8
PIASTRA
 10
0
 20
0
 30
0
 70
128
 71
5
 72
6
 73
83
 74
84
 0
VERTEX
 8
PIASTRA
 10
0
 20
0
 30
0
 70
128
 71
9
 72
10
 73
11
 74
12
 0
VERTEX
 8
PIASTRA
 10
0
 20
0
 30
0
 70
128
 71
13
 72
14
 73
15
 74
16
 0
VERTEX
 8
PIASTRA
 10
0
 20
0
 30
0
 70
128
 71
1
 72
2
 73
3
 74
4
 0
VERTEX
 8
PIASTRA
 10
0
 20
0
 30
0
 70
128
 71
7
 72
8
 73
96
 74
96
 0
VERTEX
 8
PIASTRA
 10
0
 20
0
 30
0
 70
128
 71
96
 72
84
 73
83
 74
97
 0
VERTEX
 8
PIASTRA
 10
0
 20
0
 30
0
 70
128
 71
101
 72
71
 73
100
 74
100
 0
VERTEX
 8
PIASTRA
 10
0
 20
0
 30
0
 70
128
 71
73
 72
119
 73
74
 74
93
 0
VERTEX
 8
PIASTRA
 10
0
 20
0
 30
0
 70
128
 71
88
 72
86
 73
120
 74
120
 0
VERTEX
 8
PIASTRA
 10
0
 20
0
 30
0
 70
128
 71
94
 72
72
 73
98
 74
98
 0
VERTEX
 8
PIASTRA
 10
0
 20
0
 30
0
 70
128
 71
16
 72
86
 73
88
 74
88
 0
VERTEX
 8
PIASTRA
 10
0
 20
0
 30
0
 70
128
 71
87
 72
124
 73
31
 74
31
 0
VERTEX
 8
PIASTRA
 10
0
 20
0
 30
0
 70
128
 71
100
 72
98
 73
99
 74
101
 0
VERTEX
 8
PIASTRA
 10
0
 20
0
 30
0
 70
128
 71
120
 72
122
 73
88
 74
88
 0
VERTEX
 8
PIASTRA
 10
0
 20
0
 30
0
 70
128
 71
14
 72
72
 73
94
 74
94
 0
VERTEX
 8
PIASTRA
 10
0
 20
0
 30
0
 70
128
 71
24
 72
23
 73
123
 74
88
 0
VERTEX
 8
PIASTRA
 10
0
 20
0
 30
0
 70
128
 71
122
 72
120
 73
85
 74
121
 0
VERTEX
 8
PIASTRA
 10
0
 20
0
 30
0
 70
128
 71
98
 72
100
 73
94
 74
94
 0
VERTEX
 8
PIASTRA
 10
0
 20
0
 30
0
 70
128
 71
127
 72
123
 73
124
 74
124
 0
VERTEX
 8
PIASTRA
 10
0
 20
0
 30
0
 70
128
 71
89
 72
90
 73
3
 74
3
 0
VERTEX
 8
PIASTRA
 10
0
 20
0
 30
0
 70
128
 71
3
 72
2
 73
87
 74
89
 0
VERTEX
 8
PIASTRA
 10
0
 20
0
 30
0
 70
128
 71
142
 72
33
 73
141
 74
141
 0
VERTEX
 8
PIASTRA
 10
0
 20
0
 30
0
 70
128
 71
124
 72
128
 73
22
 74
22
 0
VERTEX
 8
PIASTRA
 10
0
 20
0
 30
0
 70
128
 71
166
 72
39
 73
89
 74
89
 0
VERTEX
 8
PIASTRA
 10
0
 20
0
 30
0
 70
128
 71
122
 72
24
 73
88
 74
88
 0
VERTEX
 8
PIASTRA
 10
0
 20
0
 30
0
 70
128
 71
141
 72
91
 73
90
 74
142
 0
VERTEX
 8
PIASTRA
 10
0
 20
0
 30
0
 70
128
 71
171
 72
166
 73
89
 74
89
 0
VERTEX
 8
PIASTRA
 10
0
 20
0
 30
0
 70
128
 71
88
 72
93
 73
13
 74
16
 0
VERTEX
 8
PIASTRA
 10
0
 20
0
 30
0
 70
128
 71
94
 72
87
 73
85
 74
85
 0
VERTEX
 8
PIASTRA
 10
0
 20
0
 30
0
 70
128
 71
86
 72
15
 73
85
 74
85
 0
VERTEX
 8
PIASTRA
 10
0
 20
0
 30
0
 70
128
 71
93
 72
80
 73
13
 74
13
 0
VERTEX
 8
PIASTRA
 10
0
 20
0
 30
0
 70
128
 71
94
 72
71
 73
102
 74
102
 0
VERTEX
 8
PIASTRA
 10
0
 20
0
 30
0
 70
128
 71
85
 72
120
 73
86
 74
86
 0
VERTEX
 8
PIASTRA
 10
0
 20
0
 30
0
 70
128
 71
86
 72
16
 73
15
 74
15
 0
VERTEX
 8
PIASTRA
 10
0
 20
0
 30
0
 70
128
 71
127
 72
22
 73
88
 74
123
 0
VERTEX
 8
PIASTRA
 10
0
 20
0
 30
0
 70
128
 71
46
 72
161
 73
162
 74
38
 0
VERTEX
 8
PIASTRA
 10
0
 20
0
 30
0
 70
128
 71
87
 72
32
 73
121
 74
85
 0
VERTEX
 8
PIASTRA
 10
0
 20
0
 30
0
 70
128
 71
124
 72
22
 73
127
 74
127
 0
VERTEX
 8
PIASTRA
 10
0
 20
0
 30
0
 70
128
 71
15
 72
14
 73
94
 74
94
 0
VERTEX
 8
PIASTRA
 10
0
 20
0
 30
0
 70
128
 71
121
 72
32
 73
24
 74
122
 0
VERTEX
 8
PIASTRA
 10
0
 20
0
 30
0
 70
128
 71
94
 72
85
 73
15
 74
15
 0
VERTEX
 8
PIASTRA
 10
0
 20
0
 30
0
 70
128
 71
132
 72
20
 73
134
 74
134
 0
VERTEX
 8
PIASTRA
 10
0
 20
0
 30
0
 70
128
 71
97
 72
7
 73
96
 74
96
 0
VERTEX
 8
PIASTRA
 10
0
 20
0
 30
0
 70
128
 71
33
 72
41
 73
141
 74
141
 0
VERTEX
 8
PIASTRA
 10
0
 20
0
 30
0
 70
128
 71
43
 72
149
 73
150
 74
35
 0
VERTEX
 8
PIASTRA
 10
0
 20
0
 30
0
 70
128
 71
92
 72
4
 73
91
 74
91
 0
VERTEX
 8
PIASTRA
 10
0
 20
0
 30
0
 70
128
 71
144
 72
147
 73
92
 74
92
 0
VERTEX
 8
PIASTRA
 10
0
 20
0
 30
0
 70
128
 71
100
 72
71
 73
94
 74
94
 0
VERTEX
 8
PIASTRA
 10
0
 20
0
 30
0
 70
128
 71
93
 72
79
 73
101
 74
101
 0
VERTEX
 8
PIASTRA
 10
0
 20
0
 30
0
 70
128
 71
102
 72
104
 73
94
 74
94
 0
VERTEX
 8
PIASTRA
 10
0
 20
0
 30
0
 70
128
 71
5
 72
48
 73
40
 74
6
 0
VERTEX
 8
PIASTRA
 10
0
 20
0
 30
0
 70
128
 71
9
 72
64
 73
56
 74
10
 0
VERTEX
 8
PIASTRA
 10
0
 20
0
 30
0
 70
128
 71
13
 72
80
 73
72
 74
14
 0
VERTEX
 8
PIASTRA
 10
0
 20
0
 30
0
 70
128
 71
140
 72
17
 73
25
 74
25
 0
VERTEX
 8
PIASTRA
 10
0
 20
0
 30
0
 70
128
 71
48
 72
170
 73
171
 74
40
 0
VERTEX
 8
PIASTRA
 10
0
 20
0
 30
0
 70
128
 71
92
 72
167
 73
170
 74
170
 0
VERTEX
 8
PIASTRA
 10
0
 20
0
 30
0
 70
128
 71
47
 72
168
 73
169
 74
39
 0
VERTEX
 8
PIASTRA
 10
0
 20
0
 30
0
 70
128
 71
170
 72
48
 73
92
 74
92
 0
VERTEX
 8
PIASTRA
 10
0
 20
0
 30
0
 70
128
 71
45
 72
159
 73
160
 74
37
 0
VERTEX
 8
PIASTRA
 10
0
 20
0
 30
0
 70
128
 71
44
 72
155
 73
156
 74
36
 0
VERTEX
 8
PIASTRA
 10
0
 20
0
 30
0
 70
128
 71
42
 72
147
 73
148
 74
34
 0
VERTEX
 8
PIASTRA
 10
0
 20
0
 30
0
 70
128
 71
91
 72
4
 73
3
 74
90
 0
VERTEX
 8
PIASTRA
 10
0
 20
0
 30
0
 70
128
 71
173
 72
56
 73
64
 74
64
 0
VERTEX
 8
PIASTRA
 10
0
 20
0
 30
0
 70
128
 71
63
 72
176
 73
54
 74
54
 0
VERTEX
 8
PIASTRA
 10
0
 20
0
 30
0
 70
128
 71
204
 72
61
 73
53
 74
203
 0
VERTEX
 8
PIASTRA
 10
0
 20
0
 30
0
 70
128
 71
205
 72
197
 73
52
 74
52
 0
VERTEX
 8
PIASTRA
 10
0
 20
0
 30
0
 70
128
 71
197
 72
60
 73
52
 74
52
 0
VERTEX
 8
PIASTRA
 10
0
 20
0
 30
0
 70
128
 71
183
 72
58
 73
50
 74
182
 0
VERTEX
 8
PIASTRA
 10
0
 20
0
 30
0
 70
128
 71
185
 72
50
 73
179
 74
179
 0
VERTEX
 8
PIASTRA
 10
0
 20
0
 30
0
 70
128
 71
57
 72
8
 73
7
 74
49
 0
VERTEX
 8
PIASTRA
 10
0
 20
0
 30
0
 70
128
 71
101
 72
79
 73
71
 74
71
 0
VERTEX
 8
PIASTRA
 10
0
 20
0
 30
0
 70
128
 71
105
 72
78
 73
70
 74
70
 0
VERTEX
 8
PIASTRA
 10
0
 20
0
 30
0
 70
128
 71
77
 72
69
 73
108
 74
108
 0
VERTEX
 8
PIASTRA
 10
0
 20
0
 30
0
 70
128
 71
110
 72
69
 73
77
 74
77
 0
VERTEX
 8
PIASTRA
 10
0
 20
0
 30
0
 70
128
 71
113
 72
115
 73
67
 74
67
 0
VERTEX
 8
PIASTRA
 10
0
 20
0
 30
0
 70
128
 71
117
 72
66
 73
116
 74
116
 0
VERTEX
 8
PIASTRA
 10
0
 20
0
 30
0
 70
128
 71
118
 72
66
 73
74
 74
74
 0
VERTEX
 8
PIASTRA
 10
0
 20
0
 30
0
 70
128
 71
73
 72
12
 73
11
 74
65
 0
VERTEX
 8
PIASTRA
 10
0
 20
0
 30
0
 70
128
 71
138
 72
18
 73
26
 74
137
 0
VERTEX
 8
PIASTRA
 10
0
 20
0
 30
0
 70
128
 71
136
 72
19
 73
27
 74
135
 0
VERTEX
 8
PIASTRA
 10
0
 20
0
 30
0
 70
128
 71
134
 72
20
 73
28
 74
133
 0
VERTEX
 8
PIASTRA
 10
0
 20
0
 30
0
 70
128
 71
132
 72
21
 73
29
 74
131
 0
VERTEX
 8
PIASTRA
 10
0
 20
0
 30
0
 70
128
 71
22
 72
30
 73
125
 74
126
 0
VERTEX
 8
PIASTRA
 10
0
 20
0
 30
0
 70
128
 71
123
 72
23
 73
31
 74
124
 0
VERTEX
 8
PIASTRA
 10
0
 20
0
 30
0
 70
128
 71
23
 72
24
 73
32
 74
31
 0
VERTEX
 8
PIASTRA
 10
0
 20
0
 30
0
 70
128
 71
129
 72
134
 73
88
 74
126
 0
VERTEX
 8
PIASTRA
 10
0
 20
0
 30
0
 70
128
 71
1
 72
4
 73
92
 74
88
 0
VERTEX
 8
PIASTRA
 10
0
 20
0
 30
0
 70
128
 71
141
 72
41
 73
92
 74
92
 0
VERTEX
 8
PIASTRA
 10
0
 20
0
 30
0
 70
128
 71
89
 72
33
 73
142
 74
90
 0
VERTEX
 8
PIASTRA
 10
0
 20
0
 30
0
 70
128
 71
92
 72
41
 73
144
 74
144
 0
VERTEX
 8
PIASTRA
 10
0
 20
0
 30
0
 70
128
 71
174
 72
63
 73
55
 74
55
 0
VERTEX
 8
PIASTRA
 10
0
 20
0
 30
0
 70
128
 71
64
 72
174
 73
55
 74
55
 0
VERTEX
 8
PIASTRA
 10
0
 20
0
 30
0
 70
128
 71
94
 72
11
 73
10
 74
172
 0
VERTEX
 8
PIASTRA
 10
0
 20
0
 30
0
 70
128
 71
173
 72
55
 73
172
 74
56
 0
VERTEX
 8
PIASTRA
 10
0
 20
0
 30
0
 70
128
 71
81
 72
2
 73
1
 74
82
 0
VERTEX
 8
PIASTRA
 10
0
 20
0
 30
0
 70
128
 71
64
 72
55
 73
173
 74
173
 0
VERTEX
 8
PIASTRA
 10
0
 20
0
 30
0
 70
128
 71
10
 72
56
 73
172
 74
172
 0
VERTEX
 8
PIASTRA
 10
0
 20
0
 30
0
 70
128
 71
87
 72
94
 73
172
 74
89
 0
VERTEX
 8
PIASTRA
 10
0
 20
0
 30
0
 70
128
 71
172
 72
97
 73
83
 74
89
 0
VERTEX
 8
PIASTRA
 10
0
 20
0
 30
0
 70
128
 71
6
 72
89
 73
83
 74
83
 0
VERTEX
 8
PIASTRA
 10
0
 20
0
 30
0
 70
128
 71
172
 72
7
 73
97
 74
97
 0
VERTEX
 8
PIASTRA
 10
0
 20
0
 30
0
 70
128
 71
9
 72
12
 73
93
 74
95
 0
VERTEX
 8
PIASTRA
 10
0
 20
0
 30
0
 70
128
 71
91
 72
141
 73
92
 74
92
 0
VERTEX
 8
PIASTRA
 10
0
 20
0
 30
0
 70
128
 71
93
 72
88
 73
92
 74
95
 0
VERTEX
 8
PIASTRA
 10
0
 20
0
 30
0
 70
128
 71
63
 72
54
 73
175
 74
175
 0
VERTEX
 8
PIASTRA
 10
0
 20
0
 30
0
 70
128
 71
5
 72
96
 73
193
 74
193
 0
VERTEX
 8
PIASTRA
 10
0
 20
0
 30
0
 70
128
 71
95
 72
191
 73
200
 74
200
 0
VERTEX
 8
PIASTRA
 10
0
 20
0
 30
0
 70
128
 71
64
 72
9
 73
95
 74
95
 0
VERTEX
 8
PIASTRA
 10
0
 20
0
 30
0
 70
128
 71
175
 72
54
 73
172
 74
55
 0
VERTEX
 8
PIASTRA
 10
0
 20
0
 30
0
 70
128
 71
96
 72
8
 73
193
 74
193
 0
VERTEX
 8
PIASTRA
 10
0
 20
0
 30
0
 70
128
 71
95
 72
92
 73
5
 74
5
 0
VERTEX
 8
PIASTRA
 10
0
 20
0
 30
0
 70
128
 71
5
 72
84
 73
96
 74
96
 0
VERTEX
 8
PIASTRA
 10
0
 20
0
 30
0
 70
128
 71
175
 72
55
 73
63
 74
63
 0
VERTEX
 8
PIASTRA
 10
0
 20
0
 30
0
 70
128
 71
104
 72
102
 73
103
 74
103
 0
VERTEX
 8
PIASTRA
 10
0
 20
0
 30
0
 70
128
 71
93
 72
101
 73
99
 74
99
 0
VERTEX
 8
PIASTRA
 10
0
 20
0
 30
0
 70
128
 71
103
 72
105
 73
70
 74
70
 0
VERTEX
 8
PIASTRA
 10
0
 20
0
 30
0
 70
128
 71
99
 72
80
 73
93
 74
93
 0
VERTEX
 8
PIASTRA
 10
0
 20
0
 30
0
 70
128
 71
98
 72
72
 73
80
 74
99
 0
VERTEX
 8
PIASTRA
 10
0
 20
0
 30
0
 70
128
 71
104
 72
70
 73
94
 74
94
 0
VERTEX
 8
PIASTRA
 10
0
 20
0
 30
0
 70
128
 71
103
 72
79
 73
93
 74
93
 0
VERTEX
 8
PIASTRA
 10
0
 20
0
 30
0
 70
128
 71
93
 72
78
 73
105
 74
105
 0
VERTEX
 8
PIASTRA
 10
0
 20
0
 30
0
 70
128
 71
103
 72
70
 73
104
 74
104
 0
VERTEX
 8
PIASTRA
 10
0
 20
0
 30
0
 70
128
 71
106
 72
108
 73
110
 74
110
 0
VERTEX
 8
PIASTRA
 10
0
 20
0
 30
0
 70
128
 71
93
 72
105
 73
103
 74
103
 0
VERTEX
 8
PIASTRA
 10
0
 20
0
 30
0
 70
128
 71
71
 72
79
 73
103
 74
102
 0
VERTEX
 8
PIASTRA
 10
0
 20
0
 30
0
 70
128
 71
65
 72
11
 73
94
 74
94
 0
VERTEX
 8
PIASTRA
 10
0
 20
0
 30
0
 70
128
 71
112
 72
114
 73
94
 74
70
 0
VERTEX
 8
PIASTRA
 10
0
 20
0
 30
0
 70
128
 71
116
 72
66
 73
94
 74
94
 0
VERTEX
 8
PIASTRA
 10
0
 20
0
 30
0
 70
128
 71
118
 72
65
 73
94
 74
94
 0
VERTEX
 8
PIASTRA
 10
0
 20
0
 30
0
 70
128
 71
70
 72
78
 73
107
 74
106
 0
VERTEX
 8
PIASTRA
 10
0
 20
0
 30
0
 70
128
 71
109
 72
77
 73
108
 74
108
 0
VERTEX
 8
PIASTRA
 10
0
 20
0
 30
0
 70
128
 71
108
 72
106
 73
107
 74
109
 0
VERTEX
 8
PIASTRA
 10
0
 20
0
 30
0
 70
128
 71
93
 72
77
 73
109
 74
109
 0
VERTEX
 8
PIASTRA
 10
0
 20
0
 30
0
 70
128
 71
93
 72
109
 73
107
 74
107
 0
VERTEX
 8
PIASTRA
 10
0
 20
0
 30
0
 70
128
 71
93
 72
107
 73
78
 74
78
 0
VERTEX
 8
PIASTRA
 10
0
 20
0
 30
0
 70
128
 71
66
 72
118
 73
94
 74
94
 0
VERTEX
 8
PIASTRA
 10
0
 20
0
 30
0
 70
128
 71
93
 72
76
 73
111
 74
77
 0
VERTEX
 8
PIASTRA
 10
0
 20
0
 30
0
 70
128
 71
77
 72
68
 73
110
 74
110
 0
VERTEX
 8
PIASTRA
 10
0
 20
0
 30
0
 70
128
 71
111
 72
76
 73
68
 74
68
 0
VERTEX
 8
PIASTRA
 10
0
 20
0
 30
0
 70
128
 71
77
 72
111
 73
68
 74
68
 0
VERTEX
 8
PIASTRA
 10
0
 20
0
 30
0
 70
128
 71
114
 72
67
 73
94
 74
94
 0
VERTEX
 8
PIASTRA
 10
0
 20
0
 30
0
 70
128
 71
106
 72
110
 73
68
 74
68
 0
VERTEX
 8
PIASTRA
 10
0
 20
0
 30
0
 70
128
 71
68
 72
76
 73
113
 74
112
 0
VERTEX
 8
PIASTRA
 10
0
 20
0
 30
0
 70
128
 71
93
 72
115
 73
113
 74
113
 0
VERTEX
 8
PIASTRA
 10
0
 20
0
 30
0
 70
128
 71
93
 72
113
 73
76
 74
76
 0
VERTEX
 8
PIASTRA
 10
0
 20
0
 30
0
 70
128
 71
93
 72
75
 73
115
 74
115
 0
VERTEX
 8
PIASTRA
 10
0
 20
0
 30
0
 70
128
 71
113
 72
67
 73
114
 74
114
 0
VERTEX
 8
PIASTRA
 10
0
 20
0
 30
0
 70
128
 71
114
 72
112
 73
113
 74
113
 0
VERTEX
 8
PIASTRA
 10
0
 20
0
 30
0
 70
128
 71
115
 72
75
 73
67
 74
67
 0
VERTEX
 8
PIASTRA
 10
0
 20
0
 30
0
 70
128
 71
70
 72
68
 73
112
 74
112
 0
VERTEX
 8
PIASTRA
 10
0
 20
0
 30
0
 70
128
 71
93
 72
74
 73
117
 74
75
 0
VERTEX
 8
PIASTRA
 10
0
 20
0
 30
0
 70
128
 71
116
 72
67
 73
75
 74
117
 0
VERTEX
 8
PIASTRA
 10
0
 20
0
 30
0
 70
128
 71
117
 72
74
 73
66
 74
66
 0
VERTEX
 8
PIASTRA
 10
0
 20
0
 30
0
 70
128
 71
108
 72
69
 73
110
 74
110
 0
VERTEX
 8
PIASTRA
 10
0
 20
0
 30
0
 70
128
 71
93
 72
12
 73
73
 74
73
 0
VERTEX
 8
PIASTRA
 10
0
 20
0
 30
0
 70
128
 71
119
 72
73
 73
65
 74
65
 0
VERTEX
 8
PIASTRA
 10
0
 20
0
 30
0
 70
128
 71
74
 72
65
 73
118
 74
118
 0
VERTEX
 8
PIASTRA
 10
0
 20
0
 30
0
 70
128
 71
74
 72
119
 73
65
 74
65
 0
VERTEX
 8
PIASTRA
 10
0
 20
0
 30
0
 70
128
 71
67
 72
116
 73
94
 74
94
 0
VERTEX
 8
PIASTRA
 10
0
 20
0
 30
0
 70
128
 71
70
 72
106
 73
68
 74
68
 0
VERTEX
 8
PIASTRA
 10
0
 20
0
 30
0
 70
128
 71
87
 72
128
 73
124
 74
124
 0
VERTEX
 8
PIASTRA
 10
0
 20
0
 30
0
 70
128
 71
18
 72
138
 73
17
 74
17
 0
VERTEX
 8
PIASTRA
 10
0
 20
0
 30
0
 70
128
 71
87
 72
30
 73
128
 74
128
 0
VERTEX
 8
PIASTRA
 10
0
 20
0
 30
0
 70
128
 71
31
 72
32
 73
87
 74
87
 0
VERTEX
 8
PIASTRA
 10
0
 20
0
 30
0
 70
128
 71
82
 72
1
 73
88
 74
88
 0
VERTEX
 8
PIASTRA
 10
0
 20
0
 30
0
 70
128
 71
128
 72
30
 73
22
 74
22
 0
VERTEX
 8
PIASTRA
 10
0
 20
0
 30
0
 70
128
 71
19
 72
136
 73
88
 74
88
 0
VERTEX
 8
PIASTRA
 10
0
 20
0
 30
0
 70
128
 71
130
 72
29
 73
21
 74
21
 0
VERTEX
 8
PIASTRA
 10
0
 20
0
 30
0
 70
128
 71
125
 72
130
 73
21
 74
21
 0
VERTEX
 8
PIASTRA
 10
0
 20
0
 30
0
 70
128
 71
87
 72
130
 73
125
 74
125
 0
VERTEX
 8
PIASTRA
 10
0
 20
0
 30
0
 70
128
 71
87
 72
125
 73
30
 74
30
 0
VERTEX
 8
PIASTRA
 10
0
 20
0
 30
0
 70
128
 71
87
 72
29
 73
130
 74
130
 0
VERTEX
 8
PIASTRA
 10
0
 20
0
 30
0
 70
128
 71
125
 72
21
 73
129
 74
129
 0
VERTEX
 8
PIASTRA
 10
0
 20
0
 30
0
 70
128
 71
129
 72
126
 73
125
 74
125
 0
VERTEX
 8
PIASTRA
 10
0
 20
0
 30
0
 70
128
 71
18
 72
17
 73
88
 74
88
 0
VERTEX
 8
PIASTRA
 10
0
 20
0
 30
0
 70
128
 71
134
 72
19
 73
88
 74
88
 0
VERTEX
 8
PIASTRA
 10
0
 20
0
 30
0
 70
128
 71
140
 72
82
 73
88
 74
88
 0
VERTEX
 8
PIASTRA
 10
0
 20
0
 30
0
 70
128
 71
28
 72
20
 73
132
 74
131
 0
VERTEX
 8
PIASTRA
 10
0
 20
0
 30
0
 70
128
 71
87
 72
27
 73
133
 74
28
 0
VERTEX
 8
PIASTRA
 10
0
 20
0
 30
0
 70
128
 71
87
 72
28
 73
131
 74
29
 0
VERTEX
 8
PIASTRA
 10
0
 20
0
 30
0
 70
128
 71
22
 72
126
 73
88
 74
88
 0
VERTEX
 8
PIASTRA
 10
0
 20
0
 30
0
 70
128
 71
133
 72
27
 73
19
 74
134
 0
VERTEX
 8
PIASTRA
 10
0
 20
0
 30
0
 70
128
 71
87
 72
26
 73
135
 74
27
 0
VERTEX
 8
PIASTRA
 10
0
 20
0
 30
0
 70
128
 71
129
 72
21
 73
134
 74
134
 0
VERTEX
 8
PIASTRA
 10
0
 20
0
 30
0
 70
128
 71
135
 72
26
 73
18
 74
136
 0
VERTEX
 8
PIASTRA
 10
0
 20
0
 30
0
 70
128
 71
87
 72
25
 73
137
 74
26
 0
VERTEX
 8
PIASTRA
 10
0
 20
0
 30
0
 70
128
 71
82
 72
140
 73
25
 74
25
 0
VERTEX
 8
PIASTRA
 10
0
 20
0
 30
0
 70
128
 71
82
 72
25
 73
139
 74
139
 0
VERTEX
 8
PIASTRA
 10
0
 20
0
 30
0
 70
128
 71
139
 72
81
 73
82
 74
82
 0
VERTEX
 8
PIASTRA
 10
0
 20
0
 30
0
 70
128
 71
21
 72
132
 73
134
 74
134
 0
VERTEX
 8
PIASTRA
 10
0
 20
0
 30
0
 70
128
 71
17
 72
140
 73
88
 74
88
 0
VERTEX
 8
PIASTRA
 10
0
 20
0
 30
0
 70
128
 71
136
 72
18
 73
88
 74
88
 0
VERTEX
 8
PIASTRA
 10
0
 20
0
 30
0
 70
128
 71
137
 72
25
 73
17
 74
138
 0
VERTEX
 8
PIASTRA
 10
0
 20
0
 30
0
 70
128
 71
87
 72
81
 73
139
 74
139
 0
VERTEX
 8
PIASTRA
 10
0
 20
0
 30
0
 70
128
 71
87
 72
2
 73
81
 74
81
 0
VERTEX
 8
PIASTRA
 10
0
 20
0
 30
0
 70
128
 71
139
 72
25
 73
87
 74
87
 0
VERTEX
 8
PIASTRA
 10
0
 20
0
 30
0
 70
128
 71
159
 72
36
 73
153
 74
153
 0
VERTEX
 8
PIASTRA
 10
0
 20
0
 30
0
 70
128
 71
146
 72
42
 73
34
 74
34
 0
VERTEX
 8
PIASTRA
 10
0
 20
0
 30
0
 70
128
 71
147
 72
42
 73
92
 74
92
 0
VERTEX
 8
PIASTRA
 10
0
 20
0
 30
0
 70
128
 71
92
 72
42
 73
146
 74
146
 0
VERTEX
 8
PIASTRA
 10
0
 20
0
 30
0
 70
128
 71
89
 72
148
 73
143
 74
143
 0
VERTEX
 8
PIASTRA
 10
0
 20
0
 30
0
 70
128
 71
143
 72
33
 73
89
 74
89
 0
VERTEX
 8
PIASTRA
 10
0
 20
0
 30
0
 70
128
 71
146
 72
149
 73
92
 74
92
 0
VERTEX
 8
PIASTRA
 10
0
 20
0
 30
0
 70
128
 71
149
 72
43
 73
92
 74
92
 0
VERTEX
 8
PIASTRA
 10
0
 20
0
 30
0
 70
128
 71
89
 72
34
 73
148
 74
148
 0
VERTEX
 8
PIASTRA
 10
0
 20
0
 30
0
 70
128
 71
146
 72
34
 73
145
 74
145
 0
VERTEX
 8
PIASTRA
 10
0
 20
0
 30
0
 70
128
 71
143
 72
148
 73
147
 74
144
 0
VERTEX
 8
PIASTRA
 10
0
 20
0
 30
0
 70
128
 71
144
 72
41
 73
33
 74
33
 0
VERTEX
 8
PIASTRA
 10
0
 20
0
 30
0
 70
128
 71
144
 72
33
 73
143
 74
143
 0
VERTEX
 8
PIASTRA
 10
0
 20
0
 30
0
 70
128
 71
89
 72
150
 73
145
 74
145
 0
VERTEX
 8
PIASTRA
 10
0
 20
0
 30
0
 70
128
 71
145
 72
150
 73
149
 74
146
 0
VERTEX
 8
PIASTRA
 10
0
 20
0
 30
0
 70
128
 71
145
 72
34
 73
89
 74
89
 0
VERTEX
 8
PIASTRA
 10
0
 20
0
 30
0
 70
128
 71
89
 72
35
 73
150
 74
150
 0
VERTEX
 8
PIASTRA
 10
0
 20
0
 30
0
 70
128
 71
89
 72
37
 73
160
 74
160
 0
VERTEX
 8
PIASTRA
 10
0
 20
0
 30
0
 70
128
 71
155
 72
44
 73
92
 74
92
 0
VERTEX
 8
PIASTRA
 10
0
 20
0
 30
0
 70
128
 71
92
 72
43
 73
152
 74
152
 0
VERTEX
 8
PIASTRA
 10
0
 20
0
 30
0
 70
128
 71
152
 72
155
 73
92
 74
92
 0
VERTEX
 8
PIASTRA
 10
0
 20
0
 30
0
 70
128
 71
153
 72
160
 73
159
 74
159
 0
VERTEX
 8
PIASTRA
 10
0
 20
0
 30
0
 70
128
 71
151
 72
35
 73
89
 74
89
 0
VERTEX
 8
PIASTRA
 10
0
 20
0
 30
0
 70
128
 71
89
 72
36
 73
156
 74
156
 0
VERTEX
 8
PIASTRA
 10
0
 20
0
 30
0
 70
128
 71
89
 72
156
 73
151
 74
151
 0
VERTEX
 8
PIASTRA
 10
0
 20
0
 30
0
 70
128
 71
153
 72
36
 73
89
 74
89
 0
VERTEX
 8
PIASTRA
 10
0
 20
0
 30
0
 70
128
 71
89
 72
160
 73
153
 74
153
 0
VERTEX
 8
PIASTRA
 10
0
 20
0
 30
0
 70
128
 71
155
 72
35
 73
151
 74
151
 0
VERTEX
 8
PIASTRA
 10
0
 20
0
 30
0
 70
128
 71
151
 72
156
 73
155
 74
155
 0
VERTEX
 8
PIASTRA
 10
0
 20
0
 30
0
 70
128
 71
152
 72
43
 73
35
 74
35
 0
VERTEX
 8
PIASTRA
 10
0
 20
0
 30
0
 70
128
 71
155
 72
152
 73
35
 74
35
 0
VERTEX
 8
PIASTRA
 10
0
 20
0
 30
0
 70
128
 71
154
 72
159
 73
92
 74
92
 0
VERTEX
 8
PIASTRA
 10
0
 20
0
 30
0
 70
128
 71
154
 72
44
 73
36
 74
36
 0
VERTEX
 8
PIASTRA
 10
0
 20
0
 30
0
 70
128
 71
92
 72
44
 73
154
 74
154
 0
VERTEX
 8
PIASTRA
 10
0
 20
0
 30
0
 70
128
 71
159
 72
45
 73
92
 74
92
 0
VERTEX
 8
PIASTRA
 10
0
 20
0
 30
0
 70
128
 71
159
 72
154
 73
36
 74
36
 0
VERTEX
 8
PIASTRA
 10
0
 20
0
 30
0
 70
128
 71
158
 72
161
 73
92
 74
92
 0
VERTEX
 8
PIASTRA
 10
0
 20
0
 30
0
 70
128
 71
92
 72
47
 73
167
 74
167
 0
VERTEX
 8
PIASTRA
 10
0
 20
0
 30
0
 70
128
 71
92
 72
45
 73
158
 74
158
 0
VERTEX
 8
PIASTRA
 10
0
 20
0
 30
0
 70
128
 71
161
 72
46
 73
92
 74
92
 0
VERTEX
 8
PIASTRA
 10
0
 20
0
 30
0
 70
128
 71
89
 72
162
 73
157
 74
157
 0
VERTEX
 8
PIASTRA
 10
0
 20
0
 30
0
 70
128
 71
157
 72
37
 73
89
 74
89
 0
VERTEX
 8
PIASTRA
 10
0
 20
0
 30
0
 70
128
 71
167
 72
47
 73
166
 74
166
 0
VERTEX
 8
PIASTRA
 10
0
 20
0
 30
0
 70
128
 71
89
 72
38
 73
162
 74
162
 0
VERTEX
 8
PIASTRA
 10
0
 20
0
 30
0
 70
128
 71
164
 72
163
 73
165
 74
165
 0
VERTEX
 8
PIASTRA
 10
0
 20
0
 30
0
 70
128
 71
158
 72
45
 73
157
 74
157
 0
VERTEX
 8
PIASTRA
 10
0
 20
0
 30
0
 70
128
 71
45
 72
37
 73
157
 74
157
 0
VERTEX
 8
PIASTRA
 10
0
 20
0
 30
0
 70
128
 71
157
 72
162
 73
161
 74
158
 0
VERTEX
 8
PIASTRA
 10
0
 20
0
 30
0
 70
128
 71
164
 72
168
 73
92
 74
92
 0
VERTEX
 8
PIASTRA
 10
0
 20
0
 30
0
 70
128
 71
92
 72
46
 73
164
 74
164
 0
VERTEX
 8
PIASTRA
 10
0
 20
0
 30
0
 70
128
 71
168
 72
47
 73
92
 74
92
 0
VERTEX
 8
PIASTRA
 10
0
 20
0
 30
0
 70
128
 71
165
 72
169
 73
168
 74
164
 0
VERTEX
 8
PIASTRA
 10
0
 20
0
 30
0
 70
128
 71
89
 72
6
 73
40
 74
40
 0
VERTEX
 8
PIASTRA
 10
0
 20
0
 30
0
 70
128
 71
46
 72
38
 73
163
 74
163
 0
VERTEX
 8
PIASTRA
 10
0
 20
0
 30
0
 70
128
 71
46
 72
163
 73
164
 74
164
 0
VERTEX
 8
PIASTRA
 10
0
 20
0
 30
0
 70
128
 71
47
 72
39
 73
166
 74
166
 0
VERTEX
 8
PIASTRA
 10
0
 20
0
 30
0
 70
128
 71
48
 72
5
 73
92
 74
92
 0
VERTEX
 8
PIASTRA
 10
0
 20
0
 30
0
 70
128
 71
169
 72
165
 73
89
 74
89
 0
VERTEX
 8
PIASTRA
 10
0
 20
0
 30
0
 70
128
 71
165
 72
163
 73
89
 74
89
 0
VERTEX
 8
PIASTRA
 10
0
 20
0
 30
0
 70
128
 71
89
 72
39
 73
169
 74
169
 0
VERTEX
 8
PIASTRA
 10
0
 20
0
 30
0
 70
128
 71
163
 72
38
 73
89
 74
89
 0
VERTEX
 8
PIASTRA
 10
0
 20
0
 30
0
 70
128
 71
166
 72
171
 73
170
 74
167
 0
VERTEX
 8
PIASTRA
 10
0
 20
0
 30
0
 70
128
 71
89
 72
40
 73
171
 74
171
 0
VERTEX
 8
PIASTRA
 10
0
 20
0
 30
0
 70
128
 71
176
 72
62
 73
54
 74
54
 0
VERTEX
 8
PIASTRA
 10
0
 20
0
 30
0
 70
128
 71
95
 72
180
 73
186
 74
186
 0
VERTEX
 8
PIASTRA
 10
0
 20
0
 30
0
 70
128
 71
95
 72
181
 73
187
 74
187
 0
VERTEX
 8
PIASTRA
 10
0
 20
0
 30
0
 70
128
 71
207
 72
62
 73
176
 74
176
 0
VERTEX
 8
PIASTRA
 10
0
 20
0
 30
0
 70
128
 71
95
 72
191
 73
186
 74
186
 0
VERTEX
 8
PIASTRA
 10
0
 20
0
 30
0
 70
128
 71
95
 72
186
 73
191
 74
191
 0
VERTEX
 8
PIASTRA
 10
0
 20
0
 30
0
 70
128
 71
179
 72
57
 73
49
 74
49
 0
VERTEX
 8
PIASTRA
 10
0
 20
0
 30
0
 70
128
 71
49
 72
7
 73
172
 74
172
 0
VERTEX
 8
PIASTRA
 10
0
 20
0
 30
0
 70
128
 71
178
 72
185
 73
179
 74
179
 0
VERTEX
 8
PIASTRA
 10
0
 20
0
 30
0
 70
128
 71
50
 72
58
 73
184
 74
184
 0
VERTEX
 8
PIASTRA
 10
0
 20
0
 30
0
 70
128
 71
95
 72
207
 73
176
 74
176
 0
VERTEX
 8
PIASTRA
 10
0
 20
0
 30
0
 70
128
 71
193
 72
8
 73
57
 74
57
 0
VERTEX
 8
PIASTRA
 10
0
 20
0
 30
0
 70
128
 71
95
 72
209
 73
200
 74
200
 0
VERTEX
 8
PIASTRA
 10
0
 20
0
 30
0
 70
128
 71
209
 72
63
 73
174
 74
174
 0
VERTEX
 8
PIASTRA
 10
0
 20
0
 30
0
 70
128
 71
172
 72
50
 73
185
 74
185
 0
VERTEX
 8
PIASTRA
 10
0
 20
0
 30
0
 70
128
 71
176
 72
63
 73
209
 74
209
 0
VERTEX
 8
PIASTRA
 10
0
 20
0
 30
0
 70
128
 71
178
 72
49
 73
172
 74
172
 0
VERTEX
 8
PIASTRA
 10
0
 20
0
 30
0
 70
128
 71
172
 72
185
 73
178
 74
178
 0
VERTEX
 8
PIASTRA
 10
0
 20
0
 30
0
 70
128
 71
95
 72
176
 73
209
 74
209
 0
VERTEX
 8
PIASTRA
 10
0
 20
0
 30
0
 70
128
 71
184
 72
58
 73
188
 74
188
 0
VERTEX
 8
PIASTRA
 10
0
 20
0
 30
0
 70
128
 71
179
 72
184
 73
188
 74
188
 0
VERTEX
 8
PIASTRA
 10
0
 20
0
 30
0
 70
128
 71
188
 72
57
 73
179
 74
179
 0
VERTEX
 8
PIASTRA
 10
0
 20
0
 30
0
 70
128
 71
174
 72
64
 73
95
 74
95
 0
VERTEX
 8
PIASTRA
 10
0
 20
0
 30
0
 70
128
 71
179
 72
49
 73
178
 74
178
 0
VERTEX
 8
PIASTRA
 10
0
 20
0
 30
0
 70
128
 71
184
 72
179
 73
50
 74
50
 0
VERTEX
 8
PIASTRA
 10
0
 20
0
 30
0
 70
128
 71
182
 72
50
 73
172
 74
172
 0
VERTEX
 8
PIASTRA
 10
0
 20
0
 30
0
 70
128
 71
172
 72
195
 73
182
 74
182
 0
VERTEX
 8
PIASTRA
 10
0
 20
0
 30
0
 70
128
 71
172
 72
51
 73
195
 74
195
 0
VERTEX
 8
PIASTRA
 10
0
 20
0
 30
0
 70
128
 71
195
 72
51
 73
194
 74
194
 0
VERTEX
 8
PIASTRA
 10
0
 20
0
 30
0
 70
128
 71
183
 72
194
 73
188
 74
188
 0
VERTEX
 8
PIASTRA
 10
0
 20
0
 30
0
 70
128
 71
188
 72
58
 73
183
 74
183
 0
VERTEX
 8
PIASTRA
 10
0
 20
0
 30
0
 70
128
 71
194
 72
59
 73
188
 74
188
 0
VERTEX
 8
PIASTRA
 10
0
 20
0
 30
0
 70
128
 71
52
 72
196
 73
205
 74
205
 0
VERTEX
 8
PIASTRA
 10
0
 20
0
 30
0
 70
128
 71
60
 72
201
 73
202
 74
52
 0
VERTEX
 8
PIASTRA
 10
0
 20
0
 30
0
 70
128
 71
57
 72
188
 73
95
 74
95
 0
VERTEX
 8
PIASTRA
 10
0
 20
0
 30
0
 70
128
 71
95
 72
193
 73
57
 74
57
 0
VERTEX
 8
PIASTRA
 10
0
 20
0
 30
0
 70
128
 71
51
 72
59
 73
194
 74
194
 0
VERTEX
 8
PIASTRA
 10
0
 20
0
 30
0
 70
128
 71
194
 72
183
 73
182
 74
195
 0
VERTEX
 8
PIASTRA
 10
0
 20
0
 30
0
 70
128
 71
5
 72
193
 73
95
 74
95
 0
VERTEX
 8
PIASTRA
 10
0
 20
0
 30
0
 70
128
 71
95
 72
192
 73
199
 74
199
 0
VERTEX
 8
PIASTRA
 10
0
 20
0
 30
0
 70
128
 71
95
 72
199
 73
207
 74
207
 0
VERTEX
 8
PIASTRA
 10
0
 20
0
 30
0
 70
128
 71
95
 72
209
 73
174
 74
174
 0
VERTEX
 8
PIASTRA
 10
0
 20
0
 30
0
 70
128
 71
95
 72
186
 73
180
 74
180
 0
VERTEX
 8
PIASTRA
 10
0
 20
0
 30
0
 70
128
 71
53
 72
61
 73
205
 74
205
 0
VERTEX
 8
PIASTRA
 10
0
 20
0
 30
0
 70
128
 71
172
 72
54
 73
203
 74
53
 0
VERTEX
 8
PIASTRA
 10
0
 20
0
 30
0
 70
128
 71
59
 72
181
 73
95
 74
95
 0
VERTEX
 8
PIASTRA
 10
0
 20
0
 30
0
 70
128
 71
59
 72
198
 73
187
 74
187
 0
VERTEX
 8
PIASTRA
 10
0
 20
0
 30
0
 70
128
 71
59
 72
187
 73
181
 74
181
 0
VERTEX
 8
PIASTRA
 10
0
 20
0
 30
0
 70
128
 71
201
 72
60
 73
208
 74
208
 0
VERTEX
 8
PIASTRA
 10
0
 20
0
 30
0
 70
128
 71
198
 72
59
 73
190
 74
190
 0
VERTEX
 8
PIASTRA
 10
0
 20
0
 30
0
 70
128
 71
187
 72
198
 73
190
 74
190
 0
VERTEX
 8
PIASTRA
 10
0
 20
0
 30
0
 70
128
 71
190
 72
201
 73
208
 74
208
 0
VERTEX
 8
PIASTRA
 10
0
 20
0
 30
0
 70
128
 71
95
 72
200
 73
191
 74
191
 0
VERTEX
 8
PIASTRA
 10
0
 20
0
 30
0
 70
128
 71
95
 72
187
 73
192
 74
192
 0
VERTEX
 8
PIASTRA
 10
0
 20
0
 30
0
 70
128
 71
95
 72
200
 73
209
 74
209
 0
VERTEX
 8
PIASTRA
 10
0
 20
0
 30
0
 70
128
 71
59
 72
95
 73
188
 74
188
 0
VERTEX
 8
PIASTRA
 10
0
 20
0
 30
0
 70
128
 71
205
 72
61
 73
187
 74
187
 0
VERTEX
 8
PIASTRA
 10
0
 20
0
 30
0
 70
128
 71
95
 72
180
 73
177
 74
177
 0
VERTEX
 8
PIASTRA
 10
0
 20
0
 30
0
 70
128
 71
208
 72
60
 73
197
 74
197
 0
VERTEX
 8
PIASTRA
 10
0
 20
0
 30
0
 70
128
 71
205
 72
187
 73
208
 74
208
 0
VERTEX
 8
PIASTRA
 10
0
 20
0
 30
0
 70
128
 71
208
 72
197
 73
205
 74
205
 0
VERTEX
 8
PIASTRA
 10
0
 20
0
 30
0
 70
128
 71
190
 72
59
 73
189
 74
189
 0
VERTEX
 8
PIASTRA
 10
0
 20
0
 30
0
 70
128
 71
59
 72
51
 73
189
 74
189
 0
VERTEX
 8
PIASTRA
 10
0
 20
0
 30
0
 70
128
 71
189
 72
202
 73
201
 74
190
 0
VERTEX
 8
PIASTRA
 10
0
 20
0
 30
0
 70
128
 71
202
 72
189
 73
172
 74
172
 0
VERTEX
 8
PIASTRA
 10
0
 20
0
 30
0
 70
128
 71
189
 72
51
 73
172
 74
172
 0
VERTEX
 8
PIASTRA
 10
0
 20
0
 30
0
 70
128
 71
172
 72
52
 73
202
 74
202
 0
VERTEX
 8
PIASTRA
 10
0
 20
0
 30
0
 70
128
 71
95
 72
177
 73
180
 74
180
 0
VERTEX
 8
PIASTRA
 10
0
 20
0
 30
0
 70
128
 71
206
 72
53
 73
205
 74
205
 0
VERTEX
 8
PIASTRA
 10
0
 20
0
 30
0
 70
128
 71
205
 72
196
 73
206
 74
206
 0
VERTEX
 8
PIASTRA
 10
0
 20
0
 30
0
 70
128
 71
190
 72
208
 73
187
 74
187
 0
VERTEX
 8
PIASTRA
 10
0
 20
0
 30
0
 70
128
 71
203
 72
54
 73
62
 74
204
 0
VERTEX
 8
PIASTRA
 10
0
 20
0
 30
0
 70
128
 71
204
 72
62
 73
207
 74
207
 0
VERTEX
 8
PIASTRA
 10
0
 20
0
 30
0
 70
128
 71
204
 72
199
 73
192
 74
192
 0
VERTEX
 8
PIASTRA
 10
0
 20
0
 30
0
 70
128
 71
204
 72
192
 73
187
 74
187
 0
VERTEX
 8
PIASTRA
 10
0
 20
0
 30
0
 70
128
 71
187
 72
61
 73
204
 74
204
 0
VERTEX
 8
PIASTRA
 10
0
 20
0
 30
0
 70
128
 71
204
 72
207
 73
199
 74
199
 0
VERTEX
 8
PIASTRA
 10
0
 20
0
 30
0
 70
128
 71
196
 72
52
 73
172
 74
172
 0
VERTEX
 8
PIASTRA
 10
0
 20
0
 30
0
 70
128
 71
206
 72
196
 73
172
 74
172
 0
VERTEX
 8
PIASTRA
 10
0
 20
0
 30
0
 70
128
 71
172
 72
53
 73
206
 74
206
 0
SEQEND
 0
POLYLINE
 8
BORDO
 66
1
 10
0.0
 20
0.0
 30
0.0
 70
64
 71
160
 72
160
 0
VERTEX
 8
BORDO
 10
-45.7499
 20
25.6719
 30
-0.1299
 70
192
 0
VERTEX
 8
BORDO
 10
-45.7499
 20
25.6719
 30
0.4502
 70
192
 0
VERTEX
 8
BORDO
 10
-45.7499
 20
-25.6682
 30
0.4502
 70
192
 0
VERTEX
 8
BORDO
 10
-45.7499
 20
-25.6682
 30
-0.1299
 70
192
 0
VERTEX
 8
BORDO
 10
-44.7199
 20
-26.6982
 30
-0.1299
 70
192
 0
VERTEX
 8
BORDO
 10
-44.7199
 20
-26.6982
 30
0.4502
 70
192
 0
VERTEX
 8
BORDO
 10
44.7201
 20
-26.6982
 30
0.4502
 70
192
 0
VERTEX
 8
BORDO
 10
44.7201
 20
-26.6982
 30
-0.1299
 70
192
 0
VERTEX
 8
BORDO
 10
45.7501
 20
-25.6682
 30
-0.1299
 70
192
 0
VERTEX
 8
BORDO
 10
45.7501
 20
-25.6682
 30
0.4502
 70
192
 0
VERTEX
 8
BORDO
 10
45.7501
 20
25.6719
 30
0.4502
 70
192
 0
VERTEX
 8
BORDO
 10
45.7501
 20
25.6719
 30
-0.1299
 70
192
 0
VERTEX
 8
BORDO
 10
44.7201
 20
26.7019
 30
-0.1299
 70
192
 0
VERTEX
 8
BORDO
 10
44.7201
 20
26.7019
 30
0.4502
 70
192
 0
VERTEX
 8
BORDO
 10
-44.7199
 20
26.7019
 30
0.4502
 70
192
 0
VERTEX
 8
BORDO
 10
-44.7199
 20
26.7019
 30
-0.1299
 70
192
 0
VERTEX
 8
BORDO
 10
-45.7364
 20
25.8381
 30
-0.1299
 70
192
 0
VERTEX
 8
BORDO
 10
-45.6933
 20
26.0086
 30
-0.1299
 70
192
 0
VERTEX
 8
BORDO
 10
-45.6183
 20
26.1756
 30
-0.1299
 70
192
 0
VERTEX
 8
BORDO
 10
-45.512
 20
26.3302
 30
-0.1299
 70
192
 0
VERTEX
 8
BORDO
 10
-45.3782
 20
26.464
 30
-0.1299
 70
192
 0
VERTEX
 8
BORDO
 10
-45.2236
 20
26.5703
 30
-0.1299
 70
192
 0
VERTEX
 8
BORDO
 10
-45.0566
 20
26.6453
 30
-0.1299
 70
192
 0
VERTEX
 8
BORDO
 10
-44.8861
 20
26.6884
 30
-0.1299
 70
192
 0
VERTEX
 8
BORDO
 10
-45.7364
 20
25.8381
 30
0.4502
 70
192
 0
VERTEX
 8
BORDO
 10
-45.6933
 20
26.0086
 30
0.4502
 70
192
 0
VERTEX
 8
BORDO
 10
-45.6183
 20
26.1756
 30
0.4502
 70
192
 0
VERTEX
 8
BORDO
 10
-45.512
 20
26.3302
 30
0.4502
 70
192
 0
VERTEX
 8
BORDO
 10
-45.3782
 20
26.464
 30
0.4502
 70
192
 0
VERTEX
 8
BORDO
 10
-45.2236
 20
26.5703
 30
0.4502
 70
192
 0
VERTEX
 8
BORDO
 10
-45.0566
 20
26.6453
 30
0.4502
 70
192
 0
VERTEX
 8
BORDO
 10
-44.8861
 20
26.6884
 30
0.4502
 70
192
 0
VERTEX
 8
BORDO
 10
-45.7364
 20
-25.8344
 30
0.4502
 70
192
 0
VERTEX
 8
BORDO
 10
-45.6933
 20
-26.0049
 30
0.4502
 70
192
 0
VERTEX
 8
BORDO
 10
-45.6183
 20
-26.1719
 30
0.4502
 70
192
 0
VERTEX
 8
BORDO
 10
-45.512
 20
-26.3265
 30
0.4502
 70
192
 0
VERTEX
 8
BORDO
 10
-45.3782
 20
-26.4603
 30
0.4502
 70
192
 0
VERTEX
 8
BORDO
 10
-45.2236
 20
-26.5666
 30
0.4502
 70
192
 0
VERTEX
 8
BORDO
 10
-45.0566
 20
-26.6416
 30
0.4502
 70
192
 0
VERTEX
 8
BORDO
 10
-44.8861
 20
-26.6847
 30
0.4502
 70
192
 0
VERTEX
 8
BORDO
 10
-45.7364
 20
-25.8344
 30
-0.1299
 70
192
 0
VERTEX
 8
BORDO
 10
-45.6933
 20
-26.0049
 30
-0.1299
 70
192
 0
VERTEX
 8
BORDO
 10
-45.6183
 20
-26.1719
 30
-0.1299
 70
192
 0
VERTEX
 8
BORDO
 10
-45.512
 20
-26.3265
 30
-0.1299
 70
192
 0
VERTEX
 8
BORDO
 10
-45.3782
 20
-26.4603
 30
-0.1299
 70
192
 0
VERTEX
 8
BORDO
 10
-45.2236
 20
-26.5666
 30
-0.1299
 70
192
 0
VERTEX
 8
BORDO
 10
-45.0566
 20
-26.6416
 30
-0.1299
 70
192
 0
VERTEX
 8
BORDO
 10
-44.8861
 20
-26.6847
 30
-0.1299
 70
192
 0
VERTEX
 8
BORDO
 10
44.8863
 20
-26.6847
 30
0.4502
 70
192
 0
VERTEX
 8
BORDO
 10
45.0568
 20
-26.6416
 30
0.4502
 70
192
 0
VERTEX
 8
BORDO
 10
45.2238
 20
-26.5666
 30
0.4502
 70
192
 0
VERTEX
 8
BORDO
 10
45.3784
 20
-26.4603
 30
0.4502
 70
192
 0
VERTEX
 8
BORDO
 10
45.5122
 20
-26.3265
 30
0.4502
 70
192
 0
VERTEX
 8
BORDO
 10
45.6185
 20
-26.1719
 30
0.4502
 70
192
 0
VERTEX
 8
BORDO
 10
45.6935
 20
-26.0049
 30
0.4502
 70
192
 0
VERTEX
 8
BORDO
 10
45.7366
 20
-25.8344
 30
0.4502
 70
192
 0
VERTEX
 8
BORDO
 10
44.8863
 20
-26.6847
 30
-0.1299
 70
192
 0
VERTEX
 8
BORDO
 10
45.0568
 20
-26.6416
 30
-0.1299
 70
192
 0
VERTEX
 8
BORDO
 10
45.2238
 20
-26.5666
 30
-0.1299
 70
192
 0
VERTEX
 8
BORDO
 10
45.3784
 20
-26.4603
 30
-0.1299
 70
192
 0
VERTEX
 8
BORDO
 10
45.5122
 20
-26.3265
 30
-0.1299
 70
192
 0
VERTEX
 8
BORDO
 10
45.6185
 20
-26.1719
 30
-0.1299
 70
192
 0
VERTEX
 8
BORDO
 10
45.6935
 20
-26.0049
 30
-0.1299
 70
192
 0
VERTEX
 8
BORDO
 10
45.7366
 20
-25.8344
 30
-0.1299
 70
192
 0
VERTEX
 8
BORDO
 10
45.7366
 20
25.8381
 30
0.4502
 70
192
 0
VERTEX
 8
BORDO
 10
45.6935
 20
26.0086
 30
0.4502
 70
192
 0
VERTEX
 8
BORDO
 10
45.6185
 20
26.1756
 30
0.4502
 70
192
 0
VERTEX
 8
BORDO
 10
45.5122
 20
26.3302
 30
0.4502
 70
192
 0
VERTEX
 8
BORDO
 10
45.3784
 20
26.464
 30
0.4502
 70
192
 0
VERTEX
 8
BORDO
 10
45.2238
 20
26.5703
 30
0.4502
 70
192
 0
VERTEX
 8
BORDO
 10
45.0568
 20
26.6453
 30
0.4502
 70
192
 0
VERTEX
 8
BORDO
 10
44.8863
 20
26.6884
 30
0.4502
 70
192
 0
VERTEX
 8
BORDO
 10
45.7366
 20
25.8381
 30
-0.1299
 70
192
 0
VERTEX
 8
BORDO
 10
45.6935
 20
26.0086
 30
-0.1299
 70
192
 0
VERTEX
 8
BORDO
 10
45.6185
 20
26.1756
 30
-0.1299
 70
192
 0
VERTEX
 8
BORDO
 10
45.5122
 20
26.3302
 30
-0.1299
 70
192
 0
VERTEX
 8
BORDO
 10
45.3784
 20
26.464
 30
-0.1299
 70
192
 0
VERTEX
 8
BORDO
 10
45.2238
 20
26.5703
 30
-0.1299
 70
192
 0
VERTEX
 8
BORDO
 10
45.0568
 20
26.6453
 30
-0.1299
 70
192
 0
VERTEX
 8
BORDO
 10
44.8863
 20
26.6884
 30
-0.1299
 70
192
 0
VERTEX
 8
BORDO
 10
-45.9499
 20
25.68
 30
-0.1299
 70
192
 0
VERTEX
 8
BORDO
 10
-45.9499
 20
25.68
 30
0.4502
 70
192
 0
VERTEX
 8
BORDO
 10
-45.9499
 20
-25.6763
 30
0.4502
 70
192
 0
VERTEX
 8
BORDO
 10
-45.9499
 20
-25.6763
 30
-0.1299
 70
192
 0
VERTEX
 8
BORDO
 10
-44.728
 20
-26.8982
 30
-0.1299
 70
192
 0
VERTEX
 8
BORDO
 10
-44.728
 20
-26.8982
 30
0.4502
 70
192
 0
VERTEX
 8
BORDO
 10
44.7282
 20
-26.8982
 30
0.4502
 70
192
 0
VERTEX
 8
BORDO
 10
44.7282
 20
-26.8982
 30
-0.1299
 70
192
 0
VERTEX
 8
BORDO
 10
45.9501
 20
-25.6763
 30
-0.1299
 70
192
 0
VERTEX
 8
BORDO
 10
45.9501
 20
-25.6763
 30
0.4502
 70
192
 0
VERTEX
 8
BORDO
 10
45.9501
 20
25.68
 30
0.4502
 70
192
 0
VERTEX
 8
BORDO
 10
45.9501
 20
25.68
 30
-0.1299
 70
192
 0
VERTEX
 8
BORDO
 10
44.7282
 20
26.9019
 30
-0.1299
 70
192
 0
VERTEX
 8
BORDO
 10
44.7282
 20
26.9019
 30
0.4502
 70
192
 0
VERTEX
 8
BORDO
 10
-44.728
 20
26.9019
 30
0.4502
 70
192
 0
VERTEX
 8
BORDO
 10
-44.728
 20
26.9019
 30
-0.1299
 70
192
 0
VERTEX
 8
BORDO
 10
-45.9344
 20
25.8709
 30
-0.1299
 70
192
 0
VERTEX
 8
BORDO
 10
-45.8829
 20
26.0746
 30
-0.1299
 70
192
 0
VERTEX
 8
BORDO
 10
-45.7933
 20
26.274
 30
-0.1299
 70
192
 0
VERTEX
 8
BORDO
 10
-45.6664
 20
26.4586
 30
-0.1299
 70
192
 0
VERTEX
 8
BORDO
 10
-45.5066
 20
26.6184
 30
-0.1299
 70
192
 0
VERTEX
 8
BORDO
 10
-45.322
 20
26.7454
 30
-0.1299
 70
192
 0
VERTEX
 8
BORDO
 10
-45.1225
 20
26.8349
 30
-0.1299
 70
192
 0
VERTEX
 8
BORDO
 10
-44.9189
 20
26.8864
 30
-0.1299
 70
192
 0
VERTEX
 8
BORDO
 10
-45.9344
 20
25.8709
 30
0.4502
 70
192
 0
VERTEX
 8
BORDO
 10
-45.8829
 20
26.0746
 30
0.4502
 70
192
 0
VERTEX
 8
BORDO
 10
-45.7933
 20
26.274
 30
0.4502
 70
192
 0
VERTEX
 8
BORDO
 10
-45.6664
 20
26.4586
 30
0.4502
 70
192
 0
VERTEX
 8
BORDO
 10
-45.5066
 20
26.6184
 30
0.4502
 70
192
 0
VERTEX
 8
BORDO
 10
-45.322
 20
26.7454
 30
0.4502
 70
192
 0
VERTEX
 8
BORDO
 10
-45.1225
 20
26.8349
 30
0.4502
 70
192
 0
VERTEX
 8
BORDO
 10
-44.9189
 20
26.8864
 30
0.4502
 70
192
 0
VERTEX
 8
BORDO
 10
-45.9344
 20
-25.8672
 30
0.4502
 70
192
 0
VERTEX
 8
BORDO
 10
-45.8829
 20
-26.0708
 30
0.4502
 70
192
 0
VERTEX
 8
BORDO
 10
-45.7933
 20
-26.2703
 30
0.4502
 70
192
 0
VERTEX
 8
BORDO
 10
-45.6664
 20
-26.4549
 30
0.4502
 70
192
 0
VERTEX
 8
BORDO
 10
-45.5066
 20
-26.6147
 30
0.4502
 70
192
 0
VERTEX
 8
BORDO
 10
-45.322
 20
-26.7416
 30
0.4502
 70
192
 0
VERTEX
 8
BORDO
 10
-45.1225
 20
-26.8312
 30
0.4502
 70
192
 0
VERTEX
 8
BORDO
 10
-44.9189
 20
-26.8826
 30
0.4502
 70
192
 0
VERTEX
 8
BORDO
 10
-45.9344
 20
-25.8672
 30
-0.1299
 70
192
 0
VERTEX
 8
BORDO
 10
-45.8829
 20
-26.0708
 30
-0.1299
 70
192
 0
VERTEX
 8
BORDO
 10
-45.7933
 20
-26.2703
 30
-0.1299
 70
192
 0
VERTEX
 8
BORDO
 10
-45.6664
 20
-26.4549
 30
-0.1299
 70
192
 0
VERTEX
 8
BORDO
 10
-45.5066
 20
-26.6147
 30
-0.1299
 70
192
 0
VERTEX
 8
BORDO
 10
-45.322
 20
-26.7416
 30
-0.1299
 70
192
 0
VERTEX
 8
BORDO
 10
-45.1225
 20
-26.8312
 30
-0.1299
 70
192
 0
VERTEX
 8
BORDO
 10
-44.9189
 20
-26.8826
 30
-0.1299
 70
192
 0
VERTEX
 8
BORDO
 10
44.9191
 20
-26.8826
 30
0.4502
 70
192
 0
VERTEX
 8
BORDO
 10
45.1228
 20
-26.8312
 30
0.4502
 70
192
 0
VERTEX
 8
BORDO
 10
45.3222
 20
-26.7416
 30
0.4502
 70
192
 0
VERTEX
 8
BORDO
 10
45.5069
 20
-26.6147
 30
0.4502
 70
192
 0
VERTEX
 8
BORDO
 10
45.6666
 20
-26.4549
 30
0.4502
 70
192
 0
VERTEX
 8
BORDO
 10
45.7936
 20
-26.2703
 30
0.4502
 70
192
 0
VERTEX
 8
BORDO
 10
45.8831
 20
-26.0708
 30
0.4502
 70
192
 0
VERTEX
 8
BORDO
 10
45.9346
 20
-25.8672
 30
0.4502
 70
192
 0
VERTEX
 8
BORDO
 10
44.9191
 20
-26.8826
 30
-0.1299
 70
192
 0
VERTEX
 8
BORDO
 10
45.1228
 20
-26.8312
 30
-0.1299
 70
192
 0
VERTEX
 8
BORDO
 10
45.3222
 20
-26.7416
 30
-0.1299
 70
192
 0
VERTEX
 8
BORDO
 10
45.5069
 20
-26.6147
 30
-0.1299
 70
192
 0
VERTEX
 8
BORDO
 10
45.6666
 20
-26.4549
 30
-0.1299
 70
192
 0
VERTEX
 8
BORDO
 10
45.7936
 20
-26.2703
 30
-0.1299
 70
192
 0
VERTEX
 8
BORDO
 10
45.8831
 20
-26.0708
 30
-0.1299
 70
192
 0
VERTEX
 8
BORDO
 10
45.9346
 20
-25.8672
 30
-0.1299
 70
192
 0
VERTEX
 8
BORDO
 10
45.9346
 20
25.8709
 30
0.4502
 70
192
 0
VERTEX
 8
BORDO
 10
45.8831
 20
26.0746
 30
0.4502
 70
192
 0
VERTEX
 8
BORDO
 10
45.7936
 20
26.274
 30
0.4502
 70
192
 0
VERTEX
 8
BORDO
 10
45.6666
 20
26.4586
 30
0.4502
 70
192
 0
VERTEX
 8
BORDO
 10
45.5069
 20
26.6184
 30
0.4502
 70
192
 0
VERTEX
 8
BORDO
 10
45.3222
 20
26.7454
 30
0.4502
 70
192
 0
VERTEX
 8
BORDO
 10
45.1228
 20
26.8349
 30
0.4502
 70
192
 0
VERTEX
 8
BORDO
 10
44.9191
 20
26.8864
 30
0.4502
 70
192
 0
VERTEX
 8
BORDO
 10
45.9346
 20
25.8709
 30
-0.1299
 70
192
 0
VERTEX
 8
BORDO
 10
45.8831
 20
26.0746
 30
-0.1299
 70
192
 0
VERTEX
 8
BORDO
 10
45.7936
 20
26.274
 30
-0.1299
 70
192
 0
VERTEX
 8
BORDO
 10
45.6666
 20
26.4586
 30
-0.1299
 70
192
 0
VERTEX
 8
BORDO
 10
45.5069
 20
26.6184
 30
-0.1299
 70
192
 0
VERTEX
 8
BORDO
 10
45.3222
 20
26.7454
 30
-0.1299
 70
192
 0
VERTEX
 8
BORDO
 10
45.1228
 20
26.8349
 30
-0.1299
 70
192
 0
VERTEX
 8
BORDO
 10
44.9191
 20
26.8864
 30
-0.1299
 70
192
 0
VERTEX
 8
BORDO
 10
0
 20
0
 30
0
 70
128
 71
85
 72
86
 73
87
 74
88
 0
VERTEX
 8
BORDO
 10
0
 20
0
 30
0
 70
128
 71
89
 72
90
 73
91
 74
92
 0
VERTEX
 8
BORDO
 10
0
 20
0
 30
0
 70
128
 71
93
 72
94
 73
95
 74
96
 0
VERTEX
 8
BORDO
 10
0
 20
0
 30
0
 70
128
 71
81
 72
82
 73
83
 74
84
 0
VERTEX
 8
BORDO
 10
0
 20
0
 30
0
 70
128
 71
144
 72
143
 73
135
 74
136
 0
VERTEX
 8
BORDO
 10
0
 20
0
 30
0
 70
128
 71
85
 72
128
 73
120
 74
86
 0
VERTEX
 8
BORDO
 10
0
 20
0
 30
0
 70
128
 71
143
 72
142
 73
134
 74
135
 0
VERTEX
 8
BORDO
 10
0
 20
0
 30
0
 70
128
 71
142
 72
141
 73
133
 74
134
 0
VERTEX
 8
BORDO
 10
0
 20
0
 30
0
 70
128
 71
141
 72
140
 73
132
 74
133
 0
VERTEX
 8
BORDO
 10
0
 20
0
 30
0
 70
128
 71
140
 72
139
 73
131
 74
132
 0
VERTEX
 8
BORDO
 10
0
 20
0
 30
0
 70
128
 71
139
 72
138
 73
130
 74
131
 0
VERTEX
 8
BORDO
 10
0
 20
0
 30
0
 70
128
 71
138
 72
137
 73
129
 74
130
 0
VERTEX
 8
BORDO
 10
0
 20
0
 30
0
 70
128
 71
137
 72
88
 73
87
 74
129
 0
VERTEX
 8
BORDO
 10
0
 20
0
 30
0
 70
128
 71
160
 72
159
 73
151
 74
152
 0
VERTEX
 8
BORDO
 10
0
 20
0
 30
0
 70
128
 71
159
 72
158
 73
150
 74
151
 0
VERTEX
 8
BORDO
 10
0
 20
0
 30
0
 70
128
 71
158
 72
157
 73
149
 74
150
 0
VERTEX
 8
BORDO
 10
0
 20
0
 30
0
 70
128
 71
157
 72
156
 73
148
 74
149
 0
VERTEX
 8
BORDO
 10
0
 20
0
 30
0
 70
128
 71
156
 72
155
 73
147
 74
148
 0
VERTEX
 8
BORDO
 10
0
 20
0
 30
0
 70
128
 71
155
 72
154
 73
146
 74
147
 0
VERTEX
 8
BORDO
 10
0
 20
0
 30
0
 70
128
 71
154
 72
153
 73
145
 74
146
 0
VERTEX
 8
BORDO
 10
0
 20
0
 30
0
 70
128
 71
153
 72
92
 73
91
 74
145
 0
VERTEX
 8
BORDO
 10
0
 20
0
 30
0
 70
128
 71
97
 72
98
 73
106
 74
105
 0
VERTEX
 8
BORDO
 10
0
 20
0
 30
0
 70
128
 71
98
 72
99
 73
107
 74
106
 0
VERTEX
 8
BORDO
 10
0
 20
0
 30
0
 70
128
 71
99
 72
100
 73
108
 74
107
 0
VERTEX
 8
BORDO
 10
0
 20
0
 30
0
 70
128
 71
100
 72
101
 73
109
 74
108
 0
VERTEX
 8
BORDO
 10
0
 20
0
 30
0
 70
128
 71
101
 72
102
 73
110
 74
109
 0
VERTEX
 8
BORDO
 10
0
 20
0
 30
0
 70
128
 71
102
 72
103
 73
111
 74
110
 0
VERTEX
 8
BORDO
 10
0
 20
0
 30
0
 70
128
 71
103
 72
104
 73
112
 74
111
 0
VERTEX
 8
BORDO
 10
0
 20
0
 30
0
 70
128
 71
104
 72
96
 73
95
 74
112
 0
VERTEX
 8
BORDO
 10
0
 20
0
 30
0
 70
128
 71
89
 72
144
 73
136
 74
90
 0
VERTEX
 8
BORDO
 10
0
 20
0
 30
0
 70
128
 71
93
 72
160
 73
152
 74
94
 0
VERTEX
 8
BORDO
 10
0
 20
0
 30
0
 70
128
 71
81
 72
97
 73
105
 74
82
 0
VERTEX
 8
BORDO
 10
0
 20
0
 30
0
 70
128
 71
128
 72
127
 73
119
 74
120
 0
VERTEX
 8
BORDO
 10
0
 20
0
 30
0
 70
128
 71
127
 72
126
 73
118
 74
119
 0
VERTEX
 8
BORDO
 10
0
 20
0
 30
0
 70
128
 71
126
 72
125
 73
117
 74
118
 0
VERTEX
 8
BORDO
 10
0
 20
0
 30
0
 70
128
 71
125
 72
124
 73
116
 74
117
 0
VERTEX
 8
BORDO
 10
0
 20
0
 30
0
 70
128
 71
124
 72
123
 73
115
 74
116
 0
VERTEX
 8
BORDO
 10
0
 20
0
 30
0
 70
128
 71
123
 72
122
 73
114
 74
115
 0
VERTEX
 8
BORDO
 10
0
 20
0
 30
0
 70
128
 71
122
 72
121
 73
113
 74
114
 0
VERTEX
 8
BORDO
 10
0
 20
0
 30
0
 70
128
 71
121
 72
84
 73
83
 74
113
 0
VERTEX
 8
BORDO
 10
0
 20
0
 30
0
 70
128
 71
5
 72
85
 73
88
 74
8
 0
VERTEX
 8
BORDO
 10
0
 20
0
 30
0
 70
128
 71
7
 72
87
 73
86
 74
6
 0
VERTEX
 8
BORDO
 10
0
 20
0
 30
0
 70
128
 71
9
 72
89
 73
92
 74
12
 0
VERTEX
 8
BORDO
 10
0
 20
0
 30
0
 70
128
 71
11
 72
91
 73
90
 74
10
 0
VERTEX
 8
BORDO
 10
0
 20
0
 30
0
 70
128
 71
13
 72
93
 73
96
 74
16
 0
VERTEX
 8
BORDO
 10
0
 20
0
 30
0
 70
128
 71
15
 72
95
 73
94
 74
14
 0
VERTEX
 8
BORDO
 10
0
 20
0
 30
0
 70
128
 71
1
 72
81
 73
84
 74
4
 0
VERTEX
 8
BORDO
 10
0
 20
0
 30
0
 70
128
 71
3
 72
83
 73
82
 74
2
 0
VERTEX
 8
BORDO
 10
0
 20
0
 30
0
 70
128
 71
56
 72
136
 73
135
 74
55
 0
VERTEX
 8
BORDO
 10
0
 20
0
 30
0
 70
128
 71
63
 72
143
 73
144
 74
64
 0
VERTEX
 8
BORDO
 10
0
 20
0
 30
0
 70
128
 71
6
 72
86
 73
120
 74
40
 0
VERTEX
 8
BORDO
 10
0
 20
0
 30
0
 70
128
 71
48
 72
128
 73
85
 74
5
 0
VERTEX
 8
BORDO
 10
0
 20
0
 30
0
 70
128
 71
55
 72
135
 73
134
 74
54
 0
VERTEX
 8
BORDO
 10
0
 20
0
 30
0
 70
128
 71
62
 72
142
 73
143
 74
63
 0
VERTEX
 8
BORDO
 10
0
 20
0
 30
0
 70
128
 71
54
 72
134
 73
133
 74
53
 0
VERTEX
 8
BORDO
 10
0
 20
0
 30
0
 70
128
 71
61
 72
141
 73
142
 74
62
 0
VERTEX
 8
BORDO
 10
0
 20
0
 30
0
 70
128
 71
53
 72
133
 73
132
 74
52
 0
VERTEX
 8
BORDO
 10
0
 20
0
 30
0
 70
128
 71
60
 72
140
 73
141
 74
61
 0
VERTEX
 8
BORDO
 10
0
 20
0
 30
0
 70
128
 71
52
 72
132
 73
131
 74
51
 0
VERTEX
 8
BORDO
 10
0
 20
0
 30
0
 70
128
 71
59
 72
139
 73
140
 74
60
 0
VERTEX
 8
BORDO
 10
0
 20
0
 30
0
 70
128
 71
51
 72
131
 73
130
 74
50
 0
VERTEX
 8
BORDO
 10
0
 20
0
 30
0
 70
128
 71
58
 72
138
 73
139
 74
59
 0
VERTEX
 8
BORDO
 10
0
 20
0
 30
0
 70
128
 71
50
 72
130
 73
129
 74
49
 0
VERTEX
 8
BORDO
 10
0
 20
0
 30
0
 70
128
 71
57
 72
137
 73
138
 74
58
 0
VERTEX
 8
BORDO
 10
0
 20
0
 30
0
 70
128
 71
49
 72
129
 73
87
 74
7
 0
VERTEX
 8
BORDO
 10
0
 20
0
 30
0
 70
128
 71
8
 72
88
 73
137
 74
57
 0
VERTEX
 8
BORDO
 10
0
 20
0
 30
0
 70
128
 71
72
 72
152
 73
151
 74
71
 0
VERTEX
 8
BORDO
 10
0
 20
0
 30
0
 70
128
 71
79
 72
159
 73
160
 74
80
 0
VERTEX
 8
BORDO
 10
0
 20
0
 30
0
 70
128
 71
71
 72
151
 73
150
 74
70
 0
VERTEX
 8
BORDO
 10
0
 20
0
 30
0
 70
128
 71
78
 72
158
 73
159
 74
79
 0
VERTEX
 8
BORDO
 10
0
 20
0
 30
0
 70
128
 71
70
 72
150
 73
149
 74
69
 0
VERTEX
 8
BORDO
 10
0
 20
0
 30
0
 70
128
 71
77
 72
157
 73
158
 74
78
 0
VERTEX
 8
BORDO
 10
0
 20
0
 30
0
 70
128
 71
69
 72
149
 73
148
 74
68
 0
VERTEX
 8
BORDO
 10
0
 20
0
 30
0
 70
128
 71
76
 72
156
 73
157
 74
77
 0
VERTEX
 8
BORDO
 10
0
 20
0
 30
0
 70
128
 71
68
 72
148
 73
147
 74
67
 0
VERTEX
 8
BORDO
 10
0
 20
0
 30
0
 70
128
 71
75
 72
155
 73
156
 74
76
 0
VERTEX
 8
BORDO
 10
0
 20
0
 30
0
 70
128
 71
67
 72
147
 73
146
 74
66
 0
VERTEX
 8
BORDO
 10
0
 20
0
 30
0
 70
128
 71
74
 72
154
 73
155
 74
75
 0
VERTEX
 8
BORDO
 10
0
 20
0
 30
0
 70
128
 71
66
 72
146
 73
145
 74
65
 0
VERTEX
 8
BORDO
 10
0
 20
0
 30
0
 70
128
 71
73
 72
153
 73
154
 74
74
 0
VERTEX
 8
BORDO
 10
0
 20
0
 30
0
 70
128
 71
65
 72
145
 73
91
 74
11
 0
VERTEX
 8
BORDO
 10
0
 20
0
 30
0
 70
128
 71
12
 72
92
 73
153
 74
73
 0
VERTEX
 8
BORDO
 10
0
 20
0
 30
0
 70
128
 71
25
 72
105
 73
106
 74
26
 0
VERTEX
 8
BORDO
 10
0
 20
0
 30
0
 70
128
 71
18
 72
98
 73
97
 74
17
 0
VERTEX
 8
BORDO
 10
0
 20
0
 30
0
 70
128
 71
26
 72
106
 73
107
 74
27
 0
VERTEX
 8
BORDO
 10
0
 20
0
 30
0
 70
128
 71
19
 72
99
 73
98
 74
18
 0
VERTEX
 8
BORDO
 10
0
 20
0
 30
0
 70
128
 71
27
 72
107
 73
108
 74
28
 0
VERTEX
 8
BORDO
 10
0
 20
0
 30
0
 70
128
 71
20
 72
100
 73
99
 74
19
 0
VERTEX
 8
BORDO
 10
0
 20
0
 30
0
 70
128
 71
28
 72
108
 73
109
 74
29
 0
VERTEX
 8
BORDO
 10
0
 20
0
 30
0
 70
128
 71
21
 72
101
 73
100
 74
20
 0
VERTEX
 8
BORDO
 10
0
 20
0
 30
0
 70
128
 71
29
 72
109
 73
110
 74
30
 0
VERTEX
 8
BORDO
 10
0
 20
0
 30
0
 70
128
 71
22
 72
102
 73
101
 74
21
 0
VERTEX
 8
BORDO
 10
0
 20
0
 30
0
 70
128
 71
30
 72
110
 73
111
 74
31
 0
VERTEX
 8
BORDO
 10
0
 20
0
 30
0
 70
128
 71
23
 72
103
 73
102
 74
22
 0
VERTEX
 8
BORDO
 10
0
 20
0
 30
0
 70
128
 71
31
 72
111
 73
112
 74
32
 0
VERTEX
 8
BORDO
 10
0
 20
0
 30
0
 70
128
 71
24
 72
104
 73
103
 74
23
 0
VERTEX
 8
BORDO
 10
0
 20
0
 30
0
 70
128
 71
32
 72
112
 73
95
 74
15
 0
VERTEX
 8
BORDO
 10
0
 20
0
 30
0
 70
128
 71
16
 72
96
 73
104
 74
24
 0
VERTEX
 8
BORDO
 10
0
 20
0
 30
0
 70
128
 71
10
 72
90
 73
136
 74
56
 0
VERTEX
 8
BORDO
 10
0
 20
0
 30
0
 70
128
 71
64
 72
144
 73
89
 74
9
 0
VERTEX
 8
BORDO
 10
0
 20
0
 30
0
 70
128
 71
14
 72
94
 73
152
 74
72
 0
VERTEX
 8
BORDO
 10
0
 20
0
 30
0
 70
128
 71
80
 72
160
 73
93
 74
13
 0
VERTEX
 8
BORDO
 10
0
 20
0
 30
0
 70
128
 71
2
 72
82
 73
105
 74
25
 0
VERTEX
 8
BORDO
 10
0
 20
0
 30
0
 70
128
 71
17
 72
97
 73
81
 74
1
 0
VERTEX
 8
BORDO
 10
0
 20
0
 30
0
 70
128
 71
40
 72
120
 73
119
 74
39
 0
VERTEX
 8
BORDO
 10
0
 20
0
 30
0
 70
128
 71
47
 72
127
 73
128
 74
48
 0
VERTEX
 8
BORDO
 10
0
 20
0
 30
0
 70
128
 71
39
 72
119
 73
118
 74
38
 0
VERTEX
 8
BORDO
 10
0
 20
0
 30
0
 70
128
 71
46
 72
126
 73
127
 74
47
 0
VERTEX
 8
BORDO
 10
0
 20
0
 30
0
 70
128
 71
38
 72
118
 73
117
 74
37
 0
VERTEX
 8
BORDO
 10
0
 20
0
 30
0
 70
128
 71
45
 72
125
 73
126
 74
46
 0
VERTEX
 8
BORDO
 10
0
 20
0
 30
0
 70
128
 71
37
 72
117
 73
116
 74
36
 0
VERTEX
 8
BORDO
 10
0
 20
0
 30
0
 70
128
 71
44
 72
124
 73
125
 74
45
 0
VERTEX
 8
BORDO
 10
0
 20
0
 30
0
 70
128
 71
36
 72
116
 73
115
 74
35
 0
VERTEX
 8
BORDO
 10
0
 20
0
 30
0
 70
128
 71
43
 72
123
 73
124
 74
44
 0
VERTEX
 8
BORDO
 10
0
 20
0
 30
0
 70
128
 71
35
 72
115
 73
114
 74
34
 0
VERTEX
 8
BORDO
 10
0
 20
0
 30
0
 70
128
 71
42
 72
122
 73
123
 74
43
 0
VERTEX
 8
BORDO
 10
0
 20
0
 30
0
 70
128
 71
34
 72
114
 73
113
 74
33
 0
VERTEX
 8
BORDO
 10
0
 20
0
 30
0
 70
128
 71
41
 72
121
 73
122
 74
42
 0
VERTEX
 8
BORDO
 10
0
 20
0
 30
0
 70
128
 71
33
 72
113
 73
83
 74
3
 0
VERTEX
 8
BORDO
 10
0
 20
0
 30
0
 70
128
 71
4
 72
84
 73
121
 74
41
 0
VERTEX
 8
BORDO
 10
0
 20
0
 30
0
 70
128
 71
36
 72
35
 73
43
 74
44
 0
VERTEX
 8
BORDO
 10
0
 20
0
 30
0
 70
128
 71
35
 72
34
 73
42
 74
43
 0
VERTEX
 8
BORDO
 10
0
 20
0
 30
0
 70
128
 71
34
 72
33
 73
41
 74
42
 0
VERTEX
 8
BORDO
 10
0
 20
0
 30
0
 70
128
 71
4
 72
41
 73
33
 74
3
 0
VERTEX
 8
BORDO
 10
0
 20
0
 30
0
 70
128
 71
3
 72
2
 73
1
 74
4
 0
VERTEX
 8
BORDO
 10
0
 20
0
 30
0
 70
128
 71
37
 72
36
 73
44
 74
45
 0
VERTEX
 8
BORDO
 10
0
 20
0
 30
0
 70
128
 71
38
 72
37
 73
45
 74
46
 0
VERTEX
 8
BORDO
 10
0
 20
0
 30
0
 70
128
 71
39
 72
38
 73
46
 74
47
 0
VERTEX
 8
BORDO
 10
0
 20
0
 30
0
 70
128
 71
40
 72
39
 73
47
 74
48
 0
VERTEX
 8
BORDO
 10
0
 20
0
 30
0
 70
128
 71
6
 72
40
 73
48
 74
5
 0
VERTEX
 8
BORDO
 10
0
 20
0
 30
0
 70
128
 71
7
 72
6
 73
5
 74
8
 0
VERTEX
 8
BORDO
 10
0
 20
0
 30
0
 70
128
 71
49
 72
7
 73
8
 74
57
 0
VERTEX
 8
BORDO
 10
0
 20
0
 30
0
 70
128
 71
50
 72
49
 73
57
 74
58
 0
VERTEX
 8
BORDO
 10
0
 20
0
 30
0
 70
128
 71
51
 72
50
 73
58
 74
59
 0
VERTEX
 8
BORDO
 10
0
 20
0
 30
0
 70
128
 71
52
 72
51
 73
59
 74
60
 0
VERTEX
 8
BORDO
 10
0
 20
0
 30
0
 70
128
 71
53
 72
52
 73
60
 74
61
 0
VERTEX
 8
BORDO
 10
0
 20
0
 30
0
 70
128
 71
54
 72
53
 73
61
 74
62
 0
VERTEX
 8
BORDO
 10
0
 20
0
 30
0
 70
128
 71
55
 72
54
 73
62
 74
63
 0
VERTEX
 8
BORDO
 10
0
 20
0
 30
0
 70
128
 71
56
 72
55
 73
63
 74
64
 0
VERTEX
 8
BORDO
 10
0
 20
0
 30
0
 70
128
 71
10
 72
56
 73
64
 74
9
 0
VERTEX
 8
BORDO
 10
0
 20
0
 30
0
 70
128
 71
11
 72
10
 73
9
 74
12
 0
VERTEX
 8
BORDO
 10
0
 20
0
 30
0
 70
128
 71
65
 72
11
 73
12
 74
73
 0
VERTEX
 8
BORDO
 10
0
 20
0
 30
0
 70
128
 71
66
 72
65
 73
73
 74
74
 0
VERTEX
 8
BORDO
 10
0
 20
0
 30
0
 70
128
 71
67
 72
66
 73
74
 74
75
 0
VERTEX
 8
BORDO
 10
0
 20
0
 30
0
 70
128
 71
68
 72
67
 73
75
 74
76
 0
VERTEX
 8
BORDO
 10
0
 20
0
 30
0
 70
128
 71
69
 72
68
 73
76
 74
77
 0
VERTEX
 8
BORDO
 10
0
 20
0
 30
0
 70
128
 71
70
 72
69
 73
77
 74
78
 0
VERTEX
 8
BORDO
 10
0
 20
0
 30
0
 70
128
 71
71
 72
70
 73
78
 74
79
 0
VERTEX
 8
BORDO
 10
0
 20
0
 30
0
 70
128
 71
72
 72
71
 73
79
 74
80
 0
VERTEX
 8
BORDO
 10
0
 20
0
 30
0
 70
128
 71
14
 72
72
 73
80
 74
13
 0
VERTEX
 8
BORDO
 10
0
 20
0
 30
0
 70
128
 71
15
 72
14
 73
13
 74
16
 0
VERTEX
 8
BORDO
 10
0
 20
0
 30
0
 70
128
 71
2
 72
25
 73
17
 74
1
 0
VERTEX
 8
BORDO
 10
0
 20
0
 30
0
 70
128
 71
25
 72
26
 73
18
 74
17
 0
VERTEX
 8
BORDO
 10
0
 20
0
 30
0
 70
128
 71
26
 72
27
 73
19
 74
18
 0
VERTEX
 8
BORDO
 10
0
 20
0
 30
0
 70
128
 71
27
 72
28
 73
20
 74
19
 0
VERTEX
 8
BORDO
 10
0
 20
0
 30
0
 70
128
 71
28
 72
29
 73
21
 74
20
 0
VERTEX
 8
BORDO
 10
0
 20
0
 30
0
 70
128
 71
29
 72
30
 73
22
 74
21
 0
VERTEX
 8
BORDO
 10
0
 20
0
 30
0
 70
128
 71
30
 72
31
 73
23
 74
22
 0
VERTEX
 8
BORDO
 10
0
 20
0
 30
0
 70
128
 71
31
 72
32
 73
24
 74
23
 0
VERTEX
 8
BORDO
 10
0
 20
0
 30
0
 70
128
 71
32
 72
15
 73
16
 74
24
 0
SEQEND
 0
POLYLINE
 8
CUBO
 66
1
 10
0.0
 20
0.0
 30
0.0
 70
64
 71
8
 72
6
 0
VERTEX
 8
CUBO
 10
-43.0541
 20
-23.7707
 30
-6.6492
 70
192
 0
VERTEX
 8
CUBO
 10
-43.0541
 20
-23.7707
 30
-0.118
 70
192
 0
VERTEX
 8
CUBO
 10
43.0654
 20
-23.7707
 30
-6.6492
 70
192
 0
VERTEX
 8
CUBO
 10
43.0654
 20
-23.7707
 30
-0.118
 70
192
 0
VERTEX
 8
CUBO
 10
43.0654
 20
23.7704
 30
-6.6492
 70
192
 0
VERTEX
 8
CUBO
 10
43.0654
 20
23.7704
 30
-0.118
 70
192
 0
VERTEX
 8
CUBO
 10
-43.0541
 20
23.7704
 30
-6.6492
 70
192
 0
VERTEX
 8
CUBO
 10
-43.0541
 20
23.7704
 30
-0.118
 70
192
 0
VERTEX
 8
CUBO
 10
0
 20
0
 30
0
 70
128
 71
1
 72
2
 73
4
 74
3
 0
VERTEX
 8
CUBO
 10
0
 20
0
 30
0
 70
128
 71
3
 72
4
 73
6
 74
5
 0
VERTEX
 8
CUBO
 10
0
 20
0
 30
0
 70
128
 71
5
 72
6
 73
8
 74
7
 0
VERTEX
 8
CUBO
 10
0
 20
0
 30
0
 70
128
 71
7
 72
8
 73
2
 74
1
 0
VERTEX
 8
CUBO
 10
0
 20
0
 30
0
 70
128
 71
2
 72
8
 73
6
 74
4
 0
VERTEX
 8
CUBO
 10
0
 20
0
 30
0
 70
128
 71
7
 72
1
 73
3
 74
5
 0
SEQEND
 0
ENDSEC
 0
EOF
