 0
SECTION
 2
HEADER
 9
$ACADVER
 1
AC1009
 0
ENDSEC
 0
SECTION
 2
TABLES
 0
TABLE
 2
LTYPE
 70
1
 0
LTYPE
 2
CONTINUOUS
 70
64
 3
solid line
 72
65
 73
0
 40
0.0
 0
ENDTAB
 0
TABLE
 2
LAYER
 70
6
 0
LAYER
 2
0
 70
0
 62
7
 6
CONTINUOUS
 0
LAYER
 2
FSH_804_ID_WT_MBK
 70
64
 62
7
 6
CONTINUOUS
 0
LAYER
 2
VETRO
 70
64
 62
39
 6
CONTINUOUS
 0
LAYER
 2
SERIGRAFIA
 70
64
 62
7
 6
CONTINUOUS
 0
LAYER
 2
PIANO_2
 70
64
 62
7
 6
CONTINUOUS
 0
LAYER
 2
PIANO_3
 70
64
 62
7
 6
CONTINUOUS
 0
LAYER
 2
PIANO_5
 70
64
 62
7
 6
CONTINUOUS
 0
LAYER
 2
PIANO_6
 70
64
 62
7
 6
CONTINUOUS
 0
LAYER
 2
PIANO_8
 70
64
 62
7
 6
CONTINUOUS
 0
LAYER
 2
PIANO_9
 70
64
 62
7
 6
CONTINUOUS
 0
LAYER
 2
PIANO_10
 70
64
 62
7
 6
CONTINUOUS
 0
LAYER
 2
TUBO_2
 70
64
 62
7
 6
CONTINUOUS
 0
LAYER
 2
TUBO_1
 70
64
 62
7
 6
CONTINUOUS
 0
LAYER
 2
TUBO
 70
64
 62
7
 6
CONTINUOUS
 0
LAYER
 2
LOGO_FULGOR_MILANO
 70
64
 62
7
 6
CONTINUOUS
 0
LAYER
 2
FULGOR
 70
64
 62
7
 6
CONTINUOUS
 0
LAYER
 2
MILANO
 70
64
 62
7
 6
CONTINUOUS
 0
ENDTAB
 0
ENDSEC
 0
SECTION
 2
BLOCKS
 0
ENDSEC
 0
SECTION
 2
ENTITIES
 0
POLYLINE
 8
VETRO
 66
1
 10
0.0
 20
0.0
 30
0.0
 70
64
 71
8
 72
6
 0
VERTEX
 8
VETRO
 10
-40
 20
-26
 30
-0.4
 70
192
 0
VERTEX
 8
VETRO
 10
-40
 20
-26
 30
0
 70
192
 0
VERTEX
 8
VETRO
 10
40
 20
-26
 30
-0.4
 70
192
 0
VERTEX
 8
VETRO
 10
40
 20
-26
 30
0
 70
192
 0
VERTEX
 8
VETRO
 10
40
 20
26
 30
-0.4
 70
192
 0
VERTEX
 8
VETRO
 10
40
 20
26
 30
0
 70
192
 0
VERTEX
 8
VETRO
 10
-40
 20
26
 30
-0.4
 70
192
 0
VERTEX
 8
VETRO
 10
-40
 20
26
 30
0
 70
192
 0
VERTEX
 8
VETRO
 10
0
 20
0
 30
0
 70
128
 71
1
 72
2
 73
4
 74
3
 0
VERTEX
 8
VETRO
 10
0
 20
0
 30
0
 70
128
 71
3
 72
4
 73
6
 74
5
 0
VERTEX
 8
VETRO
 10
0
 20
0
 30
0
 70
128
 71
5
 72
6
 73
8
 74
7
 0
VERTEX
 8
VETRO
 10
0
 20
0
 30
0
 70
128
 71
7
 72
8
 73
2
 74
1
 0
VERTEX
 8
VETRO
 10
0
 20
0
 30
0
 70
128
 71
2
 72
8
 73
6
 74
4
 0
VERTEX
 8
VETRO
 10
0
 20
0
 30
0
 70
128
 71
7
 72
1
 73
3
 74
5
 0
SEQEND
 0
POLYLINE
 8
PIANO_2
 66
1
 10
0.0
 20
0.0
 30
0.0
 70
64
 71
4
 72
1
 0
VERTEX
 8
PIANO_2
 10
-34.0001
 20
-16.7498
 30
0.0025
 70
192
 0
VERTEX
 8
PIANO_2
 10
-12.0001
 20
-16.7498
 30
0.0025
 70
192
 0
VERTEX
 8
PIANO_2
 10
-34.0001
 20
-16.5198
 30
0.0025
 70
192
 0
VERTEX
 8
PIANO_2
 10
-12.0001
 20
-16.5198
 30
0.0025
 70
192
 0
VERTEX
 8
PIANO_2
 10
0
 20
0
 30
0
 70
128
 71
1
 72
3
 73
4
 74
2
 0
SEQEND
 0
POLYLINE
 8
PIANO_3
 66
1
 10
0.0
 20
0.0
 30
0.0
 70
64
 71
4
 72
1
 0
VERTEX
 8
PIANO_3
 10
-34.0001
 20
21.4202
 30
0.0025
 70
192
 0
VERTEX
 8
PIANO_3
 10
-12.0001
 20
21.4202
 30
0.0025
 70
192
 0
VERTEX
 8
PIANO_3
 10
-34.0001
 20
21.6502
 30
0.0025
 70
192
 0
VERTEX
 8
PIANO_3
 10
-12.0001
 20
21.6502
 30
0.0025
 70
192
 0
VERTEX
 8
PIANO_3
 10
0
 20
0
 30
0
 70
128
 71
1
 72
3
 73
4
 74
2
 0
SEQEND
 0
POLYLINE
 8
PIANO_5
 66
1
 10
0.0
 20
0.0
 30
0.0
 70
64
 71
4
 72
1
 0
VERTEX
 8
PIANO_5
 10
-23.9001
 20
12.3002
 30
0.0025
 70
192
 0
VERTEX
 8
PIANO_5
 10
-22.1001
 20
12.3002
 30
0.0025
 70
192
 0
VERTEX
 8
PIANO_5
 10
-23.9001
 20
12.6002
 30
0.0025
 70
192
 0
VERTEX
 8
PIANO_5
 10
-22.1001
 20
12.6002
 30
0.0025
 70
192
 0
VERTEX
 8
PIANO_5
 10
0
 20
0
 30
0
 70
128
 71
1
 72
3
 73
4
 74
2
 0
SEQEND
 0
POLYLINE
 8
PIANO_6
 66
1
 10
0.0
 20
0.0
 30
0.0
 70
64
 71
4
 72
1
 0
VERTEX
 8
PIANO_6
 10
-23.9001
 20
-7.6998
 30
0.0025
 70
192
 0
VERTEX
 8
PIANO_6
 10
-22.1001
 20
-7.6998
 30
0.0025
 70
192
 0
VERTEX
 8
PIANO_6
 10
-23.9001
 20
-7.3998
 30
0.0025
 70
192
 0
VERTEX
 8
PIANO_6
 10
-22.1001
 20
-7.3998
 30
0.0025
 70
192
 0
VERTEX
 8
PIANO_6
 10
0
 20
0
 30
0
 70
128
 71
1
 72
3
 73
4
 74
2
 0
SEQEND
 0
POLYLINE
 8
PIANO_8
 66
1
 10
0.0
 20
0.0
 30
0.0
 70
64
 71
4
 72
1
 0
VERTEX
 8
PIANO_8
 10
0.8638
 20
-21.5
 30
0.0025
 70
192
 0
VERTEX
 8
PIANO_8
 10
2.9638
 20
-21.5
 30
0.0025
 70
192
 0
VERTEX
 8
PIANO_8
 10
0.8638
 20
-20.55
 30
0.0025
 70
192
 0
VERTEX
 8
PIANO_8
 10
2.9638
 20
-20.55
 30
0.0025
 70
192
 0
VERTEX
 8
PIANO_8
 10
0
 20
0
 30
0
 70
128
 71
1
 72
3
 73
4
 74
2
 0
SEQEND
 0
POLYLINE
 8
PIANO_9
 66
1
 10
0.0
 20
0.0
 30
0.0
 70
64
 71
4
 72
1
 0
VERTEX
 8
PIANO_9
 10
10.4438
 20
-21.5
 30
0.0025
 70
192
 0
VERTEX
 8
PIANO_9
 10
12.5438
 20
-21.5
 30
0.0025
 70
192
 0
VERTEX
 8
PIANO_9
 10
10.4438
 20
-20.55
 30
0.0025
 70
192
 0
VERTEX
 8
PIANO_9
 10
12.5438
 20
-20.55
 30
0.0025
 70
192
 0
VERTEX
 8
PIANO_9
 10
0
 20
0
 30
0
 70
128
 71
1
 72
3
 73
4
 74
2
 0
SEQEND
 0
POLYLINE
 8
PIANO_10
 66
1
 10
0.0
 20
0.0
 30
0.0
 70
64
 71
4
 72
1
 0
VERTEX
 8
PIANO_10
 10
3.1938
 20
-21.5
 30
0.0025
 70
192
 0
VERTEX
 8
PIANO_10
 10
10.1938
 20
-21.5
 30
0.0025
 70
192
 0
VERTEX
 8
PIANO_10
 10
3.1938
 20
-20.55
 30
0.0025
 70
192
 0
VERTEX
 8
PIANO_10
 10
10.1938
 20
-20.55
 30
0.0025
 70
192
 0
VERTEX
 8
PIANO_10
 10
0
 20
0
 30
0
 70
128
 71
1
 72
3
 73
4
 74
2
 0
SEQEND
 0
POLYLINE
 8
TUBO_2
 66
1
 10
0.0
 20
0.0
 30
0.0
 70
64
 71
640
 72
640
 0
VERTEX
 8
TUBO_2
 10
33.3811
 20
-11.9111
 30
0.0025
 70
192
 0
VERTEX
 8
TUBO_2
 10
33.5811
 20
-11.9111
 30
0.0025
 70
192
 0
VERTEX
 8
TUBO_2
 10
33.5811
 20
-11.9111
 30
0.0025
 70
192
 0
VERTEX
 8
TUBO_2
 10
33.5811
 20
-11.9111
 30
0.0025
 70
192
 0
VERTEX
 8
TUBO_2
 10
33.5811
 20
-11.9111
 30
0.0025
 70
192
 0
VERTEX
 8
TUBO_2
 10
33.5811
 20
-11.9111
 30
0.0025
 70
192
 0
VERTEX
 8
TUBO_2
 10
33.3811
 20
-11.9111
 30
0.0025
 70
192
 0
VERTEX
 8
TUBO_2
 10
33.3811
 20
-11.9111
 30
0.0025
 70
192
 0
VERTEX
 8
TUBO_2
 10
33.3811
 20
-11.9111
 30
0.0025
 70
192
 0
VERTEX
 8
TUBO_2
 10
33.3811
 20
-11.9111
 30
0.0025
 70
192
 0
VERTEX
 8
TUBO_2
 10
33.3471
 20
-11.22
 30
0.0025
 70
192
 0
VERTEX
 8
TUBO_2
 10
33.5462
 20
-11.2004
 30
0.0025
 70
192
 0
VERTEX
 8
TUBO_2
 10
33.5462
 20
-11.2004
 30
0.0025
 70
192
 0
VERTEX
 8
TUBO_2
 10
33.5462
 20
-11.2004
 30
0.0025
 70
192
 0
VERTEX
 8
TUBO_2
 10
33.5462
 20
-11.2004
 30
0.0025
 70
192
 0
VERTEX
 8
TUBO_2
 10
33.5462
 20
-11.2004
 30
0.0025
 70
192
 0
VERTEX
 8
TUBO_2
 10
33.3471
 20
-11.22
 30
0.0025
 70
192
 0
VERTEX
 8
TUBO_2
 10
33.3471
 20
-11.22
 30
0.0025
 70
192
 0
VERTEX
 8
TUBO_2
 10
33.3471
 20
-11.22
 30
0.0025
 70
192
 0
VERTEX
 8
TUBO_2
 10
33.3471
 20
-11.22
 30
0.0025
 70
192
 0
VERTEX
 8
TUBO_2
 10
33.2456
 20
-10.5357
 30
0.0025
 70
192
 0
VERTEX
 8
TUBO_2
 10
33.4418
 20
-10.4967
 30
0.0025
 70
192
 0
VERTEX
 8
TUBO_2
 10
33.4418
 20
-10.4967
 30
0.0025
 70
192
 0
VERTEX
 8
TUBO_2
 10
33.4418
 20
-10.4967
 30
0.0025
 70
192
 0
VERTEX
 8
TUBO_2
 10
33.4418
 20
-10.4967
 30
0.0025
 70
192
 0
VERTEX
 8
TUBO_2
 10
33.4418
 20
-10.4967
 30
0.0025
 70
192
 0
VERTEX
 8
TUBO_2
 10
33.2456
 20
-10.5357
 30
0.0025
 70
192
 0
VERTEX
 8
TUBO_2
 10
33.2456
 20
-10.5357
 30
0.0025
 70
192
 0
VERTEX
 8
TUBO_2
 10
33.2456
 20
-10.5357
 30
0.0025
 70
192
 0
VERTEX
 8
TUBO_2
 10
33.2456
 20
-10.5357
 30
0.0025
 70
192
 0
VERTEX
 8
TUBO_2
 10
33.0775
 20
-9.8646
 30
0.0025
 70
192
 0
VERTEX
 8
TUBO_2
 10
33.2689
 20
-9.8065
 30
0.0025
 70
192
 0
VERTEX
 8
TUBO_2
 10
33.2689
 20
-9.8065
 30
0.0025
 70
192
 0
VERTEX
 8
TUBO_2
 10
33.2689
 20
-9.8065
 30
0.0025
 70
192
 0
VERTEX
 8
TUBO_2
 10
33.2689
 20
-9.8065
 30
0.0025
 70
192
 0
VERTEX
 8
TUBO_2
 10
33.2689
 20
-9.8065
 30
0.0025
 70
192
 0
VERTEX
 8
TUBO_2
 10
33.0775
 20
-9.8646
 30
0.0025
 70
192
 0
VERTEX
 8
TUBO_2
 10
33.0775
 20
-9.8646
 30
0.0025
 70
192
 0
VERTEX
 8
TUBO_2
 10
33.0775
 20
-9.8646
 30
0.0025
 70
192
 0
VERTEX
 8
TUBO_2
 10
33.0775
 20
-9.8646
 30
0.0025
 70
192
 0
VERTEX
 8
TUBO_2
 10
32.8444
 20
-9.2131
 30
0.0025
 70
192
 0
VERTEX
 8
TUBO_2
 10
33.0292
 20
-9.1366
 30
0.0025
 70
192
 0
VERTEX
 8
TUBO_2
 10
33.0292
 20
-9.1366
 30
0.0025
 70
192
 0
VERTEX
 8
TUBO_2
 10
33.0292
 20
-9.1366
 30
0.0025
 70
192
 0
VERTEX
 8
TUBO_2
 10
33.0292
 20
-9.1366
 30
0.0025
 70
192
 0
VERTEX
 8
TUBO_2
 10
33.0292
 20
-9.1366
 30
0.0025
 70
192
 0
VERTEX
 8
TUBO_2
 10
32.8444
 20
-9.2131
 30
0.0025
 70
192
 0
VERTEX
 8
TUBO_2
 10
32.8444
 20
-9.2131
 30
0.0025
 70
192
 0
VERTEX
 8
TUBO_2
 10
32.8444
 20
-9.2131
 30
0.0025
 70
192
 0
VERTEX
 8
TUBO_2
 10
32.8444
 20
-9.2131
 30
0.0025
 70
192
 0
VERTEX
 8
TUBO_2
 10
32.5486
 20
-8.5877
 30
0.0025
 70
192
 0
VERTEX
 8
TUBO_2
 10
32.725
 20
-8.4934
 30
0.0025
 70
192
 0
VERTEX
 8
TUBO_2
 10
32.725
 20
-8.4934
 30
0.0025
 70
192
 0
VERTEX
 8
TUBO_2
 10
32.725
 20
-8.4934
 30
0.0025
 70
192
 0
VERTEX
 8
TUBO_2
 10
32.725
 20
-8.4934
 30
0.0025
 70
192
 0
VERTEX
 8
TUBO_2
 10
32.725
 20
-8.4934
 30
0.0025
 70
192
 0
VERTEX
 8
TUBO_2
 10
32.5486
 20
-8.5877
 30
0.0025
 70
192
 0
VERTEX
 8
TUBO_2
 10
32.5486
 20
-8.5877
 30
0.0025
 70
192
 0
VERTEX
 8
TUBO_2
 10
32.5486
 20
-8.5877
 30
0.0025
 70
192
 0
VERTEX
 8
TUBO_2
 10
32.5486
 20
-8.5877
 30
0.0025
 70
192
 0
VERTEX
 8
TUBO_2
 10
32.1929
 20
-7.9943
 30
0.0025
 70
192
 0
VERTEX
 8
TUBO_2
 10
32.3592
 20
-7.8832
 30
0.0025
 70
192
 0
VERTEX
 8
TUBO_2
 10
32.3592
 20
-7.8832
 30
0.0025
 70
192
 0
VERTEX
 8
TUBO_2
 10
32.3592
 20
-7.8832
 30
0.0025
 70
192
 0
VERTEX
 8
TUBO_2
 10
32.3592
 20
-7.8832
 30
0.0025
 70
192
 0
VERTEX
 8
TUBO_2
 10
32.3592
 20
-7.8832
 30
0.0025
 70
192
 0
VERTEX
 8
TUBO_2
 10
32.1929
 20
-7.9943
 30
0.0025
 70
192
 0
VERTEX
 8
TUBO_2
 10
32.1929
 20
-7.9943
 30
0.0025
 70
192
 0
VERTEX
 8
TUBO_2
 10
32.1929
 20
-7.9943
 30
0.0025
 70
192
 0
VERTEX
 8
TUBO_2
 10
32.1929
 20
-7.9943
 30
0.0025
 70
192
 0
VERTEX
 8
TUBO_2
 10
31.7808
 20
-7.4386
 30
0.0025
 70
192
 0
VERTEX
 8
TUBO_2
 10
31.9354
 20
-7.3117
 30
0.0025
 70
192
 0
VERTEX
 8
TUBO_2
 10
31.9354
 20
-7.3117
 30
0.0025
 70
192
 0
VERTEX
 8
TUBO_2
 10
31.9354
 20
-7.3117
 30
0.0025
 70
192
 0
VERTEX
 8
TUBO_2
 10
31.9354
 20
-7.3117
 30
0.0025
 70
192
 0
VERTEX
 8
TUBO_2
 10
31.9354
 20
-7.3117
 30
0.0025
 70
192
 0
VERTEX
 8
TUBO_2
 10
31.7808
 20
-7.4386
 30
0.0025
 70
192
 0
VERTEX
 8
TUBO_2
 10
31.7808
 20
-7.4386
 30
0.0025
 70
192
 0
VERTEX
 8
TUBO_2
 10
31.7808
 20
-7.4386
 30
0.0025
 70
192
 0
VERTEX
 8
TUBO_2
 10
31.7808
 20
-7.4386
 30
0.0025
 70
192
 0
VERTEX
 8
TUBO_2
 10
31.3162
 20
-6.926
 30
0.0025
 70
192
 0
VERTEX
 8
TUBO_2
 10
31.4576
 20
-6.7845
 30
0.0025
 70
192
 0
VERTEX
 8
TUBO_2
 10
31.4576
 20
-6.7845
 30
0.0025
 70
192
 0
VERTEX
 8
TUBO_2
 10
31.4576
 20
-6.7845
 30
0.0025
 70
192
 0
VERTEX
 8
TUBO_2
 10
31.4576
 20
-6.7845
 30
0.0025
 70
192
 0
VERTEX
 8
TUBO_2
 10
31.4576
 20
-6.7845
 30
0.0025
 70
192
 0
VERTEX
 8
TUBO_2
 10
31.3162
 20
-6.926
 30
0.0025
 70
192
 0
VERTEX
 8
TUBO_2
 10
31.3162
 20
-6.926
 30
0.0025
 70
192
 0
VERTEX
 8
TUBO_2
 10
31.3162
 20
-6.926
 30
0.0025
 70
192
 0
VERTEX
 8
TUBO_2
 10
31.3162
 20
-6.926
 30
0.0025
 70
192
 0
VERTEX
 8
TUBO_2
 10
30.8035
 20
-6.4613
 30
0.0025
 70
192
 0
VERTEX
 8
TUBO_2
 10
30.9304
 20
-6.3067
 30
0.0025
 70
192
 0
VERTEX
 8
TUBO_2
 10
30.9304
 20
-6.3067
 30
0.0025
 70
192
 0
VERTEX
 8
TUBO_2
 10
30.9304
 20
-6.3067
 30
0.0025
 70
192
 0
VERTEX
 8
TUBO_2
 10
30.9304
 20
-6.3067
 30
0.0025
 70
192
 0
VERTEX
 8
TUBO_2
 10
30.9304
 20
-6.3067
 30
0.0025
 70
192
 0
VERTEX
 8
TUBO_2
 10
30.8035
 20
-6.4613
 30
0.0025
 70
192
 0
VERTEX
 8
TUBO_2
 10
30.8035
 20
-6.4613
 30
0.0025
 70
192
 0
VERTEX
 8
TUBO_2
 10
30.8035
 20
-6.4613
 30
0.0025
 70
192
 0
VERTEX
 8
TUBO_2
 10
30.8035
 20
-6.4613
 30
0.0025
 70
192
 0
VERTEX
 8
TUBO_2
 10
30.2478
 20
-6.0492
 30
0.0025
 70
192
 0
VERTEX
 8
TUBO_2
 10
30.359
 20
-5.8829
 30
0.0025
 70
192
 0
VERTEX
 8
TUBO_2
 10
30.359
 20
-5.8829
 30
0.0025
 70
192
 0
VERTEX
 8
TUBO_2
 10
30.359
 20
-5.8829
 30
0.0025
 70
192
 0
VERTEX
 8
TUBO_2
 10
30.359
 20
-5.8829
 30
0.0025
 70
192
 0
VERTEX
 8
TUBO_2
 10
30.359
 20
-5.8829
 30
0.0025
 70
192
 0
VERTEX
 8
TUBO_2
 10
30.2478
 20
-6.0492
 30
0.0025
 70
192
 0
VERTEX
 8
TUBO_2
 10
30.2478
 20
-6.0492
 30
0.0025
 70
192
 0
VERTEX
 8
TUBO_2
 10
30.2478
 20
-6.0492
 30
0.0025
 70
192
 0
VERTEX
 8
TUBO_2
 10
30.2478
 20
-6.0492
 30
0.0025
 70
192
 0
VERTEX
 8
TUBO_2
 10
29.6544
 20
-5.6935
 30
0.0025
 70
192
 0
VERTEX
 8
TUBO_2
 10
29.7487
 20
-5.5171
 30
0.0025
 70
192
 0
VERTEX
 8
TUBO_2
 10
29.7487
 20
-5.5171
 30
0.0025
 70
192
 0
VERTEX
 8
TUBO_2
 10
29.7487
 20
-5.5171
 30
0.0025
 70
192
 0
VERTEX
 8
TUBO_2
 10
29.7487
 20
-5.5171
 30
0.0025
 70
192
 0
VERTEX
 8
TUBO_2
 10
29.7487
 20
-5.5171
 30
0.0025
 70
192
 0
VERTEX
 8
TUBO_2
 10
29.6544
 20
-5.6935
 30
0.0025
 70
192
 0
VERTEX
 8
TUBO_2
 10
29.6544
 20
-5.6935
 30
0.0025
 70
192
 0
VERTEX
 8
TUBO_2
 10
29.6544
 20
-5.6935
 30
0.0025
 70
192
 0
VERTEX
 8
TUBO_2
 10
29.6544
 20
-5.6935
 30
0.0025
 70
192
 0
VERTEX
 8
TUBO_2
 10
29.029
 20
-5.3977
 30
0.0025
 70
192
 0
VERTEX
 8
TUBO_2
 10
29.1055
 20
-5.2129
 30
0.0025
 70
192
 0
VERTEX
 8
TUBO_2
 10
29.1055
 20
-5.2129
 30
0.0025
 70
192
 0
VERTEX
 8
TUBO_2
 10
29.1055
 20
-5.2129
 30
0.0025
 70
192
 0
VERTEX
 8
TUBO_2
 10
29.1055
 20
-5.2129
 30
0.0025
 70
192
 0
VERTEX
 8
TUBO_2
 10
29.1055
 20
-5.2129
 30
0.0025
 70
192
 0
VERTEX
 8
TUBO_2
 10
29.029
 20
-5.3977
 30
0.0025
 70
192
 0
VERTEX
 8
TUBO_2
 10
29.029
 20
-5.3977
 30
0.0025
 70
192
 0
VERTEX
 8
TUBO_2
 10
29.029
 20
-5.3977
 30
0.0025
 70
192
 0
VERTEX
 8
TUBO_2
 10
29.029
 20
-5.3977
 30
0.0025
 70
192
 0
VERTEX
 8
TUBO_2
 10
28.3776
 20
-5.1646
 30
0.0025
 70
192
 0
VERTEX
 8
TUBO_2
 10
28.4356
 20
-4.9732
 30
0.0025
 70
192
 0
VERTEX
 8
TUBO_2
 10
28.4356
 20
-4.9732
 30
0.0025
 70
192
 0
VERTEX
 8
TUBO_2
 10
28.4356
 20
-4.9732
 30
0.0025
 70
192
 0
VERTEX
 8
TUBO_2
 10
28.4356
 20
-4.9732
 30
0.0025
 70
192
 0
VERTEX
 8
TUBO_2
 10
28.4356
 20
-4.9732
 30
0.0025
 70
192
 0
VERTEX
 8
TUBO_2
 10
28.3776
 20
-5.1646
 30
0.0025
 70
192
 0
VERTEX
 8
TUBO_2
 10
28.3776
 20
-5.1646
 30
0.0025
 70
192
 0
VERTEX
 8
TUBO_2
 10
28.3776
 20
-5.1646
 30
0.0025
 70
192
 0
VERTEX
 8
TUBO_2
 10
28.3776
 20
-5.1646
 30
0.0025
 70
192
 0
VERTEX
 8
TUBO_2
 10
27.7065
 20
-4.9965
 30
0.0025
 70
192
 0
VERTEX
 8
TUBO_2
 10
27.7455
 20
-4.8004
 30
0.0025
 70
192
 0
VERTEX
 8
TUBO_2
 10
27.7455
 20
-4.8004
 30
0.0025
 70
192
 0
VERTEX
 8
TUBO_2
 10
27.7455
 20
-4.8004
 30
0.0025
 70
192
 0
VERTEX
 8
TUBO_2
 10
27.7455
 20
-4.8004
 30
0.0025
 70
192
 0
VERTEX
 8
TUBO_2
 10
27.7455
 20
-4.8004
 30
0.0025
 70
192
 0
VERTEX
 8
TUBO_2
 10
27.7065
 20
-4.9965
 30
0.0025
 70
192
 0
VERTEX
 8
TUBO_2
 10
27.7065
 20
-4.9965
 30
0.0025
 70
192
 0
VERTEX
 8
TUBO_2
 10
27.7065
 20
-4.9965
 30
0.0025
 70
192
 0
VERTEX
 8
TUBO_2
 10
27.7065
 20
-4.9965
 30
0.0025
 70
192
 0
VERTEX
 8
TUBO_2
 10
27.0221
 20
-4.895
 30
0.0025
 70
192
 0
VERTEX
 8
TUBO_2
 10
27.0417
 20
-4.696
 30
0.0025
 70
192
 0
VERTEX
 8
TUBO_2
 10
27.0417
 20
-4.696
 30
0.0025
 70
192
 0
VERTEX
 8
TUBO_2
 10
27.0417
 20
-4.696
 30
0.0025
 70
192
 0
VERTEX
 8
TUBO_2
 10
27.0417
 20
-4.696
 30
0.0025
 70
192
 0
VERTEX
 8
TUBO_2
 10
27.0417
 20
-4.696
 30
0.0025
 70
192
 0
VERTEX
 8
TUBO_2
 10
27.0221
 20
-4.895
 30
0.0025
 70
192
 0
VERTEX
 8
TUBO_2
 10
27.0221
 20
-4.895
 30
0.0025
 70
192
 0
VERTEX
 8
TUBO_2
 10
27.0221
 20
-4.895
 30
0.0025
 70
192
 0
VERTEX
 8
TUBO_2
 10
27.0221
 20
-4.895
 30
0.0025
 70
192
 0
VERTEX
 8
TUBO_2
 10
26.3311
 20
-4.8611
 30
0.0025
 70
192
 0
VERTEX
 8
TUBO_2
 10
26.3311
 20
-4.6611
 30
0.0025
 70
192
 0
VERTEX
 8
TUBO_2
 10
26.3311
 20
-4.6611
 30
0.0025
 70
192
 0
VERTEX
 8
TUBO_2
 10
26.3311
 20
-4.6611
 30
0.0025
 70
192
 0
VERTEX
 8
TUBO_2
 10
26.3311
 20
-4.6611
 30
0.0025
 70
192
 0
VERTEX
 8
TUBO_2
 10
26.3311
 20
-4.6611
 30
0.0025
 70
192
 0
VERTEX
 8
TUBO_2
 10
26.3311
 20
-4.8611
 30
0.0025
 70
192
 0
VERTEX
 8
TUBO_2
 10
26.3311
 20
-4.8611
 30
0.0025
 70
192
 0
VERTEX
 8
TUBO_2
 10
26.3311
 20
-4.8611
 30
0.0025
 70
192
 0
VERTEX
 8
TUBO_2
 10
26.3311
 20
-4.8611
 30
0.0025
 70
192
 0
VERTEX
 8
TUBO_2
 10
25.64
 20
-4.895
 30
0.0025
 70
192
 0
VERTEX
 8
TUBO_2
 10
25.6204
 20
-4.696
 30
0.0025
 70
192
 0
VERTEX
 8
TUBO_2
 10
25.6204
 20
-4.696
 30
0.0025
 70
192
 0
VERTEX
 8
TUBO_2
 10
25.6204
 20
-4.696
 30
0.0025
 70
192
 0
VERTEX
 8
TUBO_2
 10
25.6204
 20
-4.696
 30
0.0025
 70
192
 0
VERTEX
 8
TUBO_2
 10
25.6204
 20
-4.696
 30
0.0025
 70
192
 0
VERTEX
 8
TUBO_2
 10
25.64
 20
-4.895
 30
0.0025
 70
192
 0
VERTEX
 8
TUBO_2
 10
25.64
 20
-4.895
 30
0.0025
 70
192
 0
VERTEX
 8
TUBO_2
 10
25.64
 20
-4.895
 30
0.0025
 70
192
 0
VERTEX
 8
TUBO_2
 10
25.64
 20
-4.895
 30
0.0025
 70
192
 0
VERTEX
 8
TUBO_2
 10
24.9557
 20
-4.9965
 30
0.0025
 70
192
 0
VERTEX
 8
TUBO_2
 10
24.9167
 20
-4.8004
 30
0.0025
 70
192
 0
VERTEX
 8
TUBO_2
 10
24.9167
 20
-4.8004
 30
0.0025
 70
192
 0
VERTEX
 8
TUBO_2
 10
24.9167
 20
-4.8004
 30
0.0025
 70
192
 0
VERTEX
 8
TUBO_2
 10
24.9167
 20
-4.8004
 30
0.0025
 70
192
 0
VERTEX
 8
TUBO_2
 10
24.9167
 20
-4.8004
 30
0.0025
 70
192
 0
VERTEX
 8
TUBO_2
 10
24.9557
 20
-4.9965
 30
0.0025
 70
192
 0
VERTEX
 8
TUBO_2
 10
24.9557
 20
-4.9965
 30
0.0025
 70
192
 0
VERTEX
 8
TUBO_2
 10
24.9557
 20
-4.9965
 30
0.0025
 70
192
 0
VERTEX
 8
TUBO_2
 10
24.9557
 20
-4.9965
 30
0.0025
 70
192
 0
VERTEX
 8
TUBO_2
 10
24.2846
 20
-5.1646
 30
0.0025
 70
192
 0
VERTEX
 8
TUBO_2
 10
24.2265
 20
-4.9732
 30
0.0025
 70
192
 0
VERTEX
 8
TUBO_2
 10
24.2265
 20
-4.9732
 30
0.0025
 70
192
 0
VERTEX
 8
TUBO_2
 10
24.2265
 20
-4.9732
 30
0.0025
 70
192
 0
VERTEX
 8
TUBO_2
 10
24.2265
 20
-4.9732
 30
0.0025
 70
192
 0
VERTEX
 8
TUBO_2
 10
24.2265
 20
-4.9732
 30
0.0025
 70
192
 0
VERTEX
 8
TUBO_2
 10
24.2846
 20
-5.1646
 30
0.0025
 70
192
 0
VERTEX
 8
TUBO_2
 10
24.2846
 20
-5.1646
 30
0.0025
 70
192
 0
VERTEX
 8
TUBO_2
 10
24.2846
 20
-5.1646
 30
0.0025
 70
192
 0
VERTEX
 8
TUBO_2
 10
24.2846
 20
-5.1646
 30
0.0025
 70
192
 0
VERTEX
 8
TUBO_2
 10
23.6332
 20
-5.3977
 30
0.0025
 70
192
 0
VERTEX
 8
TUBO_2
 10
23.5566
 20
-5.2129
 30
0.0025
 70
192
 0
VERTEX
 8
TUBO_2
 10
23.5566
 20
-5.2129
 30
0.0025
 70
192
 0
VERTEX
 8
TUBO_2
 10
23.5566
 20
-5.2129
 30
0.0025
 70
192
 0
VERTEX
 8
TUBO_2
 10
23.5566
 20
-5.2129
 30
0.0025
 70
192
 0
VERTEX
 8
TUBO_2
 10
23.5566
 20
-5.2129
 30
0.0025
 70
192
 0
VERTEX
 8
TUBO_2
 10
23.6332
 20
-5.3977
 30
0.0025
 70
192
 0
VERTEX
 8
TUBO_2
 10
23.6332
 20
-5.3977
 30
0.0025
 70
192
 0
VERTEX
 8
TUBO_2
 10
23.6332
 20
-5.3977
 30
0.0025
 70
192
 0
VERTEX
 8
TUBO_2
 10
23.6332
 20
-5.3977
 30
0.0025
 70
192
 0
VERTEX
 8
TUBO_2
 10
23.0077
 20
-5.6935
 30
0.0025
 70
192
 0
VERTEX
 8
TUBO_2
 10
22.9134
 20
-5.5171
 30
0.0025
 70
192
 0
VERTEX
 8
TUBO_2
 10
22.9134
 20
-5.5171
 30
0.0025
 70
192
 0
VERTEX
 8
TUBO_2
 10
22.9134
 20
-5.5171
 30
0.0025
 70
192
 0
VERTEX
 8
TUBO_2
 10
22.9134
 20
-5.5171
 30
0.0025
 70
192
 0
VERTEX
 8
TUBO_2
 10
22.9134
 20
-5.5171
 30
0.0025
 70
192
 0
VERTEX
 8
TUBO_2
 10
23.0077
 20
-5.6935
 30
0.0025
 70
192
 0
VERTEX
 8
TUBO_2
 10
23.0077
 20
-5.6935
 30
0.0025
 70
192
 0
VERTEX
 8
TUBO_2
 10
23.0077
 20
-5.6935
 30
0.0025
 70
192
 0
VERTEX
 8
TUBO_2
 10
23.0077
 20
-5.6935
 30
0.0025
 70
192
 0
VERTEX
 8
TUBO_2
 10
22.4143
 20
-6.0492
 30
0.0025
 70
192
 0
VERTEX
 8
TUBO_2
 10
22.3032
 20
-5.8829
 30
0.0025
 70
192
 0
VERTEX
 8
TUBO_2
 10
22.3032
 20
-5.8829
 30
0.0025
 70
192
 0
VERTEX
 8
TUBO_2
 10
22.3032
 20
-5.8829
 30
0.0025
 70
192
 0
VERTEX
 8
TUBO_2
 10
22.3032
 20
-5.8829
 30
0.0025
 70
192
 0
VERTEX
 8
TUBO_2
 10
22.3032
 20
-5.8829
 30
0.0025
 70
192
 0
VERTEX
 8
TUBO_2
 10
22.4143
 20
-6.0492
 30
0.0025
 70
192
 0
VERTEX
 8
TUBO_2
 10
22.4143
 20
-6.0492
 30
0.0025
 70
192
 0
VERTEX
 8
TUBO_2
 10
22.4143
 20
-6.0492
 30
0.0025
 70
192
 0
VERTEX
 8
TUBO_2
 10
22.4143
 20
-6.0492
 30
0.0025
 70
192
 0
VERTEX
 8
TUBO_2
 10
21.8586
 20
-6.4613
 30
0.0025
 70
192
 0
VERTEX
 8
TUBO_2
 10
21.7317
 20
-6.3067
 30
0.0025
 70
192
 0
VERTEX
 8
TUBO_2
 10
21.7317
 20
-6.3067
 30
0.0025
 70
192
 0
VERTEX
 8
TUBO_2
 10
21.7317
 20
-6.3067
 30
0.0025
 70
192
 0
VERTEX
 8
TUBO_2
 10
21.7317
 20
-6.3067
 30
0.0025
 70
192
 0
VERTEX
 8
TUBO_2
 10
21.7317
 20
-6.3067
 30
0.0025
 70
192
 0
VERTEX
 8
TUBO_2
 10
21.8586
 20
-6.4613
 30
0.0025
 70
192
 0
VERTEX
 8
TUBO_2
 10
21.8586
 20
-6.4613
 30
0.0025
 70
192
 0
VERTEX
 8
TUBO_2
 10
21.8586
 20
-6.4613
 30
0.0025
 70
192
 0
VERTEX
 8
TUBO_2
 10
21.8586
 20
-6.4613
 30
0.0025
 70
192
 0
VERTEX
 8
TUBO_2
 10
21.346
 20
-6.926
 30
0.0025
 70
192
 0
VERTEX
 8
TUBO_2
 10
21.2045
 20
-6.7845
 30
0.0025
 70
192
 0
VERTEX
 8
TUBO_2
 10
21.2045
 20
-6.7845
 30
0.0025
 70
192
 0
VERTEX
 8
TUBO_2
 10
21.2045
 20
-6.7845
 30
0.0025
 70
192
 0
VERTEX
 8
TUBO_2
 10
21.2045
 20
-6.7845
 30
0.0025
 70
192
 0
VERTEX
 8
TUBO_2
 10
21.2045
 20
-6.7845
 30
0.0025
 70
192
 0
VERTEX
 8
TUBO_2
 10
21.346
 20
-6.926
 30
0.0025
 70
192
 0
VERTEX
 8
TUBO_2
 10
21.346
 20
-6.926
 30
0.0025
 70
192
 0
VERTEX
 8
TUBO_2
 10
21.346
 20
-6.926
 30
0.0025
 70
192
 0
VERTEX
 8
TUBO_2
 10
21.346
 20
-6.926
 30
0.0025
 70
192
 0
VERTEX
 8
TUBO_2
 10
20.8813
 20
-7.4386
 30
0.0025
 70
192
 0
VERTEX
 8
TUBO_2
 10
20.7267
 20
-7.3117
 30
0.0025
 70
192
 0
VERTEX
 8
TUBO_2
 10
20.7267
 20
-7.3117
 30
0.0025
 70
192
 0
VERTEX
 8
TUBO_2
 10
20.7267
 20
-7.3117
 30
0.0025
 70
192
 0
VERTEX
 8
TUBO_2
 10
20.7267
 20
-7.3117
 30
0.0025
 70
192
 0
VERTEX
 8
TUBO_2
 10
20.7267
 20
-7.3117
 30
0.0025
 70
192
 0
VERTEX
 8
TUBO_2
 10
20.8813
 20
-7.4386
 30
0.0025
 70
192
 0
VERTEX
 8
TUBO_2
 10
20.8813
 20
-7.4386
 30
0.0025
 70
192
 0
VERTEX
 8
TUBO_2
 10
20.8813
 20
-7.4386
 30
0.0025
 70
192
 0
VERTEX
 8
TUBO_2
 10
20.8813
 20
-7.4386
 30
0.0025
 70
192
 0
VERTEX
 8
TUBO_2
 10
20.4692
 20
-7.9943
 30
0.0025
 70
192
 0
VERTEX
 8
TUBO_2
 10
20.3029
 20
-7.8832
 30
0.0025
 70
192
 0
VERTEX
 8
TUBO_2
 10
20.3029
 20
-7.8832
 30
0.0025
 70
192
 0
VERTEX
 8
TUBO_2
 10
20.3029
 20
-7.8832
 30
0.0025
 70
192
 0
VERTEX
 8
TUBO_2
 10
20.3029
 20
-7.8832
 30
0.0025
 70
192
 0
VERTEX
 8
TUBO_2
 10
20.3029
 20
-7.8832
 30
0.0025
 70
192
 0
VERTEX
 8
TUBO_2
 10
20.4692
 20
-7.9943
 30
0.0025
 70
192
 0
VERTEX
 8
TUBO_2
 10
20.4692
 20
-7.9943
 30
0.0025
 70
192
 0
VERTEX
 8
TUBO_2
 10
20.4692
 20
-7.9943
 30
0.0025
 70
192
 0
VERTEX
 8
TUBO_2
 10
20.4692
 20
-7.9943
 30
0.0025
 70
192
 0
VERTEX
 8
TUBO_2
 10
20.1135
 20
-8.5877
 30
0.0025
 70
192
 0
VERTEX
 8
TUBO_2
 10
19.9371
 20
-8.4934
 30
0.0025
 70
192
 0
VERTEX
 8
TUBO_2
 10
19.9371
 20
-8.4934
 30
0.0025
 70
192
 0
VERTEX
 8
TUBO_2
 10
19.9371
 20
-8.4934
 30
0.0025
 70
192
 0
VERTEX
 8
TUBO_2
 10
19.9371
 20
-8.4934
 30
0.0025
 70
192
 0
VERTEX
 8
TUBO_2
 10
19.9371
 20
-8.4934
 30
0.0025
 70
192
 0
VERTEX
 8
TUBO_2
 10
20.1135
 20
-8.5877
 30
0.0025
 70
192
 0
VERTEX
 8
TUBO_2
 10
20.1135
 20
-8.5877
 30
0.0025
 70
192
 0
VERTEX
 8
TUBO_2
 10
20.1135
 20
-8.5877
 30
0.0025
 70
192
 0
VERTEX
 8
TUBO_2
 10
20.1135
 20
-8.5877
 30
0.0025
 70
192
 0
VERTEX
 8
TUBO_2
 10
19.8177
 20
-9.2131
 30
0.0025
 70
192
 0
VERTEX
 8
TUBO_2
 10
19.6329
 20
-9.1366
 30
0.0025
 70
192
 0
VERTEX
 8
TUBO_2
 10
19.6329
 20
-9.1366
 30
0.0025
 70
192
 0
VERTEX
 8
TUBO_2
 10
19.6329
 20
-9.1366
 30
0.0025
 70
192
 0
VERTEX
 8
TUBO_2
 10
19.6329
 20
-9.1366
 30
0.0025
 70
192
 0
VERTEX
 8
TUBO_2
 10
19.6329
 20
-9.1366
 30
0.0025
 70
192
 0
VERTEX
 8
TUBO_2
 10
19.8177
 20
-9.2131
 30
0.0025
 70
192
 0
VERTEX
 8
TUBO_2
 10
19.8177
 20
-9.2131
 30
0.0025
 70
192
 0
VERTEX
 8
TUBO_2
 10
19.8177
 20
-9.2131
 30
0.0025
 70
192
 0
VERTEX
 8
TUBO_2
 10
19.8177
 20
-9.2131
 30
0.0025
 70
192
 0
VERTEX
 8
TUBO_2
 10
19.5846
 20
-9.8646
 30
0.0025
 70
192
 0
VERTEX
 8
TUBO_2
 10
19.3933
 20
-9.8065
 30
0.0025
 70
192
 0
VERTEX
 8
TUBO_2
 10
19.3933
 20
-9.8065
 30
0.0025
 70
192
 0
VERTEX
 8
TUBO_2
 10
19.3933
 20
-9.8065
 30
0.0025
 70
192
 0
VERTEX
 8
TUBO_2
 10
19.3933
 20
-9.8065
 30
0.0025
 70
192
 0
VERTEX
 8
TUBO_2
 10
19.3933
 20
-9.8065
 30
0.0025
 70
192
 0
VERTEX
 8
TUBO_2
 10
19.5846
 20
-9.8646
 30
0.0025
 70
192
 0
VERTEX
 8
TUBO_2
 10
19.5846
 20
-9.8646
 30
0.0025
 70
192
 0
VERTEX
 8
TUBO_2
 10
19.5846
 20
-9.8646
 30
0.0025
 70
192
 0
VERTEX
 8
TUBO_2
 10
19.5846
 20
-9.8646
 30
0.0025
 70
192
 0
VERTEX
 8
TUBO_2
 10
19.4165
 20
-10.5357
 30
0.0025
 70
192
 0
VERTEX
 8
TUBO_2
 10
19.2204
 20
-10.4967
 30
0.0025
 70
192
 0
VERTEX
 8
TUBO_2
 10
19.2204
 20
-10.4967
 30
0.0025
 70
192
 0
VERTEX
 8
TUBO_2
 10
19.2204
 20
-10.4967
 30
0.0025
 70
192
 0
VERTEX
 8
TUBO_2
 10
19.2204
 20
-10.4967
 30
0.0025
 70
192
 0
VERTEX
 8
TUBO_2
 10
19.2204
 20
-10.4967
 30
0.0025
 70
192
 0
VERTEX
 8
TUBO_2
 10
19.4165
 20
-10.5357
 30
0.0025
 70
192
 0
VERTEX
 8
TUBO_2
 10
19.4165
 20
-10.5357
 30
0.0025
 70
192
 0
VERTEX
 8
TUBO_2
 10
19.4165
 20
-10.5357
 30
0.0025
 70
192
 0
VERTEX
 8
TUBO_2
 10
19.4165
 20
-10.5357
 30
0.0025
 70
192
 0
VERTEX
 8
TUBO_2
 10
19.315
 20
-11.22
 30
0.0025
 70
192
 0
VERTEX
 8
TUBO_2
 10
19.116
 20
-11.2004
 30
0.0025
 70
192
 0
VERTEX
 8
TUBO_2
 10
19.116
 20
-11.2004
 30
0.0025
 70
192
 0
VERTEX
 8
TUBO_2
 10
19.116
 20
-11.2004
 30
0.0025
 70
192
 0
VERTEX
 8
TUBO_2
 10
19.116
 20
-11.2004
 30
0.0025
 70
192
 0
VERTEX
 8
TUBO_2
 10
19.116
 20
-11.2004
 30
0.0025
 70
192
 0
VERTEX
 8
TUBO_2
 10
19.315
 20
-11.22
 30
0.0025
 70
192
 0
VERTEX
 8
TUBO_2
 10
19.315
 20
-11.22
 30
0.0025
 70
192
 0
VERTEX
 8
TUBO_2
 10
19.315
 20
-11.22
 30
0.0025
 70
192
 0
VERTEX
 8
TUBO_2
 10
19.315
 20
-11.22
 30
0.0025
 70
192
 0
VERTEX
 8
TUBO_2
 10
19.2811
 20
-11.9111
 30
0.0025
 70
192
 0
VERTEX
 8
TUBO_2
 10
19.0811
 20
-11.9111
 30
0.0025
 70
192
 0
VERTEX
 8
TUBO_2
 10
19.0811
 20
-11.9111
 30
0.0025
 70
192
 0
VERTEX
 8
TUBO_2
 10
19.0811
 20
-11.9111
 30
0.0025
 70
192
 0
VERTEX
 8
TUBO_2
 10
19.0811
 20
-11.9111
 30
0.0025
 70
192
 0
VERTEX
 8
TUBO_2
 10
19.0811
 20
-11.9111
 30
0.0025
 70
192
 0
VERTEX
 8
TUBO_2
 10
19.2811
 20
-11.9111
 30
0.0025
 70
192
 0
VERTEX
 8
TUBO_2
 10
19.2811
 20
-11.9111
 30
0.0025
 70
192
 0
VERTEX
 8
TUBO_2
 10
19.2811
 20
-11.9111
 30
0.0025
 70
192
 0
VERTEX
 8
TUBO_2
 10
19.2811
 20
-11.9111
 30
0.0025
 70
192
 0
VERTEX
 8
TUBO_2
 10
19.315
 20
-12.6021
 30
0.0025
 70
192
 0
VERTEX
 8
TUBO_2
 10
19.116
 20
-12.6217
 30
0.0025
 70
192
 0
VERTEX
 8
TUBO_2
 10
19.116
 20
-12.6217
 30
0.0025
 70
192
 0
VERTEX
 8
TUBO_2
 10
19.116
 20
-12.6217
 30
0.0025
 70
192
 0
VERTEX
 8
TUBO_2
 10
19.116
 20
-12.6217
 30
0.0025
 70
192
 0
VERTEX
 8
TUBO_2
 10
19.116
 20
-12.6217
 30
0.0025
 70
192
 0
VERTEX
 8
TUBO_2
 10
19.315
 20
-12.6021
 30
0.0025
 70
192
 0
VERTEX
 8
TUBO_2
 10
19.315
 20
-12.6021
 30
0.0025
 70
192
 0
VERTEX
 8
TUBO_2
 10
19.315
 20
-12.6021
 30
0.0025
 70
192
 0
VERTEX
 8
TUBO_2
 10
19.315
 20
-12.6021
 30
0.0025
 70
192
 0
VERTEX
 8
TUBO_2
 10
19.4165
 20
-13.2864
 30
0.0025
 70
192
 0
VERTEX
 8
TUBO_2
 10
19.2204
 20
-13.3255
 30
0.0025
 70
192
 0
VERTEX
 8
TUBO_2
 10
19.2204
 20
-13.3255
 30
0.0025
 70
192
 0
VERTEX
 8
TUBO_2
 10
19.2204
 20
-13.3255
 30
0.0025
 70
192
 0
VERTEX
 8
TUBO_2
 10
19.2204
 20
-13.3255
 30
0.0025
 70
192
 0
VERTEX
 8
TUBO_2
 10
19.2204
 20
-13.3255
 30
0.0025
 70
192
 0
VERTEX
 8
TUBO_2
 10
19.4165
 20
-13.2864
 30
0.0025
 70
192
 0
VERTEX
 8
TUBO_2
 10
19.4165
 20
-13.2864
 30
0.0025
 70
192
 0
VERTEX
 8
TUBO_2
 10
19.4165
 20
-13.2864
 30
0.0025
 70
192
 0
VERTEX
 8
TUBO_2
 10
19.4165
 20
-13.2864
 30
0.0025
 70
192
 0
VERTEX
 8
TUBO_2
 10
19.5846
 20
-13.9576
 30
0.0025
 70
192
 0
VERTEX
 8
TUBO_2
 10
19.3933
 20
-14.0156
 30
0.0025
 70
192
 0
VERTEX
 8
TUBO_2
 10
19.3933
 20
-14.0156
 30
0.0025
 70
192
 0
VERTEX
 8
TUBO_2
 10
19.3933
 20
-14.0156
 30
0.0025
 70
192
 0
VERTEX
 8
TUBO_2
 10
19.3933
 20
-14.0156
 30
0.0025
 70
192
 0
VERTEX
 8
TUBO_2
 10
19.3933
 20
-14.0156
 30
0.0025
 70
192
 0
VERTEX
 8
TUBO_2
 10
19.5846
 20
-13.9576
 30
0.0025
 70
192
 0
VERTEX
 8
TUBO_2
 10
19.5846
 20
-13.9576
 30
0.0025
 70
192
 0
VERTEX
 8
TUBO_2
 10
19.5846
 20
-13.9576
 30
0.0025
 70
192
 0
VERTEX
 8
TUBO_2
 10
19.5846
 20
-13.9576
 30
0.0025
 70
192
 0
VERTEX
 8
TUBO_2
 10
19.8177
 20
-14.609
 30
0.0025
 70
192
 0
VERTEX
 8
TUBO_2
 10
19.6329
 20
-14.6855
 30
0.0025
 70
192
 0
VERTEX
 8
TUBO_2
 10
19.6329
 20
-14.6855
 30
0.0025
 70
192
 0
VERTEX
 8
TUBO_2
 10
19.6329
 20
-14.6855
 30
0.0025
 70
192
 0
VERTEX
 8
TUBO_2
 10
19.6329
 20
-14.6855
 30
0.0025
 70
192
 0
VERTEX
 8
TUBO_2
 10
19.6329
 20
-14.6855
 30
0.0025
 70
192
 0
VERTEX
 8
TUBO_2
 10
19.8177
 20
-14.609
 30
0.0025
 70
192
 0
VERTEX
 8
TUBO_2
 10
19.8177
 20
-14.609
 30
0.0025
 70
192
 0
VERTEX
 8
TUBO_2
 10
19.8177
 20
-14.609
 30
0.0025
 70
192
 0
VERTEX
 8
TUBO_2
 10
19.8177
 20
-14.609
 30
0.0025
 70
192
 0
VERTEX
 8
TUBO_2
 10
20.1135
 20
-15.2344
 30
0.0025
 70
192
 0
VERTEX
 8
TUBO_2
 10
19.9371
 20
-15.3287
 30
0.0025
 70
192
 0
VERTEX
 8
TUBO_2
 10
19.9371
 20
-15.3287
 30
0.0025
 70
192
 0
VERTEX
 8
TUBO_2
 10
19.9371
 20
-15.3287
 30
0.0025
 70
192
 0
VERTEX
 8
TUBO_2
 10
19.9371
 20
-15.3287
 30
0.0025
 70
192
 0
VERTEX
 8
TUBO_2
 10
19.9371
 20
-15.3287
 30
0.0025
 70
192
 0
VERTEX
 8
TUBO_2
 10
20.1135
 20
-15.2344
 30
0.0025
 70
192
 0
VERTEX
 8
TUBO_2
 10
20.1135
 20
-15.2344
 30
0.0025
 70
192
 0
VERTEX
 8
TUBO_2
 10
20.1135
 20
-15.2344
 30
0.0025
 70
192
 0
VERTEX
 8
TUBO_2
 10
20.1135
 20
-15.2344
 30
0.0025
 70
192
 0
VERTEX
 8
TUBO_2
 10
20.4692
 20
-15.8278
 30
0.0025
 70
192
 0
VERTEX
 8
TUBO_2
 10
20.3029
 20
-15.9389
 30
0.0025
 70
192
 0
VERTEX
 8
TUBO_2
 10
20.3029
 20
-15.9389
 30
0.0025
 70
192
 0
VERTEX
 8
TUBO_2
 10
20.3029
 20
-15.9389
 30
0.0025
 70
192
 0
VERTEX
 8
TUBO_2
 10
20.3029
 20
-15.9389
 30
0.0025
 70
192
 0
VERTEX
 8
TUBO_2
 10
20.3029
 20
-15.9389
 30
0.0025
 70
192
 0
VERTEX
 8
TUBO_2
 10
20.4692
 20
-15.8278
 30
0.0025
 70
192
 0
VERTEX
 8
TUBO_2
 10
20.4692
 20
-15.8278
 30
0.0025
 70
192
 0
VERTEX
 8
TUBO_2
 10
20.4692
 20
-15.8278
 30
0.0025
 70
192
 0
VERTEX
 8
TUBO_2
 10
20.4692
 20
-15.8278
 30
0.0025
 70
192
 0
VERTEX
 8
TUBO_2
 10
20.8813
 20
-16.3835
 30
0.0025
 70
192
 0
VERTEX
 8
TUBO_2
 10
20.7267
 20
-16.5104
 30
0.0025
 70
192
 0
VERTEX
 8
TUBO_2
 10
20.7267
 20
-16.5104
 30
0.0025
 70
192
 0
VERTEX
 8
TUBO_2
 10
20.7267
 20
-16.5104
 30
0.0025
 70
192
 0
VERTEX
 8
TUBO_2
 10
20.7267
 20
-16.5104
 30
0.0025
 70
192
 0
VERTEX
 8
TUBO_2
 10
20.7267
 20
-16.5104
 30
0.0025
 70
192
 0
VERTEX
 8
TUBO_2
 10
20.8813
 20
-16.3835
 30
0.0025
 70
192
 0
VERTEX
 8
TUBO_2
 10
20.8813
 20
-16.3835
 30
0.0025
 70
192
 0
VERTEX
 8
TUBO_2
 10
20.8813
 20
-16.3835
 30
0.0025
 70
192
 0
VERTEX
 8
TUBO_2
 10
20.8813
 20
-16.3835
 30
0.0025
 70
192
 0
VERTEX
 8
TUBO_2
 10
21.346
 20
-16.8962
 30
0.0025
 70
192
 0
VERTEX
 8
TUBO_2
 10
21.2045
 20
-17.0376
 30
0.0025
 70
192
 0
VERTEX
 8
TUBO_2
 10
21.2045
 20
-17.0376
 30
0.0025
 70
192
 0
VERTEX
 8
TUBO_2
 10
21.2045
 20
-17.0376
 30
0.0025
 70
192
 0
VERTEX
 8
TUBO_2
 10
21.2045
 20
-17.0376
 30
0.0025
 70
192
 0
VERTEX
 8
TUBO_2
 10
21.2045
 20
-17.0376
 30
0.0025
 70
192
 0
VERTEX
 8
TUBO_2
 10
21.346
 20
-16.8962
 30
0.0025
 70
192
 0
VERTEX
 8
TUBO_2
 10
21.346
 20
-16.8962
 30
0.0025
 70
192
 0
VERTEX
 8
TUBO_2
 10
21.346
 20
-16.8962
 30
0.0025
 70
192
 0
VERTEX
 8
TUBO_2
 10
21.346
 20
-16.8962
 30
0.0025
 70
192
 0
VERTEX
 8
TUBO_2
 10
21.8586
 20
-17.3608
 30
0.0025
 70
192
 0
VERTEX
 8
TUBO_2
 10
21.7317
 20
-17.5154
 30
0.0025
 70
192
 0
VERTEX
 8
TUBO_2
 10
21.7317
 20
-17.5154
 30
0.0025
 70
192
 0
VERTEX
 8
TUBO_2
 10
21.7317
 20
-17.5154
 30
0.0025
 70
192
 0
VERTEX
 8
TUBO_2
 10
21.7317
 20
-17.5154
 30
0.0025
 70
192
 0
VERTEX
 8
TUBO_2
 10
21.7317
 20
-17.5154
 30
0.0025
 70
192
 0
VERTEX
 8
TUBO_2
 10
21.8586
 20
-17.3608
 30
0.0025
 70
192
 0
VERTEX
 8
TUBO_2
 10
21.8586
 20
-17.3608
 30
0.0025
 70
192
 0
VERTEX
 8
TUBO_2
 10
21.8586
 20
-17.3608
 30
0.0025
 70
192
 0
VERTEX
 8
TUBO_2
 10
21.8586
 20
-17.3608
 30
0.0025
 70
192
 0
VERTEX
 8
TUBO_2
 10
22.4143
 20
-17.7729
 30
0.0025
 70
192
 0
VERTEX
 8
TUBO_2
 10
22.3032
 20
-17.9392
 30
0.0025
 70
192
 0
VERTEX
 8
TUBO_2
 10
22.3032
 20
-17.9392
 30
0.0025
 70
192
 0
VERTEX
 8
TUBO_2
 10
22.3032
 20
-17.9392
 30
0.0025
 70
192
 0
VERTEX
 8
TUBO_2
 10
22.3032
 20
-17.9392
 30
0.0025
 70
192
 0
VERTEX
 8
TUBO_2
 10
22.3032
 20
-17.9392
 30
0.0025
 70
192
 0
VERTEX
 8
TUBO_2
 10
22.4143
 20
-17.7729
 30
0.0025
 70
192
 0
VERTEX
 8
TUBO_2
 10
22.4143
 20
-17.7729
 30
0.0025
 70
192
 0
VERTEX
 8
TUBO_2
 10
22.4143
 20
-17.7729
 30
0.0025
 70
192
 0
VERTEX
 8
TUBO_2
 10
22.4143
 20
-17.7729
 30
0.0025
 70
192
 0
VERTEX
 8
TUBO_2
 10
23.0077
 20
-18.1286
 30
0.0025
 70
192
 0
VERTEX
 8
TUBO_2
 10
22.9134
 20
-18.305
 30
0.0025
 70
192
 0
VERTEX
 8
TUBO_2
 10
22.9134
 20
-18.305
 30
0.0025
 70
192
 0
VERTEX
 8
TUBO_2
 10
22.9134
 20
-18.305
 30
0.0025
 70
192
 0
VERTEX
 8
TUBO_2
 10
22.9134
 20
-18.305
 30
0.0025
 70
192
 0
VERTEX
 8
TUBO_2
 10
22.9134
 20
-18.305
 30
0.0025
 70
192
 0
VERTEX
 8
TUBO_2
 10
23.0077
 20
-18.1286
 30
0.0025
 70
192
 0
VERTEX
 8
TUBO_2
 10
23.0077
 20
-18.1286
 30
0.0025
 70
192
 0
VERTEX
 8
TUBO_2
 10
23.0077
 20
-18.1286
 30
0.0025
 70
192
 0
VERTEX
 8
TUBO_2
 10
23.0077
 20
-18.1286
 30
0.0025
 70
192
 0
VERTEX
 8
TUBO_2
 10
23.6332
 20
-18.4244
 30
0.0025
 70
192
 0
VERTEX
 8
TUBO_2
 10
23.5566
 20
-18.6092
 30
0.0025
 70
192
 0
VERTEX
 8
TUBO_2
 10
23.5566
 20
-18.6092
 30
0.0025
 70
192
 0
VERTEX
 8
TUBO_2
 10
23.5566
 20
-18.6092
 30
0.0025
 70
192
 0
VERTEX
 8
TUBO_2
 10
23.5566
 20
-18.6092
 30
0.0025
 70
192
 0
VERTEX
 8
TUBO_2
 10
23.5566
 20
-18.6092
 30
0.0025
 70
192
 0
VERTEX
 8
TUBO_2
 10
23.6332
 20
-18.4244
 30
0.0025
 70
192
 0
VERTEX
 8
TUBO_2
 10
23.6332
 20
-18.4244
 30
0.0025
 70
192
 0
VERTEX
 8
TUBO_2
 10
23.6332
 20
-18.4244
 30
0.0025
 70
192
 0
VERTEX
 8
TUBO_2
 10
23.6332
 20
-18.4244
 30
0.0025
 70
192
 0
VERTEX
 8
TUBO_2
 10
24.2846
 20
-18.6575
 30
0.0025
 70
192
 0
VERTEX
 8
TUBO_2
 10
24.2265
 20
-18.8489
 30
0.0025
 70
192
 0
VERTEX
 8
TUBO_2
 10
24.2265
 20
-18.8489
 30
0.0025
 70
192
 0
VERTEX
 8
TUBO_2
 10
24.2265
 20
-18.8489
 30
0.0025
 70
192
 0
VERTEX
 8
TUBO_2
 10
24.2265
 20
-18.8489
 30
0.0025
 70
192
 0
VERTEX
 8
TUBO_2
 10
24.2265
 20
-18.8489
 30
0.0025
 70
192
 0
VERTEX
 8
TUBO_2
 10
24.2846
 20
-18.6575
 30
0.0025
 70
192
 0
VERTEX
 8
TUBO_2
 10
24.2846
 20
-18.6575
 30
0.0025
 70
192
 0
VERTEX
 8
TUBO_2
 10
24.2846
 20
-18.6575
 30
0.0025
 70
192
 0
VERTEX
 8
TUBO_2
 10
24.2846
 20
-18.6575
 30
0.0025
 70
192
 0
VERTEX
 8
TUBO_2
 10
24.9557
 20
-18.8256
 30
0.0025
 70
192
 0
VERTEX
 8
TUBO_2
 10
24.9167
 20
-19.0218
 30
0.0025
 70
192
 0
VERTEX
 8
TUBO_2
 10
24.9167
 20
-19.0218
 30
0.0025
 70
192
 0
VERTEX
 8
TUBO_2
 10
24.9167
 20
-19.0218
 30
0.0025
 70
192
 0
VERTEX
 8
TUBO_2
 10
24.9167
 20
-19.0218
 30
0.0025
 70
192
 0
VERTEX
 8
TUBO_2
 10
24.9167
 20
-19.0218
 30
0.0025
 70
192
 0
VERTEX
 8
TUBO_2
 10
24.9557
 20
-18.8256
 30
0.0025
 70
192
 0
VERTEX
 8
TUBO_2
 10
24.9557
 20
-18.8256
 30
0.0025
 70
192
 0
VERTEX
 8
TUBO_2
 10
24.9557
 20
-18.8256
 30
0.0025
 70
192
 0
VERTEX
 8
TUBO_2
 10
24.9557
 20
-18.8256
 30
0.0025
 70
192
 0
VERTEX
 8
TUBO_2
 10
25.64
 20
-18.9271
 30
0.0025
 70
192
 0
VERTEX
 8
TUBO_2
 10
25.6204
 20
-19.1261
 30
0.0025
 70
192
 0
VERTEX
 8
TUBO_2
 10
25.6204
 20
-19.1261
 30
0.0025
 70
192
 0
VERTEX
 8
TUBO_2
 10
25.6204
 20
-19.1261
 30
0.0025
 70
192
 0
VERTEX
 8
TUBO_2
 10
25.6204
 20
-19.1261
 30
0.0025
 70
192
 0
VERTEX
 8
TUBO_2
 10
25.6204
 20
-19.1261
 30
0.0025
 70
192
 0
VERTEX
 8
TUBO_2
 10
25.64
 20
-18.9271
 30
0.0025
 70
192
 0
VERTEX
 8
TUBO_2
 10
25.64
 20
-18.9271
 30
0.0025
 70
192
 0
VERTEX
 8
TUBO_2
 10
25.64
 20
-18.9271
 30
0.0025
 70
192
 0
VERTEX
 8
TUBO_2
 10
25.64
 20
-18.9271
 30
0.0025
 70
192
 0
VERTEX
 8
TUBO_2
 10
26.3311
 20
-18.9611
 30
0.0025
 70
192
 0
VERTEX
 8
TUBO_2
 10
26.3311
 20
-19.1611
 30
0.0025
 70
192
 0
VERTEX
 8
TUBO_2
 10
26.3311
 20
-19.1611
 30
0.0025
 70
192
 0
VERTEX
 8
TUBO_2
 10
26.3311
 20
-19.1611
 30
0.0025
 70
192
 0
VERTEX
 8
TUBO_2
 10
26.3311
 20
-19.1611
 30
0.0025
 70
192
 0
VERTEX
 8
TUBO_2
 10
26.3311
 20
-19.1611
 30
0.0025
 70
192
 0
VERTEX
 8
TUBO_2
 10
26.3311
 20
-18.9611
 30
0.0025
 70
192
 0
VERTEX
 8
TUBO_2
 10
26.3311
 20
-18.9611
 30
0.0025
 70
192
 0
VERTEX
 8
TUBO_2
 10
26.3311
 20
-18.9611
 30
0.0025
 70
192
 0
VERTEX
 8
TUBO_2
 10
26.3311
 20
-18.9611
 30
0.0025
 70
192
 0
VERTEX
 8
TUBO_2
 10
27.0221
 20
-18.9271
 30
0.0025
 70
192
 0
VERTEX
 8
TUBO_2
 10
27.0417
 20
-19.1261
 30
0.0025
 70
192
 0
VERTEX
 8
TUBO_2
 10
27.0417
 20
-19.1261
 30
0.0025
 70
192
 0
VERTEX
 8
TUBO_2
 10
27.0417
 20
-19.1261
 30
0.0025
 70
192
 0
VERTEX
 8
TUBO_2
 10
27.0417
 20
-19.1261
 30
0.0025
 70
192
 0
VERTEX
 8
TUBO_2
 10
27.0417
 20
-19.1261
 30
0.0025
 70
192
 0
VERTEX
 8
TUBO_2
 10
27.0221
 20
-18.9271
 30
0.0025
 70
192
 0
VERTEX
 8
TUBO_2
 10
27.0221
 20
-18.9271
 30
0.0025
 70
192
 0
VERTEX
 8
TUBO_2
 10
27.0221
 20
-18.9271
 30
0.0025
 70
192
 0
VERTEX
 8
TUBO_2
 10
27.0221
 20
-18.9271
 30
0.0025
 70
192
 0
VERTEX
 8
TUBO_2
 10
27.7065
 20
-18.8256
 30
0.0025
 70
192
 0
VERTEX
 8
TUBO_2
 10
27.7455
 20
-19.0218
 30
0.0025
 70
192
 0
VERTEX
 8
TUBO_2
 10
27.7455
 20
-19.0218
 30
0.0025
 70
192
 0
VERTEX
 8
TUBO_2
 10
27.7455
 20
-19.0218
 30
0.0025
 70
192
 0
VERTEX
 8
TUBO_2
 10
27.7455
 20
-19.0218
 30
0.0025
 70
192
 0
VERTEX
 8
TUBO_2
 10
27.7455
 20
-19.0218
 30
0.0025
 70
192
 0
VERTEX
 8
TUBO_2
 10
27.7065
 20
-18.8256
 30
0.0025
 70
192
 0
VERTEX
 8
TUBO_2
 10
27.7065
 20
-18.8256
 30
0.0025
 70
192
 0
VERTEX
 8
TUBO_2
 10
27.7065
 20
-18.8256
 30
0.0025
 70
192
 0
VERTEX
 8
TUBO_2
 10
27.7065
 20
-18.8256
 30
0.0025
 70
192
 0
VERTEX
 8
TUBO_2
 10
28.3776
 20
-18.6575
 30
0.0025
 70
192
 0
VERTEX
 8
TUBO_2
 10
28.4356
 20
-18.8489
 30
0.0025
 70
192
 0
VERTEX
 8
TUBO_2
 10
28.4356
 20
-18.8489
 30
0.0025
 70
192
 0
VERTEX
 8
TUBO_2
 10
28.4356
 20
-18.8489
 30
0.0025
 70
192
 0
VERTEX
 8
TUBO_2
 10
28.4356
 20
-18.8489
 30
0.0025
 70
192
 0
VERTEX
 8
TUBO_2
 10
28.4356
 20
-18.8489
 30
0.0025
 70
192
 0
VERTEX
 8
TUBO_2
 10
28.3776
 20
-18.6575
 30
0.0025
 70
192
 0
VERTEX
 8
TUBO_2
 10
28.3776
 20
-18.6575
 30
0.0025
 70
192
 0
VERTEX
 8
TUBO_2
 10
28.3776
 20
-18.6575
 30
0.0025
 70
192
 0
VERTEX
 8
TUBO_2
 10
28.3776
 20
-18.6575
 30
0.0025
 70
192
 0
VERTEX
 8
TUBO_2
 10
29.029
 20
-18.4244
 30
0.0025
 70
192
 0
VERTEX
 8
TUBO_2
 10
29.1055
 20
-18.6092
 30
0.0025
 70
192
 0
VERTEX
 8
TUBO_2
 10
29.1055
 20
-18.6092
 30
0.0025
 70
192
 0
VERTEX
 8
TUBO_2
 10
29.1055
 20
-18.6092
 30
0.0025
 70
192
 0
VERTEX
 8
TUBO_2
 10
29.1055
 20
-18.6092
 30
0.0025
 70
192
 0
VERTEX
 8
TUBO_2
 10
29.1055
 20
-18.6092
 30
0.0025
 70
192
 0
VERTEX
 8
TUBO_2
 10
29.029
 20
-18.4244
 30
0.0025
 70
192
 0
VERTEX
 8
TUBO_2
 10
29.029
 20
-18.4244
 30
0.0025
 70
192
 0
VERTEX
 8
TUBO_2
 10
29.029
 20
-18.4244
 30
0.0025
 70
192
 0
VERTEX
 8
TUBO_2
 10
29.029
 20
-18.4244
 30
0.0025
 70
192
 0
VERTEX
 8
TUBO_2
 10
29.6544
 20
-18.1286
 30
0.0025
 70
192
 0
VERTEX
 8
TUBO_2
 10
29.7487
 20
-18.305
 30
0.0025
 70
192
 0
VERTEX
 8
TUBO_2
 10
29.7487
 20
-18.305
 30
0.0025
 70
192
 0
VERTEX
 8
TUBO_2
 10
29.7487
 20
-18.305
 30
0.0025
 70
192
 0
VERTEX
 8
TUBO_2
 10
29.7487
 20
-18.305
 30
0.0025
 70
192
 0
VERTEX
 8
TUBO_2
 10
29.7487
 20
-18.305
 30
0.0025
 70
192
 0
VERTEX
 8
TUBO_2
 10
29.6544
 20
-18.1286
 30
0.0025
 70
192
 0
VERTEX
 8
TUBO_2
 10
29.6544
 20
-18.1286
 30
0.0025
 70
192
 0
VERTEX
 8
TUBO_2
 10
29.6544
 20
-18.1286
 30
0.0025
 70
192
 0
VERTEX
 8
TUBO_2
 10
29.6544
 20
-18.1286
 30
0.0025
 70
192
 0
VERTEX
 8
TUBO_2
 10
30.2478
 20
-17.7729
 30
0.0025
 70
192
 0
VERTEX
 8
TUBO_2
 10
30.359
 20
-17.9392
 30
0.0025
 70
192
 0
VERTEX
 8
TUBO_2
 10
30.359
 20
-17.9392
 30
0.0025
 70
192
 0
VERTEX
 8
TUBO_2
 10
30.359
 20
-17.9392
 30
0.0025
 70
192
 0
VERTEX
 8
TUBO_2
 10
30.359
 20
-17.9392
 30
0.0025
 70
192
 0
VERTEX
 8
TUBO_2
 10
30.359
 20
-17.9392
 30
0.0025
 70
192
 0
VERTEX
 8
TUBO_2
 10
30.2478
 20
-17.7729
 30
0.0025
 70
192
 0
VERTEX
 8
TUBO_2
 10
30.2478
 20
-17.7729
 30
0.0025
 70
192
 0
VERTEX
 8
TUBO_2
 10
30.2478
 20
-17.7729
 30
0.0025
 70
192
 0
VERTEX
 8
TUBO_2
 10
30.2478
 20
-17.7729
 30
0.0025
 70
192
 0
VERTEX
 8
TUBO_2
 10
30.8035
 20
-17.3608
 30
0.0025
 70
192
 0
VERTEX
 8
TUBO_2
 10
30.9304
 20
-17.5154
 30
0.0025
 70
192
 0
VERTEX
 8
TUBO_2
 10
30.9304
 20
-17.5154
 30
0.0025
 70
192
 0
VERTEX
 8
TUBO_2
 10
30.9304
 20
-17.5154
 30
0.0025
 70
192
 0
VERTEX
 8
TUBO_2
 10
30.9304
 20
-17.5154
 30
0.0025
 70
192
 0
VERTEX
 8
TUBO_2
 10
30.9304
 20
-17.5154
 30
0.0025
 70
192
 0
VERTEX
 8
TUBO_2
 10
30.8035
 20
-17.3608
 30
0.0025
 70
192
 0
VERTEX
 8
TUBO_2
 10
30.8035
 20
-17.3608
 30
0.0025
 70
192
 0
VERTEX
 8
TUBO_2
 10
30.8035
 20
-17.3608
 30
0.0025
 70
192
 0
VERTEX
 8
TUBO_2
 10
30.8035
 20
-17.3608
 30
0.0025
 70
192
 0
VERTEX
 8
TUBO_2
 10
31.3162
 20
-16.8962
 30
0.0025
 70
192
 0
VERTEX
 8
TUBO_2
 10
31.4576
 20
-17.0376
 30
0.0025
 70
192
 0
VERTEX
 8
TUBO_2
 10
31.4576
 20
-17.0376
 30
0.0025
 70
192
 0
VERTEX
 8
TUBO_2
 10
31.4576
 20
-17.0376
 30
0.0025
 70
192
 0
VERTEX
 8
TUBO_2
 10
31.4576
 20
-17.0376
 30
0.0025
 70
192
 0
VERTEX
 8
TUBO_2
 10
31.4576
 20
-17.0376
 30
0.0025
 70
192
 0
VERTEX
 8
TUBO_2
 10
31.3162
 20
-16.8962
 30
0.0025
 70
192
 0
VERTEX
 8
TUBO_2
 10
31.3162
 20
-16.8962
 30
0.0025
 70
192
 0
VERTEX
 8
TUBO_2
 10
31.3162
 20
-16.8962
 30
0.0025
 70
192
 0
VERTEX
 8
TUBO_2
 10
31.3162
 20
-16.8962
 30
0.0025
 70
192
 0
VERTEX
 8
TUBO_2
 10
31.7808
 20
-16.3835
 30
0.0025
 70
192
 0
VERTEX
 8
TUBO_2
 10
31.9354
 20
-16.5104
 30
0.0025
 70
192
 0
VERTEX
 8
TUBO_2
 10
31.9354
 20
-16.5104
 30
0.0025
 70
192
 0
VERTEX
 8
TUBO_2
 10
31.9354
 20
-16.5104
 30
0.0025
 70
192
 0
VERTEX
 8
TUBO_2
 10
31.9354
 20
-16.5104
 30
0.0025
 70
192
 0
VERTEX
 8
TUBO_2
 10
31.9354
 20
-16.5104
 30
0.0025
 70
192
 0
VERTEX
 8
TUBO_2
 10
31.7808
 20
-16.3835
 30
0.0025
 70
192
 0
VERTEX
 8
TUBO_2
 10
31.7808
 20
-16.3835
 30
0.0025
 70
192
 0
VERTEX
 8
TUBO_2
 10
31.7808
 20
-16.3835
 30
0.0025
 70
192
 0
VERTEX
 8
TUBO_2
 10
31.7808
 20
-16.3835
 30
0.0025
 70
192
 0
VERTEX
 8
TUBO_2
 10
32.1929
 20
-15.8278
 30
0.0025
 70
192
 0
VERTEX
 8
TUBO_2
 10
32.3592
 20
-15.9389
 30
0.0025
 70
192
 0
VERTEX
 8
TUBO_2
 10
32.3592
 20
-15.9389
 30
0.0025
 70
192
 0
VERTEX
 8
TUBO_2
 10
32.3592
 20
-15.9389
 30
0.0025
 70
192
 0
VERTEX
 8
TUBO_2
 10
32.3592
 20
-15.9389
 30
0.0025
 70
192
 0
VERTEX
 8
TUBO_2
 10
32.3592
 20
-15.9389
 30
0.0025
 70
192
 0
VERTEX
 8
TUBO_2
 10
32.1929
 20
-15.8278
 30
0.0025
 70
192
 0
VERTEX
 8
TUBO_2
 10
32.1929
 20
-15.8278
 30
0.0025
 70
192
 0
VERTEX
 8
TUBO_2
 10
32.1929
 20
-15.8278
 30
0.0025
 70
192
 0
VERTEX
 8
TUBO_2
 10
32.1929
 20
-15.8278
 30
0.0025
 70
192
 0
VERTEX
 8
TUBO_2
 10
32.5486
 20
-15.2344
 30
0.0025
 70
192
 0
VERTEX
 8
TUBO_2
 10
32.725
 20
-15.3287
 30
0.0025
 70
192
 0
VERTEX
 8
TUBO_2
 10
32.725
 20
-15.3287
 30
0.0025
 70
192
 0
VERTEX
 8
TUBO_2
 10
32.725
 20
-15.3287
 30
0.0025
 70
192
 0
VERTEX
 8
TUBO_2
 10
32.725
 20
-15.3287
 30
0.0025
 70
192
 0
VERTEX
 8
TUBO_2
 10
32.725
 20
-15.3287
 30
0.0025
 70
192
 0
VERTEX
 8
TUBO_2
 10
32.5486
 20
-15.2344
 30
0.0025
 70
192
 0
VERTEX
 8
TUBO_2
 10
32.5486
 20
-15.2344
 30
0.0025
 70
192
 0
VERTEX
 8
TUBO_2
 10
32.5486
 20
-15.2344
 30
0.0025
 70
192
 0
VERTEX
 8
TUBO_2
 10
32.5486
 20
-15.2344
 30
0.0025
 70
192
 0
VERTEX
 8
TUBO_2
 10
32.8444
 20
-14.609
 30
0.0025
 70
192
 0
VERTEX
 8
TUBO_2
 10
33.0292
 20
-14.6855
 30
0.0025
 70
192
 0
VERTEX
 8
TUBO_2
 10
33.0292
 20
-14.6855
 30
0.0025
 70
192
 0
VERTEX
 8
TUBO_2
 10
33.0292
 20
-14.6855
 30
0.0025
 70
192
 0
VERTEX
 8
TUBO_2
 10
33.0292
 20
-14.6855
 30
0.0025
 70
192
 0
VERTEX
 8
TUBO_2
 10
33.0292
 20
-14.6855
 30
0.0025
 70
192
 0
VERTEX
 8
TUBO_2
 10
32.8444
 20
-14.609
 30
0.0025
 70
192
 0
VERTEX
 8
TUBO_2
 10
32.8444
 20
-14.609
 30
0.0025
 70
192
 0
VERTEX
 8
TUBO_2
 10
32.8444
 20
-14.609
 30
0.0025
 70
192
 0
VERTEX
 8
TUBO_2
 10
32.8444
 20
-14.609
 30
0.0025
 70
192
 0
VERTEX
 8
TUBO_2
 10
33.0775
 20
-13.9576
 30
0.0025
 70
192
 0
VERTEX
 8
TUBO_2
 10
33.2689
 20
-14.0156
 30
0.0025
 70
192
 0
VERTEX
 8
TUBO_2
 10
33.2689
 20
-14.0156
 30
0.0025
 70
192
 0
VERTEX
 8
TUBO_2
 10
33.2689
 20
-14.0156
 30
0.0025
 70
192
 0
VERTEX
 8
TUBO_2
 10
33.2689
 20
-14.0156
 30
0.0025
 70
192
 0
VERTEX
 8
TUBO_2
 10
33.2689
 20
-14.0156
 30
0.0025
 70
192
 0
VERTEX
 8
TUBO_2
 10
33.0775
 20
-13.9576
 30
0.0025
 70
192
 0
VERTEX
 8
TUBO_2
 10
33.0775
 20
-13.9576
 30
0.0025
 70
192
 0
VERTEX
 8
TUBO_2
 10
33.0775
 20
-13.9576
 30
0.0025
 70
192
 0
VERTEX
 8
TUBO_2
 10
33.0775
 20
-13.9576
 30
0.0025
 70
192
 0
VERTEX
 8
TUBO_2
 10
33.2456
 20
-13.2864
 30
0.0025
 70
192
 0
VERTEX
 8
TUBO_2
 10
33.4418
 20
-13.3255
 30
0.0025
 70
192
 0
VERTEX
 8
TUBO_2
 10
33.4418
 20
-13.3255
 30
0.0025
 70
192
 0
VERTEX
 8
TUBO_2
 10
33.4418
 20
-13.3255
 30
0.0025
 70
192
 0
VERTEX
 8
TUBO_2
 10
33.4418
 20
-13.3255
 30
0.0025
 70
192
 0
VERTEX
 8
TUBO_2
 10
33.4418
 20
-13.3255
 30
0.0025
 70
192
 0
VERTEX
 8
TUBO_2
 10
33.2456
 20
-13.2864
 30
0.0025
 70
192
 0
VERTEX
 8
TUBO_2
 10
33.2456
 20
-13.2864
 30
0.0025
 70
192
 0
VERTEX
 8
TUBO_2
 10
33.2456
 20
-13.2864
 30
0.0025
 70
192
 0
VERTEX
 8
TUBO_2
 10
33.2456
 20
-13.2864
 30
0.0025
 70
192
 0
VERTEX
 8
TUBO_2
 10
33.3471
 20
-12.6021
 30
0.0025
 70
192
 0
VERTEX
 8
TUBO_2
 10
33.5462
 20
-12.6217
 30
0.0025
 70
192
 0
VERTEX
 8
TUBO_2
 10
33.5462
 20
-12.6217
 30
0.0025
 70
192
 0
VERTEX
 8
TUBO_2
 10
33.5462
 20
-12.6217
 30
0.0025
 70
192
 0
VERTEX
 8
TUBO_2
 10
33.5462
 20
-12.6217
 30
0.0025
 70
192
 0
VERTEX
 8
TUBO_2
 10
33.5462
 20
-12.6217
 30
0.0025
 70
192
 0
VERTEX
 8
TUBO_2
 10
33.3471
 20
-12.6021
 30
0.0025
 70
192
 0
VERTEX
 8
TUBO_2
 10
33.3471
 20
-12.6021
 30
0.0025
 70
192
 0
VERTEX
 8
TUBO_2
 10
33.3471
 20
-12.6021
 30
0.0025
 70
192
 0
VERTEX
 8
TUBO_2
 10
33.3471
 20
-12.6021
 30
0.0025
 70
192
 0
VERTEX
 8
TUBO_2
 10
0
 20
0
 30
0
 70
128
 71
1
 72
2
 73
12
 74
11
 0
VERTEX
 8
TUBO_2
 10
0
 20
0
 30
0
 70
128
 71
2
 72
3
 73
13
 74
12
 0
VERTEX
 8
TUBO_2
 10
0
 20
0
 30
0
 70
128
 71
3
 72
4
 73
14
 74
13
 0
VERTEX
 8
TUBO_2
 10
0
 20
0
 30
0
 70
128
 71
4
 72
5
 73
15
 74
14
 0
VERTEX
 8
TUBO_2
 10
0
 20
0
 30
0
 70
128
 71
5
 72
6
 73
16
 74
15
 0
VERTEX
 8
TUBO_2
 10
0
 20
0
 30
0
 70
128
 71
6
 72
7
 73
17
 74
16
 0
VERTEX
 8
TUBO_2
 10
0
 20
0
 30
0
 70
128
 71
7
 72
8
 73
18
 74
17
 0
VERTEX
 8
TUBO_2
 10
0
 20
0
 30
0
 70
128
 71
8
 72
9
 73
19
 74
18
 0
VERTEX
 8
TUBO_2
 10
0
 20
0
 30
0
 70
128
 71
9
 72
10
 73
20
 74
19
 0
VERTEX
 8
TUBO_2
 10
0
 20
0
 30
0
 70
128
 71
10
 72
1
 73
11
 74
20
 0
VERTEX
 8
TUBO_2
 10
0
 20
0
 30
0
 70
128
 71
11
 72
12
 73
22
 74
21
 0
VERTEX
 8
TUBO_2
 10
0
 20
0
 30
0
 70
128
 71
12
 72
13
 73
23
 74
22
 0
VERTEX
 8
TUBO_2
 10
0
 20
0
 30
0
 70
128
 71
13
 72
14
 73
24
 74
23
 0
VERTEX
 8
TUBO_2
 10
0
 20
0
 30
0
 70
128
 71
14
 72
15
 73
25
 74
24
 0
VERTEX
 8
TUBO_2
 10
0
 20
0
 30
0
 70
128
 71
15
 72
16
 73
26
 74
25
 0
VERTEX
 8
TUBO_2
 10
0
 20
0
 30
0
 70
128
 71
16
 72
17
 73
27
 74
26
 0
VERTEX
 8
TUBO_2
 10
0
 20
0
 30
0
 70
128
 71
17
 72
18
 73
28
 74
27
 0
VERTEX
 8
TUBO_2
 10
0
 20
0
 30
0
 70
128
 71
18
 72
19
 73
29
 74
28
 0
VERTEX
 8
TUBO_2
 10
0
 20
0
 30
0
 70
128
 71
19
 72
20
 73
30
 74
29
 0
VERTEX
 8
TUBO_2
 10
0
 20
0
 30
0
 70
128
 71
20
 72
11
 73
21
 74
30
 0
VERTEX
 8
TUBO_2
 10
0
 20
0
 30
0
 70
128
 71
21
 72
22
 73
32
 74
31
 0
VERTEX
 8
TUBO_2
 10
0
 20
0
 30
0
 70
128
 71
22
 72
23
 73
33
 74
32
 0
VERTEX
 8
TUBO_2
 10
0
 20
0
 30
0
 70
128
 71
23
 72
24
 73
34
 74
33
 0
VERTEX
 8
TUBO_2
 10
0
 20
0
 30
0
 70
128
 71
24
 72
25
 73
35
 74
34
 0
VERTEX
 8
TUBO_2
 10
0
 20
0
 30
0
 70
128
 71
25
 72
26
 73
36
 74
35
 0
VERTEX
 8
TUBO_2
 10
0
 20
0
 30
0
 70
128
 71
26
 72
27
 73
37
 74
36
 0
VERTEX
 8
TUBO_2
 10
0
 20
0
 30
0
 70
128
 71
27
 72
28
 73
38
 74
37
 0
VERTEX
 8
TUBO_2
 10
0
 20
0
 30
0
 70
128
 71
28
 72
29
 73
39
 74
38
 0
VERTEX
 8
TUBO_2
 10
0
 20
0
 30
0
 70
128
 71
29
 72
30
 73
40
 74
39
 0
VERTEX
 8
TUBO_2
 10
0
 20
0
 30
0
 70
128
 71
30
 72
21
 73
31
 74
40
 0
VERTEX
 8
TUBO_2
 10
0
 20
0
 30
0
 70
128
 71
31
 72
32
 73
42
 74
41
 0
VERTEX
 8
TUBO_2
 10
0
 20
0
 30
0
 70
128
 71
32
 72
33
 73
43
 74
42
 0
VERTEX
 8
TUBO_2
 10
0
 20
0
 30
0
 70
128
 71
33
 72
34
 73
44
 74
43
 0
VERTEX
 8
TUBO_2
 10
0
 20
0
 30
0
 70
128
 71
34
 72
35
 73
45
 74
44
 0
VERTEX
 8
TUBO_2
 10
0
 20
0
 30
0
 70
128
 71
35
 72
36
 73
46
 74
45
 0
VERTEX
 8
TUBO_2
 10
0
 20
0
 30
0
 70
128
 71
36
 72
37
 73
47
 74
46
 0
VERTEX
 8
TUBO_2
 10
0
 20
0
 30
0
 70
128
 71
37
 72
38
 73
48
 74
47
 0
VERTEX
 8
TUBO_2
 10
0
 20
0
 30
0
 70
128
 71
38
 72
39
 73
49
 74
48
 0
VERTEX
 8
TUBO_2
 10
0
 20
0
 30
0
 70
128
 71
39
 72
40
 73
50
 74
49
 0
VERTEX
 8
TUBO_2
 10
0
 20
0
 30
0
 70
128
 71
40
 72
31
 73
41
 74
50
 0
VERTEX
 8
TUBO_2
 10
0
 20
0
 30
0
 70
128
 71
41
 72
42
 73
52
 74
51
 0
VERTEX
 8
TUBO_2
 10
0
 20
0
 30
0
 70
128
 71
42
 72
43
 73
53
 74
52
 0
VERTEX
 8
TUBO_2
 10
0
 20
0
 30
0
 70
128
 71
43
 72
44
 73
54
 74
53
 0
VERTEX
 8
TUBO_2
 10
0
 20
0
 30
0
 70
128
 71
44
 72
45
 73
55
 74
54
 0
VERTEX
 8
TUBO_2
 10
0
 20
0
 30
0
 70
128
 71
45
 72
46
 73
56
 74
55
 0
VERTEX
 8
TUBO_2
 10
0
 20
0
 30
0
 70
128
 71
46
 72
47
 73
57
 74
56
 0
VERTEX
 8
TUBO_2
 10
0
 20
0
 30
0
 70
128
 71
47
 72
48
 73
58
 74
57
 0
VERTEX
 8
TUBO_2
 10
0
 20
0
 30
0
 70
128
 71
48
 72
49
 73
59
 74
58
 0
VERTEX
 8
TUBO_2
 10
0
 20
0
 30
0
 70
128
 71
49
 72
50
 73
60
 74
59
 0
VERTEX
 8
TUBO_2
 10
0
 20
0
 30
0
 70
128
 71
50
 72
41
 73
51
 74
60
 0
VERTEX
 8
TUBO_2
 10
0
 20
0
 30
0
 70
128
 71
51
 72
52
 73
62
 74
61
 0
VERTEX
 8
TUBO_2
 10
0
 20
0
 30
0
 70
128
 71
52
 72
53
 73
63
 74
62
 0
VERTEX
 8
TUBO_2
 10
0
 20
0
 30
0
 70
128
 71
53
 72
54
 73
64
 74
63
 0
VERTEX
 8
TUBO_2
 10
0
 20
0
 30
0
 70
128
 71
54
 72
55
 73
65
 74
64
 0
VERTEX
 8
TUBO_2
 10
0
 20
0
 30
0
 70
128
 71
55
 72
56
 73
66
 74
65
 0
VERTEX
 8
TUBO_2
 10
0
 20
0
 30
0
 70
128
 71
56
 72
57
 73
67
 74
66
 0
VERTEX
 8
TUBO_2
 10
0
 20
0
 30
0
 70
128
 71
57
 72
58
 73
68
 74
67
 0
VERTEX
 8
TUBO_2
 10
0
 20
0
 30
0
 70
128
 71
58
 72
59
 73
69
 74
68
 0
VERTEX
 8
TUBO_2
 10
0
 20
0
 30
0
 70
128
 71
59
 72
60
 73
70
 74
69
 0
VERTEX
 8
TUBO_2
 10
0
 20
0
 30
0
 70
128
 71
60
 72
51
 73
61
 74
70
 0
VERTEX
 8
TUBO_2
 10
0
 20
0
 30
0
 70
128
 71
61
 72
62
 73
72
 74
71
 0
VERTEX
 8
TUBO_2
 10
0
 20
0
 30
0
 70
128
 71
62
 72
63
 73
73
 74
72
 0
VERTEX
 8
TUBO_2
 10
0
 20
0
 30
0
 70
128
 71
63
 72
64
 73
74
 74
73
 0
VERTEX
 8
TUBO_2
 10
0
 20
0
 30
0
 70
128
 71
64
 72
65
 73
75
 74
74
 0
VERTEX
 8
TUBO_2
 10
0
 20
0
 30
0
 70
128
 71
65
 72
66
 73
76
 74
75
 0
VERTEX
 8
TUBO_2
 10
0
 20
0
 30
0
 70
128
 71
66
 72
67
 73
77
 74
76
 0
VERTEX
 8
TUBO_2
 10
0
 20
0
 30
0
 70
128
 71
67
 72
68
 73
78
 74
77
 0
VERTEX
 8
TUBO_2
 10
0
 20
0
 30
0
 70
128
 71
68
 72
69
 73
79
 74
78
 0
VERTEX
 8
TUBO_2
 10
0
 20
0
 30
0
 70
128
 71
69
 72
70
 73
80
 74
79
 0
VERTEX
 8
TUBO_2
 10
0
 20
0
 30
0
 70
128
 71
70
 72
61
 73
71
 74
80
 0
VERTEX
 8
TUBO_2
 10
0
 20
0
 30
0
 70
128
 71
71
 72
72
 73
82
 74
81
 0
VERTEX
 8
TUBO_2
 10
0
 20
0
 30
0
 70
128
 71
72
 72
73
 73
83
 74
82
 0
VERTEX
 8
TUBO_2
 10
0
 20
0
 30
0
 70
128
 71
73
 72
74
 73
84
 74
83
 0
VERTEX
 8
TUBO_2
 10
0
 20
0
 30
0
 70
128
 71
74
 72
75
 73
85
 74
84
 0
VERTEX
 8
TUBO_2
 10
0
 20
0
 30
0
 70
128
 71
75
 72
76
 73
86
 74
85
 0
VERTEX
 8
TUBO_2
 10
0
 20
0
 30
0
 70
128
 71
76
 72
77
 73
87
 74
86
 0
VERTEX
 8
TUBO_2
 10
0
 20
0
 30
0
 70
128
 71
77
 72
78
 73
88
 74
87
 0
VERTEX
 8
TUBO_2
 10
0
 20
0
 30
0
 70
128
 71
78
 72
79
 73
89
 74
88
 0
VERTEX
 8
TUBO_2
 10
0
 20
0
 30
0
 70
128
 71
79
 72
80
 73
90
 74
89
 0
VERTEX
 8
TUBO_2
 10
0
 20
0
 30
0
 70
128
 71
80
 72
71
 73
81
 74
90
 0
VERTEX
 8
TUBO_2
 10
0
 20
0
 30
0
 70
128
 71
81
 72
82
 73
92
 74
91
 0
VERTEX
 8
TUBO_2
 10
0
 20
0
 30
0
 70
128
 71
82
 72
83
 73
93
 74
92
 0
VERTEX
 8
TUBO_2
 10
0
 20
0
 30
0
 70
128
 71
83
 72
84
 73
94
 74
93
 0
VERTEX
 8
TUBO_2
 10
0
 20
0
 30
0
 70
128
 71
84
 72
85
 73
95
 74
94
 0
VERTEX
 8
TUBO_2
 10
0
 20
0
 30
0
 70
128
 71
85
 72
86
 73
96
 74
95
 0
VERTEX
 8
TUBO_2
 10
0
 20
0
 30
0
 70
128
 71
86
 72
87
 73
97
 74
96
 0
VERTEX
 8
TUBO_2
 10
0
 20
0
 30
0
 70
128
 71
87
 72
88
 73
98
 74
97
 0
VERTEX
 8
TUBO_2
 10
0
 20
0
 30
0
 70
128
 71
88
 72
89
 73
99
 74
98
 0
VERTEX
 8
TUBO_2
 10
0
 20
0
 30
0
 70
128
 71
89
 72
90
 73
100
 74
99
 0
VERTEX
 8
TUBO_2
 10
0
 20
0
 30
0
 70
128
 71
90
 72
81
 73
91
 74
100
 0
VERTEX
 8
TUBO_2
 10
0
 20
0
 30
0
 70
128
 71
91
 72
92
 73
102
 74
101
 0
VERTEX
 8
TUBO_2
 10
0
 20
0
 30
0
 70
128
 71
92
 72
93
 73
103
 74
102
 0
VERTEX
 8
TUBO_2
 10
0
 20
0
 30
0
 70
128
 71
93
 72
94
 73
104
 74
103
 0
VERTEX
 8
TUBO_2
 10
0
 20
0
 30
0
 70
128
 71
94
 72
95
 73
105
 74
104
 0
VERTEX
 8
TUBO_2
 10
0
 20
0
 30
0
 70
128
 71
95
 72
96
 73
106
 74
105
 0
VERTEX
 8
TUBO_2
 10
0
 20
0
 30
0
 70
128
 71
96
 72
97
 73
107
 74
106
 0
VERTEX
 8
TUBO_2
 10
0
 20
0
 30
0
 70
128
 71
97
 72
98
 73
108
 74
107
 0
VERTEX
 8
TUBO_2
 10
0
 20
0
 30
0
 70
128
 71
98
 72
99
 73
109
 74
108
 0
VERTEX
 8
TUBO_2
 10
0
 20
0
 30
0
 70
128
 71
99
 72
100
 73
110
 74
109
 0
VERTEX
 8
TUBO_2
 10
0
 20
0
 30
0
 70
128
 71
100
 72
91
 73
101
 74
110
 0
VERTEX
 8
TUBO_2
 10
0
 20
0
 30
0
 70
128
 71
101
 72
102
 73
112
 74
111
 0
VERTEX
 8
TUBO_2
 10
0
 20
0
 30
0
 70
128
 71
102
 72
103
 73
113
 74
112
 0
VERTEX
 8
TUBO_2
 10
0
 20
0
 30
0
 70
128
 71
103
 72
104
 73
114
 74
113
 0
VERTEX
 8
TUBO_2
 10
0
 20
0
 30
0
 70
128
 71
104
 72
105
 73
115
 74
114
 0
VERTEX
 8
TUBO_2
 10
0
 20
0
 30
0
 70
128
 71
105
 72
106
 73
116
 74
115
 0
VERTEX
 8
TUBO_2
 10
0
 20
0
 30
0
 70
128
 71
106
 72
107
 73
117
 74
116
 0
VERTEX
 8
TUBO_2
 10
0
 20
0
 30
0
 70
128
 71
107
 72
108
 73
118
 74
117
 0
VERTEX
 8
TUBO_2
 10
0
 20
0
 30
0
 70
128
 71
108
 72
109
 73
119
 74
118
 0
VERTEX
 8
TUBO_2
 10
0
 20
0
 30
0
 70
128
 71
109
 72
110
 73
120
 74
119
 0
VERTEX
 8
TUBO_2
 10
0
 20
0
 30
0
 70
128
 71
110
 72
101
 73
111
 74
120
 0
VERTEX
 8
TUBO_2
 10
0
 20
0
 30
0
 70
128
 71
111
 72
112
 73
122
 74
121
 0
VERTEX
 8
TUBO_2
 10
0
 20
0
 30
0
 70
128
 71
112
 72
113
 73
123
 74
122
 0
VERTEX
 8
TUBO_2
 10
0
 20
0
 30
0
 70
128
 71
113
 72
114
 73
124
 74
123
 0
VERTEX
 8
TUBO_2
 10
0
 20
0
 30
0
 70
128
 71
114
 72
115
 73
125
 74
124
 0
VERTEX
 8
TUBO_2
 10
0
 20
0
 30
0
 70
128
 71
115
 72
116
 73
126
 74
125
 0
VERTEX
 8
TUBO_2
 10
0
 20
0
 30
0
 70
128
 71
116
 72
117
 73
127
 74
126
 0
VERTEX
 8
TUBO_2
 10
0
 20
0
 30
0
 70
128
 71
117
 72
118
 73
128
 74
127
 0
VERTEX
 8
TUBO_2
 10
0
 20
0
 30
0
 70
128
 71
118
 72
119
 73
129
 74
128
 0
VERTEX
 8
TUBO_2
 10
0
 20
0
 30
0
 70
128
 71
119
 72
120
 73
130
 74
129
 0
VERTEX
 8
TUBO_2
 10
0
 20
0
 30
0
 70
128
 71
120
 72
111
 73
121
 74
130
 0
VERTEX
 8
TUBO_2
 10
0
 20
0
 30
0
 70
128
 71
121
 72
122
 73
132
 74
131
 0
VERTEX
 8
TUBO_2
 10
0
 20
0
 30
0
 70
128
 71
122
 72
123
 73
133
 74
132
 0
VERTEX
 8
TUBO_2
 10
0
 20
0
 30
0
 70
128
 71
123
 72
124
 73
134
 74
133
 0
VERTEX
 8
TUBO_2
 10
0
 20
0
 30
0
 70
128
 71
124
 72
125
 73
135
 74
134
 0
VERTEX
 8
TUBO_2
 10
0
 20
0
 30
0
 70
128
 71
125
 72
126
 73
136
 74
135
 0
VERTEX
 8
TUBO_2
 10
0
 20
0
 30
0
 70
128
 71
126
 72
127
 73
137
 74
136
 0
VERTEX
 8
TUBO_2
 10
0
 20
0
 30
0
 70
128
 71
127
 72
128
 73
138
 74
137
 0
VERTEX
 8
TUBO_2
 10
0
 20
0
 30
0
 70
128
 71
128
 72
129
 73
139
 74
138
 0
VERTEX
 8
TUBO_2
 10
0
 20
0
 30
0
 70
128
 71
129
 72
130
 73
140
 74
139
 0
VERTEX
 8
TUBO_2
 10
0
 20
0
 30
0
 70
128
 71
130
 72
121
 73
131
 74
140
 0
VERTEX
 8
TUBO_2
 10
0
 20
0
 30
0
 70
128
 71
131
 72
132
 73
142
 74
141
 0
VERTEX
 8
TUBO_2
 10
0
 20
0
 30
0
 70
128
 71
132
 72
133
 73
143
 74
142
 0
VERTEX
 8
TUBO_2
 10
0
 20
0
 30
0
 70
128
 71
133
 72
134
 73
144
 74
143
 0
VERTEX
 8
TUBO_2
 10
0
 20
0
 30
0
 70
128
 71
134
 72
135
 73
145
 74
144
 0
VERTEX
 8
TUBO_2
 10
0
 20
0
 30
0
 70
128
 71
135
 72
136
 73
146
 74
145
 0
VERTEX
 8
TUBO_2
 10
0
 20
0
 30
0
 70
128
 71
136
 72
137
 73
147
 74
146
 0
VERTEX
 8
TUBO_2
 10
0
 20
0
 30
0
 70
128
 71
137
 72
138
 73
148
 74
147
 0
VERTEX
 8
TUBO_2
 10
0
 20
0
 30
0
 70
128
 71
138
 72
139
 73
149
 74
148
 0
VERTEX
 8
TUBO_2
 10
0
 20
0
 30
0
 70
128
 71
139
 72
140
 73
150
 74
149
 0
VERTEX
 8
TUBO_2
 10
0
 20
0
 30
0
 70
128
 71
140
 72
131
 73
141
 74
150
 0
VERTEX
 8
TUBO_2
 10
0
 20
0
 30
0
 70
128
 71
141
 72
142
 73
152
 74
151
 0
VERTEX
 8
TUBO_2
 10
0
 20
0
 30
0
 70
128
 71
142
 72
143
 73
153
 74
152
 0
VERTEX
 8
TUBO_2
 10
0
 20
0
 30
0
 70
128
 71
143
 72
144
 73
154
 74
153
 0
VERTEX
 8
TUBO_2
 10
0
 20
0
 30
0
 70
128
 71
144
 72
145
 73
155
 74
154
 0
VERTEX
 8
TUBO_2
 10
0
 20
0
 30
0
 70
128
 71
145
 72
146
 73
156
 74
155
 0
VERTEX
 8
TUBO_2
 10
0
 20
0
 30
0
 70
128
 71
146
 72
147
 73
157
 74
156
 0
VERTEX
 8
TUBO_2
 10
0
 20
0
 30
0
 70
128
 71
147
 72
148
 73
158
 74
157
 0
VERTEX
 8
TUBO_2
 10
0
 20
0
 30
0
 70
128
 71
148
 72
149
 73
159
 74
158
 0
VERTEX
 8
TUBO_2
 10
0
 20
0
 30
0
 70
128
 71
149
 72
150
 73
160
 74
159
 0
VERTEX
 8
TUBO_2
 10
0
 20
0
 30
0
 70
128
 71
150
 72
141
 73
151
 74
160
 0
VERTEX
 8
TUBO_2
 10
0
 20
0
 30
0
 70
128
 71
151
 72
152
 73
162
 74
161
 0
VERTEX
 8
TUBO_2
 10
0
 20
0
 30
0
 70
128
 71
152
 72
153
 73
163
 74
162
 0
VERTEX
 8
TUBO_2
 10
0
 20
0
 30
0
 70
128
 71
153
 72
154
 73
164
 74
163
 0
VERTEX
 8
TUBO_2
 10
0
 20
0
 30
0
 70
128
 71
154
 72
155
 73
165
 74
164
 0
VERTEX
 8
TUBO_2
 10
0
 20
0
 30
0
 70
128
 71
155
 72
156
 73
166
 74
165
 0
VERTEX
 8
TUBO_2
 10
0
 20
0
 30
0
 70
128
 71
156
 72
157
 73
167
 74
166
 0
VERTEX
 8
TUBO_2
 10
0
 20
0
 30
0
 70
128
 71
157
 72
158
 73
168
 74
167
 0
VERTEX
 8
TUBO_2
 10
0
 20
0
 30
0
 70
128
 71
158
 72
159
 73
169
 74
168
 0
VERTEX
 8
TUBO_2
 10
0
 20
0
 30
0
 70
128
 71
159
 72
160
 73
170
 74
169
 0
VERTEX
 8
TUBO_2
 10
0
 20
0
 30
0
 70
128
 71
160
 72
151
 73
161
 74
170
 0
VERTEX
 8
TUBO_2
 10
0
 20
0
 30
0
 70
128
 71
161
 72
162
 73
172
 74
171
 0
VERTEX
 8
TUBO_2
 10
0
 20
0
 30
0
 70
128
 71
162
 72
163
 73
173
 74
172
 0
VERTEX
 8
TUBO_2
 10
0
 20
0
 30
0
 70
128
 71
163
 72
164
 73
174
 74
173
 0
VERTEX
 8
TUBO_2
 10
0
 20
0
 30
0
 70
128
 71
164
 72
165
 73
175
 74
174
 0
VERTEX
 8
TUBO_2
 10
0
 20
0
 30
0
 70
128
 71
165
 72
166
 73
176
 74
175
 0
VERTEX
 8
TUBO_2
 10
0
 20
0
 30
0
 70
128
 71
166
 72
167
 73
177
 74
176
 0
VERTEX
 8
TUBO_2
 10
0
 20
0
 30
0
 70
128
 71
167
 72
168
 73
178
 74
177
 0
VERTEX
 8
TUBO_2
 10
0
 20
0
 30
0
 70
128
 71
168
 72
169
 73
179
 74
178
 0
VERTEX
 8
TUBO_2
 10
0
 20
0
 30
0
 70
128
 71
169
 72
170
 73
180
 74
179
 0
VERTEX
 8
TUBO_2
 10
0
 20
0
 30
0
 70
128
 71
170
 72
161
 73
171
 74
180
 0
VERTEX
 8
TUBO_2
 10
0
 20
0
 30
0
 70
128
 71
171
 72
172
 73
182
 74
181
 0
VERTEX
 8
TUBO_2
 10
0
 20
0
 30
0
 70
128
 71
172
 72
173
 73
183
 74
182
 0
VERTEX
 8
TUBO_2
 10
0
 20
0
 30
0
 70
128
 71
173
 72
174
 73
184
 74
183
 0
VERTEX
 8
TUBO_2
 10
0
 20
0
 30
0
 70
128
 71
174
 72
175
 73
185
 74
184
 0
VERTEX
 8
TUBO_2
 10
0
 20
0
 30
0
 70
128
 71
175
 72
176
 73
186
 74
185
 0
VERTEX
 8
TUBO_2
 10
0
 20
0
 30
0
 70
128
 71
176
 72
177
 73
187
 74
186
 0
VERTEX
 8
TUBO_2
 10
0
 20
0
 30
0
 70
128
 71
177
 72
178
 73
188
 74
187
 0
VERTEX
 8
TUBO_2
 10
0
 20
0
 30
0
 70
128
 71
178
 72
179
 73
189
 74
188
 0
VERTEX
 8
TUBO_2
 10
0
 20
0
 30
0
 70
128
 71
179
 72
180
 73
190
 74
189
 0
VERTEX
 8
TUBO_2
 10
0
 20
0
 30
0
 70
128
 71
180
 72
171
 73
181
 74
190
 0
VERTEX
 8
TUBO_2
 10
0
 20
0
 30
0
 70
128
 71
181
 72
182
 73
192
 74
191
 0
VERTEX
 8
TUBO_2
 10
0
 20
0
 30
0
 70
128
 71
182
 72
183
 73
193
 74
192
 0
VERTEX
 8
TUBO_2
 10
0
 20
0
 30
0
 70
128
 71
183
 72
184
 73
194
 74
193
 0
VERTEX
 8
TUBO_2
 10
0
 20
0
 30
0
 70
128
 71
184
 72
185
 73
195
 74
194
 0
VERTEX
 8
TUBO_2
 10
0
 20
0
 30
0
 70
128
 71
185
 72
186
 73
196
 74
195
 0
VERTEX
 8
TUBO_2
 10
0
 20
0
 30
0
 70
128
 71
186
 72
187
 73
197
 74
196
 0
VERTEX
 8
TUBO_2
 10
0
 20
0
 30
0
 70
128
 71
187
 72
188
 73
198
 74
197
 0
VERTEX
 8
TUBO_2
 10
0
 20
0
 30
0
 70
128
 71
188
 72
189
 73
199
 74
198
 0
VERTEX
 8
TUBO_2
 10
0
 20
0
 30
0
 70
128
 71
189
 72
190
 73
200
 74
199
 0
VERTEX
 8
TUBO_2
 10
0
 20
0
 30
0
 70
128
 71
190
 72
181
 73
191
 74
200
 0
VERTEX
 8
TUBO_2
 10
0
 20
0
 30
0
 70
128
 71
191
 72
192
 73
202
 74
201
 0
VERTEX
 8
TUBO_2
 10
0
 20
0
 30
0
 70
128
 71
192
 72
193
 73
203
 74
202
 0
VERTEX
 8
TUBO_2
 10
0
 20
0
 30
0
 70
128
 71
193
 72
194
 73
204
 74
203
 0
VERTEX
 8
TUBO_2
 10
0
 20
0
 30
0
 70
128
 71
194
 72
195
 73
205
 74
204
 0
VERTEX
 8
TUBO_2
 10
0
 20
0
 30
0
 70
128
 71
195
 72
196
 73
206
 74
205
 0
VERTEX
 8
TUBO_2
 10
0
 20
0
 30
0
 70
128
 71
196
 72
197
 73
207
 74
206
 0
VERTEX
 8
TUBO_2
 10
0
 20
0
 30
0
 70
128
 71
197
 72
198
 73
208
 74
207
 0
VERTEX
 8
TUBO_2
 10
0
 20
0
 30
0
 70
128
 71
198
 72
199
 73
209
 74
208
 0
VERTEX
 8
TUBO_2
 10
0
 20
0
 30
0
 70
128
 71
199
 72
200
 73
210
 74
209
 0
VERTEX
 8
TUBO_2
 10
0
 20
0
 30
0
 70
128
 71
200
 72
191
 73
201
 74
210
 0
VERTEX
 8
TUBO_2
 10
0
 20
0
 30
0
 70
128
 71
201
 72
202
 73
212
 74
211
 0
VERTEX
 8
TUBO_2
 10
0
 20
0
 30
0
 70
128
 71
202
 72
203
 73
213
 74
212
 0
VERTEX
 8
TUBO_2
 10
0
 20
0
 30
0
 70
128
 71
203
 72
204
 73
214
 74
213
 0
VERTEX
 8
TUBO_2
 10
0
 20
0
 30
0
 70
128
 71
204
 72
205
 73
215
 74
214
 0
VERTEX
 8
TUBO_2
 10
0
 20
0
 30
0
 70
128
 71
205
 72
206
 73
216
 74
215
 0
VERTEX
 8
TUBO_2
 10
0
 20
0
 30
0
 70
128
 71
206
 72
207
 73
217
 74
216
 0
VERTEX
 8
TUBO_2
 10
0
 20
0
 30
0
 70
128
 71
207
 72
208
 73
218
 74
217
 0
VERTEX
 8
TUBO_2
 10
0
 20
0
 30
0
 70
128
 71
208
 72
209
 73
219
 74
218
 0
VERTEX
 8
TUBO_2
 10
0
 20
0
 30
0
 70
128
 71
209
 72
210
 73
220
 74
219
 0
VERTEX
 8
TUBO_2
 10
0
 20
0
 30
0
 70
128
 71
210
 72
201
 73
211
 74
220
 0
VERTEX
 8
TUBO_2
 10
0
 20
0
 30
0
 70
128
 71
211
 72
212
 73
222
 74
221
 0
VERTEX
 8
TUBO_2
 10
0
 20
0
 30
0
 70
128
 71
212
 72
213
 73
223
 74
222
 0
VERTEX
 8
TUBO_2
 10
0
 20
0
 30
0
 70
128
 71
213
 72
214
 73
224
 74
223
 0
VERTEX
 8
TUBO_2
 10
0
 20
0
 30
0
 70
128
 71
214
 72
215
 73
225
 74
224
 0
VERTEX
 8
TUBO_2
 10
0
 20
0
 30
0
 70
128
 71
215
 72
216
 73
226
 74
225
 0
VERTEX
 8
TUBO_2
 10
0
 20
0
 30
0
 70
128
 71
216
 72
217
 73
227
 74
226
 0
VERTEX
 8
TUBO_2
 10
0
 20
0
 30
0
 70
128
 71
217
 72
218
 73
228
 74
227
 0
VERTEX
 8
TUBO_2
 10
0
 20
0
 30
0
 70
128
 71
218
 72
219
 73
229
 74
228
 0
VERTEX
 8
TUBO_2
 10
0
 20
0
 30
0
 70
128
 71
219
 72
220
 73
230
 74
229
 0
VERTEX
 8
TUBO_2
 10
0
 20
0
 30
0
 70
128
 71
220
 72
211
 73
221
 74
230
 0
VERTEX
 8
TUBO_2
 10
0
 20
0
 30
0
 70
128
 71
221
 72
222
 73
232
 74
231
 0
VERTEX
 8
TUBO_2
 10
0
 20
0
 30
0
 70
128
 71
222
 72
223
 73
233
 74
232
 0
VERTEX
 8
TUBO_2
 10
0
 20
0
 30
0
 70
128
 71
223
 72
224
 73
234
 74
233
 0
VERTEX
 8
TUBO_2
 10
0
 20
0
 30
0
 70
128
 71
224
 72
225
 73
235
 74
234
 0
VERTEX
 8
TUBO_2
 10
0
 20
0
 30
0
 70
128
 71
225
 72
226
 73
236
 74
235
 0
VERTEX
 8
TUBO_2
 10
0
 20
0
 30
0
 70
128
 71
226
 72
227
 73
237
 74
236
 0
VERTEX
 8
TUBO_2
 10
0
 20
0
 30
0
 70
128
 71
227
 72
228
 73
238
 74
237
 0
VERTEX
 8
TUBO_2
 10
0
 20
0
 30
0
 70
128
 71
228
 72
229
 73
239
 74
238
 0
VERTEX
 8
TUBO_2
 10
0
 20
0
 30
0
 70
128
 71
229
 72
230
 73
240
 74
239
 0
VERTEX
 8
TUBO_2
 10
0
 20
0
 30
0
 70
128
 71
230
 72
221
 73
231
 74
240
 0
VERTEX
 8
TUBO_2
 10
0
 20
0
 30
0
 70
128
 71
231
 72
232
 73
242
 74
241
 0
VERTEX
 8
TUBO_2
 10
0
 20
0
 30
0
 70
128
 71
232
 72
233
 73
243
 74
242
 0
VERTEX
 8
TUBO_2
 10
0
 20
0
 30
0
 70
128
 71
233
 72
234
 73
244
 74
243
 0
VERTEX
 8
TUBO_2
 10
0
 20
0
 30
0
 70
128
 71
234
 72
235
 73
245
 74
244
 0
VERTEX
 8
TUBO_2
 10
0
 20
0
 30
0
 70
128
 71
235
 72
236
 73
246
 74
245
 0
VERTEX
 8
TUBO_2
 10
0
 20
0
 30
0
 70
128
 71
236
 72
237
 73
247
 74
246
 0
VERTEX
 8
TUBO_2
 10
0
 20
0
 30
0
 70
128
 71
237
 72
238
 73
248
 74
247
 0
VERTEX
 8
TUBO_2
 10
0
 20
0
 30
0
 70
128
 71
238
 72
239
 73
249
 74
248
 0
VERTEX
 8
TUBO_2
 10
0
 20
0
 30
0
 70
128
 71
239
 72
240
 73
250
 74
249
 0
VERTEX
 8
TUBO_2
 10
0
 20
0
 30
0
 70
128
 71
240
 72
231
 73
241
 74
250
 0
VERTEX
 8
TUBO_2
 10
0
 20
0
 30
0
 70
128
 71
241
 72
242
 73
252
 74
251
 0
VERTEX
 8
TUBO_2
 10
0
 20
0
 30
0
 70
128
 71
242
 72
243
 73
253
 74
252
 0
VERTEX
 8
TUBO_2
 10
0
 20
0
 30
0
 70
128
 71
243
 72
244
 73
254
 74
253
 0
VERTEX
 8
TUBO_2
 10
0
 20
0
 30
0
 70
128
 71
244
 72
245
 73
255
 74
254
 0
VERTEX
 8
TUBO_2
 10
0
 20
0
 30
0
 70
128
 71
245
 72
246
 73
256
 74
255
 0
VERTEX
 8
TUBO_2
 10
0
 20
0
 30
0
 70
128
 71
246
 72
247
 73
257
 74
256
 0
VERTEX
 8
TUBO_2
 10
0
 20
0
 30
0
 70
128
 71
247
 72
248
 73
258
 74
257
 0
VERTEX
 8
TUBO_2
 10
0
 20
0
 30
0
 70
128
 71
248
 72
249
 73
259
 74
258
 0
VERTEX
 8
TUBO_2
 10
0
 20
0
 30
0
 70
128
 71
249
 72
250
 73
260
 74
259
 0
VERTEX
 8
TUBO_2
 10
0
 20
0
 30
0
 70
128
 71
250
 72
241
 73
251
 74
260
 0
VERTEX
 8
TUBO_2
 10
0
 20
0
 30
0
 70
128
 71
251
 72
252
 73
262
 74
261
 0
VERTEX
 8
TUBO_2
 10
0
 20
0
 30
0
 70
128
 71
252
 72
253
 73
263
 74
262
 0
VERTEX
 8
TUBO_2
 10
0
 20
0
 30
0
 70
128
 71
253
 72
254
 73
264
 74
263
 0
VERTEX
 8
TUBO_2
 10
0
 20
0
 30
0
 70
128
 71
254
 72
255
 73
265
 74
264
 0
VERTEX
 8
TUBO_2
 10
0
 20
0
 30
0
 70
128
 71
255
 72
256
 73
266
 74
265
 0
VERTEX
 8
TUBO_2
 10
0
 20
0
 30
0
 70
128
 71
256
 72
257
 73
267
 74
266
 0
VERTEX
 8
TUBO_2
 10
0
 20
0
 30
0
 70
128
 71
257
 72
258
 73
268
 74
267
 0
VERTEX
 8
TUBO_2
 10
0
 20
0
 30
0
 70
128
 71
258
 72
259
 73
269
 74
268
 0
VERTEX
 8
TUBO_2
 10
0
 20
0
 30
0
 70
128
 71
259
 72
260
 73
270
 74
269
 0
VERTEX
 8
TUBO_2
 10
0
 20
0
 30
0
 70
128
 71
260
 72
251
 73
261
 74
270
 0
VERTEX
 8
TUBO_2
 10
0
 20
0
 30
0
 70
128
 71
261
 72
262
 73
272
 74
271
 0
VERTEX
 8
TUBO_2
 10
0
 20
0
 30
0
 70
128
 71
262
 72
263
 73
273
 74
272
 0
VERTEX
 8
TUBO_2
 10
0
 20
0
 30
0
 70
128
 71
263
 72
264
 73
274
 74
273
 0
VERTEX
 8
TUBO_2
 10
0
 20
0
 30
0
 70
128
 71
264
 72
265
 73
275
 74
274
 0
VERTEX
 8
TUBO_2
 10
0
 20
0
 30
0
 70
128
 71
265
 72
266
 73
276
 74
275
 0
VERTEX
 8
TUBO_2
 10
0
 20
0
 30
0
 70
128
 71
266
 72
267
 73
277
 74
276
 0
VERTEX
 8
TUBO_2
 10
0
 20
0
 30
0
 70
128
 71
267
 72
268
 73
278
 74
277
 0
VERTEX
 8
TUBO_2
 10
0
 20
0
 30
0
 70
128
 71
268
 72
269
 73
279
 74
278
 0
VERTEX
 8
TUBO_2
 10
0
 20
0
 30
0
 70
128
 71
269
 72
270
 73
280
 74
279
 0
VERTEX
 8
TUBO_2
 10
0
 20
0
 30
0
 70
128
 71
270
 72
261
 73
271
 74
280
 0
VERTEX
 8
TUBO_2
 10
0
 20
0
 30
0
 70
128
 71
271
 72
272
 73
282
 74
281
 0
VERTEX
 8
TUBO_2
 10
0
 20
0
 30
0
 70
128
 71
272
 72
273
 73
283
 74
282
 0
VERTEX
 8
TUBO_2
 10
0
 20
0
 30
0
 70
128
 71
273
 72
274
 73
284
 74
283
 0
VERTEX
 8
TUBO_2
 10
0
 20
0
 30
0
 70
128
 71
274
 72
275
 73
285
 74
284
 0
VERTEX
 8
TUBO_2
 10
0
 20
0
 30
0
 70
128
 71
275
 72
276
 73
286
 74
285
 0
VERTEX
 8
TUBO_2
 10
0
 20
0
 30
0
 70
128
 71
276
 72
277
 73
287
 74
286
 0
VERTEX
 8
TUBO_2
 10
0
 20
0
 30
0
 70
128
 71
277
 72
278
 73
288
 74
287
 0
VERTEX
 8
TUBO_2
 10
0
 20
0
 30
0
 70
128
 71
278
 72
279
 73
289
 74
288
 0
VERTEX
 8
TUBO_2
 10
0
 20
0
 30
0
 70
128
 71
279
 72
280
 73
290
 74
289
 0
VERTEX
 8
TUBO_2
 10
0
 20
0
 30
0
 70
128
 71
280
 72
271
 73
281
 74
290
 0
VERTEX
 8
TUBO_2
 10
0
 20
0
 30
0
 70
128
 71
281
 72
282
 73
292
 74
291
 0
VERTEX
 8
TUBO_2
 10
0
 20
0
 30
0
 70
128
 71
282
 72
283
 73
293
 74
292
 0
VERTEX
 8
TUBO_2
 10
0
 20
0
 30
0
 70
128
 71
283
 72
284
 73
294
 74
293
 0
VERTEX
 8
TUBO_2
 10
0
 20
0
 30
0
 70
128
 71
284
 72
285
 73
295
 74
294
 0
VERTEX
 8
TUBO_2
 10
0
 20
0
 30
0
 70
128
 71
285
 72
286
 73
296
 74
295
 0
VERTEX
 8
TUBO_2
 10
0
 20
0
 30
0
 70
128
 71
286
 72
287
 73
297
 74
296
 0
VERTEX
 8
TUBO_2
 10
0
 20
0
 30
0
 70
128
 71
287
 72
288
 73
298
 74
297
 0
VERTEX
 8
TUBO_2
 10
0
 20
0
 30
0
 70
128
 71
288
 72
289
 73
299
 74
298
 0
VERTEX
 8
TUBO_2
 10
0
 20
0
 30
0
 70
128
 71
289
 72
290
 73
300
 74
299
 0
VERTEX
 8
TUBO_2
 10
0
 20
0
 30
0
 70
128
 71
290
 72
281
 73
291
 74
300
 0
VERTEX
 8
TUBO_2
 10
0
 20
0
 30
0
 70
128
 71
291
 72
292
 73
302
 74
301
 0
VERTEX
 8
TUBO_2
 10
0
 20
0
 30
0
 70
128
 71
292
 72
293
 73
303
 74
302
 0
VERTEX
 8
TUBO_2
 10
0
 20
0
 30
0
 70
128
 71
293
 72
294
 73
304
 74
303
 0
VERTEX
 8
TUBO_2
 10
0
 20
0
 30
0
 70
128
 71
294
 72
295
 73
305
 74
304
 0
VERTEX
 8
TUBO_2
 10
0
 20
0
 30
0
 70
128
 71
295
 72
296
 73
306
 74
305
 0
VERTEX
 8
TUBO_2
 10
0
 20
0
 30
0
 70
128
 71
296
 72
297
 73
307
 74
306
 0
VERTEX
 8
TUBO_2
 10
0
 20
0
 30
0
 70
128
 71
297
 72
298
 73
308
 74
307
 0
VERTEX
 8
TUBO_2
 10
0
 20
0
 30
0
 70
128
 71
298
 72
299
 73
309
 74
308
 0
VERTEX
 8
TUBO_2
 10
0
 20
0
 30
0
 70
128
 71
299
 72
300
 73
310
 74
309
 0
VERTEX
 8
TUBO_2
 10
0
 20
0
 30
0
 70
128
 71
300
 72
291
 73
301
 74
310
 0
VERTEX
 8
TUBO_2
 10
0
 20
0
 30
0
 70
128
 71
301
 72
302
 73
312
 74
311
 0
VERTEX
 8
TUBO_2
 10
0
 20
0
 30
0
 70
128
 71
302
 72
303
 73
313
 74
312
 0
VERTEX
 8
TUBO_2
 10
0
 20
0
 30
0
 70
128
 71
303
 72
304
 73
314
 74
313
 0
VERTEX
 8
TUBO_2
 10
0
 20
0
 30
0
 70
128
 71
304
 72
305
 73
315
 74
314
 0
VERTEX
 8
TUBO_2
 10
0
 20
0
 30
0
 70
128
 71
305
 72
306
 73
316
 74
315
 0
VERTEX
 8
TUBO_2
 10
0
 20
0
 30
0
 70
128
 71
306
 72
307
 73
317
 74
316
 0
VERTEX
 8
TUBO_2
 10
0
 20
0
 30
0
 70
128
 71
307
 72
308
 73
318
 74
317
 0
VERTEX
 8
TUBO_2
 10
0
 20
0
 30
0
 70
128
 71
308
 72
309
 73
319
 74
318
 0
VERTEX
 8
TUBO_2
 10
0
 20
0
 30
0
 70
128
 71
309
 72
310
 73
320
 74
319
 0
VERTEX
 8
TUBO_2
 10
0
 20
0
 30
0
 70
128
 71
310
 72
301
 73
311
 74
320
 0
VERTEX
 8
TUBO_2
 10
0
 20
0
 30
0
 70
128
 71
311
 72
312
 73
322
 74
321
 0
VERTEX
 8
TUBO_2
 10
0
 20
0
 30
0
 70
128
 71
312
 72
313
 73
323
 74
322
 0
VERTEX
 8
TUBO_2
 10
0
 20
0
 30
0
 70
128
 71
313
 72
314
 73
324
 74
323
 0
VERTEX
 8
TUBO_2
 10
0
 20
0
 30
0
 70
128
 71
314
 72
315
 73
325
 74
324
 0
VERTEX
 8
TUBO_2
 10
0
 20
0
 30
0
 70
128
 71
315
 72
316
 73
326
 74
325
 0
VERTEX
 8
TUBO_2
 10
0
 20
0
 30
0
 70
128
 71
316
 72
317
 73
327
 74
326
 0
VERTEX
 8
TUBO_2
 10
0
 20
0
 30
0
 70
128
 71
317
 72
318
 73
328
 74
327
 0
VERTEX
 8
TUBO_2
 10
0
 20
0
 30
0
 70
128
 71
318
 72
319
 73
329
 74
328
 0
VERTEX
 8
TUBO_2
 10
0
 20
0
 30
0
 70
128
 71
319
 72
320
 73
330
 74
329
 0
VERTEX
 8
TUBO_2
 10
0
 20
0
 30
0
 70
128
 71
320
 72
311
 73
321
 74
330
 0
VERTEX
 8
TUBO_2
 10
0
 20
0
 30
0
 70
128
 71
321
 72
322
 73
332
 74
331
 0
VERTEX
 8
TUBO_2
 10
0
 20
0
 30
0
 70
128
 71
322
 72
323
 73
333
 74
332
 0
VERTEX
 8
TUBO_2
 10
0
 20
0
 30
0
 70
128
 71
323
 72
324
 73
334
 74
333
 0
VERTEX
 8
TUBO_2
 10
0
 20
0
 30
0
 70
128
 71
324
 72
325
 73
335
 74
334
 0
VERTEX
 8
TUBO_2
 10
0
 20
0
 30
0
 70
128
 71
325
 72
326
 73
336
 74
335
 0
VERTEX
 8
TUBO_2
 10
0
 20
0
 30
0
 70
128
 71
326
 72
327
 73
337
 74
336
 0
VERTEX
 8
TUBO_2
 10
0
 20
0
 30
0
 70
128
 71
327
 72
328
 73
338
 74
337
 0
VERTEX
 8
TUBO_2
 10
0
 20
0
 30
0
 70
128
 71
328
 72
329
 73
339
 74
338
 0
VERTEX
 8
TUBO_2
 10
0
 20
0
 30
0
 70
128
 71
329
 72
330
 73
340
 74
339
 0
VERTEX
 8
TUBO_2
 10
0
 20
0
 30
0
 70
128
 71
330
 72
321
 73
331
 74
340
 0
VERTEX
 8
TUBO_2
 10
0
 20
0
 30
0
 70
128
 71
331
 72
332
 73
342
 74
341
 0
VERTEX
 8
TUBO_2
 10
0
 20
0
 30
0
 70
128
 71
332
 72
333
 73
343
 74
342
 0
VERTEX
 8
TUBO_2
 10
0
 20
0
 30
0
 70
128
 71
333
 72
334
 73
344
 74
343
 0
VERTEX
 8
TUBO_2
 10
0
 20
0
 30
0
 70
128
 71
334
 72
335
 73
345
 74
344
 0
VERTEX
 8
TUBO_2
 10
0
 20
0
 30
0
 70
128
 71
335
 72
336
 73
346
 74
345
 0
VERTEX
 8
TUBO_2
 10
0
 20
0
 30
0
 70
128
 71
336
 72
337
 73
347
 74
346
 0
VERTEX
 8
TUBO_2
 10
0
 20
0
 30
0
 70
128
 71
337
 72
338
 73
348
 74
347
 0
VERTEX
 8
TUBO_2
 10
0
 20
0
 30
0
 70
128
 71
338
 72
339
 73
349
 74
348
 0
VERTEX
 8
TUBO_2
 10
0
 20
0
 30
0
 70
128
 71
339
 72
340
 73
350
 74
349
 0
VERTEX
 8
TUBO_2
 10
0
 20
0
 30
0
 70
128
 71
340
 72
331
 73
341
 74
350
 0
VERTEX
 8
TUBO_2
 10
0
 20
0
 30
0
 70
128
 71
341
 72
342
 73
352
 74
351
 0
VERTEX
 8
TUBO_2
 10
0
 20
0
 30
0
 70
128
 71
342
 72
343
 73
353
 74
352
 0
VERTEX
 8
TUBO_2
 10
0
 20
0
 30
0
 70
128
 71
343
 72
344
 73
354
 74
353
 0
VERTEX
 8
TUBO_2
 10
0
 20
0
 30
0
 70
128
 71
344
 72
345
 73
355
 74
354
 0
VERTEX
 8
TUBO_2
 10
0
 20
0
 30
0
 70
128
 71
345
 72
346
 73
356
 74
355
 0
VERTEX
 8
TUBO_2
 10
0
 20
0
 30
0
 70
128
 71
346
 72
347
 73
357
 74
356
 0
VERTEX
 8
TUBO_2
 10
0
 20
0
 30
0
 70
128
 71
347
 72
348
 73
358
 74
357
 0
VERTEX
 8
TUBO_2
 10
0
 20
0
 30
0
 70
128
 71
348
 72
349
 73
359
 74
358
 0
VERTEX
 8
TUBO_2
 10
0
 20
0
 30
0
 70
128
 71
349
 72
350
 73
360
 74
359
 0
VERTEX
 8
TUBO_2
 10
0
 20
0
 30
0
 70
128
 71
350
 72
341
 73
351
 74
360
 0
VERTEX
 8
TUBO_2
 10
0
 20
0
 30
0
 70
128
 71
351
 72
352
 73
362
 74
361
 0
VERTEX
 8
TUBO_2
 10
0
 20
0
 30
0
 70
128
 71
352
 72
353
 73
363
 74
362
 0
VERTEX
 8
TUBO_2
 10
0
 20
0
 30
0
 70
128
 71
353
 72
354
 73
364
 74
363
 0
VERTEX
 8
TUBO_2
 10
0
 20
0
 30
0
 70
128
 71
354
 72
355
 73
365
 74
364
 0
VERTEX
 8
TUBO_2
 10
0
 20
0
 30
0
 70
128
 71
355
 72
356
 73
366
 74
365
 0
VERTEX
 8
TUBO_2
 10
0
 20
0
 30
0
 70
128
 71
356
 72
357
 73
367
 74
366
 0
VERTEX
 8
TUBO_2
 10
0
 20
0
 30
0
 70
128
 71
357
 72
358
 73
368
 74
367
 0
VERTEX
 8
TUBO_2
 10
0
 20
0
 30
0
 70
128
 71
358
 72
359
 73
369
 74
368
 0
VERTEX
 8
TUBO_2
 10
0
 20
0
 30
0
 70
128
 71
359
 72
360
 73
370
 74
369
 0
VERTEX
 8
TUBO_2
 10
0
 20
0
 30
0
 70
128
 71
360
 72
351
 73
361
 74
370
 0
VERTEX
 8
TUBO_2
 10
0
 20
0
 30
0
 70
128
 71
361
 72
362
 73
372
 74
371
 0
VERTEX
 8
TUBO_2
 10
0
 20
0
 30
0
 70
128
 71
362
 72
363
 73
373
 74
372
 0
VERTEX
 8
TUBO_2
 10
0
 20
0
 30
0
 70
128
 71
363
 72
364
 73
374
 74
373
 0
VERTEX
 8
TUBO_2
 10
0
 20
0
 30
0
 70
128
 71
364
 72
365
 73
375
 74
374
 0
VERTEX
 8
TUBO_2
 10
0
 20
0
 30
0
 70
128
 71
365
 72
366
 73
376
 74
375
 0
VERTEX
 8
TUBO_2
 10
0
 20
0
 30
0
 70
128
 71
366
 72
367
 73
377
 74
376
 0
VERTEX
 8
TUBO_2
 10
0
 20
0
 30
0
 70
128
 71
367
 72
368
 73
378
 74
377
 0
VERTEX
 8
TUBO_2
 10
0
 20
0
 30
0
 70
128
 71
368
 72
369
 73
379
 74
378
 0
VERTEX
 8
TUBO_2
 10
0
 20
0
 30
0
 70
128
 71
369
 72
370
 73
380
 74
379
 0
VERTEX
 8
TUBO_2
 10
0
 20
0
 30
0
 70
128
 71
370
 72
361
 73
371
 74
380
 0
VERTEX
 8
TUBO_2
 10
0
 20
0
 30
0
 70
128
 71
371
 72
372
 73
382
 74
381
 0
VERTEX
 8
TUBO_2
 10
0
 20
0
 30
0
 70
128
 71
372
 72
373
 73
383
 74
382
 0
VERTEX
 8
TUBO_2
 10
0
 20
0
 30
0
 70
128
 71
373
 72
374
 73
384
 74
383
 0
VERTEX
 8
TUBO_2
 10
0
 20
0
 30
0
 70
128
 71
374
 72
375
 73
385
 74
384
 0
VERTEX
 8
TUBO_2
 10
0
 20
0
 30
0
 70
128
 71
375
 72
376
 73
386
 74
385
 0
VERTEX
 8
TUBO_2
 10
0
 20
0
 30
0
 70
128
 71
376
 72
377
 73
387
 74
386
 0
VERTEX
 8
TUBO_2
 10
0
 20
0
 30
0
 70
128
 71
377
 72
378
 73
388
 74
387
 0
VERTEX
 8
TUBO_2
 10
0
 20
0
 30
0
 70
128
 71
378
 72
379
 73
389
 74
388
 0
VERTEX
 8
TUBO_2
 10
0
 20
0
 30
0
 70
128
 71
379
 72
380
 73
390
 74
389
 0
VERTEX
 8
TUBO_2
 10
0
 20
0
 30
0
 70
128
 71
380
 72
371
 73
381
 74
390
 0
VERTEX
 8
TUBO_2
 10
0
 20
0
 30
0
 70
128
 71
381
 72
382
 73
392
 74
391
 0
VERTEX
 8
TUBO_2
 10
0
 20
0
 30
0
 70
128
 71
382
 72
383
 73
393
 74
392
 0
VERTEX
 8
TUBO_2
 10
0
 20
0
 30
0
 70
128
 71
383
 72
384
 73
394
 74
393
 0
VERTEX
 8
TUBO_2
 10
0
 20
0
 30
0
 70
128
 71
384
 72
385
 73
395
 74
394
 0
VERTEX
 8
TUBO_2
 10
0
 20
0
 30
0
 70
128
 71
385
 72
386
 73
396
 74
395
 0
VERTEX
 8
TUBO_2
 10
0
 20
0
 30
0
 70
128
 71
386
 72
387
 73
397
 74
396
 0
VERTEX
 8
TUBO_2
 10
0
 20
0
 30
0
 70
128
 71
387
 72
388
 73
398
 74
397
 0
VERTEX
 8
TUBO_2
 10
0
 20
0
 30
0
 70
128
 71
388
 72
389
 73
399
 74
398
 0
VERTEX
 8
TUBO_2
 10
0
 20
0
 30
0
 70
128
 71
389
 72
390
 73
400
 74
399
 0
VERTEX
 8
TUBO_2
 10
0
 20
0
 30
0
 70
128
 71
390
 72
381
 73
391
 74
400
 0
VERTEX
 8
TUBO_2
 10
0
 20
0
 30
0
 70
128
 71
391
 72
392
 73
402
 74
401
 0
VERTEX
 8
TUBO_2
 10
0
 20
0
 30
0
 70
128
 71
392
 72
393
 73
403
 74
402
 0
VERTEX
 8
TUBO_2
 10
0
 20
0
 30
0
 70
128
 71
393
 72
394
 73
404
 74
403
 0
VERTEX
 8
TUBO_2
 10
0
 20
0
 30
0
 70
128
 71
394
 72
395
 73
405
 74
404
 0
VERTEX
 8
TUBO_2
 10
0
 20
0
 30
0
 70
128
 71
395
 72
396
 73
406
 74
405
 0
VERTEX
 8
TUBO_2
 10
0
 20
0
 30
0
 70
128
 71
396
 72
397
 73
407
 74
406
 0
VERTEX
 8
TUBO_2
 10
0
 20
0
 30
0
 70
128
 71
397
 72
398
 73
408
 74
407
 0
VERTEX
 8
TUBO_2
 10
0
 20
0
 30
0
 70
128
 71
398
 72
399
 73
409
 74
408
 0
VERTEX
 8
TUBO_2
 10
0
 20
0
 30
0
 70
128
 71
399
 72
400
 73
410
 74
409
 0
VERTEX
 8
TUBO_2
 10
0
 20
0
 30
0
 70
128
 71
400
 72
391
 73
401
 74
410
 0
VERTEX
 8
TUBO_2
 10
0
 20
0
 30
0
 70
128
 71
401
 72
402
 73
412
 74
411
 0
VERTEX
 8
TUBO_2
 10
0
 20
0
 30
0
 70
128
 71
402
 72
403
 73
413
 74
412
 0
VERTEX
 8
TUBO_2
 10
0
 20
0
 30
0
 70
128
 71
403
 72
404
 73
414
 74
413
 0
VERTEX
 8
TUBO_2
 10
0
 20
0
 30
0
 70
128
 71
404
 72
405
 73
415
 74
414
 0
VERTEX
 8
TUBO_2
 10
0
 20
0
 30
0
 70
128
 71
405
 72
406
 73
416
 74
415
 0
VERTEX
 8
TUBO_2
 10
0
 20
0
 30
0
 70
128
 71
406
 72
407
 73
417
 74
416
 0
VERTEX
 8
TUBO_2
 10
0
 20
0
 30
0
 70
128
 71
407
 72
408
 73
418
 74
417
 0
VERTEX
 8
TUBO_2
 10
0
 20
0
 30
0
 70
128
 71
408
 72
409
 73
419
 74
418
 0
VERTEX
 8
TUBO_2
 10
0
 20
0
 30
0
 70
128
 71
409
 72
410
 73
420
 74
419
 0
VERTEX
 8
TUBO_2
 10
0
 20
0
 30
0
 70
128
 71
410
 72
401
 73
411
 74
420
 0
VERTEX
 8
TUBO_2
 10
0
 20
0
 30
0
 70
128
 71
411
 72
412
 73
422
 74
421
 0
VERTEX
 8
TUBO_2
 10
0
 20
0
 30
0
 70
128
 71
412
 72
413
 73
423
 74
422
 0
VERTEX
 8
TUBO_2
 10
0
 20
0
 30
0
 70
128
 71
413
 72
414
 73
424
 74
423
 0
VERTEX
 8
TUBO_2
 10
0
 20
0
 30
0
 70
128
 71
414
 72
415
 73
425
 74
424
 0
VERTEX
 8
TUBO_2
 10
0
 20
0
 30
0
 70
128
 71
415
 72
416
 73
426
 74
425
 0
VERTEX
 8
TUBO_2
 10
0
 20
0
 30
0
 70
128
 71
416
 72
417
 73
427
 74
426
 0
VERTEX
 8
TUBO_2
 10
0
 20
0
 30
0
 70
128
 71
417
 72
418
 73
428
 74
427
 0
VERTEX
 8
TUBO_2
 10
0
 20
0
 30
0
 70
128
 71
418
 72
419
 73
429
 74
428
 0
VERTEX
 8
TUBO_2
 10
0
 20
0
 30
0
 70
128
 71
419
 72
420
 73
430
 74
429
 0
VERTEX
 8
TUBO_2
 10
0
 20
0
 30
0
 70
128
 71
420
 72
411
 73
421
 74
430
 0
VERTEX
 8
TUBO_2
 10
0
 20
0
 30
0
 70
128
 71
421
 72
422
 73
432
 74
431
 0
VERTEX
 8
TUBO_2
 10
0
 20
0
 30
0
 70
128
 71
422
 72
423
 73
433
 74
432
 0
VERTEX
 8
TUBO_2
 10
0
 20
0
 30
0
 70
128
 71
423
 72
424
 73
434
 74
433
 0
VERTEX
 8
TUBO_2
 10
0
 20
0
 30
0
 70
128
 71
424
 72
425
 73
435
 74
434
 0
VERTEX
 8
TUBO_2
 10
0
 20
0
 30
0
 70
128
 71
425
 72
426
 73
436
 74
435
 0
VERTEX
 8
TUBO_2
 10
0
 20
0
 30
0
 70
128
 71
426
 72
427
 73
437
 74
436
 0
VERTEX
 8
TUBO_2
 10
0
 20
0
 30
0
 70
128
 71
427
 72
428
 73
438
 74
437
 0
VERTEX
 8
TUBO_2
 10
0
 20
0
 30
0
 70
128
 71
428
 72
429
 73
439
 74
438
 0
VERTEX
 8
TUBO_2
 10
0
 20
0
 30
0
 70
128
 71
429
 72
430
 73
440
 74
439
 0
VERTEX
 8
TUBO_2
 10
0
 20
0
 30
0
 70
128
 71
430
 72
421
 73
431
 74
440
 0
VERTEX
 8
TUBO_2
 10
0
 20
0
 30
0
 70
128
 71
431
 72
432
 73
442
 74
441
 0
VERTEX
 8
TUBO_2
 10
0
 20
0
 30
0
 70
128
 71
432
 72
433
 73
443
 74
442
 0
VERTEX
 8
TUBO_2
 10
0
 20
0
 30
0
 70
128
 71
433
 72
434
 73
444
 74
443
 0
VERTEX
 8
TUBO_2
 10
0
 20
0
 30
0
 70
128
 71
434
 72
435
 73
445
 74
444
 0
VERTEX
 8
TUBO_2
 10
0
 20
0
 30
0
 70
128
 71
435
 72
436
 73
446
 74
445
 0
VERTEX
 8
TUBO_2
 10
0
 20
0
 30
0
 70
128
 71
436
 72
437
 73
447
 74
446
 0
VERTEX
 8
TUBO_2
 10
0
 20
0
 30
0
 70
128
 71
437
 72
438
 73
448
 74
447
 0
VERTEX
 8
TUBO_2
 10
0
 20
0
 30
0
 70
128
 71
438
 72
439
 73
449
 74
448
 0
VERTEX
 8
TUBO_2
 10
0
 20
0
 30
0
 70
128
 71
439
 72
440
 73
450
 74
449
 0
VERTEX
 8
TUBO_2
 10
0
 20
0
 30
0
 70
128
 71
440
 72
431
 73
441
 74
450
 0
VERTEX
 8
TUBO_2
 10
0
 20
0
 30
0
 70
128
 71
441
 72
442
 73
452
 74
451
 0
VERTEX
 8
TUBO_2
 10
0
 20
0
 30
0
 70
128
 71
442
 72
443
 73
453
 74
452
 0
VERTEX
 8
TUBO_2
 10
0
 20
0
 30
0
 70
128
 71
443
 72
444
 73
454
 74
453
 0
VERTEX
 8
TUBO_2
 10
0
 20
0
 30
0
 70
128
 71
444
 72
445
 73
455
 74
454
 0
VERTEX
 8
TUBO_2
 10
0
 20
0
 30
0
 70
128
 71
445
 72
446
 73
456
 74
455
 0
VERTEX
 8
TUBO_2
 10
0
 20
0
 30
0
 70
128
 71
446
 72
447
 73
457
 74
456
 0
VERTEX
 8
TUBO_2
 10
0
 20
0
 30
0
 70
128
 71
447
 72
448
 73
458
 74
457
 0
VERTEX
 8
TUBO_2
 10
0
 20
0
 30
0
 70
128
 71
448
 72
449
 73
459
 74
458
 0
VERTEX
 8
TUBO_2
 10
0
 20
0
 30
0
 70
128
 71
449
 72
450
 73
460
 74
459
 0
VERTEX
 8
TUBO_2
 10
0
 20
0
 30
0
 70
128
 71
450
 72
441
 73
451
 74
460
 0
VERTEX
 8
TUBO_2
 10
0
 20
0
 30
0
 70
128
 71
451
 72
452
 73
462
 74
461
 0
VERTEX
 8
TUBO_2
 10
0
 20
0
 30
0
 70
128
 71
452
 72
453
 73
463
 74
462
 0
VERTEX
 8
TUBO_2
 10
0
 20
0
 30
0
 70
128
 71
453
 72
454
 73
464
 74
463
 0
VERTEX
 8
TUBO_2
 10
0
 20
0
 30
0
 70
128
 71
454
 72
455
 73
465
 74
464
 0
VERTEX
 8
TUBO_2
 10
0
 20
0
 30
0
 70
128
 71
455
 72
456
 73
466
 74
465
 0
VERTEX
 8
TUBO_2
 10
0
 20
0
 30
0
 70
128
 71
456
 72
457
 73
467
 74
466
 0
VERTEX
 8
TUBO_2
 10
0
 20
0
 30
0
 70
128
 71
457
 72
458
 73
468
 74
467
 0
VERTEX
 8
TUBO_2
 10
0
 20
0
 30
0
 70
128
 71
458
 72
459
 73
469
 74
468
 0
VERTEX
 8
TUBO_2
 10
0
 20
0
 30
0
 70
128
 71
459
 72
460
 73
470
 74
469
 0
VERTEX
 8
TUBO_2
 10
0
 20
0
 30
0
 70
128
 71
460
 72
451
 73
461
 74
470
 0
VERTEX
 8
TUBO_2
 10
0
 20
0
 30
0
 70
128
 71
461
 72
462
 73
472
 74
471
 0
VERTEX
 8
TUBO_2
 10
0
 20
0
 30
0
 70
128
 71
462
 72
463
 73
473
 74
472
 0
VERTEX
 8
TUBO_2
 10
0
 20
0
 30
0
 70
128
 71
463
 72
464
 73
474
 74
473
 0
VERTEX
 8
TUBO_2
 10
0
 20
0
 30
0
 70
128
 71
464
 72
465
 73
475
 74
474
 0
VERTEX
 8
TUBO_2
 10
0
 20
0
 30
0
 70
128
 71
465
 72
466
 73
476
 74
475
 0
VERTEX
 8
TUBO_2
 10
0
 20
0
 30
0
 70
128
 71
466
 72
467
 73
477
 74
476
 0
VERTEX
 8
TUBO_2
 10
0
 20
0
 30
0
 70
128
 71
467
 72
468
 73
478
 74
477
 0
VERTEX
 8
TUBO_2
 10
0
 20
0
 30
0
 70
128
 71
468
 72
469
 73
479
 74
478
 0
VERTEX
 8
TUBO_2
 10
0
 20
0
 30
0
 70
128
 71
469
 72
470
 73
480
 74
479
 0
VERTEX
 8
TUBO_2
 10
0
 20
0
 30
0
 70
128
 71
470
 72
461
 73
471
 74
480
 0
VERTEX
 8
TUBO_2
 10
0
 20
0
 30
0
 70
128
 71
471
 72
472
 73
482
 74
481
 0
VERTEX
 8
TUBO_2
 10
0
 20
0
 30
0
 70
128
 71
472
 72
473
 73
483
 74
482
 0
VERTEX
 8
TUBO_2
 10
0
 20
0
 30
0
 70
128
 71
473
 72
474
 73
484
 74
483
 0
VERTEX
 8
TUBO_2
 10
0
 20
0
 30
0
 70
128
 71
474
 72
475
 73
485
 74
484
 0
VERTEX
 8
TUBO_2
 10
0
 20
0
 30
0
 70
128
 71
475
 72
476
 73
486
 74
485
 0
VERTEX
 8
TUBO_2
 10
0
 20
0
 30
0
 70
128
 71
476
 72
477
 73
487
 74
486
 0
VERTEX
 8
TUBO_2
 10
0
 20
0
 30
0
 70
128
 71
477
 72
478
 73
488
 74
487
 0
VERTEX
 8
TUBO_2
 10
0
 20
0
 30
0
 70
128
 71
478
 72
479
 73
489
 74
488
 0
VERTEX
 8
TUBO_2
 10
0
 20
0
 30
0
 70
128
 71
479
 72
480
 73
490
 74
489
 0
VERTEX
 8
TUBO_2
 10
0
 20
0
 30
0
 70
128
 71
480
 72
471
 73
481
 74
490
 0
VERTEX
 8
TUBO_2
 10
0
 20
0
 30
0
 70
128
 71
481
 72
482
 73
492
 74
491
 0
VERTEX
 8
TUBO_2
 10
0
 20
0
 30
0
 70
128
 71
482
 72
483
 73
493
 74
492
 0
VERTEX
 8
TUBO_2
 10
0
 20
0
 30
0
 70
128
 71
483
 72
484
 73
494
 74
493
 0
VERTEX
 8
TUBO_2
 10
0
 20
0
 30
0
 70
128
 71
484
 72
485
 73
495
 74
494
 0
VERTEX
 8
TUBO_2
 10
0
 20
0
 30
0
 70
128
 71
485
 72
486
 73
496
 74
495
 0
VERTEX
 8
TUBO_2
 10
0
 20
0
 30
0
 70
128
 71
486
 72
487
 73
497
 74
496
 0
VERTEX
 8
TUBO_2
 10
0
 20
0
 30
0
 70
128
 71
487
 72
488
 73
498
 74
497
 0
VERTEX
 8
TUBO_2
 10
0
 20
0
 30
0
 70
128
 71
488
 72
489
 73
499
 74
498
 0
VERTEX
 8
TUBO_2
 10
0
 20
0
 30
0
 70
128
 71
489
 72
490
 73
500
 74
499
 0
VERTEX
 8
TUBO_2
 10
0
 20
0
 30
0
 70
128
 71
490
 72
481
 73
491
 74
500
 0
VERTEX
 8
TUBO_2
 10
0
 20
0
 30
0
 70
128
 71
491
 72
492
 73
502
 74
501
 0
VERTEX
 8
TUBO_2
 10
0
 20
0
 30
0
 70
128
 71
492
 72
493
 73
503
 74
502
 0
VERTEX
 8
TUBO_2
 10
0
 20
0
 30
0
 70
128
 71
493
 72
494
 73
504
 74
503
 0
VERTEX
 8
TUBO_2
 10
0
 20
0
 30
0
 70
128
 71
494
 72
495
 73
505
 74
504
 0
VERTEX
 8
TUBO_2
 10
0
 20
0
 30
0
 70
128
 71
495
 72
496
 73
506
 74
505
 0
VERTEX
 8
TUBO_2
 10
0
 20
0
 30
0
 70
128
 71
496
 72
497
 73
507
 74
506
 0
VERTEX
 8
TUBO_2
 10
0
 20
0
 30
0
 70
128
 71
497
 72
498
 73
508
 74
507
 0
VERTEX
 8
TUBO_2
 10
0
 20
0
 30
0
 70
128
 71
498
 72
499
 73
509
 74
508
 0
VERTEX
 8
TUBO_2
 10
0
 20
0
 30
0
 70
128
 71
499
 72
500
 73
510
 74
509
 0
VERTEX
 8
TUBO_2
 10
0
 20
0
 30
0
 70
128
 71
500
 72
491
 73
501
 74
510
 0
VERTEX
 8
TUBO_2
 10
0
 20
0
 30
0
 70
128
 71
501
 72
502
 73
512
 74
511
 0
VERTEX
 8
TUBO_2
 10
0
 20
0
 30
0
 70
128
 71
502
 72
503
 73
513
 74
512
 0
VERTEX
 8
TUBO_2
 10
0
 20
0
 30
0
 70
128
 71
503
 72
504
 73
514
 74
513
 0
VERTEX
 8
TUBO_2
 10
0
 20
0
 30
0
 70
128
 71
504
 72
505
 73
515
 74
514
 0
VERTEX
 8
TUBO_2
 10
0
 20
0
 30
0
 70
128
 71
505
 72
506
 73
516
 74
515
 0
VERTEX
 8
TUBO_2
 10
0
 20
0
 30
0
 70
128
 71
506
 72
507
 73
517
 74
516
 0
VERTEX
 8
TUBO_2
 10
0
 20
0
 30
0
 70
128
 71
507
 72
508
 73
518
 74
517
 0
VERTEX
 8
TUBO_2
 10
0
 20
0
 30
0
 70
128
 71
508
 72
509
 73
519
 74
518
 0
VERTEX
 8
TUBO_2
 10
0
 20
0
 30
0
 70
128
 71
509
 72
510
 73
520
 74
519
 0
VERTEX
 8
TUBO_2
 10
0
 20
0
 30
0
 70
128
 71
510
 72
501
 73
511
 74
520
 0
VERTEX
 8
TUBO_2
 10
0
 20
0
 30
0
 70
128
 71
511
 72
512
 73
522
 74
521
 0
VERTEX
 8
TUBO_2
 10
0
 20
0
 30
0
 70
128
 71
512
 72
513
 73
523
 74
522
 0
VERTEX
 8
TUBO_2
 10
0
 20
0
 30
0
 70
128
 71
513
 72
514
 73
524
 74
523
 0
VERTEX
 8
TUBO_2
 10
0
 20
0
 30
0
 70
128
 71
514
 72
515
 73
525
 74
524
 0
VERTEX
 8
TUBO_2
 10
0
 20
0
 30
0
 70
128
 71
515
 72
516
 73
526
 74
525
 0
VERTEX
 8
TUBO_2
 10
0
 20
0
 30
0
 70
128
 71
516
 72
517
 73
527
 74
526
 0
VERTEX
 8
TUBO_2
 10
0
 20
0
 30
0
 70
128
 71
517
 72
518
 73
528
 74
527
 0
VERTEX
 8
TUBO_2
 10
0
 20
0
 30
0
 70
128
 71
518
 72
519
 73
529
 74
528
 0
VERTEX
 8
TUBO_2
 10
0
 20
0
 30
0
 70
128
 71
519
 72
520
 73
530
 74
529
 0
VERTEX
 8
TUBO_2
 10
0
 20
0
 30
0
 70
128
 71
520
 72
511
 73
521
 74
530
 0
VERTEX
 8
TUBO_2
 10
0
 20
0
 30
0
 70
128
 71
521
 72
522
 73
532
 74
531
 0
VERTEX
 8
TUBO_2
 10
0
 20
0
 30
0
 70
128
 71
522
 72
523
 73
533
 74
532
 0
VERTEX
 8
TUBO_2
 10
0
 20
0
 30
0
 70
128
 71
523
 72
524
 73
534
 74
533
 0
VERTEX
 8
TUBO_2
 10
0
 20
0
 30
0
 70
128
 71
524
 72
525
 73
535
 74
534
 0
VERTEX
 8
TUBO_2
 10
0
 20
0
 30
0
 70
128
 71
525
 72
526
 73
536
 74
535
 0
VERTEX
 8
TUBO_2
 10
0
 20
0
 30
0
 70
128
 71
526
 72
527
 73
537
 74
536
 0
VERTEX
 8
TUBO_2
 10
0
 20
0
 30
0
 70
128
 71
527
 72
528
 73
538
 74
537
 0
VERTEX
 8
TUBO_2
 10
0
 20
0
 30
0
 70
128
 71
528
 72
529
 73
539
 74
538
 0
VERTEX
 8
TUBO_2
 10
0
 20
0
 30
0
 70
128
 71
529
 72
530
 73
540
 74
539
 0
VERTEX
 8
TUBO_2
 10
0
 20
0
 30
0
 70
128
 71
530
 72
521
 73
531
 74
540
 0
VERTEX
 8
TUBO_2
 10
0
 20
0
 30
0
 70
128
 71
531
 72
532
 73
542
 74
541
 0
VERTEX
 8
TUBO_2
 10
0
 20
0
 30
0
 70
128
 71
532
 72
533
 73
543
 74
542
 0
VERTEX
 8
TUBO_2
 10
0
 20
0
 30
0
 70
128
 71
533
 72
534
 73
544
 74
543
 0
VERTEX
 8
TUBO_2
 10
0
 20
0
 30
0
 70
128
 71
534
 72
535
 73
545
 74
544
 0
VERTEX
 8
TUBO_2
 10
0
 20
0
 30
0
 70
128
 71
535
 72
536
 73
546
 74
545
 0
VERTEX
 8
TUBO_2
 10
0
 20
0
 30
0
 70
128
 71
536
 72
537
 73
547
 74
546
 0
VERTEX
 8
TUBO_2
 10
0
 20
0
 30
0
 70
128
 71
537
 72
538
 73
548
 74
547
 0
VERTEX
 8
TUBO_2
 10
0
 20
0
 30
0
 70
128
 71
538
 72
539
 73
549
 74
548
 0
VERTEX
 8
TUBO_2
 10
0
 20
0
 30
0
 70
128
 71
539
 72
540
 73
550
 74
549
 0
VERTEX
 8
TUBO_2
 10
0
 20
0
 30
0
 70
128
 71
540
 72
531
 73
541
 74
550
 0
VERTEX
 8
TUBO_2
 10
0
 20
0
 30
0
 70
128
 71
541
 72
542
 73
552
 74
551
 0
VERTEX
 8
TUBO_2
 10
0
 20
0
 30
0
 70
128
 71
542
 72
543
 73
553
 74
552
 0
VERTEX
 8
TUBO_2
 10
0
 20
0
 30
0
 70
128
 71
543
 72
544
 73
554
 74
553
 0
VERTEX
 8
TUBO_2
 10
0
 20
0
 30
0
 70
128
 71
544
 72
545
 73
555
 74
554
 0
VERTEX
 8
TUBO_2
 10
0
 20
0
 30
0
 70
128
 71
545
 72
546
 73
556
 74
555
 0
VERTEX
 8
TUBO_2
 10
0
 20
0
 30
0
 70
128
 71
546
 72
547
 73
557
 74
556
 0
VERTEX
 8
TUBO_2
 10
0
 20
0
 30
0
 70
128
 71
547
 72
548
 73
558
 74
557
 0
VERTEX
 8
TUBO_2
 10
0
 20
0
 30
0
 70
128
 71
548
 72
549
 73
559
 74
558
 0
VERTEX
 8
TUBO_2
 10
0
 20
0
 30
0
 70
128
 71
549
 72
550
 73
560
 74
559
 0
VERTEX
 8
TUBO_2
 10
0
 20
0
 30
0
 70
128
 71
550
 72
541
 73
551
 74
560
 0
VERTEX
 8
TUBO_2
 10
0
 20
0
 30
0
 70
128
 71
551
 72
552
 73
562
 74
561
 0
VERTEX
 8
TUBO_2
 10
0
 20
0
 30
0
 70
128
 71
552
 72
553
 73
563
 74
562
 0
VERTEX
 8
TUBO_2
 10
0
 20
0
 30
0
 70
128
 71
553
 72
554
 73
564
 74
563
 0
VERTEX
 8
TUBO_2
 10
0
 20
0
 30
0
 70
128
 71
554
 72
555
 73
565
 74
564
 0
VERTEX
 8
TUBO_2
 10
0
 20
0
 30
0
 70
128
 71
555
 72
556
 73
566
 74
565
 0
VERTEX
 8
TUBO_2
 10
0
 20
0
 30
0
 70
128
 71
556
 72
557
 73
567
 74
566
 0
VERTEX
 8
TUBO_2
 10
0
 20
0
 30
0
 70
128
 71
557
 72
558
 73
568
 74
567
 0
VERTEX
 8
TUBO_2
 10
0
 20
0
 30
0
 70
128
 71
558
 72
559
 73
569
 74
568
 0
VERTEX
 8
TUBO_2
 10
0
 20
0
 30
0
 70
128
 71
559
 72
560
 73
570
 74
569
 0
VERTEX
 8
TUBO_2
 10
0
 20
0
 30
0
 70
128
 71
560
 72
551
 73
561
 74
570
 0
VERTEX
 8
TUBO_2
 10
0
 20
0
 30
0
 70
128
 71
561
 72
562
 73
572
 74
571
 0
VERTEX
 8
TUBO_2
 10
0
 20
0
 30
0
 70
128
 71
562
 72
563
 73
573
 74
572
 0
VERTEX
 8
TUBO_2
 10
0
 20
0
 30
0
 70
128
 71
563
 72
564
 73
574
 74
573
 0
VERTEX
 8
TUBO_2
 10
0
 20
0
 30
0
 70
128
 71
564
 72
565
 73
575
 74
574
 0
VERTEX
 8
TUBO_2
 10
0
 20
0
 30
0
 70
128
 71
565
 72
566
 73
576
 74
575
 0
VERTEX
 8
TUBO_2
 10
0
 20
0
 30
0
 70
128
 71
566
 72
567
 73
577
 74
576
 0
VERTEX
 8
TUBO_2
 10
0
 20
0
 30
0
 70
128
 71
567
 72
568
 73
578
 74
577
 0
VERTEX
 8
TUBO_2
 10
0
 20
0
 30
0
 70
128
 71
568
 72
569
 73
579
 74
578
 0
VERTEX
 8
TUBO_2
 10
0
 20
0
 30
0
 70
128
 71
569
 72
570
 73
580
 74
579
 0
VERTEX
 8
TUBO_2
 10
0
 20
0
 30
0
 70
128
 71
570
 72
561
 73
571
 74
580
 0
VERTEX
 8
TUBO_2
 10
0
 20
0
 30
0
 70
128
 71
571
 72
572
 73
582
 74
581
 0
VERTEX
 8
TUBO_2
 10
0
 20
0
 30
0
 70
128
 71
572
 72
573
 73
583
 74
582
 0
VERTEX
 8
TUBO_2
 10
0
 20
0
 30
0
 70
128
 71
573
 72
574
 73
584
 74
583
 0
VERTEX
 8
TUBO_2
 10
0
 20
0
 30
0
 70
128
 71
574
 72
575
 73
585
 74
584
 0
VERTEX
 8
TUBO_2
 10
0
 20
0
 30
0
 70
128
 71
575
 72
576
 73
586
 74
585
 0
VERTEX
 8
TUBO_2
 10
0
 20
0
 30
0
 70
128
 71
576
 72
577
 73
587
 74
586
 0
VERTEX
 8
TUBO_2
 10
0
 20
0
 30
0
 70
128
 71
577
 72
578
 73
588
 74
587
 0
VERTEX
 8
TUBO_2
 10
0
 20
0
 30
0
 70
128
 71
578
 72
579
 73
589
 74
588
 0
VERTEX
 8
TUBO_2
 10
0
 20
0
 30
0
 70
128
 71
579
 72
580
 73
590
 74
589
 0
VERTEX
 8
TUBO_2
 10
0
 20
0
 30
0
 70
128
 71
580
 72
571
 73
581
 74
590
 0
VERTEX
 8
TUBO_2
 10
0
 20
0
 30
0
 70
128
 71
581
 72
582
 73
592
 74
591
 0
VERTEX
 8
TUBO_2
 10
0
 20
0
 30
0
 70
128
 71
582
 72
583
 73
593
 74
592
 0
VERTEX
 8
TUBO_2
 10
0
 20
0
 30
0
 70
128
 71
583
 72
584
 73
594
 74
593
 0
VERTEX
 8
TUBO_2
 10
0
 20
0
 30
0
 70
128
 71
584
 72
585
 73
595
 74
594
 0
VERTEX
 8
TUBO_2
 10
0
 20
0
 30
0
 70
128
 71
585
 72
586
 73
596
 74
595
 0
VERTEX
 8
TUBO_2
 10
0
 20
0
 30
0
 70
128
 71
586
 72
587
 73
597
 74
596
 0
VERTEX
 8
TUBO_2
 10
0
 20
0
 30
0
 70
128
 71
587
 72
588
 73
598
 74
597
 0
VERTEX
 8
TUBO_2
 10
0
 20
0
 30
0
 70
128
 71
588
 72
589
 73
599
 74
598
 0
VERTEX
 8
TUBO_2
 10
0
 20
0
 30
0
 70
128
 71
589
 72
590
 73
600
 74
599
 0
VERTEX
 8
TUBO_2
 10
0
 20
0
 30
0
 70
128
 71
590
 72
581
 73
591
 74
600
 0
VERTEX
 8
TUBO_2
 10
0
 20
0
 30
0
 70
128
 71
591
 72
592
 73
602
 74
601
 0
VERTEX
 8
TUBO_2
 10
0
 20
0
 30
0
 70
128
 71
592
 72
593
 73
603
 74
602
 0
VERTEX
 8
TUBO_2
 10
0
 20
0
 30
0
 70
128
 71
593
 72
594
 73
604
 74
603
 0
VERTEX
 8
TUBO_2
 10
0
 20
0
 30
0
 70
128
 71
594
 72
595
 73
605
 74
604
 0
VERTEX
 8
TUBO_2
 10
0
 20
0
 30
0
 70
128
 71
595
 72
596
 73
606
 74
605
 0
VERTEX
 8
TUBO_2
 10
0
 20
0
 30
0
 70
128
 71
596
 72
597
 73
607
 74
606
 0
VERTEX
 8
TUBO_2
 10
0
 20
0
 30
0
 70
128
 71
597
 72
598
 73
608
 74
607
 0
VERTEX
 8
TUBO_2
 10
0
 20
0
 30
0
 70
128
 71
598
 72
599
 73
609
 74
608
 0
VERTEX
 8
TUBO_2
 10
0
 20
0
 30
0
 70
128
 71
599
 72
600
 73
610
 74
609
 0
VERTEX
 8
TUBO_2
 10
0
 20
0
 30
0
 70
128
 71
600
 72
591
 73
601
 74
610
 0
VERTEX
 8
TUBO_2
 10
0
 20
0
 30
0
 70
128
 71
601
 72
602
 73
612
 74
611
 0
VERTEX
 8
TUBO_2
 10
0
 20
0
 30
0
 70
128
 71
602
 72
603
 73
613
 74
612
 0
VERTEX
 8
TUBO_2
 10
0
 20
0
 30
0
 70
128
 71
603
 72
604
 73
614
 74
613
 0
VERTEX
 8
TUBO_2
 10
0
 20
0
 30
0
 70
128
 71
604
 72
605
 73
615
 74
614
 0
VERTEX
 8
TUBO_2
 10
0
 20
0
 30
0
 70
128
 71
605
 72
606
 73
616
 74
615
 0
VERTEX
 8
TUBO_2
 10
0
 20
0
 30
0
 70
128
 71
606
 72
607
 73
617
 74
616
 0
VERTEX
 8
TUBO_2
 10
0
 20
0
 30
0
 70
128
 71
607
 72
608
 73
618
 74
617
 0
VERTEX
 8
TUBO_2
 10
0
 20
0
 30
0
 70
128
 71
608
 72
609
 73
619
 74
618
 0
VERTEX
 8
TUBO_2
 10
0
 20
0
 30
0
 70
128
 71
609
 72
610
 73
620
 74
619
 0
VERTEX
 8
TUBO_2
 10
0
 20
0
 30
0
 70
128
 71
610
 72
601
 73
611
 74
620
 0
VERTEX
 8
TUBO_2
 10
0
 20
0
 30
0
 70
128
 71
611
 72
612
 73
622
 74
621
 0
VERTEX
 8
TUBO_2
 10
0
 20
0
 30
0
 70
128
 71
612
 72
613
 73
623
 74
622
 0
VERTEX
 8
TUBO_2
 10
0
 20
0
 30
0
 70
128
 71
613
 72
614
 73
624
 74
623
 0
VERTEX
 8
TUBO_2
 10
0
 20
0
 30
0
 70
128
 71
614
 72
615
 73
625
 74
624
 0
VERTEX
 8
TUBO_2
 10
0
 20
0
 30
0
 70
128
 71
615
 72
616
 73
626
 74
625
 0
VERTEX
 8
TUBO_2
 10
0
 20
0
 30
0
 70
128
 71
616
 72
617
 73
627
 74
626
 0
VERTEX
 8
TUBO_2
 10
0
 20
0
 30
0
 70
128
 71
617
 72
618
 73
628
 74
627
 0
VERTEX
 8
TUBO_2
 10
0
 20
0
 30
0
 70
128
 71
618
 72
619
 73
629
 74
628
 0
VERTEX
 8
TUBO_2
 10
0
 20
0
 30
0
 70
128
 71
619
 72
620
 73
630
 74
629
 0
VERTEX
 8
TUBO_2
 10
0
 20
0
 30
0
 70
128
 71
620
 72
611
 73
621
 74
630
 0
VERTEX
 8
TUBO_2
 10
0
 20
0
 30
0
 70
128
 71
621
 72
622
 73
632
 74
631
 0
VERTEX
 8
TUBO_2
 10
0
 20
0
 30
0
 70
128
 71
622
 72
623
 73
633
 74
632
 0
VERTEX
 8
TUBO_2
 10
0
 20
0
 30
0
 70
128
 71
623
 72
624
 73
634
 74
633
 0
VERTEX
 8
TUBO_2
 10
0
 20
0
 30
0
 70
128
 71
624
 72
625
 73
635
 74
634
 0
VERTEX
 8
TUBO_2
 10
0
 20
0
 30
0
 70
128
 71
625
 72
626
 73
636
 74
635
 0
VERTEX
 8
TUBO_2
 10
0
 20
0
 30
0
 70
128
 71
626
 72
627
 73
637
 74
636
 0
VERTEX
 8
TUBO_2
 10
0
 20
0
 30
0
 70
128
 71
627
 72
628
 73
638
 74
637
 0
VERTEX
 8
TUBO_2
 10
0
 20
0
 30
0
 70
128
 71
628
 72
629
 73
639
 74
638
 0
VERTEX
 8
TUBO_2
 10
0
 20
0
 30
0
 70
128
 71
629
 72
630
 73
640
 74
639
 0
VERTEX
 8
TUBO_2
 10
0
 20
0
 30
0
 70
128
 71
630
 72
621
 73
631
 74
640
 0
VERTEX
 8
TUBO_2
 10
0
 20
0
 30
0
 70
128
 71
631
 72
632
 73
2
 74
1
 0
VERTEX
 8
TUBO_2
 10
0
 20
0
 30
0
 70
128
 71
632
 72
633
 73
3
 74
2
 0
VERTEX
 8
TUBO_2
 10
0
 20
0
 30
0
 70
128
 71
633
 72
634
 73
4
 74
3
 0
VERTEX
 8
TUBO_2
 10
0
 20
0
 30
0
 70
128
 71
634
 72
635
 73
5
 74
4
 0
VERTEX
 8
TUBO_2
 10
0
 20
0
 30
0
 70
128
 71
635
 72
636
 73
6
 74
5
 0
VERTEX
 8
TUBO_2
 10
0
 20
0
 30
0
 70
128
 71
636
 72
637
 73
7
 74
6
 0
VERTEX
 8
TUBO_2
 10
0
 20
0
 30
0
 70
128
 71
637
 72
638
 73
8
 74
7
 0
VERTEX
 8
TUBO_2
 10
0
 20
0
 30
0
 70
128
 71
638
 72
639
 73
9
 74
8
 0
VERTEX
 8
TUBO_2
 10
0
 20
0
 30
0
 70
128
 71
639
 72
640
 73
10
 74
9
 0
VERTEX
 8
TUBO_2
 10
0
 20
0
 30
0
 70
128
 71
640
 72
631
 73
1
 74
10
 0
SEQEND
 0
POLYLINE
 8
TUBO_1
 66
1
 10
0.0
 20
0.0
 30
0.0
 70
64
 71
640
 72
640
 0
VERTEX
 8
TUBO_1
 10
21.1385
 20
7.1501
 30
0.0025
 70
192
 0
VERTEX
 8
TUBO_1
 10
21.2185
 20
7.1501
 30
0.0025
 70
192
 0
VERTEX
 8
TUBO_1
 10
21.2185
 20
7.1501
 30
0.0025
 70
192
 0
VERTEX
 8
TUBO_1
 10
21.2185
 20
7.1501
 30
0.0025
 70
192
 0
VERTEX
 8
TUBO_1
 10
21.2185
 20
7.1501
 30
0.0025
 70
192
 0
VERTEX
 8
TUBO_1
 10
21.2185
 20
7.1501
 30
0.0025
 70
192
 0
VERTEX
 8
TUBO_1
 10
21.1385
 20
7.1501
 30
0.0025
 70
192
 0
VERTEX
 8
TUBO_1
 10
21.1385
 20
7.1501
 30
0.0025
 70
192
 0
VERTEX
 8
TUBO_1
 10
21.1385
 20
7.1501
 30
0.0025
 70
192
 0
VERTEX
 8
TUBO_1
 10
21.1385
 20
7.1501
 30
0.0025
 70
192
 0
VERTEX
 8
TUBO_1
 10
21.069
 20
8.5635
 30
0.0025
 70
192
 0
VERTEX
 8
TUBO_1
 10
21.1486
 20
8.5714
 30
0.0025
 70
192
 0
VERTEX
 8
TUBO_1
 10
21.1486
 20
8.5714
 30
0.0025
 70
192
 0
VERTEX
 8
TUBO_1
 10
21.1486
 20
8.5714
 30
0.0025
 70
192
 0
VERTEX
 8
TUBO_1
 10
21.1486
 20
8.5714
 30
0.0025
 70
192
 0
VERTEX
 8
TUBO_1
 10
21.1486
 20
8.5714
 30
0.0025
 70
192
 0
VERTEX
 8
TUBO_1
 10
21.069
 20
8.5635
 30
0.0025
 70
192
 0
VERTEX
 8
TUBO_1
 10
21.069
 20
8.5635
 30
0.0025
 70
192
 0
VERTEX
 8
TUBO_1
 10
21.069
 20
8.5635
 30
0.0025
 70
192
 0
VERTEX
 8
TUBO_1
 10
21.069
 20
8.5635
 30
0.0025
 70
192
 0
VERTEX
 8
TUBO_1
 10
20.8614
 20
9.9633
 30
0.0025
 70
192
 0
VERTEX
 8
TUBO_1
 10
20.9398
 20
9.9789
 30
0.0025
 70
192
 0
VERTEX
 8
TUBO_1
 10
20.9398
 20
9.9789
 30
0.0025
 70
192
 0
VERTEX
 8
TUBO_1
 10
20.9398
 20
9.9789
 30
0.0025
 70
192
 0
VERTEX
 8
TUBO_1
 10
20.9398
 20
9.9789
 30
0.0025
 70
192
 0
VERTEX
 8
TUBO_1
 10
20.9398
 20
9.9789
 30
0.0025
 70
192
 0
VERTEX
 8
TUBO_1
 10
20.8614
 20
9.9633
 30
0.0025
 70
192
 0
VERTEX
 8
TUBO_1
 10
20.8614
 20
9.9633
 30
0.0025
 70
192
 0
VERTEX
 8
TUBO_1
 10
20.8614
 20
9.9633
 30
0.0025
 70
192
 0
VERTEX
 8
TUBO_1
 10
20.8614
 20
9.9633
 30
0.0025
 70
192
 0
VERTEX
 8
TUBO_1
 10
20.5175
 20
11.336
 30
0.0025
 70
192
 0
VERTEX
 8
TUBO_1
 10
20.5941
 20
11.3592
 30
0.0025
 70
192
 0
VERTEX
 8
TUBO_1
 10
20.5941
 20
11.3592
 30
0.0025
 70
192
 0
VERTEX
 8
TUBO_1
 10
20.5941
 20
11.3592
 30
0.0025
 70
192
 0
VERTEX
 8
TUBO_1
 10
20.5941
 20
11.3592
 30
0.0025
 70
192
 0
VERTEX
 8
TUBO_1
 10
20.5941
 20
11.3592
 30
0.0025
 70
192
 0
VERTEX
 8
TUBO_1
 10
20.5175
 20
11.336
 30
0.0025
 70
192
 0
VERTEX
 8
TUBO_1
 10
20.5175
 20
11.336
 30
0.0025
 70
192
 0
VERTEX
 8
TUBO_1
 10
20.5175
 20
11.336
 30
0.0025
 70
192
 0
VERTEX
 8
TUBO_1
 10
20.5175
 20
11.336
 30
0.0025
 70
192
 0
VERTEX
 8
TUBO_1
 10
20.0408
 20
12.6684
 30
0.0025
 70
192
 0
VERTEX
 8
TUBO_1
 10
20.1147
 20
12.699
 30
0.0025
 70
192
 0
VERTEX
 8
TUBO_1
 10
20.1147
 20
12.699
 30
0.0025
 70
192
 0
VERTEX
 8
TUBO_1
 10
20.1147
 20
12.699
 30
0.0025
 70
192
 0
VERTEX
 8
TUBO_1
 10
20.1147
 20
12.699
 30
0.0025
 70
192
 0
VERTEX
 8
TUBO_1
 10
20.1147
 20
12.699
 30
0.0025
 70
192
 0
VERTEX
 8
TUBO_1
 10
20.0408
 20
12.6684
 30
0.0025
 70
192
 0
VERTEX
 8
TUBO_1
 10
20.0408
 20
12.6684
 30
0.0025
 70
192
 0
VERTEX
 8
TUBO_1
 10
20.0408
 20
12.6684
 30
0.0025
 70
192
 0
VERTEX
 8
TUBO_1
 10
20.0408
 20
12.6684
 30
0.0025
 70
192
 0
VERTEX
 8
TUBO_1
 10
19.4358
 20
13.9477
 30
0.0025
 70
192
 0
VERTEX
 8
TUBO_1
 10
19.5063
 20
13.9854
 30
0.0025
 70
192
 0
VERTEX
 8
TUBO_1
 10
19.5063
 20
13.9854
 30
0.0025
 70
192
 0
VERTEX
 8
TUBO_1
 10
19.5063
 20
13.9854
 30
0.0025
 70
192
 0
VERTEX
 8
TUBO_1
 10
19.5063
 20
13.9854
 30
0.0025
 70
192
 0
VERTEX
 8
TUBO_1
 10
19.5063
 20
13.9854
 30
0.0025
 70
192
 0
VERTEX
 8
TUBO_1
 10
19.4358
 20
13.9477
 30
0.0025
 70
192
 0
VERTEX
 8
TUBO_1
 10
19.4358
 20
13.9477
 30
0.0025
 70
192
 0
VERTEX
 8
TUBO_1
 10
19.4358
 20
13.9477
 30
0.0025
 70
192
 0
VERTEX
 8
TUBO_1
 10
19.4358
 20
13.9477
 30
0.0025
 70
192
 0
VERTEX
 8
TUBO_1
 10
18.7082
 20
15.1614
 30
0.0025
 70
192
 0
VERTEX
 8
TUBO_1
 10
18.7748
 20
15.2059
 30
0.0025
 70
192
 0
VERTEX
 8
TUBO_1
 10
18.7748
 20
15.2059
 30
0.0025
 70
192
 0
VERTEX
 8
TUBO_1
 10
18.7748
 20
15.2059
 30
0.0025
 70
192
 0
VERTEX
 8
TUBO_1
 10
18.7748
 20
15.2059
 30
0.0025
 70
192
 0
VERTEX
 8
TUBO_1
 10
18.7748
 20
15.2059
 30
0.0025
 70
192
 0
VERTEX
 8
TUBO_1
 10
18.7082
 20
15.1614
 30
0.0025
 70
192
 0
VERTEX
 8
TUBO_1
 10
18.7082
 20
15.1614
 30
0.0025
 70
192
 0
VERTEX
 8
TUBO_1
 10
18.7082
 20
15.1614
 30
0.0025
 70
192
 0
VERTEX
 8
TUBO_1
 10
18.7082
 20
15.1614
 30
0.0025
 70
192
 0
VERTEX
 8
TUBO_1
 10
17.8653
 20
16.2981
 30
0.0025
 70
192
 0
VERTEX
 8
TUBO_1
 10
17.9271
 20
16.3488
 30
0.0025
 70
192
 0
VERTEX
 8
TUBO_1
 10
17.9271
 20
16.3488
 30
0.0025
 70
192
 0
VERTEX
 8
TUBO_1
 10
17.9271
 20
16.3488
 30
0.0025
 70
192
 0
VERTEX
 8
TUBO_1
 10
17.9271
 20
16.3488
 30
0.0025
 70
192
 0
VERTEX
 8
TUBO_1
 10
17.9271
 20
16.3488
 30
0.0025
 70
192
 0
VERTEX
 8
TUBO_1
 10
17.8653
 20
16.2981
 30
0.0025
 70
192
 0
VERTEX
 8
TUBO_1
 10
17.8653
 20
16.2981
 30
0.0025
 70
192
 0
VERTEX
 8
TUBO_1
 10
17.8653
 20
16.2981
 30
0.0025
 70
192
 0
VERTEX
 8
TUBO_1
 10
17.8653
 20
16.2981
 30
0.0025
 70
192
 0
VERTEX
 8
TUBO_1
 10
16.9149
 20
17.3466
 30
0.0025
 70
192
 0
VERTEX
 8
TUBO_1
 10
16.9715
 20
17.4032
 30
0.0025
 70
192
 0
VERTEX
 8
TUBO_1
 10
16.9715
 20
17.4032
 30
0.0025
 70
192
 0
VERTEX
 8
TUBO_1
 10
16.9715
 20
17.4032
 30
0.0025
 70
192
 0
VERTEX
 8
TUBO_1
 10
16.9715
 20
17.4032
 30
0.0025
 70
192
 0
VERTEX
 8
TUBO_1
 10
16.9715
 20
17.4032
 30
0.0025
 70
192
 0
VERTEX
 8
TUBO_1
 10
16.9149
 20
17.3466
 30
0.0025
 70
192
 0
VERTEX
 8
TUBO_1
 10
16.9149
 20
17.3466
 30
0.0025
 70
192
 0
VERTEX
 8
TUBO_1
 10
16.9149
 20
17.3466
 30
0.0025
 70
192
 0
VERTEX
 8
TUBO_1
 10
16.9149
 20
17.3466
 30
0.0025
 70
192
 0
VERTEX
 8
TUBO_1
 10
15.8664
 20
18.2969
 30
0.0025
 70
192
 0
VERTEX
 8
TUBO_1
 10
15.9172
 20
18.3588
 30
0.0025
 70
192
 0
VERTEX
 8
TUBO_1
 10
15.9172
 20
18.3588
 30
0.0025
 70
192
 0
VERTEX
 8
TUBO_1
 10
15.9172
 20
18.3588
 30
0.0025
 70
192
 0
VERTEX
 8
TUBO_1
 10
15.9172
 20
18.3588
 30
0.0025
 70
192
 0
VERTEX
 8
TUBO_1
 10
15.9172
 20
18.3588
 30
0.0025
 70
192
 0
VERTEX
 8
TUBO_1
 10
15.8664
 20
18.2969
 30
0.0025
 70
192
 0
VERTEX
 8
TUBO_1
 10
15.8664
 20
18.2969
 30
0.0025
 70
192
 0
VERTEX
 8
TUBO_1
 10
15.8664
 20
18.2969
 30
0.0025
 70
192
 0
VERTEX
 8
TUBO_1
 10
15.8664
 20
18.2969
 30
0.0025
 70
192
 0
VERTEX
 8
TUBO_1
 10
14.7298
 20
19.1399
 30
0.0025
 70
192
 0
VERTEX
 8
TUBO_1
 10
14.7742
 20
19.2064
 30
0.0025
 70
192
 0
VERTEX
 8
TUBO_1
 10
14.7742
 20
19.2064
 30
0.0025
 70
192
 0
VERTEX
 8
TUBO_1
 10
14.7742
 20
19.2064
 30
0.0025
 70
192
 0
VERTEX
 8
TUBO_1
 10
14.7742
 20
19.2064
 30
0.0025
 70
192
 0
VERTEX
 8
TUBO_1
 10
14.7742
 20
19.2064
 30
0.0025
 70
192
 0
VERTEX
 8
TUBO_1
 10
14.7298
 20
19.1399
 30
0.0025
 70
192
 0
VERTEX
 8
TUBO_1
 10
14.7298
 20
19.1399
 30
0.0025
 70
192
 0
VERTEX
 8
TUBO_1
 10
14.7298
 20
19.1399
 30
0.0025
 70
192
 0
VERTEX
 8
TUBO_1
 10
14.7298
 20
19.1399
 30
0.0025
 70
192
 0
VERTEX
 8
TUBO_1
 10
13.516
 20
19.8674
 30
0.0025
 70
192
 0
VERTEX
 8
TUBO_1
 10
13.5537
 20
19.938
 30
0.0025
 70
192
 0
VERTEX
 8
TUBO_1
 10
13.5537
 20
19.938
 30
0.0025
 70
192
 0
VERTEX
 8
TUBO_1
 10
13.5537
 20
19.938
 30
0.0025
 70
192
 0
VERTEX
 8
TUBO_1
 10
13.5537
 20
19.938
 30
0.0025
 70
192
 0
VERTEX
 8
TUBO_1
 10
13.5537
 20
19.938
 30
0.0025
 70
192
 0
VERTEX
 8
TUBO_1
 10
13.516
 20
19.8674
 30
0.0025
 70
192
 0
VERTEX
 8
TUBO_1
 10
13.516
 20
19.8674
 30
0.0025
 70
192
 0
VERTEX
 8
TUBO_1
 10
13.516
 20
19.8674
 30
0.0025
 70
192
 0
VERTEX
 8
TUBO_1
 10
13.516
 20
19.8674
 30
0.0025
 70
192
 0
VERTEX
 8
TUBO_1
 10
12.2367
 20
20.4725
 30
0.0025
 70
192
 0
VERTEX
 8
TUBO_1
 10
12.2674
 20
20.5464
 30
0.0025
 70
192
 0
VERTEX
 8
TUBO_1
 10
12.2674
 20
20.5464
 30
0.0025
 70
192
 0
VERTEX
 8
TUBO_1
 10
12.2674
 20
20.5464
 30
0.0025
 70
192
 0
VERTEX
 8
TUBO_1
 10
12.2674
 20
20.5464
 30
0.0025
 70
192
 0
VERTEX
 8
TUBO_1
 10
12.2674
 20
20.5464
 30
0.0025
 70
192
 0
VERTEX
 8
TUBO_1
 10
12.2367
 20
20.4725
 30
0.0025
 70
192
 0
VERTEX
 8
TUBO_1
 10
12.2367
 20
20.4725
 30
0.0025
 70
192
 0
VERTEX
 8
TUBO_1
 10
12.2367
 20
20.4725
 30
0.0025
 70
192
 0
VERTEX
 8
TUBO_1
 10
12.2367
 20
20.4725
 30
0.0025
 70
192
 0
VERTEX
 8
TUBO_1
 10
10.9044
 20
20.9492
 30
0.0025
 70
192
 0
VERTEX
 8
TUBO_1
 10
10.9276
 20
21.0258
 30
0.0025
 70
192
 0
VERTEX
 8
TUBO_1
 10
10.9276
 20
21.0258
 30
0.0025
 70
192
 0
VERTEX
 8
TUBO_1
 10
10.9276
 20
21.0258
 30
0.0025
 70
192
 0
VERTEX
 8
TUBO_1
 10
10.9276
 20
21.0258
 30
0.0025
 70
192
 0
VERTEX
 8
TUBO_1
 10
10.9276
 20
21.0258
 30
0.0025
 70
192
 0
VERTEX
 8
TUBO_1
 10
10.9044
 20
20.9492
 30
0.0025
 70
192
 0
VERTEX
 8
TUBO_1
 10
10.9044
 20
20.9492
 30
0.0025
 70
192
 0
VERTEX
 8
TUBO_1
 10
10.9044
 20
20.9492
 30
0.0025
 70
192
 0
VERTEX
 8
TUBO_1
 10
10.9044
 20
20.9492
 30
0.0025
 70
192
 0
VERTEX
 8
TUBO_1
 10
9.5317
 20
21.293
 30
0.0025
 70
192
 0
VERTEX
 8
TUBO_1
 10
9.5473
 20
21.3715
 30
0.0025
 70
192
 0
VERTEX
 8
TUBO_1
 10
9.5473
 20
21.3715
 30
0.0025
 70
192
 0
VERTEX
 8
TUBO_1
 10
9.5473
 20
21.3715
 30
0.0025
 70
192
 0
VERTEX
 8
TUBO_1
 10
9.5473
 20
21.3715
 30
0.0025
 70
192
 0
VERTEX
 8
TUBO_1
 10
9.5473
 20
21.3715
 30
0.0025
 70
192
 0
VERTEX
 8
TUBO_1
 10
9.5317
 20
21.293
 30
0.0025
 70
192
 0
VERTEX
 8
TUBO_1
 10
9.5317
 20
21.293
 30
0.0025
 70
192
 0
VERTEX
 8
TUBO_1
 10
9.5317
 20
21.293
 30
0.0025
 70
192
 0
VERTEX
 8
TUBO_1
 10
9.5317
 20
21.293
 30
0.0025
 70
192
 0
VERTEX
 8
TUBO_1
 10
8.1319
 20
21.5007
 30
0.0025
 70
192
 0
VERTEX
 8
TUBO_1
 10
8.1397
 20
21.5803
 30
0.0025
 70
192
 0
VERTEX
 8
TUBO_1
 10
8.1397
 20
21.5803
 30
0.0025
 70
192
 0
VERTEX
 8
TUBO_1
 10
8.1397
 20
21.5803
 30
0.0025
 70
192
 0
VERTEX
 8
TUBO_1
 10
8.1397
 20
21.5803
 30
0.0025
 70
192
 0
VERTEX
 8
TUBO_1
 10
8.1397
 20
21.5803
 30
0.0025
 70
192
 0
VERTEX
 8
TUBO_1
 10
8.1319
 20
21.5007
 30
0.0025
 70
192
 0
VERTEX
 8
TUBO_1
 10
8.1319
 20
21.5007
 30
0.0025
 70
192
 0
VERTEX
 8
TUBO_1
 10
8.1319
 20
21.5007
 30
0.0025
 70
192
 0
VERTEX
 8
TUBO_1
 10
8.1319
 20
21.5007
 30
0.0025
 70
192
 0
VERTEX
 8
TUBO_1
 10
6.7185
 20
21.5701
 30
0.0025
 70
192
 0
VERTEX
 8
TUBO_1
 10
6.7185
 20
21.6501
 30
0.0025
 70
192
 0
VERTEX
 8
TUBO_1
 10
6.7185
 20
21.6501
 30
0.0025
 70
192
 0
VERTEX
 8
TUBO_1
 10
6.7185
 20
21.6501
 30
0.0025
 70
192
 0
VERTEX
 8
TUBO_1
 10
6.7185
 20
21.6501
 30
0.0025
 70
192
 0
VERTEX
 8
TUBO_1
 10
6.7185
 20
21.6501
 30
0.0025
 70
192
 0
VERTEX
 8
TUBO_1
 10
6.7185
 20
21.5701
 30
0.0025
 70
192
 0
VERTEX
 8
TUBO_1
 10
6.7185
 20
21.5701
 30
0.0025
 70
192
 0
VERTEX
 8
TUBO_1
 10
6.7185
 20
21.5701
 30
0.0025
 70
192
 0
VERTEX
 8
TUBO_1
 10
6.7185
 20
21.5701
 30
0.0025
 70
192
 0
VERTEX
 8
TUBO_1
 10
5.305
 20
21.5007
 30
0.0025
 70
192
 0
VERTEX
 8
TUBO_1
 10
5.2972
 20
21.5803
 30
0.0025
 70
192
 0
VERTEX
 8
TUBO_1
 10
5.2972
 20
21.5803
 30
0.0025
 70
192
 0
VERTEX
 8
TUBO_1
 10
5.2972
 20
21.5803
 30
0.0025
 70
192
 0
VERTEX
 8
TUBO_1
 10
5.2972
 20
21.5803
 30
0.0025
 70
192
 0
VERTEX
 8
TUBO_1
 10
5.2972
 20
21.5803
 30
0.0025
 70
192
 0
VERTEX
 8
TUBO_1
 10
5.305
 20
21.5007
 30
0.0025
 70
192
 0
VERTEX
 8
TUBO_1
 10
5.305
 20
21.5007
 30
0.0025
 70
192
 0
VERTEX
 8
TUBO_1
 10
5.305
 20
21.5007
 30
0.0025
 70
192
 0
VERTEX
 8
TUBO_1
 10
5.305
 20
21.5007
 30
0.0025
 70
192
 0
VERTEX
 8
TUBO_1
 10
3.9052
 20
21.293
 30
0.0025
 70
192
 0
VERTEX
 8
TUBO_1
 10
3.8896
 20
21.3715
 30
0.0025
 70
192
 0
VERTEX
 8
TUBO_1
 10
3.8896
 20
21.3715
 30
0.0025
 70
192
 0
VERTEX
 8
TUBO_1
 10
3.8896
 20
21.3715
 30
0.0025
 70
192
 0
VERTEX
 8
TUBO_1
 10
3.8896
 20
21.3715
 30
0.0025
 70
192
 0
VERTEX
 8
TUBO_1
 10
3.8896
 20
21.3715
 30
0.0025
 70
192
 0
VERTEX
 8
TUBO_1
 10
3.9052
 20
21.293
 30
0.0025
 70
192
 0
VERTEX
 8
TUBO_1
 10
3.9052
 20
21.293
 30
0.0025
 70
192
 0
VERTEX
 8
TUBO_1
 10
3.9052
 20
21.293
 30
0.0025
 70
192
 0
VERTEX
 8
TUBO_1
 10
3.9052
 20
21.293
 30
0.0025
 70
192
 0
VERTEX
 8
TUBO_1
 10
2.5325
 20
20.9492
 30
0.0025
 70
192
 0
VERTEX
 8
TUBO_1
 10
2.5093
 20
21.0258
 30
0.0025
 70
192
 0
VERTEX
 8
TUBO_1
 10
2.5093
 20
21.0258
 30
0.0025
 70
192
 0
VERTEX
 8
TUBO_1
 10
2.5093
 20
21.0258
 30
0.0025
 70
192
 0
VERTEX
 8
TUBO_1
 10
2.5093
 20
21.0258
 30
0.0025
 70
192
 0
VERTEX
 8
TUBO_1
 10
2.5093
 20
21.0258
 30
0.0025
 70
192
 0
VERTEX
 8
TUBO_1
 10
2.5325
 20
20.9492
 30
0.0025
 70
192
 0
VERTEX
 8
TUBO_1
 10
2.5325
 20
20.9492
 30
0.0025
 70
192
 0
VERTEX
 8
TUBO_1
 10
2.5325
 20
20.9492
 30
0.0025
 70
192
 0
VERTEX
 8
TUBO_1
 10
2.5325
 20
20.9492
 30
0.0025
 70
192
 0
VERTEX
 8
TUBO_1
 10
1.2002
 20
20.4725
 30
0.0025
 70
192
 0
VERTEX
 8
TUBO_1
 10
1.1695
 20
20.5464
 30
0.0025
 70
192
 0
VERTEX
 8
TUBO_1
 10
1.1695
 20
20.5464
 30
0.0025
 70
192
 0
VERTEX
 8
TUBO_1
 10
1.1695
 20
20.5464
 30
0.0025
 70
192
 0
VERTEX
 8
TUBO_1
 10
1.1695
 20
20.5464
 30
0.0025
 70
192
 0
VERTEX
 8
TUBO_1
 10
1.1695
 20
20.5464
 30
0.0025
 70
192
 0
VERTEX
 8
TUBO_1
 10
1.2002
 20
20.4725
 30
0.0025
 70
192
 0
VERTEX
 8
TUBO_1
 10
1.2002
 20
20.4725
 30
0.0025
 70
192
 0
VERTEX
 8
TUBO_1
 10
1.2002
 20
20.4725
 30
0.0025
 70
192
 0
VERTEX
 8
TUBO_1
 10
1.2002
 20
20.4725
 30
0.0025
 70
192
 0
VERTEX
 8
TUBO_1
 10
-0.0791
 20
19.8674
 30
0.0025
 70
192
 0
VERTEX
 8
TUBO_1
 10
-0.1168
 20
19.938
 30
0.0025
 70
192
 0
VERTEX
 8
TUBO_1
 10
-0.1168
 20
19.938
 30
0.0025
 70
192
 0
VERTEX
 8
TUBO_1
 10
-0.1168
 20
19.938
 30
0.0025
 70
192
 0
VERTEX
 8
TUBO_1
 10
-0.1168
 20
19.938
 30
0.0025
 70
192
 0
VERTEX
 8
TUBO_1
 10
-0.1168
 20
19.938
 30
0.0025
 70
192
 0
VERTEX
 8
TUBO_1
 10
-0.0791
 20
19.8674
 30
0.0025
 70
192
 0
VERTEX
 8
TUBO_1
 10
-0.0791
 20
19.8674
 30
0.0025
 70
192
 0
VERTEX
 8
TUBO_1
 10
-0.0791
 20
19.8674
 30
0.0025
 70
192
 0
VERTEX
 8
TUBO_1
 10
-0.0791
 20
19.8674
 30
0.0025
 70
192
 0
VERTEX
 8
TUBO_1
 10
-1.2929
 20
19.1399
 30
0.0025
 70
192
 0
VERTEX
 8
TUBO_1
 10
-1.3373
 20
19.2064
 30
0.0025
 70
192
 0
VERTEX
 8
TUBO_1
 10
-1.3373
 20
19.2064
 30
0.0025
 70
192
 0
VERTEX
 8
TUBO_1
 10
-1.3373
 20
19.2064
 30
0.0025
 70
192
 0
VERTEX
 8
TUBO_1
 10
-1.3373
 20
19.2064
 30
0.0025
 70
192
 0
VERTEX
 8
TUBO_1
 10
-1.3373
 20
19.2064
 30
0.0025
 70
192
 0
VERTEX
 8
TUBO_1
 10
-1.2929
 20
19.1399
 30
0.0025
 70
192
 0
VERTEX
 8
TUBO_1
 10
-1.2929
 20
19.1399
 30
0.0025
 70
192
 0
VERTEX
 8
TUBO_1
 10
-1.2929
 20
19.1399
 30
0.0025
 70
192
 0
VERTEX
 8
TUBO_1
 10
-1.2929
 20
19.1399
 30
0.0025
 70
192
 0
VERTEX
 8
TUBO_1
 10
-2.4295
 20
18.2969
 30
0.0025
 70
192
 0
VERTEX
 8
TUBO_1
 10
-2.4803
 20
18.3588
 30
0.0025
 70
192
 0
VERTEX
 8
TUBO_1
 10
-2.4803
 20
18.3588
 30
0.0025
 70
192
 0
VERTEX
 8
TUBO_1
 10
-2.4803
 20
18.3588
 30
0.0025
 70
192
 0
VERTEX
 8
TUBO_1
 10
-2.4803
 20
18.3588
 30
0.0025
 70
192
 0
VERTEX
 8
TUBO_1
 10
-2.4803
 20
18.3588
 30
0.0025
 70
192
 0
VERTEX
 8
TUBO_1
 10
-2.4295
 20
18.2969
 30
0.0025
 70
192
 0
VERTEX
 8
TUBO_1
 10
-2.4295
 20
18.2969
 30
0.0025
 70
192
 0
VERTEX
 8
TUBO_1
 10
-2.4295
 20
18.2969
 30
0.0025
 70
192
 0
VERTEX
 8
TUBO_1
 10
-2.4295
 20
18.2969
 30
0.0025
 70
192
 0
VERTEX
 8
TUBO_1
 10
-3.478
 20
17.3466
 30
0.0025
 70
192
 0
VERTEX
 8
TUBO_1
 10
-3.5346
 20
17.4032
 30
0.0025
 70
192
 0
VERTEX
 8
TUBO_1
 10
-3.5346
 20
17.4032
 30
0.0025
 70
192
 0
VERTEX
 8
TUBO_1
 10
-3.5346
 20
17.4032
 30
0.0025
 70
192
 0
VERTEX
 8
TUBO_1
 10
-3.5346
 20
17.4032
 30
0.0025
 70
192
 0
VERTEX
 8
TUBO_1
 10
-3.5346
 20
17.4032
 30
0.0025
 70
192
 0
VERTEX
 8
TUBO_1
 10
-3.478
 20
17.3466
 30
0.0025
 70
192
 0
VERTEX
 8
TUBO_1
 10
-3.478
 20
17.3466
 30
0.0025
 70
192
 0
VERTEX
 8
TUBO_1
 10
-3.478
 20
17.3466
 30
0.0025
 70
192
 0
VERTEX
 8
TUBO_1
 10
-3.478
 20
17.3466
 30
0.0025
 70
192
 0
VERTEX
 8
TUBO_1
 10
-4.4284
 20
16.2981
 30
0.0025
 70
192
 0
VERTEX
 8
TUBO_1
 10
-4.4902
 20
16.3488
 30
0.0025
 70
192
 0
VERTEX
 8
TUBO_1
 10
-4.4902
 20
16.3488
 30
0.0025
 70
192
 0
VERTEX
 8
TUBO_1
 10
-4.4902
 20
16.3488
 30
0.0025
 70
192
 0
VERTEX
 8
TUBO_1
 10
-4.4902
 20
16.3488
 30
0.0025
 70
192
 0
VERTEX
 8
TUBO_1
 10
-4.4902
 20
16.3488
 30
0.0025
 70
192
 0
VERTEX
 8
TUBO_1
 10
-4.4284
 20
16.2981
 30
0.0025
 70
192
 0
VERTEX
 8
TUBO_1
 10
-4.4284
 20
16.2981
 30
0.0025
 70
192
 0
VERTEX
 8
TUBO_1
 10
-4.4284
 20
16.2981
 30
0.0025
 70
192
 0
VERTEX
 8
TUBO_1
 10
-4.4284
 20
16.2981
 30
0.0025
 70
192
 0
VERTEX
 8
TUBO_1
 10
-5.2713
 20
15.1614
 30
0.0025
 70
192
 0
VERTEX
 8
TUBO_1
 10
-5.3379
 20
15.2059
 30
0.0025
 70
192
 0
VERTEX
 8
TUBO_1
 10
-5.3379
 20
15.2059
 30
0.0025
 70
192
 0
VERTEX
 8
TUBO_1
 10
-5.3379
 20
15.2059
 30
0.0025
 70
192
 0
VERTEX
 8
TUBO_1
 10
-5.3379
 20
15.2059
 30
0.0025
 70
192
 0
VERTEX
 8
TUBO_1
 10
-5.3379
 20
15.2059
 30
0.0025
 70
192
 0
VERTEX
 8
TUBO_1
 10
-5.2713
 20
15.1614
 30
0.0025
 70
192
 0
VERTEX
 8
TUBO_1
 10
-5.2713
 20
15.1614
 30
0.0025
 70
192
 0
VERTEX
 8
TUBO_1
 10
-5.2713
 20
15.1614
 30
0.0025
 70
192
 0
VERTEX
 8
TUBO_1
 10
-5.2713
 20
15.1614
 30
0.0025
 70
192
 0
VERTEX
 8
TUBO_1
 10
-5.9989
 20
13.9477
 30
0.0025
 70
192
 0
VERTEX
 8
TUBO_1
 10
-6.0694
 20
13.9854
 30
0.0025
 70
192
 0
VERTEX
 8
TUBO_1
 10
-6.0694
 20
13.9854
 30
0.0025
 70
192
 0
VERTEX
 8
TUBO_1
 10
-6.0694
 20
13.9854
 30
0.0025
 70
192
 0
VERTEX
 8
TUBO_1
 10
-6.0694
 20
13.9854
 30
0.0025
 70
192
 0
VERTEX
 8
TUBO_1
 10
-6.0694
 20
13.9854
 30
0.0025
 70
192
 0
VERTEX
 8
TUBO_1
 10
-5.9989
 20
13.9477
 30
0.0025
 70
192
 0
VERTEX
 8
TUBO_1
 10
-5.9989
 20
13.9477
 30
0.0025
 70
192
 0
VERTEX
 8
TUBO_1
 10
-5.9989
 20
13.9477
 30
0.0025
 70
192
 0
VERTEX
 8
TUBO_1
 10
-5.9989
 20
13.9477
 30
0.0025
 70
192
 0
VERTEX
 8
TUBO_1
 10
-6.6039
 20
12.6684
 30
0.0025
 70
192
 0
VERTEX
 8
TUBO_1
 10
-6.6778
 20
12.699
 30
0.0025
 70
192
 0
VERTEX
 8
TUBO_1
 10
-6.6778
 20
12.699
 30
0.0025
 70
192
 0
VERTEX
 8
TUBO_1
 10
-6.6778
 20
12.699
 30
0.0025
 70
192
 0
VERTEX
 8
TUBO_1
 10
-6.6778
 20
12.699
 30
0.0025
 70
192
 0
VERTEX
 8
TUBO_1
 10
-6.6778
 20
12.699
 30
0.0025
 70
192
 0
VERTEX
 8
TUBO_1
 10
-6.6039
 20
12.6684
 30
0.0025
 70
192
 0
VERTEX
 8
TUBO_1
 10
-6.6039
 20
12.6684
 30
0.0025
 70
192
 0
VERTEX
 8
TUBO_1
 10
-6.6039
 20
12.6684
 30
0.0025
 70
192
 0
VERTEX
 8
TUBO_1
 10
-6.6039
 20
12.6684
 30
0.0025
 70
192
 0
VERTEX
 8
TUBO_1
 10
-7.0806
 20
11.336
 30
0.0025
 70
192
 0
VERTEX
 8
TUBO_1
 10
-7.1572
 20
11.3592
 30
0.0025
 70
192
 0
VERTEX
 8
TUBO_1
 10
-7.1572
 20
11.3592
 30
0.0025
 70
192
 0
VERTEX
 8
TUBO_1
 10
-7.1572
 20
11.3592
 30
0.0025
 70
192
 0
VERTEX
 8
TUBO_1
 10
-7.1572
 20
11.3592
 30
0.0025
 70
192
 0
VERTEX
 8
TUBO_1
 10
-7.1572
 20
11.3592
 30
0.0025
 70
192
 0
VERTEX
 8
TUBO_1
 10
-7.0806
 20
11.336
 30
0.0025
 70
192
 0
VERTEX
 8
TUBO_1
 10
-7.0806
 20
11.336
 30
0.0025
 70
192
 0
VERTEX
 8
TUBO_1
 10
-7.0806
 20
11.336
 30
0.0025
 70
192
 0
VERTEX
 8
TUBO_1
 10
-7.0806
 20
11.336
 30
0.0025
 70
192
 0
VERTEX
 8
TUBO_1
 10
-7.4245
 20
9.9633
 30
0.0025
 70
192
 0
VERTEX
 8
TUBO_1
 10
-7.5029
 20
9.9789
 30
0.0025
 70
192
 0
VERTEX
 8
TUBO_1
 10
-7.5029
 20
9.9789
 30
0.0025
 70
192
 0
VERTEX
 8
TUBO_1
 10
-7.5029
 20
9.9789
 30
0.0025
 70
192
 0
VERTEX
 8
TUBO_1
 10
-7.5029
 20
9.9789
 30
0.0025
 70
192
 0
VERTEX
 8
TUBO_1
 10
-7.5029
 20
9.9789
 30
0.0025
 70
192
 0
VERTEX
 8
TUBO_1
 10
-7.4245
 20
9.9633
 30
0.0025
 70
192
 0
VERTEX
 8
TUBO_1
 10
-7.4245
 20
9.9633
 30
0.0025
 70
192
 0
VERTEX
 8
TUBO_1
 10
-7.4245
 20
9.9633
 30
0.0025
 70
192
 0
VERTEX
 8
TUBO_1
 10
-7.4245
 20
9.9633
 30
0.0025
 70
192
 0
VERTEX
 8
TUBO_1
 10
-7.6321
 20
8.5635
 30
0.0025
 70
192
 0
VERTEX
 8
TUBO_1
 10
-7.7117
 20
8.5714
 30
0.0025
 70
192
 0
VERTEX
 8
TUBO_1
 10
-7.7117
 20
8.5714
 30
0.0025
 70
192
 0
VERTEX
 8
TUBO_1
 10
-7.7117
 20
8.5714
 30
0.0025
 70
192
 0
VERTEX
 8
TUBO_1
 10
-7.7117
 20
8.5714
 30
0.0025
 70
192
 0
VERTEX
 8
TUBO_1
 10
-7.7117
 20
8.5714
 30
0.0025
 70
192
 0
VERTEX
 8
TUBO_1
 10
-7.6321
 20
8.5635
 30
0.0025
 70
192
 0
VERTEX
 8
TUBO_1
 10
-7.6321
 20
8.5635
 30
0.0025
 70
192
 0
VERTEX
 8
TUBO_1
 10
-7.6321
 20
8.5635
 30
0.0025
 70
192
 0
VERTEX
 8
TUBO_1
 10
-7.6321
 20
8.5635
 30
0.0025
 70
192
 0
VERTEX
 8
TUBO_1
 10
-7.7015
 20
7.1501
 30
0.0025
 70
192
 0
VERTEX
 8
TUBO_1
 10
-7.7815
 20
7.1501
 30
0.0025
 70
192
 0
VERTEX
 8
TUBO_1
 10
-7.7815
 20
7.1501
 30
0.0025
 70
192
 0
VERTEX
 8
TUBO_1
 10
-7.7815
 20
7.1501
 30
0.0025
 70
192
 0
VERTEX
 8
TUBO_1
 10
-7.7815
 20
7.1501
 30
0.0025
 70
192
 0
VERTEX
 8
TUBO_1
 10
-7.7815
 20
7.1501
 30
0.0025
 70
192
 0
VERTEX
 8
TUBO_1
 10
-7.7015
 20
7.1501
 30
0.0025
 70
192
 0
VERTEX
 8
TUBO_1
 10
-7.7015
 20
7.1501
 30
0.0025
 70
192
 0
VERTEX
 8
TUBO_1
 10
-7.7015
 20
7.1501
 30
0.0025
 70
192
 0
VERTEX
 8
TUBO_1
 10
-7.7015
 20
7.1501
 30
0.0025
 70
192
 0
VERTEX
 8
TUBO_1
 10
-7.6321
 20
5.7367
 30
0.0025
 70
192
 0
VERTEX
 8
TUBO_1
 10
-7.7117
 20
5.7289
 30
0.0025
 70
192
 0
VERTEX
 8
TUBO_1
 10
-7.7117
 20
5.7289
 30
0.0025
 70
192
 0
VERTEX
 8
TUBO_1
 10
-7.7117
 20
5.7289
 30
0.0025
 70
192
 0
VERTEX
 8
TUBO_1
 10
-7.7117
 20
5.7289
 30
0.0025
 70
192
 0
VERTEX
 8
TUBO_1
 10
-7.7117
 20
5.7289
 30
0.0025
 70
192
 0
VERTEX
 8
TUBO_1
 10
-7.6321
 20
5.7367
 30
0.0025
 70
192
 0
VERTEX
 8
TUBO_1
 10
-7.6321
 20
5.7367
 30
0.0025
 70
192
 0
VERTEX
 8
TUBO_1
 10
-7.6321
 20
5.7367
 30
0.0025
 70
192
 0
VERTEX
 8
TUBO_1
 10
-7.6321
 20
5.7367
 30
0.0025
 70
192
 0
VERTEX
 8
TUBO_1
 10
-7.4245
 20
4.3369
 30
0.0025
 70
192
 0
VERTEX
 8
TUBO_1
 10
-7.5029
 20
4.3213
 30
0.0025
 70
192
 0
VERTEX
 8
TUBO_1
 10
-7.5029
 20
4.3213
 30
0.0025
 70
192
 0
VERTEX
 8
TUBO_1
 10
-7.5029
 20
4.3213
 30
0.0025
 70
192
 0
VERTEX
 8
TUBO_1
 10
-7.5029
 20
4.3213
 30
0.0025
 70
192
 0
VERTEX
 8
TUBO_1
 10
-7.5029
 20
4.3213
 30
0.0025
 70
192
 0
VERTEX
 8
TUBO_1
 10
-7.4245
 20
4.3369
 30
0.0025
 70
192
 0
VERTEX
 8
TUBO_1
 10
-7.4245
 20
4.3369
 30
0.0025
 70
192
 0
VERTEX
 8
TUBO_1
 10
-7.4245
 20
4.3369
 30
0.0025
 70
192
 0
VERTEX
 8
TUBO_1
 10
-7.4245
 20
4.3369
 30
0.0025
 70
192
 0
VERTEX
 8
TUBO_1
 10
-7.0806
 20
2.9642
 30
0.0025
 70
192
 0
VERTEX
 8
TUBO_1
 10
-7.1572
 20
2.941
 30
0.0025
 70
192
 0
VERTEX
 8
TUBO_1
 10
-7.1572
 20
2.941
 30
0.0025
 70
192
 0
VERTEX
 8
TUBO_1
 10
-7.1572
 20
2.941
 30
0.0025
 70
192
 0
VERTEX
 8
TUBO_1
 10
-7.1572
 20
2.941
 30
0.0025
 70
192
 0
VERTEX
 8
TUBO_1
 10
-7.1572
 20
2.941
 30
0.0025
 70
192
 0
VERTEX
 8
TUBO_1
 10
-7.0806
 20
2.9642
 30
0.0025
 70
192
 0
VERTEX
 8
TUBO_1
 10
-7.0806
 20
2.9642
 30
0.0025
 70
192
 0
VERTEX
 8
TUBO_1
 10
-7.0806
 20
2.9642
 30
0.0025
 70
192
 0
VERTEX
 8
TUBO_1
 10
-7.0806
 20
2.9642
 30
0.0025
 70
192
 0
VERTEX
 8
TUBO_1
 10
-6.6039
 20
1.6318
 30
0.0025
 70
192
 0
VERTEX
 8
TUBO_1
 10
-6.6778
 20
1.6012
 30
0.0025
 70
192
 0
VERTEX
 8
TUBO_1
 10
-6.6778
 20
1.6012
 30
0.0025
 70
192
 0
VERTEX
 8
TUBO_1
 10
-6.6778
 20
1.6012
 30
0.0025
 70
192
 0
VERTEX
 8
TUBO_1
 10
-6.6778
 20
1.6012
 30
0.0025
 70
192
 0
VERTEX
 8
TUBO_1
 10
-6.6778
 20
1.6012
 30
0.0025
 70
192
 0
VERTEX
 8
TUBO_1
 10
-6.6039
 20
1.6318
 30
0.0025
 70
192
 0
VERTEX
 8
TUBO_1
 10
-6.6039
 20
1.6318
 30
0.0025
 70
192
 0
VERTEX
 8
TUBO_1
 10
-6.6039
 20
1.6318
 30
0.0025
 70
192
 0
VERTEX
 8
TUBO_1
 10
-6.6039
 20
1.6318
 30
0.0025
 70
192
 0
VERTEX
 8
TUBO_1
 10
-5.9989
 20
0.3526
 30
0.0025
 70
192
 0
VERTEX
 8
TUBO_1
 10
-6.0694
 20
0.3149
 30
0.0025
 70
192
 0
VERTEX
 8
TUBO_1
 10
-6.0694
 20
0.3149
 30
0.0025
 70
192
 0
VERTEX
 8
TUBO_1
 10
-6.0694
 20
0.3149
 30
0.0025
 70
192
 0
VERTEX
 8
TUBO_1
 10
-6.0694
 20
0.3149
 30
0.0025
 70
192
 0
VERTEX
 8
TUBO_1
 10
-6.0694
 20
0.3149
 30
0.0025
 70
192
 0
VERTEX
 8
TUBO_1
 10
-5.9989
 20
0.3526
 30
0.0025
 70
192
 0
VERTEX
 8
TUBO_1
 10
-5.9989
 20
0.3526
 30
0.0025
 70
192
 0
VERTEX
 8
TUBO_1
 10
-5.9989
 20
0.3526
 30
0.0025
 70
192
 0
VERTEX
 8
TUBO_1
 10
-5.9989
 20
0.3526
 30
0.0025
 70
192
 0
VERTEX
 8
TUBO_1
 10
-5.2713
 20
-0.8612
 30
0.0025
 70
192
 0
VERTEX
 8
TUBO_1
 10
-5.3379
 20
-0.9057
 30
0.0025
 70
192
 0
VERTEX
 8
TUBO_1
 10
-5.3379
 20
-0.9057
 30
0.0025
 70
192
 0
VERTEX
 8
TUBO_1
 10
-5.3379
 20
-0.9057
 30
0.0025
 70
192
 0
VERTEX
 8
TUBO_1
 10
-5.3379
 20
-0.9057
 30
0.0025
 70
192
 0
VERTEX
 8
TUBO_1
 10
-5.3379
 20
-0.9057
 30
0.0025
 70
192
 0
VERTEX
 8
TUBO_1
 10
-5.2713
 20
-0.8612
 30
0.0025
 70
192
 0
VERTEX
 8
TUBO_1
 10
-5.2713
 20
-0.8612
 30
0.0025
 70
192
 0
VERTEX
 8
TUBO_1
 10
-5.2713
 20
-0.8612
 30
0.0025
 70
192
 0
VERTEX
 8
TUBO_1
 10
-5.2713
 20
-0.8612
 30
0.0025
 70
192
 0
VERTEX
 8
TUBO_1
 10
-4.4284
 20
-1.9978
 30
0.0025
 70
192
 0
VERTEX
 8
TUBO_1
 10
-4.4902
 20
-2.0486
 30
0.0025
 70
192
 0
VERTEX
 8
TUBO_1
 10
-4.4902
 20
-2.0486
 30
0.0025
 70
192
 0
VERTEX
 8
TUBO_1
 10
-4.4902
 20
-2.0486
 30
0.0025
 70
192
 0
VERTEX
 8
TUBO_1
 10
-4.4902
 20
-2.0486
 30
0.0025
 70
192
 0
VERTEX
 8
TUBO_1
 10
-4.4902
 20
-2.0486
 30
0.0025
 70
192
 0
VERTEX
 8
TUBO_1
 10
-4.4284
 20
-1.9978
 30
0.0025
 70
192
 0
VERTEX
 8
TUBO_1
 10
-4.4284
 20
-1.9978
 30
0.0025
 70
192
 0
VERTEX
 8
TUBO_1
 10
-4.4284
 20
-1.9978
 30
0.0025
 70
192
 0
VERTEX
 8
TUBO_1
 10
-4.4284
 20
-1.9978
 30
0.0025
 70
192
 0
VERTEX
 8
TUBO_1
 10
-3.478
 20
-3.0464
 30
0.0025
 70
192
 0
VERTEX
 8
TUBO_1
 10
-3.5346
 20
-3.1029
 30
0.0025
 70
192
 0
VERTEX
 8
TUBO_1
 10
-3.5346
 20
-3.1029
 30
0.0025
 70
192
 0
VERTEX
 8
TUBO_1
 10
-3.5346
 20
-3.1029
 30
0.0025
 70
192
 0
VERTEX
 8
TUBO_1
 10
-3.5346
 20
-3.1029
 30
0.0025
 70
192
 0
VERTEX
 8
TUBO_1
 10
-3.5346
 20
-3.1029
 30
0.0025
 70
192
 0
VERTEX
 8
TUBO_1
 10
-3.478
 20
-3.0464
 30
0.0025
 70
192
 0
VERTEX
 8
TUBO_1
 10
-3.478
 20
-3.0464
 30
0.0025
 70
192
 0
VERTEX
 8
TUBO_1
 10
-3.478
 20
-3.0464
 30
0.0025
 70
192
 0
VERTEX
 8
TUBO_1
 10
-3.478
 20
-3.0464
 30
0.0025
 70
192
 0
VERTEX
 8
TUBO_1
 10
-2.4295
 20
-3.9967
 30
0.0025
 70
192
 0
VERTEX
 8
TUBO_1
 10
-2.4803
 20
-4.0585
 30
0.0025
 70
192
 0
VERTEX
 8
TUBO_1
 10
-2.4803
 20
-4.0585
 30
0.0025
 70
192
 0
VERTEX
 8
TUBO_1
 10
-2.4803
 20
-4.0585
 30
0.0025
 70
192
 0
VERTEX
 8
TUBO_1
 10
-2.4803
 20
-4.0585
 30
0.0025
 70
192
 0
VERTEX
 8
TUBO_1
 10
-2.4803
 20
-4.0585
 30
0.0025
 70
192
 0
VERTEX
 8
TUBO_1
 10
-2.4295
 20
-3.9967
 30
0.0025
 70
192
 0
VERTEX
 8
TUBO_1
 10
-2.4295
 20
-3.9967
 30
0.0025
 70
192
 0
VERTEX
 8
TUBO_1
 10
-2.4295
 20
-3.9967
 30
0.0025
 70
192
 0
VERTEX
 8
TUBO_1
 10
-2.4295
 20
-3.9967
 30
0.0025
 70
192
 0
VERTEX
 8
TUBO_1
 10
-1.2929
 20
-4.8397
 30
0.0025
 70
192
 0
VERTEX
 8
TUBO_1
 10
-1.3373
 20
-4.9062
 30
0.0025
 70
192
 0
VERTEX
 8
TUBO_1
 10
-1.3373
 20
-4.9062
 30
0.0025
 70
192
 0
VERTEX
 8
TUBO_1
 10
-1.3373
 20
-4.9062
 30
0.0025
 70
192
 0
VERTEX
 8
TUBO_1
 10
-1.3373
 20
-4.9062
 30
0.0025
 70
192
 0
VERTEX
 8
TUBO_1
 10
-1.3373
 20
-4.9062
 30
0.0025
 70
192
 0
VERTEX
 8
TUBO_1
 10
-1.2929
 20
-4.8397
 30
0.0025
 70
192
 0
VERTEX
 8
TUBO_1
 10
-1.2929
 20
-4.8397
 30
0.0025
 70
192
 0
VERTEX
 8
TUBO_1
 10
-1.2929
 20
-4.8397
 30
0.0025
 70
192
 0
VERTEX
 8
TUBO_1
 10
-1.2929
 20
-4.8397
 30
0.0025
 70
192
 0
VERTEX
 8
TUBO_1
 10
-0.0791
 20
-5.5672
 30
0.0025
 70
192
 0
VERTEX
 8
TUBO_1
 10
-0.1168
 20
-5.6377
 30
0.0025
 70
192
 0
VERTEX
 8
TUBO_1
 10
-0.1168
 20
-5.6377
 30
0.0025
 70
192
 0
VERTEX
 8
TUBO_1
 10
-0.1168
 20
-5.6377
 30
0.0025
 70
192
 0
VERTEX
 8
TUBO_1
 10
-0.1168
 20
-5.6377
 30
0.0025
 70
192
 0
VERTEX
 8
TUBO_1
 10
-0.1168
 20
-5.6377
 30
0.0025
 70
192
 0
VERTEX
 8
TUBO_1
 10
-0.0791
 20
-5.5672
 30
0.0025
 70
192
 0
VERTEX
 8
TUBO_1
 10
-0.0791
 20
-5.5672
 30
0.0025
 70
192
 0
VERTEX
 8
TUBO_1
 10
-0.0791
 20
-5.5672
 30
0.0025
 70
192
 0
VERTEX
 8
TUBO_1
 10
-0.0791
 20
-5.5672
 30
0.0025
 70
192
 0
VERTEX
 8
TUBO_1
 10
1.2002
 20
-6.1722
 30
0.0025
 70
192
 0
VERTEX
 8
TUBO_1
 10
1.1695
 20
-6.2461
 30
0.0025
 70
192
 0
VERTEX
 8
TUBO_1
 10
1.1695
 20
-6.2461
 30
0.0025
 70
192
 0
VERTEX
 8
TUBO_1
 10
1.1695
 20
-6.2461
 30
0.0025
 70
192
 0
VERTEX
 8
TUBO_1
 10
1.1695
 20
-6.2461
 30
0.0025
 70
192
 0
VERTEX
 8
TUBO_1
 10
1.1695
 20
-6.2461
 30
0.0025
 70
192
 0
VERTEX
 8
TUBO_1
 10
1.2002
 20
-6.1722
 30
0.0025
 70
192
 0
VERTEX
 8
TUBO_1
 10
1.2002
 20
-6.1722
 30
0.0025
 70
192
 0
VERTEX
 8
TUBO_1
 10
1.2002
 20
-6.1722
 30
0.0025
 70
192
 0
VERTEX
 8
TUBO_1
 10
1.2002
 20
-6.1722
 30
0.0025
 70
192
 0
VERTEX
 8
TUBO_1
 10
2.5325
 20
-6.649
 30
0.0025
 70
192
 0
VERTEX
 8
TUBO_1
 10
2.5093
 20
-6.7255
 30
0.0025
 70
192
 0
VERTEX
 8
TUBO_1
 10
2.5093
 20
-6.7255
 30
0.0025
 70
192
 0
VERTEX
 8
TUBO_1
 10
2.5093
 20
-6.7255
 30
0.0025
 70
192
 0
VERTEX
 8
TUBO_1
 10
2.5093
 20
-6.7255
 30
0.0025
 70
192
 0
VERTEX
 8
TUBO_1
 10
2.5093
 20
-6.7255
 30
0.0025
 70
192
 0
VERTEX
 8
TUBO_1
 10
2.5325
 20
-6.649
 30
0.0025
 70
192
 0
VERTEX
 8
TUBO_1
 10
2.5325
 20
-6.649
 30
0.0025
 70
192
 0
VERTEX
 8
TUBO_1
 10
2.5325
 20
-6.649
 30
0.0025
 70
192
 0
VERTEX
 8
TUBO_1
 10
2.5325
 20
-6.649
 30
0.0025
 70
192
 0
VERTEX
 8
TUBO_1
 10
3.9052
 20
-6.9928
 30
0.0025
 70
192
 0
VERTEX
 8
TUBO_1
 10
3.8896
 20
-7.0713
 30
0.0025
 70
192
 0
VERTEX
 8
TUBO_1
 10
3.8896
 20
-7.0713
 30
0.0025
 70
192
 0
VERTEX
 8
TUBO_1
 10
3.8896
 20
-7.0713
 30
0.0025
 70
192
 0
VERTEX
 8
TUBO_1
 10
3.8896
 20
-7.0713
 30
0.0025
 70
192
 0
VERTEX
 8
TUBO_1
 10
3.8896
 20
-7.0713
 30
0.0025
 70
192
 0
VERTEX
 8
TUBO_1
 10
3.9052
 20
-6.9928
 30
0.0025
 70
192
 0
VERTEX
 8
TUBO_1
 10
3.9052
 20
-6.9928
 30
0.0025
 70
192
 0
VERTEX
 8
TUBO_1
 10
3.9052
 20
-6.9928
 30
0.0025
 70
192
 0
VERTEX
 8
TUBO_1
 10
3.9052
 20
-6.9928
 30
0.0025
 70
192
 0
VERTEX
 8
TUBO_1
 10
5.305
 20
-7.2004
 30
0.0025
 70
192
 0
VERTEX
 8
TUBO_1
 10
5.2972
 20
-7.2801
 30
0.0025
 70
192
 0
VERTEX
 8
TUBO_1
 10
5.2972
 20
-7.2801
 30
0.0025
 70
192
 0
VERTEX
 8
TUBO_1
 10
5.2972
 20
-7.2801
 30
0.0025
 70
192
 0
VERTEX
 8
TUBO_1
 10
5.2972
 20
-7.2801
 30
0.0025
 70
192
 0
VERTEX
 8
TUBO_1
 10
5.2972
 20
-7.2801
 30
0.0025
 70
192
 0
VERTEX
 8
TUBO_1
 10
5.305
 20
-7.2004
 30
0.0025
 70
192
 0
VERTEX
 8
TUBO_1
 10
5.305
 20
-7.2004
 30
0.0025
 70
192
 0
VERTEX
 8
TUBO_1
 10
5.305
 20
-7.2004
 30
0.0025
 70
192
 0
VERTEX
 8
TUBO_1
 10
5.305
 20
-7.2004
 30
0.0025
 70
192
 0
VERTEX
 8
TUBO_1
 10
6.7185
 20
-7.2699
 30
0.0025
 70
192
 0
VERTEX
 8
TUBO_1
 10
6.7185
 20
-7.3499
 30
0.0025
 70
192
 0
VERTEX
 8
TUBO_1
 10
6.7185
 20
-7.3499
 30
0.0025
 70
192
 0
VERTEX
 8
TUBO_1
 10
6.7185
 20
-7.3499
 30
0.0025
 70
192
 0
VERTEX
 8
TUBO_1
 10
6.7185
 20
-7.3499
 30
0.0025
 70
192
 0
VERTEX
 8
TUBO_1
 10
6.7185
 20
-7.3499
 30
0.0025
 70
192
 0
VERTEX
 8
TUBO_1
 10
6.7185
 20
-7.2699
 30
0.0025
 70
192
 0
VERTEX
 8
TUBO_1
 10
6.7185
 20
-7.2699
 30
0.0025
 70
192
 0
VERTEX
 8
TUBO_1
 10
6.7185
 20
-7.2699
 30
0.0025
 70
192
 0
VERTEX
 8
TUBO_1
 10
6.7185
 20
-7.2699
 30
0.0025
 70
192
 0
VERTEX
 8
TUBO_1
 10
8.1319
 20
-7.2004
 30
0.0025
 70
192
 0
VERTEX
 8
TUBO_1
 10
8.1397
 20
-7.2801
 30
0.0025
 70
192
 0
VERTEX
 8
TUBO_1
 10
8.1397
 20
-7.2801
 30
0.0025
 70
192
 0
VERTEX
 8
TUBO_1
 10
8.1397
 20
-7.2801
 30
0.0025
 70
192
 0
VERTEX
 8
TUBO_1
 10
8.1397
 20
-7.2801
 30
0.0025
 70
192
 0
VERTEX
 8
TUBO_1
 10
8.1397
 20
-7.2801
 30
0.0025
 70
192
 0
VERTEX
 8
TUBO_1
 10
8.1319
 20
-7.2004
 30
0.0025
 70
192
 0
VERTEX
 8
TUBO_1
 10
8.1319
 20
-7.2004
 30
0.0025
 70
192
 0
VERTEX
 8
TUBO_1
 10
8.1319
 20
-7.2004
 30
0.0025
 70
192
 0
VERTEX
 8
TUBO_1
 10
8.1319
 20
-7.2004
 30
0.0025
 70
192
 0
VERTEX
 8
TUBO_1
 10
9.5317
 20
-6.9928
 30
0.0025
 70
192
 0
VERTEX
 8
TUBO_1
 10
9.5473
 20
-7.0713
 30
0.0025
 70
192
 0
VERTEX
 8
TUBO_1
 10
9.5473
 20
-7.0713
 30
0.0025
 70
192
 0
VERTEX
 8
TUBO_1
 10
9.5473
 20
-7.0713
 30
0.0025
 70
192
 0
VERTEX
 8
TUBO_1
 10
9.5473
 20
-7.0713
 30
0.0025
 70
192
 0
VERTEX
 8
TUBO_1
 10
9.5473
 20
-7.0713
 30
0.0025
 70
192
 0
VERTEX
 8
TUBO_1
 10
9.5317
 20
-6.9928
 30
0.0025
 70
192
 0
VERTEX
 8
TUBO_1
 10
9.5317
 20
-6.9928
 30
0.0025
 70
192
 0
VERTEX
 8
TUBO_1
 10
9.5317
 20
-6.9928
 30
0.0025
 70
192
 0
VERTEX
 8
TUBO_1
 10
9.5317
 20
-6.9928
 30
0.0025
 70
192
 0
VERTEX
 8
TUBO_1
 10
10.9044
 20
-6.649
 30
0.0025
 70
192
 0
VERTEX
 8
TUBO_1
 10
10.9276
 20
-6.7255
 30
0.0025
 70
192
 0
VERTEX
 8
TUBO_1
 10
10.9276
 20
-6.7255
 30
0.0025
 70
192
 0
VERTEX
 8
TUBO_1
 10
10.9276
 20
-6.7255
 30
0.0025
 70
192
 0
VERTEX
 8
TUBO_1
 10
10.9276
 20
-6.7255
 30
0.0025
 70
192
 0
VERTEX
 8
TUBO_1
 10
10.9276
 20
-6.7255
 30
0.0025
 70
192
 0
VERTEX
 8
TUBO_1
 10
10.9044
 20
-6.649
 30
0.0025
 70
192
 0
VERTEX
 8
TUBO_1
 10
10.9044
 20
-6.649
 30
0.0025
 70
192
 0
VERTEX
 8
TUBO_1
 10
10.9044
 20
-6.649
 30
0.0025
 70
192
 0
VERTEX
 8
TUBO_1
 10
10.9044
 20
-6.649
 30
0.0025
 70
192
 0
VERTEX
 8
TUBO_1
 10
12.2367
 20
-6.1722
 30
0.0025
 70
192
 0
VERTEX
 8
TUBO_1
 10
12.2674
 20
-6.2461
 30
0.0025
 70
192
 0
VERTEX
 8
TUBO_1
 10
12.2674
 20
-6.2461
 30
0.0025
 70
192
 0
VERTEX
 8
TUBO_1
 10
12.2674
 20
-6.2461
 30
0.0025
 70
192
 0
VERTEX
 8
TUBO_1
 10
12.2674
 20
-6.2461
 30
0.0025
 70
192
 0
VERTEX
 8
TUBO_1
 10
12.2674
 20
-6.2461
 30
0.0025
 70
192
 0
VERTEX
 8
TUBO_1
 10
12.2367
 20
-6.1722
 30
0.0025
 70
192
 0
VERTEX
 8
TUBO_1
 10
12.2367
 20
-6.1722
 30
0.0025
 70
192
 0
VERTEX
 8
TUBO_1
 10
12.2367
 20
-6.1722
 30
0.0025
 70
192
 0
VERTEX
 8
TUBO_1
 10
12.2367
 20
-6.1722
 30
0.0025
 70
192
 0
VERTEX
 8
TUBO_1
 10
13.516
 20
-5.5672
 30
0.0025
 70
192
 0
VERTEX
 8
TUBO_1
 10
13.5537
 20
-5.6377
 30
0.0025
 70
192
 0
VERTEX
 8
TUBO_1
 10
13.5537
 20
-5.6377
 30
0.0025
 70
192
 0
VERTEX
 8
TUBO_1
 10
13.5537
 20
-5.6377
 30
0.0025
 70
192
 0
VERTEX
 8
TUBO_1
 10
13.5537
 20
-5.6377
 30
0.0025
 70
192
 0
VERTEX
 8
TUBO_1
 10
13.5537
 20
-5.6377
 30
0.0025
 70
192
 0
VERTEX
 8
TUBO_1
 10
13.516
 20
-5.5672
 30
0.0025
 70
192
 0
VERTEX
 8
TUBO_1
 10
13.516
 20
-5.5672
 30
0.0025
 70
192
 0
VERTEX
 8
TUBO_1
 10
13.516
 20
-5.5672
 30
0.0025
 70
192
 0
VERTEX
 8
TUBO_1
 10
13.516
 20
-5.5672
 30
0.0025
 70
192
 0
VERTEX
 8
TUBO_1
 10
14.7298
 20
-4.8397
 30
0.0025
 70
192
 0
VERTEX
 8
TUBO_1
 10
14.7742
 20
-4.9062
 30
0.0025
 70
192
 0
VERTEX
 8
TUBO_1
 10
14.7742
 20
-4.9062
 30
0.0025
 70
192
 0
VERTEX
 8
TUBO_1
 10
14.7742
 20
-4.9062
 30
0.0025
 70
192
 0
VERTEX
 8
TUBO_1
 10
14.7742
 20
-4.9062
 30
0.0025
 70
192
 0
VERTEX
 8
TUBO_1
 10
14.7742
 20
-4.9062
 30
0.0025
 70
192
 0
VERTEX
 8
TUBO_1
 10
14.7298
 20
-4.8397
 30
0.0025
 70
192
 0
VERTEX
 8
TUBO_1
 10
14.7298
 20
-4.8397
 30
0.0025
 70
192
 0
VERTEX
 8
TUBO_1
 10
14.7298
 20
-4.8397
 30
0.0025
 70
192
 0
VERTEX
 8
TUBO_1
 10
14.7298
 20
-4.8397
 30
0.0025
 70
192
 0
VERTEX
 8
TUBO_1
 10
15.8664
 20
-3.9967
 30
0.0025
 70
192
 0
VERTEX
 8
TUBO_1
 10
15.9172
 20
-4.0585
 30
0.0025
 70
192
 0
VERTEX
 8
TUBO_1
 10
15.9172
 20
-4.0585
 30
0.0025
 70
192
 0
VERTEX
 8
TUBO_1
 10
15.9172
 20
-4.0585
 30
0.0025
 70
192
 0
VERTEX
 8
TUBO_1
 10
15.9172
 20
-4.0585
 30
0.0025
 70
192
 0
VERTEX
 8
TUBO_1
 10
15.9172
 20
-4.0585
 30
0.0025
 70
192
 0
VERTEX
 8
TUBO_1
 10
15.8664
 20
-3.9967
 30
0.0025
 70
192
 0
VERTEX
 8
TUBO_1
 10
15.8664
 20
-3.9967
 30
0.0025
 70
192
 0
VERTEX
 8
TUBO_1
 10
15.8664
 20
-3.9967
 30
0.0025
 70
192
 0
VERTEX
 8
TUBO_1
 10
15.8664
 20
-3.9967
 30
0.0025
 70
192
 0
VERTEX
 8
TUBO_1
 10
16.9149
 20
-3.0464
 30
0.0025
 70
192
 0
VERTEX
 8
TUBO_1
 10
16.9715
 20
-3.1029
 30
0.0025
 70
192
 0
VERTEX
 8
TUBO_1
 10
16.9715
 20
-3.1029
 30
0.0025
 70
192
 0
VERTEX
 8
TUBO_1
 10
16.9715
 20
-3.1029
 30
0.0025
 70
192
 0
VERTEX
 8
TUBO_1
 10
16.9715
 20
-3.1029
 30
0.0025
 70
192
 0
VERTEX
 8
TUBO_1
 10
16.9715
 20
-3.1029
 30
0.0025
 70
192
 0
VERTEX
 8
TUBO_1
 10
16.9149
 20
-3.0464
 30
0.0025
 70
192
 0
VERTEX
 8
TUBO_1
 10
16.9149
 20
-3.0464
 30
0.0025
 70
192
 0
VERTEX
 8
TUBO_1
 10
16.9149
 20
-3.0464
 30
0.0025
 70
192
 0
VERTEX
 8
TUBO_1
 10
16.9149
 20
-3.0464
 30
0.0025
 70
192
 0
VERTEX
 8
TUBO_1
 10
17.8653
 20
-1.9978
 30
0.0025
 70
192
 0
VERTEX
 8
TUBO_1
 10
17.9271
 20
-2.0486
 30
0.0025
 70
192
 0
VERTEX
 8
TUBO_1
 10
17.9271
 20
-2.0486
 30
0.0025
 70
192
 0
VERTEX
 8
TUBO_1
 10
17.9271
 20
-2.0486
 30
0.0025
 70
192
 0
VERTEX
 8
TUBO_1
 10
17.9271
 20
-2.0486
 30
0.0025
 70
192
 0
VERTEX
 8
TUBO_1
 10
17.9271
 20
-2.0486
 30
0.0025
 70
192
 0
VERTEX
 8
TUBO_1
 10
17.8653
 20
-1.9978
 30
0.0025
 70
192
 0
VERTEX
 8
TUBO_1
 10
17.8653
 20
-1.9978
 30
0.0025
 70
192
 0
VERTEX
 8
TUBO_1
 10
17.8653
 20
-1.9978
 30
0.0025
 70
192
 0
VERTEX
 8
TUBO_1
 10
17.8653
 20
-1.9978
 30
0.0025
 70
192
 0
VERTEX
 8
TUBO_1
 10
18.7082
 20
-0.8612
 30
0.0025
 70
192
 0
VERTEX
 8
TUBO_1
 10
18.7748
 20
-0.9057
 30
0.0025
 70
192
 0
VERTEX
 8
TUBO_1
 10
18.7748
 20
-0.9057
 30
0.0025
 70
192
 0
VERTEX
 8
TUBO_1
 10
18.7748
 20
-0.9057
 30
0.0025
 70
192
 0
VERTEX
 8
TUBO_1
 10
18.7748
 20
-0.9057
 30
0.0025
 70
192
 0
VERTEX
 8
TUBO_1
 10
18.7748
 20
-0.9057
 30
0.0025
 70
192
 0
VERTEX
 8
TUBO_1
 10
18.7082
 20
-0.8612
 30
0.0025
 70
192
 0
VERTEX
 8
TUBO_1
 10
18.7082
 20
-0.8612
 30
0.0025
 70
192
 0
VERTEX
 8
TUBO_1
 10
18.7082
 20
-0.8612
 30
0.0025
 70
192
 0
VERTEX
 8
TUBO_1
 10
18.7082
 20
-0.8612
 30
0.0025
 70
192
 0
VERTEX
 8
TUBO_1
 10
19.4358
 20
0.3526
 30
0.0025
 70
192
 0
VERTEX
 8
TUBO_1
 10
19.5063
 20
0.3149
 30
0.0025
 70
192
 0
VERTEX
 8
TUBO_1
 10
19.5063
 20
0.3149
 30
0.0025
 70
192
 0
VERTEX
 8
TUBO_1
 10
19.5063
 20
0.3149
 30
0.0025
 70
192
 0
VERTEX
 8
TUBO_1
 10
19.5063
 20
0.3149
 30
0.0025
 70
192
 0
VERTEX
 8
TUBO_1
 10
19.5063
 20
0.3149
 30
0.0025
 70
192
 0
VERTEX
 8
TUBO_1
 10
19.4358
 20
0.3526
 30
0.0025
 70
192
 0
VERTEX
 8
TUBO_1
 10
19.4358
 20
0.3526
 30
0.0025
 70
192
 0
VERTEX
 8
TUBO_1
 10
19.4358
 20
0.3526
 30
0.0025
 70
192
 0
VERTEX
 8
TUBO_1
 10
19.4358
 20
0.3526
 30
0.0025
 70
192
 0
VERTEX
 8
TUBO_1
 10
20.0408
 20
1.6318
 30
0.0025
 70
192
 0
VERTEX
 8
TUBO_1
 10
20.1147
 20
1.6012
 30
0.0025
 70
192
 0
VERTEX
 8
TUBO_1
 10
20.1147
 20
1.6012
 30
0.0025
 70
192
 0
VERTEX
 8
TUBO_1
 10
20.1147
 20
1.6012
 30
0.0025
 70
192
 0
VERTEX
 8
TUBO_1
 10
20.1147
 20
1.6012
 30
0.0025
 70
192
 0
VERTEX
 8
TUBO_1
 10
20.1147
 20
1.6012
 30
0.0025
 70
192
 0
VERTEX
 8
TUBO_1
 10
20.0408
 20
1.6318
 30
0.0025
 70
192
 0
VERTEX
 8
TUBO_1
 10
20.0408
 20
1.6318
 30
0.0025
 70
192
 0
VERTEX
 8
TUBO_1
 10
20.0408
 20
1.6318
 30
0.0025
 70
192
 0
VERTEX
 8
TUBO_1
 10
20.0408
 20
1.6318
 30
0.0025
 70
192
 0
VERTEX
 8
TUBO_1
 10
20.5175
 20
2.9642
 30
0.0025
 70
192
 0
VERTEX
 8
TUBO_1
 10
20.5941
 20
2.941
 30
0.0025
 70
192
 0
VERTEX
 8
TUBO_1
 10
20.5941
 20
2.941
 30
0.0025
 70
192
 0
VERTEX
 8
TUBO_1
 10
20.5941
 20
2.941
 30
0.0025
 70
192
 0
VERTEX
 8
TUBO_1
 10
20.5941
 20
2.941
 30
0.0025
 70
192
 0
VERTEX
 8
TUBO_1
 10
20.5941
 20
2.941
 30
0.0025
 70
192
 0
VERTEX
 8
TUBO_1
 10
20.5175
 20
2.9642
 30
0.0025
 70
192
 0
VERTEX
 8
TUBO_1
 10
20.5175
 20
2.9642
 30
0.0025
 70
192
 0
VERTEX
 8
TUBO_1
 10
20.5175
 20
2.9642
 30
0.0025
 70
192
 0
VERTEX
 8
TUBO_1
 10
20.5175
 20
2.9642
 30
0.0025
 70
192
 0
VERTEX
 8
TUBO_1
 10
20.8614
 20
4.3369
 30
0.0025
 70
192
 0
VERTEX
 8
TUBO_1
 10
20.9398
 20
4.3213
 30
0.0025
 70
192
 0
VERTEX
 8
TUBO_1
 10
20.9398
 20
4.3213
 30
0.0025
 70
192
 0
VERTEX
 8
TUBO_1
 10
20.9398
 20
4.3213
 30
0.0025
 70
192
 0
VERTEX
 8
TUBO_1
 10
20.9398
 20
4.3213
 30
0.0025
 70
192
 0
VERTEX
 8
TUBO_1
 10
20.9398
 20
4.3213
 30
0.0025
 70
192
 0
VERTEX
 8
TUBO_1
 10
20.8614
 20
4.3369
 30
0.0025
 70
192
 0
VERTEX
 8
TUBO_1
 10
20.8614
 20
4.3369
 30
0.0025
 70
192
 0
VERTEX
 8
TUBO_1
 10
20.8614
 20
4.3369
 30
0.0025
 70
192
 0
VERTEX
 8
TUBO_1
 10
20.8614
 20
4.3369
 30
0.0025
 70
192
 0
VERTEX
 8
TUBO_1
 10
21.069
 20
5.7367
 30
0.0025
 70
192
 0
VERTEX
 8
TUBO_1
 10
21.1486
 20
5.7289
 30
0.0025
 70
192
 0
VERTEX
 8
TUBO_1
 10
21.1486
 20
5.7289
 30
0.0025
 70
192
 0
VERTEX
 8
TUBO_1
 10
21.1486
 20
5.7289
 30
0.0025
 70
192
 0
VERTEX
 8
TUBO_1
 10
21.1486
 20
5.7289
 30
0.0025
 70
192
 0
VERTEX
 8
TUBO_1
 10
21.1486
 20
5.7289
 30
0.0025
 70
192
 0
VERTEX
 8
TUBO_1
 10
21.069
 20
5.7367
 30
0.0025
 70
192
 0
VERTEX
 8
TUBO_1
 10
21.069
 20
5.7367
 30
0.0025
 70
192
 0
VERTEX
 8
TUBO_1
 10
21.069
 20
5.7367
 30
0.0025
 70
192
 0
VERTEX
 8
TUBO_1
 10
21.069
 20
5.7367
 30
0.0025
 70
192
 0
VERTEX
 8
TUBO_1
 10
0
 20
0
 30
0
 70
128
 71
1
 72
2
 73
12
 74
11
 0
VERTEX
 8
TUBO_1
 10
0
 20
0
 30
0
 70
128
 71
2
 72
3
 73
13
 74
12
 0
VERTEX
 8
TUBO_1
 10
0
 20
0
 30
0
 70
128
 71
3
 72
4
 73
14
 74
13
 0
VERTEX
 8
TUBO_1
 10
0
 20
0
 30
0
 70
128
 71
4
 72
5
 73
15
 74
14
 0
VERTEX
 8
TUBO_1
 10
0
 20
0
 30
0
 70
128
 71
5
 72
6
 73
16
 74
15
 0
VERTEX
 8
TUBO_1
 10
0
 20
0
 30
0
 70
128
 71
6
 72
7
 73
17
 74
16
 0
VERTEX
 8
TUBO_1
 10
0
 20
0
 30
0
 70
128
 71
7
 72
8
 73
18
 74
17
 0
VERTEX
 8
TUBO_1
 10
0
 20
0
 30
0
 70
128
 71
8
 72
9
 73
19
 74
18
 0
VERTEX
 8
TUBO_1
 10
0
 20
0
 30
0
 70
128
 71
9
 72
10
 73
20
 74
19
 0
VERTEX
 8
TUBO_1
 10
0
 20
0
 30
0
 70
128
 71
10
 72
1
 73
11
 74
20
 0
VERTEX
 8
TUBO_1
 10
0
 20
0
 30
0
 70
128
 71
11
 72
12
 73
22
 74
21
 0
VERTEX
 8
TUBO_1
 10
0
 20
0
 30
0
 70
128
 71
12
 72
13
 73
23
 74
22
 0
VERTEX
 8
TUBO_1
 10
0
 20
0
 30
0
 70
128
 71
13
 72
14
 73
24
 74
23
 0
VERTEX
 8
TUBO_1
 10
0
 20
0
 30
0
 70
128
 71
14
 72
15
 73
25
 74
24
 0
VERTEX
 8
TUBO_1
 10
0
 20
0
 30
0
 70
128
 71
15
 72
16
 73
26
 74
25
 0
VERTEX
 8
TUBO_1
 10
0
 20
0
 30
0
 70
128
 71
16
 72
17
 73
27
 74
26
 0
VERTEX
 8
TUBO_1
 10
0
 20
0
 30
0
 70
128
 71
17
 72
18
 73
28
 74
27
 0
VERTEX
 8
TUBO_1
 10
0
 20
0
 30
0
 70
128
 71
18
 72
19
 73
29
 74
28
 0
VERTEX
 8
TUBO_1
 10
0
 20
0
 30
0
 70
128
 71
19
 72
20
 73
30
 74
29
 0
VERTEX
 8
TUBO_1
 10
0
 20
0
 30
0
 70
128
 71
20
 72
11
 73
21
 74
30
 0
VERTEX
 8
TUBO_1
 10
0
 20
0
 30
0
 70
128
 71
21
 72
22
 73
32
 74
31
 0
VERTEX
 8
TUBO_1
 10
0
 20
0
 30
0
 70
128
 71
22
 72
23
 73
33
 74
32
 0
VERTEX
 8
TUBO_1
 10
0
 20
0
 30
0
 70
128
 71
23
 72
24
 73
34
 74
33
 0
VERTEX
 8
TUBO_1
 10
0
 20
0
 30
0
 70
128
 71
24
 72
25
 73
35
 74
34
 0
VERTEX
 8
TUBO_1
 10
0
 20
0
 30
0
 70
128
 71
25
 72
26
 73
36
 74
35
 0
VERTEX
 8
TUBO_1
 10
0
 20
0
 30
0
 70
128
 71
26
 72
27
 73
37
 74
36
 0
VERTEX
 8
TUBO_1
 10
0
 20
0
 30
0
 70
128
 71
27
 72
28
 73
38
 74
37
 0
VERTEX
 8
TUBO_1
 10
0
 20
0
 30
0
 70
128
 71
28
 72
29
 73
39
 74
38
 0
VERTEX
 8
TUBO_1
 10
0
 20
0
 30
0
 70
128
 71
29
 72
30
 73
40
 74
39
 0
VERTEX
 8
TUBO_1
 10
0
 20
0
 30
0
 70
128
 71
30
 72
21
 73
31
 74
40
 0
VERTEX
 8
TUBO_1
 10
0
 20
0
 30
0
 70
128
 71
31
 72
32
 73
42
 74
41
 0
VERTEX
 8
TUBO_1
 10
0
 20
0
 30
0
 70
128
 71
32
 72
33
 73
43
 74
42
 0
VERTEX
 8
TUBO_1
 10
0
 20
0
 30
0
 70
128
 71
33
 72
34
 73
44
 74
43
 0
VERTEX
 8
TUBO_1
 10
0
 20
0
 30
0
 70
128
 71
34
 72
35
 73
45
 74
44
 0
VERTEX
 8
TUBO_1
 10
0
 20
0
 30
0
 70
128
 71
35
 72
36
 73
46
 74
45
 0
VERTEX
 8
TUBO_1
 10
0
 20
0
 30
0
 70
128
 71
36
 72
37
 73
47
 74
46
 0
VERTEX
 8
TUBO_1
 10
0
 20
0
 30
0
 70
128
 71
37
 72
38
 73
48
 74
47
 0
VERTEX
 8
TUBO_1
 10
0
 20
0
 30
0
 70
128
 71
38
 72
39
 73
49
 74
48
 0
VERTEX
 8
TUBO_1
 10
0
 20
0
 30
0
 70
128
 71
39
 72
40
 73
50
 74
49
 0
VERTEX
 8
TUBO_1
 10
0
 20
0
 30
0
 70
128
 71
40
 72
31
 73
41
 74
50
 0
VERTEX
 8
TUBO_1
 10
0
 20
0
 30
0
 70
128
 71
41
 72
42
 73
52
 74
51
 0
VERTEX
 8
TUBO_1
 10
0
 20
0
 30
0
 70
128
 71
42
 72
43
 73
53
 74
52
 0
VERTEX
 8
TUBO_1
 10
0
 20
0
 30
0
 70
128
 71
43
 72
44
 73
54
 74
53
 0
VERTEX
 8
TUBO_1
 10
0
 20
0
 30
0
 70
128
 71
44
 72
45
 73
55
 74
54
 0
VERTEX
 8
TUBO_1
 10
0
 20
0
 30
0
 70
128
 71
45
 72
46
 73
56
 74
55
 0
VERTEX
 8
TUBO_1
 10
0
 20
0
 30
0
 70
128
 71
46
 72
47
 73
57
 74
56
 0
VERTEX
 8
TUBO_1
 10
0
 20
0
 30
0
 70
128
 71
47
 72
48
 73
58
 74
57
 0
VERTEX
 8
TUBO_1
 10
0
 20
0
 30
0
 70
128
 71
48
 72
49
 73
59
 74
58
 0
VERTEX
 8
TUBO_1
 10
0
 20
0
 30
0
 70
128
 71
49
 72
50
 73
60
 74
59
 0
VERTEX
 8
TUBO_1
 10
0
 20
0
 30
0
 70
128
 71
50
 72
41
 73
51
 74
60
 0
VERTEX
 8
TUBO_1
 10
0
 20
0
 30
0
 70
128
 71
51
 72
52
 73
62
 74
61
 0
VERTEX
 8
TUBO_1
 10
0
 20
0
 30
0
 70
128
 71
52
 72
53
 73
63
 74
62
 0
VERTEX
 8
TUBO_1
 10
0
 20
0
 30
0
 70
128
 71
53
 72
54
 73
64
 74
63
 0
VERTEX
 8
TUBO_1
 10
0
 20
0
 30
0
 70
128
 71
54
 72
55
 73
65
 74
64
 0
VERTEX
 8
TUBO_1
 10
0
 20
0
 30
0
 70
128
 71
55
 72
56
 73
66
 74
65
 0
VERTEX
 8
TUBO_1
 10
0
 20
0
 30
0
 70
128
 71
56
 72
57
 73
67
 74
66
 0
VERTEX
 8
TUBO_1
 10
0
 20
0
 30
0
 70
128
 71
57
 72
58
 73
68
 74
67
 0
VERTEX
 8
TUBO_1
 10
0
 20
0
 30
0
 70
128
 71
58
 72
59
 73
69
 74
68
 0
VERTEX
 8
TUBO_1
 10
0
 20
0
 30
0
 70
128
 71
59
 72
60
 73
70
 74
69
 0
VERTEX
 8
TUBO_1
 10
0
 20
0
 30
0
 70
128
 71
60
 72
51
 73
61
 74
70
 0
VERTEX
 8
TUBO_1
 10
0
 20
0
 30
0
 70
128
 71
61
 72
62
 73
72
 74
71
 0
VERTEX
 8
TUBO_1
 10
0
 20
0
 30
0
 70
128
 71
62
 72
63
 73
73
 74
72
 0
VERTEX
 8
TUBO_1
 10
0
 20
0
 30
0
 70
128
 71
63
 72
64
 73
74
 74
73
 0
VERTEX
 8
TUBO_1
 10
0
 20
0
 30
0
 70
128
 71
64
 72
65
 73
75
 74
74
 0
VERTEX
 8
TUBO_1
 10
0
 20
0
 30
0
 70
128
 71
65
 72
66
 73
76
 74
75
 0
VERTEX
 8
TUBO_1
 10
0
 20
0
 30
0
 70
128
 71
66
 72
67
 73
77
 74
76
 0
VERTEX
 8
TUBO_1
 10
0
 20
0
 30
0
 70
128
 71
67
 72
68
 73
78
 74
77
 0
VERTEX
 8
TUBO_1
 10
0
 20
0
 30
0
 70
128
 71
68
 72
69
 73
79
 74
78
 0
VERTEX
 8
TUBO_1
 10
0
 20
0
 30
0
 70
128
 71
69
 72
70
 73
80
 74
79
 0
VERTEX
 8
TUBO_1
 10
0
 20
0
 30
0
 70
128
 71
70
 72
61
 73
71
 74
80
 0
VERTEX
 8
TUBO_1
 10
0
 20
0
 30
0
 70
128
 71
71
 72
72
 73
82
 74
81
 0
VERTEX
 8
TUBO_1
 10
0
 20
0
 30
0
 70
128
 71
72
 72
73
 73
83
 74
82
 0
VERTEX
 8
TUBO_1
 10
0
 20
0
 30
0
 70
128
 71
73
 72
74
 73
84
 74
83
 0
VERTEX
 8
TUBO_1
 10
0
 20
0
 30
0
 70
128
 71
74
 72
75
 73
85
 74
84
 0
VERTEX
 8
TUBO_1
 10
0
 20
0
 30
0
 70
128
 71
75
 72
76
 73
86
 74
85
 0
VERTEX
 8
TUBO_1
 10
0
 20
0
 30
0
 70
128
 71
76
 72
77
 73
87
 74
86
 0
VERTEX
 8
TUBO_1
 10
0
 20
0
 30
0
 70
128
 71
77
 72
78
 73
88
 74
87
 0
VERTEX
 8
TUBO_1
 10
0
 20
0
 30
0
 70
128
 71
78
 72
79
 73
89
 74
88
 0
VERTEX
 8
TUBO_1
 10
0
 20
0
 30
0
 70
128
 71
79
 72
80
 73
90
 74
89
 0
VERTEX
 8
TUBO_1
 10
0
 20
0
 30
0
 70
128
 71
80
 72
71
 73
81
 74
90
 0
VERTEX
 8
TUBO_1
 10
0
 20
0
 30
0
 70
128
 71
81
 72
82
 73
92
 74
91
 0
VERTEX
 8
TUBO_1
 10
0
 20
0
 30
0
 70
128
 71
82
 72
83
 73
93
 74
92
 0
VERTEX
 8
TUBO_1
 10
0
 20
0
 30
0
 70
128
 71
83
 72
84
 73
94
 74
93
 0
VERTEX
 8
TUBO_1
 10
0
 20
0
 30
0
 70
128
 71
84
 72
85
 73
95
 74
94
 0
VERTEX
 8
TUBO_1
 10
0
 20
0
 30
0
 70
128
 71
85
 72
86
 73
96
 74
95
 0
VERTEX
 8
TUBO_1
 10
0
 20
0
 30
0
 70
128
 71
86
 72
87
 73
97
 74
96
 0
VERTEX
 8
TUBO_1
 10
0
 20
0
 30
0
 70
128
 71
87
 72
88
 73
98
 74
97
 0
VERTEX
 8
TUBO_1
 10
0
 20
0
 30
0
 70
128
 71
88
 72
89
 73
99
 74
98
 0
VERTEX
 8
TUBO_1
 10
0
 20
0
 30
0
 70
128
 71
89
 72
90
 73
100
 74
99
 0
VERTEX
 8
TUBO_1
 10
0
 20
0
 30
0
 70
128
 71
90
 72
81
 73
91
 74
100
 0
VERTEX
 8
TUBO_1
 10
0
 20
0
 30
0
 70
128
 71
91
 72
92
 73
102
 74
101
 0
VERTEX
 8
TUBO_1
 10
0
 20
0
 30
0
 70
128
 71
92
 72
93
 73
103
 74
102
 0
VERTEX
 8
TUBO_1
 10
0
 20
0
 30
0
 70
128
 71
93
 72
94
 73
104
 74
103
 0
VERTEX
 8
TUBO_1
 10
0
 20
0
 30
0
 70
128
 71
94
 72
95
 73
105
 74
104
 0
VERTEX
 8
TUBO_1
 10
0
 20
0
 30
0
 70
128
 71
95
 72
96
 73
106
 74
105
 0
VERTEX
 8
TUBO_1
 10
0
 20
0
 30
0
 70
128
 71
96
 72
97
 73
107
 74
106
 0
VERTEX
 8
TUBO_1
 10
0
 20
0
 30
0
 70
128
 71
97
 72
98
 73
108
 74
107
 0
VERTEX
 8
TUBO_1
 10
0
 20
0
 30
0
 70
128
 71
98
 72
99
 73
109
 74
108
 0
VERTEX
 8
TUBO_1
 10
0
 20
0
 30
0
 70
128
 71
99
 72
100
 73
110
 74
109
 0
VERTEX
 8
TUBO_1
 10
0
 20
0
 30
0
 70
128
 71
100
 72
91
 73
101
 74
110
 0
VERTEX
 8
TUBO_1
 10
0
 20
0
 30
0
 70
128
 71
101
 72
102
 73
112
 74
111
 0
VERTEX
 8
TUBO_1
 10
0
 20
0
 30
0
 70
128
 71
102
 72
103
 73
113
 74
112
 0
VERTEX
 8
TUBO_1
 10
0
 20
0
 30
0
 70
128
 71
103
 72
104
 73
114
 74
113
 0
VERTEX
 8
TUBO_1
 10
0
 20
0
 30
0
 70
128
 71
104
 72
105
 73
115
 74
114
 0
VERTEX
 8
TUBO_1
 10
0
 20
0
 30
0
 70
128
 71
105
 72
106
 73
116
 74
115
 0
VERTEX
 8
TUBO_1
 10
0
 20
0
 30
0
 70
128
 71
106
 72
107
 73
117
 74
116
 0
VERTEX
 8
TUBO_1
 10
0
 20
0
 30
0
 70
128
 71
107
 72
108
 73
118
 74
117
 0
VERTEX
 8
TUBO_1
 10
0
 20
0
 30
0
 70
128
 71
108
 72
109
 73
119
 74
118
 0
VERTEX
 8
TUBO_1
 10
0
 20
0
 30
0
 70
128
 71
109
 72
110
 73
120
 74
119
 0
VERTEX
 8
TUBO_1
 10
0
 20
0
 30
0
 70
128
 71
110
 72
101
 73
111
 74
120
 0
VERTEX
 8
TUBO_1
 10
0
 20
0
 30
0
 70
128
 71
111
 72
112
 73
122
 74
121
 0
VERTEX
 8
TUBO_1
 10
0
 20
0
 30
0
 70
128
 71
112
 72
113
 73
123
 74
122
 0
VERTEX
 8
TUBO_1
 10
0
 20
0
 30
0
 70
128
 71
113
 72
114
 73
124
 74
123
 0
VERTEX
 8
TUBO_1
 10
0
 20
0
 30
0
 70
128
 71
114
 72
115
 73
125
 74
124
 0
VERTEX
 8
TUBO_1
 10
0
 20
0
 30
0
 70
128
 71
115
 72
116
 73
126
 74
125
 0
VERTEX
 8
TUBO_1
 10
0
 20
0
 30
0
 70
128
 71
116
 72
117
 73
127
 74
126
 0
VERTEX
 8
TUBO_1
 10
0
 20
0
 30
0
 70
128
 71
117
 72
118
 73
128
 74
127
 0
VERTEX
 8
TUBO_1
 10
0
 20
0
 30
0
 70
128
 71
118
 72
119
 73
129
 74
128
 0
VERTEX
 8
TUBO_1
 10
0
 20
0
 30
0
 70
128
 71
119
 72
120
 73
130
 74
129
 0
VERTEX
 8
TUBO_1
 10
0
 20
0
 30
0
 70
128
 71
120
 72
111
 73
121
 74
130
 0
VERTEX
 8
TUBO_1
 10
0
 20
0
 30
0
 70
128
 71
121
 72
122
 73
132
 74
131
 0
VERTEX
 8
TUBO_1
 10
0
 20
0
 30
0
 70
128
 71
122
 72
123
 73
133
 74
132
 0
VERTEX
 8
TUBO_1
 10
0
 20
0
 30
0
 70
128
 71
123
 72
124
 73
134
 74
133
 0
VERTEX
 8
TUBO_1
 10
0
 20
0
 30
0
 70
128
 71
124
 72
125
 73
135
 74
134
 0
VERTEX
 8
TUBO_1
 10
0
 20
0
 30
0
 70
128
 71
125
 72
126
 73
136
 74
135
 0
VERTEX
 8
TUBO_1
 10
0
 20
0
 30
0
 70
128
 71
126
 72
127
 73
137
 74
136
 0
VERTEX
 8
TUBO_1
 10
0
 20
0
 30
0
 70
128
 71
127
 72
128
 73
138
 74
137
 0
VERTEX
 8
TUBO_1
 10
0
 20
0
 30
0
 70
128
 71
128
 72
129
 73
139
 74
138
 0
VERTEX
 8
TUBO_1
 10
0
 20
0
 30
0
 70
128
 71
129
 72
130
 73
140
 74
139
 0
VERTEX
 8
TUBO_1
 10
0
 20
0
 30
0
 70
128
 71
130
 72
121
 73
131
 74
140
 0
VERTEX
 8
TUBO_1
 10
0
 20
0
 30
0
 70
128
 71
131
 72
132
 73
142
 74
141
 0
VERTEX
 8
TUBO_1
 10
0
 20
0
 30
0
 70
128
 71
132
 72
133
 73
143
 74
142
 0
VERTEX
 8
TUBO_1
 10
0
 20
0
 30
0
 70
128
 71
133
 72
134
 73
144
 74
143
 0
VERTEX
 8
TUBO_1
 10
0
 20
0
 30
0
 70
128
 71
134
 72
135
 73
145
 74
144
 0
VERTEX
 8
TUBO_1
 10
0
 20
0
 30
0
 70
128
 71
135
 72
136
 73
146
 74
145
 0
VERTEX
 8
TUBO_1
 10
0
 20
0
 30
0
 70
128
 71
136
 72
137
 73
147
 74
146
 0
VERTEX
 8
TUBO_1
 10
0
 20
0
 30
0
 70
128
 71
137
 72
138
 73
148
 74
147
 0
VERTEX
 8
TUBO_1
 10
0
 20
0
 30
0
 70
128
 71
138
 72
139
 73
149
 74
148
 0
VERTEX
 8
TUBO_1
 10
0
 20
0
 30
0
 70
128
 71
139
 72
140
 73
150
 74
149
 0
VERTEX
 8
TUBO_1
 10
0
 20
0
 30
0
 70
128
 71
140
 72
131
 73
141
 74
150
 0
VERTEX
 8
TUBO_1
 10
0
 20
0
 30
0
 70
128
 71
141
 72
142
 73
152
 74
151
 0
VERTEX
 8
TUBO_1
 10
0
 20
0
 30
0
 70
128
 71
142
 72
143
 73
153
 74
152
 0
VERTEX
 8
TUBO_1
 10
0
 20
0
 30
0
 70
128
 71
143
 72
144
 73
154
 74
153
 0
VERTEX
 8
TUBO_1
 10
0
 20
0
 30
0
 70
128
 71
144
 72
145
 73
155
 74
154
 0
VERTEX
 8
TUBO_1
 10
0
 20
0
 30
0
 70
128
 71
145
 72
146
 73
156
 74
155
 0
VERTEX
 8
TUBO_1
 10
0
 20
0
 30
0
 70
128
 71
146
 72
147
 73
157
 74
156
 0
VERTEX
 8
TUBO_1
 10
0
 20
0
 30
0
 70
128
 71
147
 72
148
 73
158
 74
157
 0
VERTEX
 8
TUBO_1
 10
0
 20
0
 30
0
 70
128
 71
148
 72
149
 73
159
 74
158
 0
VERTEX
 8
TUBO_1
 10
0
 20
0
 30
0
 70
128
 71
149
 72
150
 73
160
 74
159
 0
VERTEX
 8
TUBO_1
 10
0
 20
0
 30
0
 70
128
 71
150
 72
141
 73
151
 74
160
 0
VERTEX
 8
TUBO_1
 10
0
 20
0
 30
0
 70
128
 71
151
 72
152
 73
162
 74
161
 0
VERTEX
 8
TUBO_1
 10
0
 20
0
 30
0
 70
128
 71
152
 72
153
 73
163
 74
162
 0
VERTEX
 8
TUBO_1
 10
0
 20
0
 30
0
 70
128
 71
153
 72
154
 73
164
 74
163
 0
VERTEX
 8
TUBO_1
 10
0
 20
0
 30
0
 70
128
 71
154
 72
155
 73
165
 74
164
 0
VERTEX
 8
TUBO_1
 10
0
 20
0
 30
0
 70
128
 71
155
 72
156
 73
166
 74
165
 0
VERTEX
 8
TUBO_1
 10
0
 20
0
 30
0
 70
128
 71
156
 72
157
 73
167
 74
166
 0
VERTEX
 8
TUBO_1
 10
0
 20
0
 30
0
 70
128
 71
157
 72
158
 73
168
 74
167
 0
VERTEX
 8
TUBO_1
 10
0
 20
0
 30
0
 70
128
 71
158
 72
159
 73
169
 74
168
 0
VERTEX
 8
TUBO_1
 10
0
 20
0
 30
0
 70
128
 71
159
 72
160
 73
170
 74
169
 0
VERTEX
 8
TUBO_1
 10
0
 20
0
 30
0
 70
128
 71
160
 72
151
 73
161
 74
170
 0
VERTEX
 8
TUBO_1
 10
0
 20
0
 30
0
 70
128
 71
161
 72
162
 73
172
 74
171
 0
VERTEX
 8
TUBO_1
 10
0
 20
0
 30
0
 70
128
 71
162
 72
163
 73
173
 74
172
 0
VERTEX
 8
TUBO_1
 10
0
 20
0
 30
0
 70
128
 71
163
 72
164
 73
174
 74
173
 0
VERTEX
 8
TUBO_1
 10
0
 20
0
 30
0
 70
128
 71
164
 72
165
 73
175
 74
174
 0
VERTEX
 8
TUBO_1
 10
0
 20
0
 30
0
 70
128
 71
165
 72
166
 73
176
 74
175
 0
VERTEX
 8
TUBO_1
 10
0
 20
0
 30
0
 70
128
 71
166
 72
167
 73
177
 74
176
 0
VERTEX
 8
TUBO_1
 10
0
 20
0
 30
0
 70
128
 71
167
 72
168
 73
178
 74
177
 0
VERTEX
 8
TUBO_1
 10
0
 20
0
 30
0
 70
128
 71
168
 72
169
 73
179
 74
178
 0
VERTEX
 8
TUBO_1
 10
0
 20
0
 30
0
 70
128
 71
169
 72
170
 73
180
 74
179
 0
VERTEX
 8
TUBO_1
 10
0
 20
0
 30
0
 70
128
 71
170
 72
161
 73
171
 74
180
 0
VERTEX
 8
TUBO_1
 10
0
 20
0
 30
0
 70
128
 71
171
 72
172
 73
182
 74
181
 0
VERTEX
 8
TUBO_1
 10
0
 20
0
 30
0
 70
128
 71
172
 72
173
 73
183
 74
182
 0
VERTEX
 8
TUBO_1
 10
0
 20
0
 30
0
 70
128
 71
173
 72
174
 73
184
 74
183
 0
VERTEX
 8
TUBO_1
 10
0
 20
0
 30
0
 70
128
 71
174
 72
175
 73
185
 74
184
 0
VERTEX
 8
TUBO_1
 10
0
 20
0
 30
0
 70
128
 71
175
 72
176
 73
186
 74
185
 0
VERTEX
 8
TUBO_1
 10
0
 20
0
 30
0
 70
128
 71
176
 72
177
 73
187
 74
186
 0
VERTEX
 8
TUBO_1
 10
0
 20
0
 30
0
 70
128
 71
177
 72
178
 73
188
 74
187
 0
VERTEX
 8
TUBO_1
 10
0
 20
0
 30
0
 70
128
 71
178
 72
179
 73
189
 74
188
 0
VERTEX
 8
TUBO_1
 10
0
 20
0
 30
0
 70
128
 71
179
 72
180
 73
190
 74
189
 0
VERTEX
 8
TUBO_1
 10
0
 20
0
 30
0
 70
128
 71
180
 72
171
 73
181
 74
190
 0
VERTEX
 8
TUBO_1
 10
0
 20
0
 30
0
 70
128
 71
181
 72
182
 73
192
 74
191
 0
VERTEX
 8
TUBO_1
 10
0
 20
0
 30
0
 70
128
 71
182
 72
183
 73
193
 74
192
 0
VERTEX
 8
TUBO_1
 10
0
 20
0
 30
0
 70
128
 71
183
 72
184
 73
194
 74
193
 0
VERTEX
 8
TUBO_1
 10
0
 20
0
 30
0
 70
128
 71
184
 72
185
 73
195
 74
194
 0
VERTEX
 8
TUBO_1
 10
0
 20
0
 30
0
 70
128
 71
185
 72
186
 73
196
 74
195
 0
VERTEX
 8
TUBO_1
 10
0
 20
0
 30
0
 70
128
 71
186
 72
187
 73
197
 74
196
 0
VERTEX
 8
TUBO_1
 10
0
 20
0
 30
0
 70
128
 71
187
 72
188
 73
198
 74
197
 0
VERTEX
 8
TUBO_1
 10
0
 20
0
 30
0
 70
128
 71
188
 72
189
 73
199
 74
198
 0
VERTEX
 8
TUBO_1
 10
0
 20
0
 30
0
 70
128
 71
189
 72
190
 73
200
 74
199
 0
VERTEX
 8
TUBO_1
 10
0
 20
0
 30
0
 70
128
 71
190
 72
181
 73
191
 74
200
 0
VERTEX
 8
TUBO_1
 10
0
 20
0
 30
0
 70
128
 71
191
 72
192
 73
202
 74
201
 0
VERTEX
 8
TUBO_1
 10
0
 20
0
 30
0
 70
128
 71
192
 72
193
 73
203
 74
202
 0
VERTEX
 8
TUBO_1
 10
0
 20
0
 30
0
 70
128
 71
193
 72
194
 73
204
 74
203
 0
VERTEX
 8
TUBO_1
 10
0
 20
0
 30
0
 70
128
 71
194
 72
195
 73
205
 74
204
 0
VERTEX
 8
TUBO_1
 10
0
 20
0
 30
0
 70
128
 71
195
 72
196
 73
206
 74
205
 0
VERTEX
 8
TUBO_1
 10
0
 20
0
 30
0
 70
128
 71
196
 72
197
 73
207
 74
206
 0
VERTEX
 8
TUBO_1
 10
0
 20
0
 30
0
 70
128
 71
197
 72
198
 73
208
 74
207
 0
VERTEX
 8
TUBO_1
 10
0
 20
0
 30
0
 70
128
 71
198
 72
199
 73
209
 74
208
 0
VERTEX
 8
TUBO_1
 10
0
 20
0
 30
0
 70
128
 71
199
 72
200
 73
210
 74
209
 0
VERTEX
 8
TUBO_1
 10
0
 20
0
 30
0
 70
128
 71
200
 72
191
 73
201
 74
210
 0
VERTEX
 8
TUBO_1
 10
0
 20
0
 30
0
 70
128
 71
201
 72
202
 73
212
 74
211
 0
VERTEX
 8
TUBO_1
 10
0
 20
0
 30
0
 70
128
 71
202
 72
203
 73
213
 74
212
 0
VERTEX
 8
TUBO_1
 10
0
 20
0
 30
0
 70
128
 71
203
 72
204
 73
214
 74
213
 0
VERTEX
 8
TUBO_1
 10
0
 20
0
 30
0
 70
128
 71
204
 72
205
 73
215
 74
214
 0
VERTEX
 8
TUBO_1
 10
0
 20
0
 30
0
 70
128
 71
205
 72
206
 73
216
 74
215
 0
VERTEX
 8
TUBO_1
 10
0
 20
0
 30
0
 70
128
 71
206
 72
207
 73
217
 74
216
 0
VERTEX
 8
TUBO_1
 10
0
 20
0
 30
0
 70
128
 71
207
 72
208
 73
218
 74
217
 0
VERTEX
 8
TUBO_1
 10
0
 20
0
 30
0
 70
128
 71
208
 72
209
 73
219
 74
218
 0
VERTEX
 8
TUBO_1
 10
0
 20
0
 30
0
 70
128
 71
209
 72
210
 73
220
 74
219
 0
VERTEX
 8
TUBO_1
 10
0
 20
0
 30
0
 70
128
 71
210
 72
201
 73
211
 74
220
 0
VERTEX
 8
TUBO_1
 10
0
 20
0
 30
0
 70
128
 71
211
 72
212
 73
222
 74
221
 0
VERTEX
 8
TUBO_1
 10
0
 20
0
 30
0
 70
128
 71
212
 72
213
 73
223
 74
222
 0
VERTEX
 8
TUBO_1
 10
0
 20
0
 30
0
 70
128
 71
213
 72
214
 73
224
 74
223
 0
VERTEX
 8
TUBO_1
 10
0
 20
0
 30
0
 70
128
 71
214
 72
215
 73
225
 74
224
 0
VERTEX
 8
TUBO_1
 10
0
 20
0
 30
0
 70
128
 71
215
 72
216
 73
226
 74
225
 0
VERTEX
 8
TUBO_1
 10
0
 20
0
 30
0
 70
128
 71
216
 72
217
 73
227
 74
226
 0
VERTEX
 8
TUBO_1
 10
0
 20
0
 30
0
 70
128
 71
217
 72
218
 73
228
 74
227
 0
VERTEX
 8
TUBO_1
 10
0
 20
0
 30
0
 70
128
 71
218
 72
219
 73
229
 74
228
 0
VERTEX
 8
TUBO_1
 10
0
 20
0
 30
0
 70
128
 71
219
 72
220
 73
230
 74
229
 0
VERTEX
 8
TUBO_1
 10
0
 20
0
 30
0
 70
128
 71
220
 72
211
 73
221
 74
230
 0
VERTEX
 8
TUBO_1
 10
0
 20
0
 30
0
 70
128
 71
221
 72
222
 73
232
 74
231
 0
VERTEX
 8
TUBO_1
 10
0
 20
0
 30
0
 70
128
 71
222
 72
223
 73
233
 74
232
 0
VERTEX
 8
TUBO_1
 10
0
 20
0
 30
0
 70
128
 71
223
 72
224
 73
234
 74
233
 0
VERTEX
 8
TUBO_1
 10
0
 20
0
 30
0
 70
128
 71
224
 72
225
 73
235
 74
234
 0
VERTEX
 8
TUBO_1
 10
0
 20
0
 30
0
 70
128
 71
225
 72
226
 73
236
 74
235
 0
VERTEX
 8
TUBO_1
 10
0
 20
0
 30
0
 70
128
 71
226
 72
227
 73
237
 74
236
 0
VERTEX
 8
TUBO_1
 10
0
 20
0
 30
0
 70
128
 71
227
 72
228
 73
238
 74
237
 0
VERTEX
 8
TUBO_1
 10
0
 20
0
 30
0
 70
128
 71
228
 72
229
 73
239
 74
238
 0
VERTEX
 8
TUBO_1
 10
0
 20
0
 30
0
 70
128
 71
229
 72
230
 73
240
 74
239
 0
VERTEX
 8
TUBO_1
 10
0
 20
0
 30
0
 70
128
 71
230
 72
221
 73
231
 74
240
 0
VERTEX
 8
TUBO_1
 10
0
 20
0
 30
0
 70
128
 71
231
 72
232
 73
242
 74
241
 0
VERTEX
 8
TUBO_1
 10
0
 20
0
 30
0
 70
128
 71
232
 72
233
 73
243
 74
242
 0
VERTEX
 8
TUBO_1
 10
0
 20
0
 30
0
 70
128
 71
233
 72
234
 73
244
 74
243
 0
VERTEX
 8
TUBO_1
 10
0
 20
0
 30
0
 70
128
 71
234
 72
235
 73
245
 74
244
 0
VERTEX
 8
TUBO_1
 10
0
 20
0
 30
0
 70
128
 71
235
 72
236
 73
246
 74
245
 0
VERTEX
 8
TUBO_1
 10
0
 20
0
 30
0
 70
128
 71
236
 72
237
 73
247
 74
246
 0
VERTEX
 8
TUBO_1
 10
0
 20
0
 30
0
 70
128
 71
237
 72
238
 73
248
 74
247
 0
VERTEX
 8
TUBO_1
 10
0
 20
0
 30
0
 70
128
 71
238
 72
239
 73
249
 74
248
 0
VERTEX
 8
TUBO_1
 10
0
 20
0
 30
0
 70
128
 71
239
 72
240
 73
250
 74
249
 0
VERTEX
 8
TUBO_1
 10
0
 20
0
 30
0
 70
128
 71
240
 72
231
 73
241
 74
250
 0
VERTEX
 8
TUBO_1
 10
0
 20
0
 30
0
 70
128
 71
241
 72
242
 73
252
 74
251
 0
VERTEX
 8
TUBO_1
 10
0
 20
0
 30
0
 70
128
 71
242
 72
243
 73
253
 74
252
 0
VERTEX
 8
TUBO_1
 10
0
 20
0
 30
0
 70
128
 71
243
 72
244
 73
254
 74
253
 0
VERTEX
 8
TUBO_1
 10
0
 20
0
 30
0
 70
128
 71
244
 72
245
 73
255
 74
254
 0
VERTEX
 8
TUBO_1
 10
0
 20
0
 30
0
 70
128
 71
245
 72
246
 73
256
 74
255
 0
VERTEX
 8
TUBO_1
 10
0
 20
0
 30
0
 70
128
 71
246
 72
247
 73
257
 74
256
 0
VERTEX
 8
TUBO_1
 10
0
 20
0
 30
0
 70
128
 71
247
 72
248
 73
258
 74
257
 0
VERTEX
 8
TUBO_1
 10
0
 20
0
 30
0
 70
128
 71
248
 72
249
 73
259
 74
258
 0
VERTEX
 8
TUBO_1
 10
0
 20
0
 30
0
 70
128
 71
249
 72
250
 73
260
 74
259
 0
VERTEX
 8
TUBO_1
 10
0
 20
0
 30
0
 70
128
 71
250
 72
241
 73
251
 74
260
 0
VERTEX
 8
TUBO_1
 10
0
 20
0
 30
0
 70
128
 71
251
 72
252
 73
262
 74
261
 0
VERTEX
 8
TUBO_1
 10
0
 20
0
 30
0
 70
128
 71
252
 72
253
 73
263
 74
262
 0
VERTEX
 8
TUBO_1
 10
0
 20
0
 30
0
 70
128
 71
253
 72
254
 73
264
 74
263
 0
VERTEX
 8
TUBO_1
 10
0
 20
0
 30
0
 70
128
 71
254
 72
255
 73
265
 74
264
 0
VERTEX
 8
TUBO_1
 10
0
 20
0
 30
0
 70
128
 71
255
 72
256
 73
266
 74
265
 0
VERTEX
 8
TUBO_1
 10
0
 20
0
 30
0
 70
128
 71
256
 72
257
 73
267
 74
266
 0
VERTEX
 8
TUBO_1
 10
0
 20
0
 30
0
 70
128
 71
257
 72
258
 73
268
 74
267
 0
VERTEX
 8
TUBO_1
 10
0
 20
0
 30
0
 70
128
 71
258
 72
259
 73
269
 74
268
 0
VERTEX
 8
TUBO_1
 10
0
 20
0
 30
0
 70
128
 71
259
 72
260
 73
270
 74
269
 0
VERTEX
 8
TUBO_1
 10
0
 20
0
 30
0
 70
128
 71
260
 72
251
 73
261
 74
270
 0
VERTEX
 8
TUBO_1
 10
0
 20
0
 30
0
 70
128
 71
261
 72
262
 73
272
 74
271
 0
VERTEX
 8
TUBO_1
 10
0
 20
0
 30
0
 70
128
 71
262
 72
263
 73
273
 74
272
 0
VERTEX
 8
TUBO_1
 10
0
 20
0
 30
0
 70
128
 71
263
 72
264
 73
274
 74
273
 0
VERTEX
 8
TUBO_1
 10
0
 20
0
 30
0
 70
128
 71
264
 72
265
 73
275
 74
274
 0
VERTEX
 8
TUBO_1
 10
0
 20
0
 30
0
 70
128
 71
265
 72
266
 73
276
 74
275
 0
VERTEX
 8
TUBO_1
 10
0
 20
0
 30
0
 70
128
 71
266
 72
267
 73
277
 74
276
 0
VERTEX
 8
TUBO_1
 10
0
 20
0
 30
0
 70
128
 71
267
 72
268
 73
278
 74
277
 0
VERTEX
 8
TUBO_1
 10
0
 20
0
 30
0
 70
128
 71
268
 72
269
 73
279
 74
278
 0
VERTEX
 8
TUBO_1
 10
0
 20
0
 30
0
 70
128
 71
269
 72
270
 73
280
 74
279
 0
VERTEX
 8
TUBO_1
 10
0
 20
0
 30
0
 70
128
 71
270
 72
261
 73
271
 74
280
 0
VERTEX
 8
TUBO_1
 10
0
 20
0
 30
0
 70
128
 71
271
 72
272
 73
282
 74
281
 0
VERTEX
 8
TUBO_1
 10
0
 20
0
 30
0
 70
128
 71
272
 72
273
 73
283
 74
282
 0
VERTEX
 8
TUBO_1
 10
0
 20
0
 30
0
 70
128
 71
273
 72
274
 73
284
 74
283
 0
VERTEX
 8
TUBO_1
 10
0
 20
0
 30
0
 70
128
 71
274
 72
275
 73
285
 74
284
 0
VERTEX
 8
TUBO_1
 10
0
 20
0
 30
0
 70
128
 71
275
 72
276
 73
286
 74
285
 0
VERTEX
 8
TUBO_1
 10
0
 20
0
 30
0
 70
128
 71
276
 72
277
 73
287
 74
286
 0
VERTEX
 8
TUBO_1
 10
0
 20
0
 30
0
 70
128
 71
277
 72
278
 73
288
 74
287
 0
VERTEX
 8
TUBO_1
 10
0
 20
0
 30
0
 70
128
 71
278
 72
279
 73
289
 74
288
 0
VERTEX
 8
TUBO_1
 10
0
 20
0
 30
0
 70
128
 71
279
 72
280
 73
290
 74
289
 0
VERTEX
 8
TUBO_1
 10
0
 20
0
 30
0
 70
128
 71
280
 72
271
 73
281
 74
290
 0
VERTEX
 8
TUBO_1
 10
0
 20
0
 30
0
 70
128
 71
281
 72
282
 73
292
 74
291
 0
VERTEX
 8
TUBO_1
 10
0
 20
0
 30
0
 70
128
 71
282
 72
283
 73
293
 74
292
 0
VERTEX
 8
TUBO_1
 10
0
 20
0
 30
0
 70
128
 71
283
 72
284
 73
294
 74
293
 0
VERTEX
 8
TUBO_1
 10
0
 20
0
 30
0
 70
128
 71
284
 72
285
 73
295
 74
294
 0
VERTEX
 8
TUBO_1
 10
0
 20
0
 30
0
 70
128
 71
285
 72
286
 73
296
 74
295
 0
VERTEX
 8
TUBO_1
 10
0
 20
0
 30
0
 70
128
 71
286
 72
287
 73
297
 74
296
 0
VERTEX
 8
TUBO_1
 10
0
 20
0
 30
0
 70
128
 71
287
 72
288
 73
298
 74
297
 0
VERTEX
 8
TUBO_1
 10
0
 20
0
 30
0
 70
128
 71
288
 72
289
 73
299
 74
298
 0
VERTEX
 8
TUBO_1
 10
0
 20
0
 30
0
 70
128
 71
289
 72
290
 73
300
 74
299
 0
VERTEX
 8
TUBO_1
 10
0
 20
0
 30
0
 70
128
 71
290
 72
281
 73
291
 74
300
 0
VERTEX
 8
TUBO_1
 10
0
 20
0
 30
0
 70
128
 71
291
 72
292
 73
302
 74
301
 0
VERTEX
 8
TUBO_1
 10
0
 20
0
 30
0
 70
128
 71
292
 72
293
 73
303
 74
302
 0
VERTEX
 8
TUBO_1
 10
0
 20
0
 30
0
 70
128
 71
293
 72
294
 73
304
 74
303
 0
VERTEX
 8
TUBO_1
 10
0
 20
0
 30
0
 70
128
 71
294
 72
295
 73
305
 74
304
 0
VERTEX
 8
TUBO_1
 10
0
 20
0
 30
0
 70
128
 71
295
 72
296
 73
306
 74
305
 0
VERTEX
 8
TUBO_1
 10
0
 20
0
 30
0
 70
128
 71
296
 72
297
 73
307
 74
306
 0
VERTEX
 8
TUBO_1
 10
0
 20
0
 30
0
 70
128
 71
297
 72
298
 73
308
 74
307
 0
VERTEX
 8
TUBO_1
 10
0
 20
0
 30
0
 70
128
 71
298
 72
299
 73
309
 74
308
 0
VERTEX
 8
TUBO_1
 10
0
 20
0
 30
0
 70
128
 71
299
 72
300
 73
310
 74
309
 0
VERTEX
 8
TUBO_1
 10
0
 20
0
 30
0
 70
128
 71
300
 72
291
 73
301
 74
310
 0
VERTEX
 8
TUBO_1
 10
0
 20
0
 30
0
 70
128
 71
301
 72
302
 73
312
 74
311
 0
VERTEX
 8
TUBO_1
 10
0
 20
0
 30
0
 70
128
 71
302
 72
303
 73
313
 74
312
 0
VERTEX
 8
TUBO_1
 10
0
 20
0
 30
0
 70
128
 71
303
 72
304
 73
314
 74
313
 0
VERTEX
 8
TUBO_1
 10
0
 20
0
 30
0
 70
128
 71
304
 72
305
 73
315
 74
314
 0
VERTEX
 8
TUBO_1
 10
0
 20
0
 30
0
 70
128
 71
305
 72
306
 73
316
 74
315
 0
VERTEX
 8
TUBO_1
 10
0
 20
0
 30
0
 70
128
 71
306
 72
307
 73
317
 74
316
 0
VERTEX
 8
TUBO_1
 10
0
 20
0
 30
0
 70
128
 71
307
 72
308
 73
318
 74
317
 0
VERTEX
 8
TUBO_1
 10
0
 20
0
 30
0
 70
128
 71
308
 72
309
 73
319
 74
318
 0
VERTEX
 8
TUBO_1
 10
0
 20
0
 30
0
 70
128
 71
309
 72
310
 73
320
 74
319
 0
VERTEX
 8
TUBO_1
 10
0
 20
0
 30
0
 70
128
 71
310
 72
301
 73
311
 74
320
 0
VERTEX
 8
TUBO_1
 10
0
 20
0
 30
0
 70
128
 71
311
 72
312
 73
322
 74
321
 0
VERTEX
 8
TUBO_1
 10
0
 20
0
 30
0
 70
128
 71
312
 72
313
 73
323
 74
322
 0
VERTEX
 8
TUBO_1
 10
0
 20
0
 30
0
 70
128
 71
313
 72
314
 73
324
 74
323
 0
VERTEX
 8
TUBO_1
 10
0
 20
0
 30
0
 70
128
 71
314
 72
315
 73
325
 74
324
 0
VERTEX
 8
TUBO_1
 10
0
 20
0
 30
0
 70
128
 71
315
 72
316
 73
326
 74
325
 0
VERTEX
 8
TUBO_1
 10
0
 20
0
 30
0
 70
128
 71
316
 72
317
 73
327
 74
326
 0
VERTEX
 8
TUBO_1
 10
0
 20
0
 30
0
 70
128
 71
317
 72
318
 73
328
 74
327
 0
VERTEX
 8
TUBO_1
 10
0
 20
0
 30
0
 70
128
 71
318
 72
319
 73
329
 74
328
 0
VERTEX
 8
TUBO_1
 10
0
 20
0
 30
0
 70
128
 71
319
 72
320
 73
330
 74
329
 0
VERTEX
 8
TUBO_1
 10
0
 20
0
 30
0
 70
128
 71
320
 72
311
 73
321
 74
330
 0
VERTEX
 8
TUBO_1
 10
0
 20
0
 30
0
 70
128
 71
321
 72
322
 73
332
 74
331
 0
VERTEX
 8
TUBO_1
 10
0
 20
0
 30
0
 70
128
 71
322
 72
323
 73
333
 74
332
 0
VERTEX
 8
TUBO_1
 10
0
 20
0
 30
0
 70
128
 71
323
 72
324
 73
334
 74
333
 0
VERTEX
 8
TUBO_1
 10
0
 20
0
 30
0
 70
128
 71
324
 72
325
 73
335
 74
334
 0
VERTEX
 8
TUBO_1
 10
0
 20
0
 30
0
 70
128
 71
325
 72
326
 73
336
 74
335
 0
VERTEX
 8
TUBO_1
 10
0
 20
0
 30
0
 70
128
 71
326
 72
327
 73
337
 74
336
 0
VERTEX
 8
TUBO_1
 10
0
 20
0
 30
0
 70
128
 71
327
 72
328
 73
338
 74
337
 0
VERTEX
 8
TUBO_1
 10
0
 20
0
 30
0
 70
128
 71
328
 72
329
 73
339
 74
338
 0
VERTEX
 8
TUBO_1
 10
0
 20
0
 30
0
 70
128
 71
329
 72
330
 73
340
 74
339
 0
VERTEX
 8
TUBO_1
 10
0
 20
0
 30
0
 70
128
 71
330
 72
321
 73
331
 74
340
 0
VERTEX
 8
TUBO_1
 10
0
 20
0
 30
0
 70
128
 71
331
 72
332
 73
342
 74
341
 0
VERTEX
 8
TUBO_1
 10
0
 20
0
 30
0
 70
128
 71
332
 72
333
 73
343
 74
342
 0
VERTEX
 8
TUBO_1
 10
0
 20
0
 30
0
 70
128
 71
333
 72
334
 73
344
 74
343
 0
VERTEX
 8
TUBO_1
 10
0
 20
0
 30
0
 70
128
 71
334
 72
335
 73
345
 74
344
 0
VERTEX
 8
TUBO_1
 10
0
 20
0
 30
0
 70
128
 71
335
 72
336
 73
346
 74
345
 0
VERTEX
 8
TUBO_1
 10
0
 20
0
 30
0
 70
128
 71
336
 72
337
 73
347
 74
346
 0
VERTEX
 8
TUBO_1
 10
0
 20
0
 30
0
 70
128
 71
337
 72
338
 73
348
 74
347
 0
VERTEX
 8
TUBO_1
 10
0
 20
0
 30
0
 70
128
 71
338
 72
339
 73
349
 74
348
 0
VERTEX
 8
TUBO_1
 10
0
 20
0
 30
0
 70
128
 71
339
 72
340
 73
350
 74
349
 0
VERTEX
 8
TUBO_1
 10
0
 20
0
 30
0
 70
128
 71
340
 72
331
 73
341
 74
350
 0
VERTEX
 8
TUBO_1
 10
0
 20
0
 30
0
 70
128
 71
341
 72
342
 73
352
 74
351
 0
VERTEX
 8
TUBO_1
 10
0
 20
0
 30
0
 70
128
 71
342
 72
343
 73
353
 74
352
 0
VERTEX
 8
TUBO_1
 10
0
 20
0
 30
0
 70
128
 71
343
 72
344
 73
354
 74
353
 0
VERTEX
 8
TUBO_1
 10
0
 20
0
 30
0
 70
128
 71
344
 72
345
 73
355
 74
354
 0
VERTEX
 8
TUBO_1
 10
0
 20
0
 30
0
 70
128
 71
345
 72
346
 73
356
 74
355
 0
VERTEX
 8
TUBO_1
 10
0
 20
0
 30
0
 70
128
 71
346
 72
347
 73
357
 74
356
 0
VERTEX
 8
TUBO_1
 10
0
 20
0
 30
0
 70
128
 71
347
 72
348
 73
358
 74
357
 0
VERTEX
 8
TUBO_1
 10
0
 20
0
 30
0
 70
128
 71
348
 72
349
 73
359
 74
358
 0
VERTEX
 8
TUBO_1
 10
0
 20
0
 30
0
 70
128
 71
349
 72
350
 73
360
 74
359
 0
VERTEX
 8
TUBO_1
 10
0
 20
0
 30
0
 70
128
 71
350
 72
341
 73
351
 74
360
 0
VERTEX
 8
TUBO_1
 10
0
 20
0
 30
0
 70
128
 71
351
 72
352
 73
362
 74
361
 0
VERTEX
 8
TUBO_1
 10
0
 20
0
 30
0
 70
128
 71
352
 72
353
 73
363
 74
362
 0
VERTEX
 8
TUBO_1
 10
0
 20
0
 30
0
 70
128
 71
353
 72
354
 73
364
 74
363
 0
VERTEX
 8
TUBO_1
 10
0
 20
0
 30
0
 70
128
 71
354
 72
355
 73
365
 74
364
 0
VERTEX
 8
TUBO_1
 10
0
 20
0
 30
0
 70
128
 71
355
 72
356
 73
366
 74
365
 0
VERTEX
 8
TUBO_1
 10
0
 20
0
 30
0
 70
128
 71
356
 72
357
 73
367
 74
366
 0
VERTEX
 8
TUBO_1
 10
0
 20
0
 30
0
 70
128
 71
357
 72
358
 73
368
 74
367
 0
VERTEX
 8
TUBO_1
 10
0
 20
0
 30
0
 70
128
 71
358
 72
359
 73
369
 74
368
 0
VERTEX
 8
TUBO_1
 10
0
 20
0
 30
0
 70
128
 71
359
 72
360
 73
370
 74
369
 0
VERTEX
 8
TUBO_1
 10
0
 20
0
 30
0
 70
128
 71
360
 72
351
 73
361
 74
370
 0
VERTEX
 8
TUBO_1
 10
0
 20
0
 30
0
 70
128
 71
361
 72
362
 73
372
 74
371
 0
VERTEX
 8
TUBO_1
 10
0
 20
0
 30
0
 70
128
 71
362
 72
363
 73
373
 74
372
 0
VERTEX
 8
TUBO_1
 10
0
 20
0
 30
0
 70
128
 71
363
 72
364
 73
374
 74
373
 0
VERTEX
 8
TUBO_1
 10
0
 20
0
 30
0
 70
128
 71
364
 72
365
 73
375
 74
374
 0
VERTEX
 8
TUBO_1
 10
0
 20
0
 30
0
 70
128
 71
365
 72
366
 73
376
 74
375
 0
VERTEX
 8
TUBO_1
 10
0
 20
0
 30
0
 70
128
 71
366
 72
367
 73
377
 74
376
 0
VERTEX
 8
TUBO_1
 10
0
 20
0
 30
0
 70
128
 71
367
 72
368
 73
378
 74
377
 0
VERTEX
 8
TUBO_1
 10
0
 20
0
 30
0
 70
128
 71
368
 72
369
 73
379
 74
378
 0
VERTEX
 8
TUBO_1
 10
0
 20
0
 30
0
 70
128
 71
369
 72
370
 73
380
 74
379
 0
VERTEX
 8
TUBO_1
 10
0
 20
0
 30
0
 70
128
 71
370
 72
361
 73
371
 74
380
 0
VERTEX
 8
TUBO_1
 10
0
 20
0
 30
0
 70
128
 71
371
 72
372
 73
382
 74
381
 0
VERTEX
 8
TUBO_1
 10
0
 20
0
 30
0
 70
128
 71
372
 72
373
 73
383
 74
382
 0
VERTEX
 8
TUBO_1
 10
0
 20
0
 30
0
 70
128
 71
373
 72
374
 73
384
 74
383
 0
VERTEX
 8
TUBO_1
 10
0
 20
0
 30
0
 70
128
 71
374
 72
375
 73
385
 74
384
 0
VERTEX
 8
TUBO_1
 10
0
 20
0
 30
0
 70
128
 71
375
 72
376
 73
386
 74
385
 0
VERTEX
 8
TUBO_1
 10
0
 20
0
 30
0
 70
128
 71
376
 72
377
 73
387
 74
386
 0
VERTEX
 8
TUBO_1
 10
0
 20
0
 30
0
 70
128
 71
377
 72
378
 73
388
 74
387
 0
VERTEX
 8
TUBO_1
 10
0
 20
0
 30
0
 70
128
 71
378
 72
379
 73
389
 74
388
 0
VERTEX
 8
TUBO_1
 10
0
 20
0
 30
0
 70
128
 71
379
 72
380
 73
390
 74
389
 0
VERTEX
 8
TUBO_1
 10
0
 20
0
 30
0
 70
128
 71
380
 72
371
 73
381
 74
390
 0
VERTEX
 8
TUBO_1
 10
0
 20
0
 30
0
 70
128
 71
381
 72
382
 73
392
 74
391
 0
VERTEX
 8
TUBO_1
 10
0
 20
0
 30
0
 70
128
 71
382
 72
383
 73
393
 74
392
 0
VERTEX
 8
TUBO_1
 10
0
 20
0
 30
0
 70
128
 71
383
 72
384
 73
394
 74
393
 0
VERTEX
 8
TUBO_1
 10
0
 20
0
 30
0
 70
128
 71
384
 72
385
 73
395
 74
394
 0
VERTEX
 8
TUBO_1
 10
0
 20
0
 30
0
 70
128
 71
385
 72
386
 73
396
 74
395
 0
VERTEX
 8
TUBO_1
 10
0
 20
0
 30
0
 70
128
 71
386
 72
387
 73
397
 74
396
 0
VERTEX
 8
TUBO_1
 10
0
 20
0
 30
0
 70
128
 71
387
 72
388
 73
398
 74
397
 0
VERTEX
 8
TUBO_1
 10
0
 20
0
 30
0
 70
128
 71
388
 72
389
 73
399
 74
398
 0
VERTEX
 8
TUBO_1
 10
0
 20
0
 30
0
 70
128
 71
389
 72
390
 73
400
 74
399
 0
VERTEX
 8
TUBO_1
 10
0
 20
0
 30
0
 70
128
 71
390
 72
381
 73
391
 74
400
 0
VERTEX
 8
TUBO_1
 10
0
 20
0
 30
0
 70
128
 71
391
 72
392
 73
402
 74
401
 0
VERTEX
 8
TUBO_1
 10
0
 20
0
 30
0
 70
128
 71
392
 72
393
 73
403
 74
402
 0
VERTEX
 8
TUBO_1
 10
0
 20
0
 30
0
 70
128
 71
393
 72
394
 73
404
 74
403
 0
VERTEX
 8
TUBO_1
 10
0
 20
0
 30
0
 70
128
 71
394
 72
395
 73
405
 74
404
 0
VERTEX
 8
TUBO_1
 10
0
 20
0
 30
0
 70
128
 71
395
 72
396
 73
406
 74
405
 0
VERTEX
 8
TUBO_1
 10
0
 20
0
 30
0
 70
128
 71
396
 72
397
 73
407
 74
406
 0
VERTEX
 8
TUBO_1
 10
0
 20
0
 30
0
 70
128
 71
397
 72
398
 73
408
 74
407
 0
VERTEX
 8
TUBO_1
 10
0
 20
0
 30
0
 70
128
 71
398
 72
399
 73
409
 74
408
 0
VERTEX
 8
TUBO_1
 10
0
 20
0
 30
0
 70
128
 71
399
 72
400
 73
410
 74
409
 0
VERTEX
 8
TUBO_1
 10
0
 20
0
 30
0
 70
128
 71
400
 72
391
 73
401
 74
410
 0
VERTEX
 8
TUBO_1
 10
0
 20
0
 30
0
 70
128
 71
401
 72
402
 73
412
 74
411
 0
VERTEX
 8
TUBO_1
 10
0
 20
0
 30
0
 70
128
 71
402
 72
403
 73
413
 74
412
 0
VERTEX
 8
TUBO_1
 10
0
 20
0
 30
0
 70
128
 71
403
 72
404
 73
414
 74
413
 0
VERTEX
 8
TUBO_1
 10
0
 20
0
 30
0
 70
128
 71
404
 72
405
 73
415
 74
414
 0
VERTEX
 8
TUBO_1
 10
0
 20
0
 30
0
 70
128
 71
405
 72
406
 73
416
 74
415
 0
VERTEX
 8
TUBO_1
 10
0
 20
0
 30
0
 70
128
 71
406
 72
407
 73
417
 74
416
 0
VERTEX
 8
TUBO_1
 10
0
 20
0
 30
0
 70
128
 71
407
 72
408
 73
418
 74
417
 0
VERTEX
 8
TUBO_1
 10
0
 20
0
 30
0
 70
128
 71
408
 72
409
 73
419
 74
418
 0
VERTEX
 8
TUBO_1
 10
0
 20
0
 30
0
 70
128
 71
409
 72
410
 73
420
 74
419
 0
VERTEX
 8
TUBO_1
 10
0
 20
0
 30
0
 70
128
 71
410
 72
401
 73
411
 74
420
 0
VERTEX
 8
TUBO_1
 10
0
 20
0
 30
0
 70
128
 71
411
 72
412
 73
422
 74
421
 0
VERTEX
 8
TUBO_1
 10
0
 20
0
 30
0
 70
128
 71
412
 72
413
 73
423
 74
422
 0
VERTEX
 8
TUBO_1
 10
0
 20
0
 30
0
 70
128
 71
413
 72
414
 73
424
 74
423
 0
VERTEX
 8
TUBO_1
 10
0
 20
0
 30
0
 70
128
 71
414
 72
415
 73
425
 74
424
 0
VERTEX
 8
TUBO_1
 10
0
 20
0
 30
0
 70
128
 71
415
 72
416
 73
426
 74
425
 0
VERTEX
 8
TUBO_1
 10
0
 20
0
 30
0
 70
128
 71
416
 72
417
 73
427
 74
426
 0
VERTEX
 8
TUBO_1
 10
0
 20
0
 30
0
 70
128
 71
417
 72
418
 73
428
 74
427
 0
VERTEX
 8
TUBO_1
 10
0
 20
0
 30
0
 70
128
 71
418
 72
419
 73
429
 74
428
 0
VERTEX
 8
TUBO_1
 10
0
 20
0
 30
0
 70
128
 71
419
 72
420
 73
430
 74
429
 0
VERTEX
 8
TUBO_1
 10
0
 20
0
 30
0
 70
128
 71
420
 72
411
 73
421
 74
430
 0
VERTEX
 8
TUBO_1
 10
0
 20
0
 30
0
 70
128
 71
421
 72
422
 73
432
 74
431
 0
VERTEX
 8
TUBO_1
 10
0
 20
0
 30
0
 70
128
 71
422
 72
423
 73
433
 74
432
 0
VERTEX
 8
TUBO_1
 10
0
 20
0
 30
0
 70
128
 71
423
 72
424
 73
434
 74
433
 0
VERTEX
 8
TUBO_1
 10
0
 20
0
 30
0
 70
128
 71
424
 72
425
 73
435
 74
434
 0
VERTEX
 8
TUBO_1
 10
0
 20
0
 30
0
 70
128
 71
425
 72
426
 73
436
 74
435
 0
VERTEX
 8
TUBO_1
 10
0
 20
0
 30
0
 70
128
 71
426
 72
427
 73
437
 74
436
 0
VERTEX
 8
TUBO_1
 10
0
 20
0
 30
0
 70
128
 71
427
 72
428
 73
438
 74
437
 0
VERTEX
 8
TUBO_1
 10
0
 20
0
 30
0
 70
128
 71
428
 72
429
 73
439
 74
438
 0
VERTEX
 8
TUBO_1
 10
0
 20
0
 30
0
 70
128
 71
429
 72
430
 73
440
 74
439
 0
VERTEX
 8
TUBO_1
 10
0
 20
0
 30
0
 70
128
 71
430
 72
421
 73
431
 74
440
 0
VERTEX
 8
TUBO_1
 10
0
 20
0
 30
0
 70
128
 71
431
 72
432
 73
442
 74
441
 0
VERTEX
 8
TUBO_1
 10
0
 20
0
 30
0
 70
128
 71
432
 72
433
 73
443
 74
442
 0
VERTEX
 8
TUBO_1
 10
0
 20
0
 30
0
 70
128
 71
433
 72
434
 73
444
 74
443
 0
VERTEX
 8
TUBO_1
 10
0
 20
0
 30
0
 70
128
 71
434
 72
435
 73
445
 74
444
 0
VERTEX
 8
TUBO_1
 10
0
 20
0
 30
0
 70
128
 71
435
 72
436
 73
446
 74
445
 0
VERTEX
 8
TUBO_1
 10
0
 20
0
 30
0
 70
128
 71
436
 72
437
 73
447
 74
446
 0
VERTEX
 8
TUBO_1
 10
0
 20
0
 30
0
 70
128
 71
437
 72
438
 73
448
 74
447
 0
VERTEX
 8
TUBO_1
 10
0
 20
0
 30
0
 70
128
 71
438
 72
439
 73
449
 74
448
 0
VERTEX
 8
TUBO_1
 10
0
 20
0
 30
0
 70
128
 71
439
 72
440
 73
450
 74
449
 0
VERTEX
 8
TUBO_1
 10
0
 20
0
 30
0
 70
128
 71
440
 72
431
 73
441
 74
450
 0
VERTEX
 8
TUBO_1
 10
0
 20
0
 30
0
 70
128
 71
441
 72
442
 73
452
 74
451
 0
VERTEX
 8
TUBO_1
 10
0
 20
0
 30
0
 70
128
 71
442
 72
443
 73
453
 74
452
 0
VERTEX
 8
TUBO_1
 10
0
 20
0
 30
0
 70
128
 71
443
 72
444
 73
454
 74
453
 0
VERTEX
 8
TUBO_1
 10
0
 20
0
 30
0
 70
128
 71
444
 72
445
 73
455
 74
454
 0
VERTEX
 8
TUBO_1
 10
0
 20
0
 30
0
 70
128
 71
445
 72
446
 73
456
 74
455
 0
VERTEX
 8
TUBO_1
 10
0
 20
0
 30
0
 70
128
 71
446
 72
447
 73
457
 74
456
 0
VERTEX
 8
TUBO_1
 10
0
 20
0
 30
0
 70
128
 71
447
 72
448
 73
458
 74
457
 0
VERTEX
 8
TUBO_1
 10
0
 20
0
 30
0
 70
128
 71
448
 72
449
 73
459
 74
458
 0
VERTEX
 8
TUBO_1
 10
0
 20
0
 30
0
 70
128
 71
449
 72
450
 73
460
 74
459
 0
VERTEX
 8
TUBO_1
 10
0
 20
0
 30
0
 70
128
 71
450
 72
441
 73
451
 74
460
 0
VERTEX
 8
TUBO_1
 10
0
 20
0
 30
0
 70
128
 71
451
 72
452
 73
462
 74
461
 0
VERTEX
 8
TUBO_1
 10
0
 20
0
 30
0
 70
128
 71
452
 72
453
 73
463
 74
462
 0
VERTEX
 8
TUBO_1
 10
0
 20
0
 30
0
 70
128
 71
453
 72
454
 73
464
 74
463
 0
VERTEX
 8
TUBO_1
 10
0
 20
0
 30
0
 70
128
 71
454
 72
455
 73
465
 74
464
 0
VERTEX
 8
TUBO_1
 10
0
 20
0
 30
0
 70
128
 71
455
 72
456
 73
466
 74
465
 0
VERTEX
 8
TUBO_1
 10
0
 20
0
 30
0
 70
128
 71
456
 72
457
 73
467
 74
466
 0
VERTEX
 8
TUBO_1
 10
0
 20
0
 30
0
 70
128
 71
457
 72
458
 73
468
 74
467
 0
VERTEX
 8
TUBO_1
 10
0
 20
0
 30
0
 70
128
 71
458
 72
459
 73
469
 74
468
 0
VERTEX
 8
TUBO_1
 10
0
 20
0
 30
0
 70
128
 71
459
 72
460
 73
470
 74
469
 0
VERTEX
 8
TUBO_1
 10
0
 20
0
 30
0
 70
128
 71
460
 72
451
 73
461
 74
470
 0
VERTEX
 8
TUBO_1
 10
0
 20
0
 30
0
 70
128
 71
461
 72
462
 73
472
 74
471
 0
VERTEX
 8
TUBO_1
 10
0
 20
0
 30
0
 70
128
 71
462
 72
463
 73
473
 74
472
 0
VERTEX
 8
TUBO_1
 10
0
 20
0
 30
0
 70
128
 71
463
 72
464
 73
474
 74
473
 0
VERTEX
 8
TUBO_1
 10
0
 20
0
 30
0
 70
128
 71
464
 72
465
 73
475
 74
474
 0
VERTEX
 8
TUBO_1
 10
0
 20
0
 30
0
 70
128
 71
465
 72
466
 73
476
 74
475
 0
VERTEX
 8
TUBO_1
 10
0
 20
0
 30
0
 70
128
 71
466
 72
467
 73
477
 74
476
 0
VERTEX
 8
TUBO_1
 10
0
 20
0
 30
0
 70
128
 71
467
 72
468
 73
478
 74
477
 0
VERTEX
 8
TUBO_1
 10
0
 20
0
 30
0
 70
128
 71
468
 72
469
 73
479
 74
478
 0
VERTEX
 8
TUBO_1
 10
0
 20
0
 30
0
 70
128
 71
469
 72
470
 73
480
 74
479
 0
VERTEX
 8
TUBO_1
 10
0
 20
0
 30
0
 70
128
 71
470
 72
461
 73
471
 74
480
 0
VERTEX
 8
TUBO_1
 10
0
 20
0
 30
0
 70
128
 71
471
 72
472
 73
482
 74
481
 0
VERTEX
 8
TUBO_1
 10
0
 20
0
 30
0
 70
128
 71
472
 72
473
 73
483
 74
482
 0
VERTEX
 8
TUBO_1
 10
0
 20
0
 30
0
 70
128
 71
473
 72
474
 73
484
 74
483
 0
VERTEX
 8
TUBO_1
 10
0
 20
0
 30
0
 70
128
 71
474
 72
475
 73
485
 74
484
 0
VERTEX
 8
TUBO_1
 10
0
 20
0
 30
0
 70
128
 71
475
 72
476
 73
486
 74
485
 0
VERTEX
 8
TUBO_1
 10
0
 20
0
 30
0
 70
128
 71
476
 72
477
 73
487
 74
486
 0
VERTEX
 8
TUBO_1
 10
0
 20
0
 30
0
 70
128
 71
477
 72
478
 73
488
 74
487
 0
VERTEX
 8
TUBO_1
 10
0
 20
0
 30
0
 70
128
 71
478
 72
479
 73
489
 74
488
 0
VERTEX
 8
TUBO_1
 10
0
 20
0
 30
0
 70
128
 71
479
 72
480
 73
490
 74
489
 0
VERTEX
 8
TUBO_1
 10
0
 20
0
 30
0
 70
128
 71
480
 72
471
 73
481
 74
490
 0
VERTEX
 8
TUBO_1
 10
0
 20
0
 30
0
 70
128
 71
481
 72
482
 73
492
 74
491
 0
VERTEX
 8
TUBO_1
 10
0
 20
0
 30
0
 70
128
 71
482
 72
483
 73
493
 74
492
 0
VERTEX
 8
TUBO_1
 10
0
 20
0
 30
0
 70
128
 71
483
 72
484
 73
494
 74
493
 0
VERTEX
 8
TUBO_1
 10
0
 20
0
 30
0
 70
128
 71
484
 72
485
 73
495
 74
494
 0
VERTEX
 8
TUBO_1
 10
0
 20
0
 30
0
 70
128
 71
485
 72
486
 73
496
 74
495
 0
VERTEX
 8
TUBO_1
 10
0
 20
0
 30
0
 70
128
 71
486
 72
487
 73
497
 74
496
 0
VERTEX
 8
TUBO_1
 10
0
 20
0
 30
0
 70
128
 71
487
 72
488
 73
498
 74
497
 0
VERTEX
 8
TUBO_1
 10
0
 20
0
 30
0
 70
128
 71
488
 72
489
 73
499
 74
498
 0
VERTEX
 8
TUBO_1
 10
0
 20
0
 30
0
 70
128
 71
489
 72
490
 73
500
 74
499
 0
VERTEX
 8
TUBO_1
 10
0
 20
0
 30
0
 70
128
 71
490
 72
481
 73
491
 74
500
 0
VERTEX
 8
TUBO_1
 10
0
 20
0
 30
0
 70
128
 71
491
 72
492
 73
502
 74
501
 0
VERTEX
 8
TUBO_1
 10
0
 20
0
 30
0
 70
128
 71
492
 72
493
 73
503
 74
502
 0
VERTEX
 8
TUBO_1
 10
0
 20
0
 30
0
 70
128
 71
493
 72
494
 73
504
 74
503
 0
VERTEX
 8
TUBO_1
 10
0
 20
0
 30
0
 70
128
 71
494
 72
495
 73
505
 74
504
 0
VERTEX
 8
TUBO_1
 10
0
 20
0
 30
0
 70
128
 71
495
 72
496
 73
506
 74
505
 0
VERTEX
 8
TUBO_1
 10
0
 20
0
 30
0
 70
128
 71
496
 72
497
 73
507
 74
506
 0
VERTEX
 8
TUBO_1
 10
0
 20
0
 30
0
 70
128
 71
497
 72
498
 73
508
 74
507
 0
VERTEX
 8
TUBO_1
 10
0
 20
0
 30
0
 70
128
 71
498
 72
499
 73
509
 74
508
 0
VERTEX
 8
TUBO_1
 10
0
 20
0
 30
0
 70
128
 71
499
 72
500
 73
510
 74
509
 0
VERTEX
 8
TUBO_1
 10
0
 20
0
 30
0
 70
128
 71
500
 72
491
 73
501
 74
510
 0
VERTEX
 8
TUBO_1
 10
0
 20
0
 30
0
 70
128
 71
501
 72
502
 73
512
 74
511
 0
VERTEX
 8
TUBO_1
 10
0
 20
0
 30
0
 70
128
 71
502
 72
503
 73
513
 74
512
 0
VERTEX
 8
TUBO_1
 10
0
 20
0
 30
0
 70
128
 71
503
 72
504
 73
514
 74
513
 0
VERTEX
 8
TUBO_1
 10
0
 20
0
 30
0
 70
128
 71
504
 72
505
 73
515
 74
514
 0
VERTEX
 8
TUBO_1
 10
0
 20
0
 30
0
 70
128
 71
505
 72
506
 73
516
 74
515
 0
VERTEX
 8
TUBO_1
 10
0
 20
0
 30
0
 70
128
 71
506
 72
507
 73
517
 74
516
 0
VERTEX
 8
TUBO_1
 10
0
 20
0
 30
0
 70
128
 71
507
 72
508
 73
518
 74
517
 0
VERTEX
 8
TUBO_1
 10
0
 20
0
 30
0
 70
128
 71
508
 72
509
 73
519
 74
518
 0
VERTEX
 8
TUBO_1
 10
0
 20
0
 30
0
 70
128
 71
509
 72
510
 73
520
 74
519
 0
VERTEX
 8
TUBO_1
 10
0
 20
0
 30
0
 70
128
 71
510
 72
501
 73
511
 74
520
 0
VERTEX
 8
TUBO_1
 10
0
 20
0
 30
0
 70
128
 71
511
 72
512
 73
522
 74
521
 0
VERTEX
 8
TUBO_1
 10
0
 20
0
 30
0
 70
128
 71
512
 72
513
 73
523
 74
522
 0
VERTEX
 8
TUBO_1
 10
0
 20
0
 30
0
 70
128
 71
513
 72
514
 73
524
 74
523
 0
VERTEX
 8
TUBO_1
 10
0
 20
0
 30
0
 70
128
 71
514
 72
515
 73
525
 74
524
 0
VERTEX
 8
TUBO_1
 10
0
 20
0
 30
0
 70
128
 71
515
 72
516
 73
526
 74
525
 0
VERTEX
 8
TUBO_1
 10
0
 20
0
 30
0
 70
128
 71
516
 72
517
 73
527
 74
526
 0
VERTEX
 8
TUBO_1
 10
0
 20
0
 30
0
 70
128
 71
517
 72
518
 73
528
 74
527
 0
VERTEX
 8
TUBO_1
 10
0
 20
0
 30
0
 70
128
 71
518
 72
519
 73
529
 74
528
 0
VERTEX
 8
TUBO_1
 10
0
 20
0
 30
0
 70
128
 71
519
 72
520
 73
530
 74
529
 0
VERTEX
 8
TUBO_1
 10
0
 20
0
 30
0
 70
128
 71
520
 72
511
 73
521
 74
530
 0
VERTEX
 8
TUBO_1
 10
0
 20
0
 30
0
 70
128
 71
521
 72
522
 73
532
 74
531
 0
VERTEX
 8
TUBO_1
 10
0
 20
0
 30
0
 70
128
 71
522
 72
523
 73
533
 74
532
 0
VERTEX
 8
TUBO_1
 10
0
 20
0
 30
0
 70
128
 71
523
 72
524
 73
534
 74
533
 0
VERTEX
 8
TUBO_1
 10
0
 20
0
 30
0
 70
128
 71
524
 72
525
 73
535
 74
534
 0
VERTEX
 8
TUBO_1
 10
0
 20
0
 30
0
 70
128
 71
525
 72
526
 73
536
 74
535
 0
VERTEX
 8
TUBO_1
 10
0
 20
0
 30
0
 70
128
 71
526
 72
527
 73
537
 74
536
 0
VERTEX
 8
TUBO_1
 10
0
 20
0
 30
0
 70
128
 71
527
 72
528
 73
538
 74
537
 0
VERTEX
 8
TUBO_1
 10
0
 20
0
 30
0
 70
128
 71
528
 72
529
 73
539
 74
538
 0
VERTEX
 8
TUBO_1
 10
0
 20
0
 30
0
 70
128
 71
529
 72
530
 73
540
 74
539
 0
VERTEX
 8
TUBO_1
 10
0
 20
0
 30
0
 70
128
 71
530
 72
521
 73
531
 74
540
 0
VERTEX
 8
TUBO_1
 10
0
 20
0
 30
0
 70
128
 71
531
 72
532
 73
542
 74
541
 0
VERTEX
 8
TUBO_1
 10
0
 20
0
 30
0
 70
128
 71
532
 72
533
 73
543
 74
542
 0
VERTEX
 8
TUBO_1
 10
0
 20
0
 30
0
 70
128
 71
533
 72
534
 73
544
 74
543
 0
VERTEX
 8
TUBO_1
 10
0
 20
0
 30
0
 70
128
 71
534
 72
535
 73
545
 74
544
 0
VERTEX
 8
TUBO_1
 10
0
 20
0
 30
0
 70
128
 71
535
 72
536
 73
546
 74
545
 0
VERTEX
 8
TUBO_1
 10
0
 20
0
 30
0
 70
128
 71
536
 72
537
 73
547
 74
546
 0
VERTEX
 8
TUBO_1
 10
0
 20
0
 30
0
 70
128
 71
537
 72
538
 73
548
 74
547
 0
VERTEX
 8
TUBO_1
 10
0
 20
0
 30
0
 70
128
 71
538
 72
539
 73
549
 74
548
 0
VERTEX
 8
TUBO_1
 10
0
 20
0
 30
0
 70
128
 71
539
 72
540
 73
550
 74
549
 0
VERTEX
 8
TUBO_1
 10
0
 20
0
 30
0
 70
128
 71
540
 72
531
 73
541
 74
550
 0
VERTEX
 8
TUBO_1
 10
0
 20
0
 30
0
 70
128
 71
541
 72
542
 73
552
 74
551
 0
VERTEX
 8
TUBO_1
 10
0
 20
0
 30
0
 70
128
 71
542
 72
543
 73
553
 74
552
 0
VERTEX
 8
TUBO_1
 10
0
 20
0
 30
0
 70
128
 71
543
 72
544
 73
554
 74
553
 0
VERTEX
 8
TUBO_1
 10
0
 20
0
 30
0
 70
128
 71
544
 72
545
 73
555
 74
554
 0
VERTEX
 8
TUBO_1
 10
0
 20
0
 30
0
 70
128
 71
545
 72
546
 73
556
 74
555
 0
VERTEX
 8
TUBO_1
 10
0
 20
0
 30
0
 70
128
 71
546
 72
547
 73
557
 74
556
 0
VERTEX
 8
TUBO_1
 10
0
 20
0
 30
0
 70
128
 71
547
 72
548
 73
558
 74
557
 0
VERTEX
 8
TUBO_1
 10
0
 20
0
 30
0
 70
128
 71
548
 72
549
 73
559
 74
558
 0
VERTEX
 8
TUBO_1
 10
0
 20
0
 30
0
 70
128
 71
549
 72
550
 73
560
 74
559
 0
VERTEX
 8
TUBO_1
 10
0
 20
0
 30
0
 70
128
 71
550
 72
541
 73
551
 74
560
 0
VERTEX
 8
TUBO_1
 10
0
 20
0
 30
0
 70
128
 71
551
 72
552
 73
562
 74
561
 0
VERTEX
 8
TUBO_1
 10
0
 20
0
 30
0
 70
128
 71
552
 72
553
 73
563
 74
562
 0
VERTEX
 8
TUBO_1
 10
0
 20
0
 30
0
 70
128
 71
553
 72
554
 73
564
 74
563
 0
VERTEX
 8
TUBO_1
 10
0
 20
0
 30
0
 70
128
 71
554
 72
555
 73
565
 74
564
 0
VERTEX
 8
TUBO_1
 10
0
 20
0
 30
0
 70
128
 71
555
 72
556
 73
566
 74
565
 0
VERTEX
 8
TUBO_1
 10
0
 20
0
 30
0
 70
128
 71
556
 72
557
 73
567
 74
566
 0
VERTEX
 8
TUBO_1
 10
0
 20
0
 30
0
 70
128
 71
557
 72
558
 73
568
 74
567
 0
VERTEX
 8
TUBO_1
 10
0
 20
0
 30
0
 70
128
 71
558
 72
559
 73
569
 74
568
 0
VERTEX
 8
TUBO_1
 10
0
 20
0
 30
0
 70
128
 71
559
 72
560
 73
570
 74
569
 0
VERTEX
 8
TUBO_1
 10
0
 20
0
 30
0
 70
128
 71
560
 72
551
 73
561
 74
570
 0
VERTEX
 8
TUBO_1
 10
0
 20
0
 30
0
 70
128
 71
561
 72
562
 73
572
 74
571
 0
VERTEX
 8
TUBO_1
 10
0
 20
0
 30
0
 70
128
 71
562
 72
563
 73
573
 74
572
 0
VERTEX
 8
TUBO_1
 10
0
 20
0
 30
0
 70
128
 71
563
 72
564
 73
574
 74
573
 0
VERTEX
 8
TUBO_1
 10
0
 20
0
 30
0
 70
128
 71
564
 72
565
 73
575
 74
574
 0
VERTEX
 8
TUBO_1
 10
0
 20
0
 30
0
 70
128
 71
565
 72
566
 73
576
 74
575
 0
VERTEX
 8
TUBO_1
 10
0
 20
0
 30
0
 70
128
 71
566
 72
567
 73
577
 74
576
 0
VERTEX
 8
TUBO_1
 10
0
 20
0
 30
0
 70
128
 71
567
 72
568
 73
578
 74
577
 0
VERTEX
 8
TUBO_1
 10
0
 20
0
 30
0
 70
128
 71
568
 72
569
 73
579
 74
578
 0
VERTEX
 8
TUBO_1
 10
0
 20
0
 30
0
 70
128
 71
569
 72
570
 73
580
 74
579
 0
VERTEX
 8
TUBO_1
 10
0
 20
0
 30
0
 70
128
 71
570
 72
561
 73
571
 74
580
 0
VERTEX
 8
TUBO_1
 10
0
 20
0
 30
0
 70
128
 71
571
 72
572
 73
582
 74
581
 0
VERTEX
 8
TUBO_1
 10
0
 20
0
 30
0
 70
128
 71
572
 72
573
 73
583
 74
582
 0
VERTEX
 8
TUBO_1
 10
0
 20
0
 30
0
 70
128
 71
573
 72
574
 73
584
 74
583
 0
VERTEX
 8
TUBO_1
 10
0
 20
0
 30
0
 70
128
 71
574
 72
575
 73
585
 74
584
 0
VERTEX
 8
TUBO_1
 10
0
 20
0
 30
0
 70
128
 71
575
 72
576
 73
586
 74
585
 0
VERTEX
 8
TUBO_1
 10
0
 20
0
 30
0
 70
128
 71
576
 72
577
 73
587
 74
586
 0
VERTEX
 8
TUBO_1
 10
0
 20
0
 30
0
 70
128
 71
577
 72
578
 73
588
 74
587
 0
VERTEX
 8
TUBO_1
 10
0
 20
0
 30
0
 70
128
 71
578
 72
579
 73
589
 74
588
 0
VERTEX
 8
TUBO_1
 10
0
 20
0
 30
0
 70
128
 71
579
 72
580
 73
590
 74
589
 0
VERTEX
 8
TUBO_1
 10
0
 20
0
 30
0
 70
128
 71
580
 72
571
 73
581
 74
590
 0
VERTEX
 8
TUBO_1
 10
0
 20
0
 30
0
 70
128
 71
581
 72
582
 73
592
 74
591
 0
VERTEX
 8
TUBO_1
 10
0
 20
0
 30
0
 70
128
 71
582
 72
583
 73
593
 74
592
 0
VERTEX
 8
TUBO_1
 10
0
 20
0
 30
0
 70
128
 71
583
 72
584
 73
594
 74
593
 0
VERTEX
 8
TUBO_1
 10
0
 20
0
 30
0
 70
128
 71
584
 72
585
 73
595
 74
594
 0
VERTEX
 8
TUBO_1
 10
0
 20
0
 30
0
 70
128
 71
585
 72
586
 73
596
 74
595
 0
VERTEX
 8
TUBO_1
 10
0
 20
0
 30
0
 70
128
 71
586
 72
587
 73
597
 74
596
 0
VERTEX
 8
TUBO_1
 10
0
 20
0
 30
0
 70
128
 71
587
 72
588
 73
598
 74
597
 0
VERTEX
 8
TUBO_1
 10
0
 20
0
 30
0
 70
128
 71
588
 72
589
 73
599
 74
598
 0
VERTEX
 8
TUBO_1
 10
0
 20
0
 30
0
 70
128
 71
589
 72
590
 73
600
 74
599
 0
VERTEX
 8
TUBO_1
 10
0
 20
0
 30
0
 70
128
 71
590
 72
581
 73
591
 74
600
 0
VERTEX
 8
TUBO_1
 10
0
 20
0
 30
0
 70
128
 71
591
 72
592
 73
602
 74
601
 0
VERTEX
 8
TUBO_1
 10
0
 20
0
 30
0
 70
128
 71
592
 72
593
 73
603
 74
602
 0
VERTEX
 8
TUBO_1
 10
0
 20
0
 30
0
 70
128
 71
593
 72
594
 73
604
 74
603
 0
VERTEX
 8
TUBO_1
 10
0
 20
0
 30
0
 70
128
 71
594
 72
595
 73
605
 74
604
 0
VERTEX
 8
TUBO_1
 10
0
 20
0
 30
0
 70
128
 71
595
 72
596
 73
606
 74
605
 0
VERTEX
 8
TUBO_1
 10
0
 20
0
 30
0
 70
128
 71
596
 72
597
 73
607
 74
606
 0
VERTEX
 8
TUBO_1
 10
0
 20
0
 30
0
 70
128
 71
597
 72
598
 73
608
 74
607
 0
VERTEX
 8
TUBO_1
 10
0
 20
0
 30
0
 70
128
 71
598
 72
599
 73
609
 74
608
 0
VERTEX
 8
TUBO_1
 10
0
 20
0
 30
0
 70
128
 71
599
 72
600
 73
610
 74
609
 0
VERTEX
 8
TUBO_1
 10
0
 20
0
 30
0
 70
128
 71
600
 72
591
 73
601
 74
610
 0
VERTEX
 8
TUBO_1
 10
0
 20
0
 30
0
 70
128
 71
601
 72
602
 73
612
 74
611
 0
VERTEX
 8
TUBO_1
 10
0
 20
0
 30
0
 70
128
 71
602
 72
603
 73
613
 74
612
 0
VERTEX
 8
TUBO_1
 10
0
 20
0
 30
0
 70
128
 71
603
 72
604
 73
614
 74
613
 0
VERTEX
 8
TUBO_1
 10
0
 20
0
 30
0
 70
128
 71
604
 72
605
 73
615
 74
614
 0
VERTEX
 8
TUBO_1
 10
0
 20
0
 30
0
 70
128
 71
605
 72
606
 73
616
 74
615
 0
VERTEX
 8
TUBO_1
 10
0
 20
0
 30
0
 70
128
 71
606
 72
607
 73
617
 74
616
 0
VERTEX
 8
TUBO_1
 10
0
 20
0
 30
0
 70
128
 71
607
 72
608
 73
618
 74
617
 0
VERTEX
 8
TUBO_1
 10
0
 20
0
 30
0
 70
128
 71
608
 72
609
 73
619
 74
618
 0
VERTEX
 8
TUBO_1
 10
0
 20
0
 30
0
 70
128
 71
609
 72
610
 73
620
 74
619
 0
VERTEX
 8
TUBO_1
 10
0
 20
0
 30
0
 70
128
 71
610
 72
601
 73
611
 74
620
 0
VERTEX
 8
TUBO_1
 10
0
 20
0
 30
0
 70
128
 71
611
 72
612
 73
622
 74
621
 0
VERTEX
 8
TUBO_1
 10
0
 20
0
 30
0
 70
128
 71
612
 72
613
 73
623
 74
622
 0
VERTEX
 8
TUBO_1
 10
0
 20
0
 30
0
 70
128
 71
613
 72
614
 73
624
 74
623
 0
VERTEX
 8
TUBO_1
 10
0
 20
0
 30
0
 70
128
 71
614
 72
615
 73
625
 74
624
 0
VERTEX
 8
TUBO_1
 10
0
 20
0
 30
0
 70
128
 71
615
 72
616
 73
626
 74
625
 0
VERTEX
 8
TUBO_1
 10
0
 20
0
 30
0
 70
128
 71
616
 72
617
 73
627
 74
626
 0
VERTEX
 8
TUBO_1
 10
0
 20
0
 30
0
 70
128
 71
617
 72
618
 73
628
 74
627
 0
VERTEX
 8
TUBO_1
 10
0
 20
0
 30
0
 70
128
 71
618
 72
619
 73
629
 74
628
 0
VERTEX
 8
TUBO_1
 10
0
 20
0
 30
0
 70
128
 71
619
 72
620
 73
630
 74
629
 0
VERTEX
 8
TUBO_1
 10
0
 20
0
 30
0
 70
128
 71
620
 72
611
 73
621
 74
630
 0
VERTEX
 8
TUBO_1
 10
0
 20
0
 30
0
 70
128
 71
621
 72
622
 73
632
 74
631
 0
VERTEX
 8
TUBO_1
 10
0
 20
0
 30
0
 70
128
 71
622
 72
623
 73
633
 74
632
 0
VERTEX
 8
TUBO_1
 10
0
 20
0
 30
0
 70
128
 71
623
 72
624
 73
634
 74
633
 0
VERTEX
 8
TUBO_1
 10
0
 20
0
 30
0
 70
128
 71
624
 72
625
 73
635
 74
634
 0
VERTEX
 8
TUBO_1
 10
0
 20
0
 30
0
 70
128
 71
625
 72
626
 73
636
 74
635
 0
VERTEX
 8
TUBO_1
 10
0
 20
0
 30
0
 70
128
 71
626
 72
627
 73
637
 74
636
 0
VERTEX
 8
TUBO_1
 10
0
 20
0
 30
0
 70
128
 71
627
 72
628
 73
638
 74
637
 0
VERTEX
 8
TUBO_1
 10
0
 20
0
 30
0
 70
128
 71
628
 72
629
 73
639
 74
638
 0
VERTEX
 8
TUBO_1
 10
0
 20
0
 30
0
 70
128
 71
629
 72
630
 73
640
 74
639
 0
VERTEX
 8
TUBO_1
 10
0
 20
0
 30
0
 70
128
 71
630
 72
621
 73
631
 74
640
 0
VERTEX
 8
TUBO_1
 10
0
 20
0
 30
0
 70
128
 71
631
 72
632
 73
2
 74
1
 0
VERTEX
 8
TUBO_1
 10
0
 20
0
 30
0
 70
128
 71
632
 72
633
 73
3
 74
2
 0
VERTEX
 8
TUBO_1
 10
0
 20
0
 30
0
 70
128
 71
633
 72
634
 73
4
 74
3
 0
VERTEX
 8
TUBO_1
 10
0
 20
0
 30
0
 70
128
 71
634
 72
635
 73
5
 74
4
 0
VERTEX
 8
TUBO_1
 10
0
 20
0
 30
0
 70
128
 71
635
 72
636
 73
6
 74
5
 0
VERTEX
 8
TUBO_1
 10
0
 20
0
 30
0
 70
128
 71
636
 72
637
 73
7
 74
6
 0
VERTEX
 8
TUBO_1
 10
0
 20
0
 30
0
 70
128
 71
637
 72
638
 73
8
 74
7
 0
VERTEX
 8
TUBO_1
 10
0
 20
0
 30
0
 70
128
 71
638
 72
639
 73
9
 74
8
 0
VERTEX
 8
TUBO_1
 10
0
 20
0
 30
0
 70
128
 71
639
 72
640
 73
10
 74
9
 0
VERTEX
 8
TUBO_1
 10
0
 20
0
 30
0
 70
128
 71
640
 72
631
 73
1
 74
10
 0
SEQEND
 0
POLYLINE
 8
TUBO
 66
1
 10
0.0
 20
0.0
 30
0.0
 70
64
 71
640
 72
640
 0
VERTEX
 8
TUBO
 10
15.5185
 20
7.1501
 30
0.0025
 70
192
 0
VERTEX
 8
TUBO
 10
15.7185
 20
7.1501
 30
0.0025
 70
192
 0
VERTEX
 8
TUBO
 10
15.7185
 20
7.1501
 30
0.0025
 70
192
 0
VERTEX
 8
TUBO
 10
15.7185
 20
7.1501
 30
0.0025
 70
192
 0
VERTEX
 8
TUBO
 10
15.7185
 20
7.1501
 30
0.0025
 70
192
 0
VERTEX
 8
TUBO
 10
15.7185
 20
7.1501
 30
0.0025
 70
192
 0
VERTEX
 8
TUBO
 10
15.5185
 20
7.1501
 30
0.0025
 70
192
 0
VERTEX
 8
TUBO
 10
15.5185
 20
7.1501
 30
0.0025
 70
192
 0
VERTEX
 8
TUBO
 10
15.5185
 20
7.1501
 30
0.0025
 70
192
 0
VERTEX
 8
TUBO
 10
15.5185
 20
7.1501
 30
0.0025
 70
192
 0
VERTEX
 8
TUBO
 10
15.4761
 20
8.0127
 30
0.0025
 70
192
 0
VERTEX
 8
TUBO
 10
15.6751
 20
8.0323
 30
0.0025
 70
192
 0
VERTEX
 8
TUBO
 10
15.6751
 20
8.0323
 30
0.0025
 70
192
 0
VERTEX
 8
TUBO
 10
15.6751
 20
8.0323
 30
0.0025
 70
192
 0
VERTEX
 8
TUBO
 10
15.6751
 20
8.0323
 30
0.0025
 70
192
 0
VERTEX
 8
TUBO
 10
15.6751
 20
8.0323
 30
0.0025
 70
192
 0
VERTEX
 8
TUBO
 10
15.4761
 20
8.0127
 30
0.0025
 70
192
 0
VERTEX
 8
TUBO
 10
15.4761
 20
8.0127
 30
0.0025
 70
192
 0
VERTEX
 8
TUBO
 10
15.4761
 20
8.0127
 30
0.0025
 70
192
 0
VERTEX
 8
TUBO
 10
15.4761
 20
8.0127
 30
0.0025
 70
192
 0
VERTEX
 8
TUBO
 10
15.3494
 20
8.8669
 30
0.0025
 70
192
 0
VERTEX
 8
TUBO
 10
15.5455
 20
8.9059
 30
0.0025
 70
192
 0
VERTEX
 8
TUBO
 10
15.5455
 20
8.9059
 30
0.0025
 70
192
 0
VERTEX
 8
TUBO
 10
15.5455
 20
8.9059
 30
0.0025
 70
192
 0
VERTEX
 8
TUBO
 10
15.5455
 20
8.9059
 30
0.0025
 70
192
 0
VERTEX
 8
TUBO
 10
15.5455
 20
8.9059
 30
0.0025
 70
192
 0
VERTEX
 8
TUBO
 10
15.3494
 20
8.8669
 30
0.0025
 70
192
 0
VERTEX
 8
TUBO
 10
15.3494
 20
8.8669
 30
0.0025
 70
192
 0
VERTEX
 8
TUBO
 10
15.3494
 20
8.8669
 30
0.0025
 70
192
 0
VERTEX
 8
TUBO
 10
15.3494
 20
8.8669
 30
0.0025
 70
192
 0
VERTEX
 8
TUBO
 10
15.1395
 20
9.7046
 30
0.0025
 70
192
 0
VERTEX
 8
TUBO
 10
15.3309
 20
9.7627
 30
0.0025
 70
192
 0
VERTEX
 8
TUBO
 10
15.3309
 20
9.7627
 30
0.0025
 70
192
 0
VERTEX
 8
TUBO
 10
15.3309
 20
9.7627
 30
0.0025
 70
192
 0
VERTEX
 8
TUBO
 10
15.3309
 20
9.7627
 30
0.0025
 70
192
 0
VERTEX
 8
TUBO
 10
15.3309
 20
9.7627
 30
0.0025
 70
192
 0
VERTEX
 8
TUBO
 10
15.1395
 20
9.7046
 30
0.0025
 70
192
 0
VERTEX
 8
TUBO
 10
15.1395
 20
9.7046
 30
0.0025
 70
192
 0
VERTEX
 8
TUBO
 10
15.1395
 20
9.7046
 30
0.0025
 70
192
 0
VERTEX
 8
TUBO
 10
15.1395
 20
9.7046
 30
0.0025
 70
192
 0
VERTEX
 8
TUBO
 10
14.8486
 20
10.5177
 30
0.0025
 70
192
 0
VERTEX
 8
TUBO
 10
15.0334
 20
10.5943
 30
0.0025
 70
192
 0
VERTEX
 8
TUBO
 10
15.0334
 20
10.5943
 30
0.0025
 70
192
 0
VERTEX
 8
TUBO
 10
15.0334
 20
10.5943
 30
0.0025
 70
192
 0
VERTEX
 8
TUBO
 10
15.0334
 20
10.5943
 30
0.0025
 70
192
 0
VERTEX
 8
TUBO
 10
15.0334
 20
10.5943
 30
0.0025
 70
192
 0
VERTEX
 8
TUBO
 10
14.8486
 20
10.5177
 30
0.0025
 70
192
 0
VERTEX
 8
TUBO
 10
14.8486
 20
10.5177
 30
0.0025
 70
192
 0
VERTEX
 8
TUBO
 10
14.8486
 20
10.5177
 30
0.0025
 70
192
 0
VERTEX
 8
TUBO
 10
14.8486
 20
10.5177
 30
0.0025
 70
192
 0
VERTEX
 8
TUBO
 10
14.4794
 20
11.2984
 30
0.0025
 70
192
 0
VERTEX
 8
TUBO
 10
14.6557
 20
11.3927
 30
0.0025
 70
192
 0
VERTEX
 8
TUBO
 10
14.6557
 20
11.3927
 30
0.0025
 70
192
 0
VERTEX
 8
TUBO
 10
14.6557
 20
11.3927
 30
0.0025
 70
192
 0
VERTEX
 8
TUBO
 10
14.6557
 20
11.3927
 30
0.0025
 70
192
 0
VERTEX
 8
TUBO
 10
14.6557
 20
11.3927
 30
0.0025
 70
192
 0
VERTEX
 8
TUBO
 10
14.4794
 20
11.2984
 30
0.0025
 70
192
 0
VERTEX
 8
TUBO
 10
14.4794
 20
11.2984
 30
0.0025
 70
192
 0
VERTEX
 8
TUBO
 10
14.4794
 20
11.2984
 30
0.0025
 70
192
 0
VERTEX
 8
TUBO
 10
14.4794
 20
11.2984
 30
0.0025
 70
192
 0
VERTEX
 8
TUBO
 10
14.0354
 20
12.0391
 30
0.0025
 70
192
 0
VERTEX
 8
TUBO
 10
14.2017
 20
12.1502
 30
0.0025
 70
192
 0
VERTEX
 8
TUBO
 10
14.2017
 20
12.1502
 30
0.0025
 70
192
 0
VERTEX
 8
TUBO
 10
14.2017
 20
12.1502
 30
0.0025
 70
192
 0
VERTEX
 8
TUBO
 10
14.2017
 20
12.1502
 30
0.0025
 70
192
 0
VERTEX
 8
TUBO
 10
14.2017
 20
12.1502
 30
0.0025
 70
192
 0
VERTEX
 8
TUBO
 10
14.0354
 20
12.0391
 30
0.0025
 70
192
 0
VERTEX
 8
TUBO
 10
14.0354
 20
12.0391
 30
0.0025
 70
192
 0
VERTEX
 8
TUBO
 10
14.0354
 20
12.0391
 30
0.0025
 70
192
 0
VERTEX
 8
TUBO
 10
14.0354
 20
12.0391
 30
0.0025
 70
192
 0
VERTEX
 8
TUBO
 10
13.5209
 20
12.7328
 30
0.0025
 70
192
 0
VERTEX
 8
TUBO
 10
13.6755
 20
12.8597
 30
0.0025
 70
192
 0
VERTEX
 8
TUBO
 10
13.6755
 20
12.8597
 30
0.0025
 70
192
 0
VERTEX
 8
TUBO
 10
13.6755
 20
12.8597
 30
0.0025
 70
192
 0
VERTEX
 8
TUBO
 10
13.6755
 20
12.8597
 30
0.0025
 70
192
 0
VERTEX
 8
TUBO
 10
13.6755
 20
12.8597
 30
0.0025
 70
192
 0
VERTEX
 8
TUBO
 10
13.5209
 20
12.7328
 30
0.0025
 70
192
 0
VERTEX
 8
TUBO
 10
13.5209
 20
12.7328
 30
0.0025
 70
192
 0
VERTEX
 8
TUBO
 10
13.5209
 20
12.7328
 30
0.0025
 70
192
 0
VERTEX
 8
TUBO
 10
13.5209
 20
12.7328
 30
0.0025
 70
192
 0
VERTEX
 8
TUBO
 10
12.941
 20
13.3727
 30
0.0025
 70
192
 0
VERTEX
 8
TUBO
 10
13.0824
 20
13.5141
 30
0.0025
 70
192
 0
VERTEX
 8
TUBO
 10
13.0824
 20
13.5141
 30
0.0025
 70
192
 0
VERTEX
 8
TUBO
 10
13.0824
 20
13.5141
 30
0.0025
 70
192
 0
VERTEX
 8
TUBO
 10
13.0824
 20
13.5141
 30
0.0025
 70
192
 0
VERTEX
 8
TUBO
 10
13.0824
 20
13.5141
 30
0.0025
 70
192
 0
VERTEX
 8
TUBO
 10
12.941
 20
13.3727
 30
0.0025
 70
192
 0
VERTEX
 8
TUBO
 10
12.941
 20
13.3727
 30
0.0025
 70
192
 0
VERTEX
 8
TUBO
 10
12.941
 20
13.3727
 30
0.0025
 70
192
 0
VERTEX
 8
TUBO
 10
12.941
 20
13.3727
 30
0.0025
 70
192
 0
VERTEX
 8
TUBO
 10
12.3011
 20
13.9526
 30
0.0025
 70
192
 0
VERTEX
 8
TUBO
 10
12.428
 20
14.1072
 30
0.0025
 70
192
 0
VERTEX
 8
TUBO
 10
12.428
 20
14.1072
 30
0.0025
 70
192
 0
VERTEX
 8
TUBO
 10
12.428
 20
14.1072
 30
0.0025
 70
192
 0
VERTEX
 8
TUBO
 10
12.428
 20
14.1072
 30
0.0025
 70
192
 0
VERTEX
 8
TUBO
 10
12.428
 20
14.1072
 30
0.0025
 70
192
 0
VERTEX
 8
TUBO
 10
12.3011
 20
13.9526
 30
0.0025
 70
192
 0
VERTEX
 8
TUBO
 10
12.3011
 20
13.9526
 30
0.0025
 70
192
 0
VERTEX
 8
TUBO
 10
12.3011
 20
13.9526
 30
0.0025
 70
192
 0
VERTEX
 8
TUBO
 10
12.3011
 20
13.9526
 30
0.0025
 70
192
 0
VERTEX
 8
TUBO
 10
11.6075
 20
14.467
 30
0.0025
 70
192
 0
VERTEX
 8
TUBO
 10
11.7186
 20
14.6333
 30
0.0025
 70
192
 0
VERTEX
 8
TUBO
 10
11.7186
 20
14.6333
 30
0.0025
 70
192
 0
VERTEX
 8
TUBO
 10
11.7186
 20
14.6333
 30
0.0025
 70
192
 0
VERTEX
 8
TUBO
 10
11.7186
 20
14.6333
 30
0.0025
 70
192
 0
VERTEX
 8
TUBO
 10
11.7186
 20
14.6333
 30
0.0025
 70
192
 0
VERTEX
 8
TUBO
 10
11.6075
 20
14.467
 30
0.0025
 70
192
 0
VERTEX
 8
TUBO
 10
11.6075
 20
14.467
 30
0.0025
 70
192
 0
VERTEX
 8
TUBO
 10
11.6075
 20
14.467
 30
0.0025
 70
192
 0
VERTEX
 8
TUBO
 10
11.6075
 20
14.467
 30
0.0025
 70
192
 0
VERTEX
 8
TUBO
 10
10.8667
 20
14.911
 30
0.0025
 70
192
 0
VERTEX
 8
TUBO
 10
10.961
 20
15.0874
 30
0.0025
 70
192
 0
VERTEX
 8
TUBO
 10
10.961
 20
15.0874
 30
0.0025
 70
192
 0
VERTEX
 8
TUBO
 10
10.961
 20
15.0874
 30
0.0025
 70
192
 0
VERTEX
 8
TUBO
 10
10.961
 20
15.0874
 30
0.0025
 70
192
 0
VERTEX
 8
TUBO
 10
10.961
 20
15.0874
 30
0.0025
 70
192
 0
VERTEX
 8
TUBO
 10
10.8667
 20
14.911
 30
0.0025
 70
192
 0
VERTEX
 8
TUBO
 10
10.8667
 20
14.911
 30
0.0025
 70
192
 0
VERTEX
 8
TUBO
 10
10.8667
 20
14.911
 30
0.0025
 70
192
 0
VERTEX
 8
TUBO
 10
10.8667
 20
14.911
 30
0.0025
 70
192
 0
VERTEX
 8
TUBO
 10
10.0861
 20
15.2803
 30
0.0025
 70
192
 0
VERTEX
 8
TUBO
 10
10.1626
 20
15.465
 30
0.0025
 70
192
 0
VERTEX
 8
TUBO
 10
10.1626
 20
15.465
 30
0.0025
 70
192
 0
VERTEX
 8
TUBO
 10
10.1626
 20
15.465
 30
0.0025
 70
192
 0
VERTEX
 8
TUBO
 10
10.1626
 20
15.465
 30
0.0025
 70
192
 0
VERTEX
 8
TUBO
 10
10.1626
 20
15.465
 30
0.0025
 70
192
 0
VERTEX
 8
TUBO
 10
10.0861
 20
15.2803
 30
0.0025
 70
192
 0
VERTEX
 8
TUBO
 10
10.0861
 20
15.2803
 30
0.0025
 70
192
 0
VERTEX
 8
TUBO
 10
10.0861
 20
15.2803
 30
0.0025
 70
192
 0
VERTEX
 8
TUBO
 10
10.0861
 20
15.2803
 30
0.0025
 70
192
 0
VERTEX
 8
TUBO
 10
9.273
 20
15.5712
 30
0.0025
 70
192
 0
VERTEX
 8
TUBO
 10
9.331
 20
15.7626
 30
0.0025
 70
192
 0
VERTEX
 8
TUBO
 10
9.331
 20
15.7626
 30
0.0025
 70
192
 0
VERTEX
 8
TUBO
 10
9.331
 20
15.7626
 30
0.0025
 70
192
 0
VERTEX
 8
TUBO
 10
9.331
 20
15.7626
 30
0.0025
 70
192
 0
VERTEX
 8
TUBO
 10
9.331
 20
15.7626
 30
0.0025
 70
192
 0
VERTEX
 8
TUBO
 10
9.273
 20
15.5712
 30
0.0025
 70
192
 0
VERTEX
 8
TUBO
 10
9.273
 20
15.5712
 30
0.0025
 70
192
 0
VERTEX
 8
TUBO
 10
9.273
 20
15.5712
 30
0.0025
 70
192
 0
VERTEX
 8
TUBO
 10
9.273
 20
15.5712
 30
0.0025
 70
192
 0
VERTEX
 8
TUBO
 10
8.4352
 20
15.781
 30
0.0025
 70
192
 0
VERTEX
 8
TUBO
 10
8.4743
 20
15.9772
 30
0.0025
 70
192
 0
VERTEX
 8
TUBO
 10
8.4743
 20
15.9772
 30
0.0025
 70
192
 0
VERTEX
 8
TUBO
 10
8.4743
 20
15.9772
 30
0.0025
 70
192
 0
VERTEX
 8
TUBO
 10
8.4743
 20
15.9772
 30
0.0025
 70
192
 0
VERTEX
 8
TUBO
 10
8.4743
 20
15.9772
 30
0.0025
 70
192
 0
VERTEX
 8
TUBO
 10
8.4352
 20
15.781
 30
0.0025
 70
192
 0
VERTEX
 8
TUBO
 10
8.4352
 20
15.781
 30
0.0025
 70
192
 0
VERTEX
 8
TUBO
 10
8.4352
 20
15.781
 30
0.0025
 70
192
 0
VERTEX
 8
TUBO
 10
8.4352
 20
15.781
 30
0.0025
 70
192
 0
VERTEX
 8
TUBO
 10
7.581
 20
15.9077
 30
0.0025
 70
192
 0
VERTEX
 8
TUBO
 10
7.6006
 20
16.1068
 30
0.0025
 70
192
 0
VERTEX
 8
TUBO
 10
7.6006
 20
16.1068
 30
0.0025
 70
192
 0
VERTEX
 8
TUBO
 10
7.6006
 20
16.1068
 30
0.0025
 70
192
 0
VERTEX
 8
TUBO
 10
7.6006
 20
16.1068
 30
0.0025
 70
192
 0
VERTEX
 8
TUBO
 10
7.6006
 20
16.1068
 30
0.0025
 70
192
 0
VERTEX
 8
TUBO
 10
7.581
 20
15.9077
 30
0.0025
 70
192
 0
VERTEX
 8
TUBO
 10
7.581
 20
15.9077
 30
0.0025
 70
192
 0
VERTEX
 8
TUBO
 10
7.581
 20
15.9077
 30
0.0025
 70
192
 0
VERTEX
 8
TUBO
 10
7.581
 20
15.9077
 30
0.0025
 70
192
 0
VERTEX
 8
TUBO
 10
6.7185
 20
15.9501
 30
0.0025
 70
192
 0
VERTEX
 8
TUBO
 10
6.7185
 20
16.1501
 30
0.0025
 70
192
 0
VERTEX
 8
TUBO
 10
6.7185
 20
16.1501
 30
0.0025
 70
192
 0
VERTEX
 8
TUBO
 10
6.7185
 20
16.1501
 30
0.0025
 70
192
 0
VERTEX
 8
TUBO
 10
6.7185
 20
16.1501
 30
0.0025
 70
192
 0
VERTEX
 8
TUBO
 10
6.7185
 20
16.1501
 30
0.0025
 70
192
 0
VERTEX
 8
TUBO
 10
6.7185
 20
15.9501
 30
0.0025
 70
192
 0
VERTEX
 8
TUBO
 10
6.7185
 20
15.9501
 30
0.0025
 70
192
 0
VERTEX
 8
TUBO
 10
6.7185
 20
15.9501
 30
0.0025
 70
192
 0
VERTEX
 8
TUBO
 10
6.7185
 20
15.9501
 30
0.0025
 70
192
 0
VERTEX
 8
TUBO
 10
5.8559
 20
15.9077
 30
0.0025
 70
192
 0
VERTEX
 8
TUBO
 10
5.8363
 20
16.1068
 30
0.0025
 70
192
 0
VERTEX
 8
TUBO
 10
5.8363
 20
16.1068
 30
0.0025
 70
192
 0
VERTEX
 8
TUBO
 10
5.8363
 20
16.1068
 30
0.0025
 70
192
 0
VERTEX
 8
TUBO
 10
5.8363
 20
16.1068
 30
0.0025
 70
192
 0
VERTEX
 8
TUBO
 10
5.8363
 20
16.1068
 30
0.0025
 70
192
 0
VERTEX
 8
TUBO
 10
5.8559
 20
15.9077
 30
0.0025
 70
192
 0
VERTEX
 8
TUBO
 10
5.8559
 20
15.9077
 30
0.0025
 70
192
 0
VERTEX
 8
TUBO
 10
5.8559
 20
15.9077
 30
0.0025
 70
192
 0
VERTEX
 8
TUBO
 10
5.8559
 20
15.9077
 30
0.0025
 70
192
 0
VERTEX
 8
TUBO
 10
5.0017
 20
15.781
 30
0.0025
 70
192
 0
VERTEX
 8
TUBO
 10
4.9626
 20
15.9772
 30
0.0025
 70
192
 0
VERTEX
 8
TUBO
 10
4.9626
 20
15.9772
 30
0.0025
 70
192
 0
VERTEX
 8
TUBO
 10
4.9626
 20
15.9772
 30
0.0025
 70
192
 0
VERTEX
 8
TUBO
 10
4.9626
 20
15.9772
 30
0.0025
 70
192
 0
VERTEX
 8
TUBO
 10
4.9626
 20
15.9772
 30
0.0025
 70
192
 0
VERTEX
 8
TUBO
 10
5.0017
 20
15.781
 30
0.0025
 70
192
 0
VERTEX
 8
TUBO
 10
5.0017
 20
15.781
 30
0.0025
 70
192
 0
VERTEX
 8
TUBO
 10
5.0017
 20
15.781
 30
0.0025
 70
192
 0
VERTEX
 8
TUBO
 10
5.0017
 20
15.781
 30
0.0025
 70
192
 0
VERTEX
 8
TUBO
 10
4.1639
 20
15.5712
 30
0.0025
 70
192
 0
VERTEX
 8
TUBO
 10
4.1059
 20
15.7626
 30
0.0025
 70
192
 0
VERTEX
 8
TUBO
 10
4.1059
 20
15.7626
 30
0.0025
 70
192
 0
VERTEX
 8
TUBO
 10
4.1059
 20
15.7626
 30
0.0025
 70
192
 0
VERTEX
 8
TUBO
 10
4.1059
 20
15.7626
 30
0.0025
 70
192
 0
VERTEX
 8
TUBO
 10
4.1059
 20
15.7626
 30
0.0025
 70
192
 0
VERTEX
 8
TUBO
 10
4.1639
 20
15.5712
 30
0.0025
 70
192
 0
VERTEX
 8
TUBO
 10
4.1639
 20
15.5712
 30
0.0025
 70
192
 0
VERTEX
 8
TUBO
 10
4.1639
 20
15.5712
 30
0.0025
 70
192
 0
VERTEX
 8
TUBO
 10
4.1639
 20
15.5712
 30
0.0025
 70
192
 0
VERTEX
 8
TUBO
 10
3.3508
 20
15.2803
 30
0.0025
 70
192
 0
VERTEX
 8
TUBO
 10
3.2743
 20
15.465
 30
0.0025
 70
192
 0
VERTEX
 8
TUBO
 10
3.2743
 20
15.465
 30
0.0025
 70
192
 0
VERTEX
 8
TUBO
 10
3.2743
 20
15.465
 30
0.0025
 70
192
 0
VERTEX
 8
TUBO
 10
3.2743
 20
15.465
 30
0.0025
 70
192
 0
VERTEX
 8
TUBO
 10
3.2743
 20
15.465
 30
0.0025
 70
192
 0
VERTEX
 8
TUBO
 10
3.3508
 20
15.2803
 30
0.0025
 70
192
 0
VERTEX
 8
TUBO
 10
3.3508
 20
15.2803
 30
0.0025
 70
192
 0
VERTEX
 8
TUBO
 10
3.3508
 20
15.2803
 30
0.0025
 70
192
 0
VERTEX
 8
TUBO
 10
3.3508
 20
15.2803
 30
0.0025
 70
192
 0
VERTEX
 8
TUBO
 10
2.5702
 20
14.911
 30
0.0025
 70
192
 0
VERTEX
 8
TUBO
 10
2.4759
 20
15.0874
 30
0.0025
 70
192
 0
VERTEX
 8
TUBO
 10
2.4759
 20
15.0874
 30
0.0025
 70
192
 0
VERTEX
 8
TUBO
 10
2.4759
 20
15.0874
 30
0.0025
 70
192
 0
VERTEX
 8
TUBO
 10
2.4759
 20
15.0874
 30
0.0025
 70
192
 0
VERTEX
 8
TUBO
 10
2.4759
 20
15.0874
 30
0.0025
 70
192
 0
VERTEX
 8
TUBO
 10
2.5702
 20
14.911
 30
0.0025
 70
192
 0
VERTEX
 8
TUBO
 10
2.5702
 20
14.911
 30
0.0025
 70
192
 0
VERTEX
 8
TUBO
 10
2.5702
 20
14.911
 30
0.0025
 70
192
 0
VERTEX
 8
TUBO
 10
2.5702
 20
14.911
 30
0.0025
 70
192
 0
VERTEX
 8
TUBO
 10
1.8294
 20
14.467
 30
0.0025
 70
192
 0
VERTEX
 8
TUBO
 10
1.7183
 20
14.6333
 30
0.0025
 70
192
 0
VERTEX
 8
TUBO
 10
1.7183
 20
14.6333
 30
0.0025
 70
192
 0
VERTEX
 8
TUBO
 10
1.7183
 20
14.6333
 30
0.0025
 70
192
 0
VERTEX
 8
TUBO
 10
1.7183
 20
14.6333
 30
0.0025
 70
192
 0
VERTEX
 8
TUBO
 10
1.7183
 20
14.6333
 30
0.0025
 70
192
 0
VERTEX
 8
TUBO
 10
1.8294
 20
14.467
 30
0.0025
 70
192
 0
VERTEX
 8
TUBO
 10
1.8294
 20
14.467
 30
0.0025
 70
192
 0
VERTEX
 8
TUBO
 10
1.8294
 20
14.467
 30
0.0025
 70
192
 0
VERTEX
 8
TUBO
 10
1.8294
 20
14.467
 30
0.0025
 70
192
 0
VERTEX
 8
TUBO
 10
1.1358
 20
13.9526
 30
0.0025
 70
192
 0
VERTEX
 8
TUBO
 10
1.0089
 20
14.1072
 30
0.0025
 70
192
 0
VERTEX
 8
TUBO
 10
1.0089
 20
14.1072
 30
0.0025
 70
192
 0
VERTEX
 8
TUBO
 10
1.0089
 20
14.1072
 30
0.0025
 70
192
 0
VERTEX
 8
TUBO
 10
1.0089
 20
14.1072
 30
0.0025
 70
192
 0
VERTEX
 8
TUBO
 10
1.0089
 20
14.1072
 30
0.0025
 70
192
 0
VERTEX
 8
TUBO
 10
1.1358
 20
13.9526
 30
0.0025
 70
192
 0
VERTEX
 8
TUBO
 10
1.1358
 20
13.9526
 30
0.0025
 70
192
 0
VERTEX
 8
TUBO
 10
1.1358
 20
13.9526
 30
0.0025
 70
192
 0
VERTEX
 8
TUBO
 10
1.1358
 20
13.9526
 30
0.0025
 70
192
 0
VERTEX
 8
TUBO
 10
0.4959
 20
13.3727
 30
0.0025
 70
192
 0
VERTEX
 8
TUBO
 10
0.3545
 20
13.5141
 30
0.0025
 70
192
 0
VERTEX
 8
TUBO
 10
0.3545
 20
13.5141
 30
0.0025
 70
192
 0
VERTEX
 8
TUBO
 10
0.3545
 20
13.5141
 30
0.0025
 70
192
 0
VERTEX
 8
TUBO
 10
0.3545
 20
13.5141
 30
0.0025
 70
192
 0
VERTEX
 8
TUBO
 10
0.3545
 20
13.5141
 30
0.0025
 70
192
 0
VERTEX
 8
TUBO
 10
0.4959
 20
13.3727
 30
0.0025
 70
192
 0
VERTEX
 8
TUBO
 10
0.4959
 20
13.3727
 30
0.0025
 70
192
 0
VERTEX
 8
TUBO
 10
0.4959
 20
13.3727
 30
0.0025
 70
192
 0
VERTEX
 8
TUBO
 10
0.4959
 20
13.3727
 30
0.0025
 70
192
 0
VERTEX
 8
TUBO
 10
-0.084
 20
12.7328
 30
0.0025
 70
192
 0
VERTEX
 8
TUBO
 10
-0.2386
 20
12.8597
 30
0.0025
 70
192
 0
VERTEX
 8
TUBO
 10
-0.2386
 20
12.8597
 30
0.0025
 70
192
 0
VERTEX
 8
TUBO
 10
-0.2386
 20
12.8597
 30
0.0025
 70
192
 0
VERTEX
 8
TUBO
 10
-0.2386
 20
12.8597
 30
0.0025
 70
192
 0
VERTEX
 8
TUBO
 10
-0.2386
 20
12.8597
 30
0.0025
 70
192
 0
VERTEX
 8
TUBO
 10
-0.084
 20
12.7328
 30
0.0025
 70
192
 0
VERTEX
 8
TUBO
 10
-0.084
 20
12.7328
 30
0.0025
 70
192
 0
VERTEX
 8
TUBO
 10
-0.084
 20
12.7328
 30
0.0025
 70
192
 0
VERTEX
 8
TUBO
 10
-0.084
 20
12.7328
 30
0.0025
 70
192
 0
VERTEX
 8
TUBO
 10
-0.5985
 20
12.0391
 30
0.0025
 70
192
 0
VERTEX
 8
TUBO
 10
-0.7648
 20
12.1502
 30
0.0025
 70
192
 0
VERTEX
 8
TUBO
 10
-0.7648
 20
12.1502
 30
0.0025
 70
192
 0
VERTEX
 8
TUBO
 10
-0.7648
 20
12.1502
 30
0.0025
 70
192
 0
VERTEX
 8
TUBO
 10
-0.7648
 20
12.1502
 30
0.0025
 70
192
 0
VERTEX
 8
TUBO
 10
-0.7648
 20
12.1502
 30
0.0025
 70
192
 0
VERTEX
 8
TUBO
 10
-0.5985
 20
12.0391
 30
0.0025
 70
192
 0
VERTEX
 8
TUBO
 10
-0.5985
 20
12.0391
 30
0.0025
 70
192
 0
VERTEX
 8
TUBO
 10
-0.5985
 20
12.0391
 30
0.0025
 70
192
 0
VERTEX
 8
TUBO
 10
-0.5985
 20
12.0391
 30
0.0025
 70
192
 0
VERTEX
 8
TUBO
 10
-1.0425
 20
11.2984
 30
0.0025
 70
192
 0
VERTEX
 8
TUBO
 10
-1.2188
 20
11.3927
 30
0.0025
 70
192
 0
VERTEX
 8
TUBO
 10
-1.2188
 20
11.3927
 30
0.0025
 70
192
 0
VERTEX
 8
TUBO
 10
-1.2188
 20
11.3927
 30
0.0025
 70
192
 0
VERTEX
 8
TUBO
 10
-1.2188
 20
11.3927
 30
0.0025
 70
192
 0
VERTEX
 8
TUBO
 10
-1.2188
 20
11.3927
 30
0.0025
 70
192
 0
VERTEX
 8
TUBO
 10
-1.0425
 20
11.2984
 30
0.0025
 70
192
 0
VERTEX
 8
TUBO
 10
-1.0425
 20
11.2984
 30
0.0025
 70
192
 0
VERTEX
 8
TUBO
 10
-1.0425
 20
11.2984
 30
0.0025
 70
192
 0
VERTEX
 8
TUBO
 10
-1.0425
 20
11.2984
 30
0.0025
 70
192
 0
VERTEX
 8
TUBO
 10
-1.4117
 20
10.5177
 30
0.0025
 70
192
 0
VERTEX
 8
TUBO
 10
-1.5965
 20
10.5943
 30
0.0025
 70
192
 0
VERTEX
 8
TUBO
 10
-1.5965
 20
10.5943
 30
0.0025
 70
192
 0
VERTEX
 8
TUBO
 10
-1.5965
 20
10.5943
 30
0.0025
 70
192
 0
VERTEX
 8
TUBO
 10
-1.5965
 20
10.5943
 30
0.0025
 70
192
 0
VERTEX
 8
TUBO
 10
-1.5965
 20
10.5943
 30
0.0025
 70
192
 0
VERTEX
 8
TUBO
 10
-1.4117
 20
10.5177
 30
0.0025
 70
192
 0
VERTEX
 8
TUBO
 10
-1.4117
 20
10.5177
 30
0.0025
 70
192
 0
VERTEX
 8
TUBO
 10
-1.4117
 20
10.5177
 30
0.0025
 70
192
 0
VERTEX
 8
TUBO
 10
-1.4117
 20
10.5177
 30
0.0025
 70
192
 0
VERTEX
 8
TUBO
 10
-1.7026
 20
9.7046
 30
0.0025
 70
192
 0
VERTEX
 8
TUBO
 10
-1.894
 20
9.7627
 30
0.0025
 70
192
 0
VERTEX
 8
TUBO
 10
-1.894
 20
9.7627
 30
0.0025
 70
192
 0
VERTEX
 8
TUBO
 10
-1.894
 20
9.7627
 30
0.0025
 70
192
 0
VERTEX
 8
TUBO
 10
-1.894
 20
9.7627
 30
0.0025
 70
192
 0
VERTEX
 8
TUBO
 10
-1.894
 20
9.7627
 30
0.0025
 70
192
 0
VERTEX
 8
TUBO
 10
-1.7026
 20
9.7046
 30
0.0025
 70
192
 0
VERTEX
 8
TUBO
 10
-1.7026
 20
9.7046
 30
0.0025
 70
192
 0
VERTEX
 8
TUBO
 10
-1.7026
 20
9.7046
 30
0.0025
 70
192
 0
VERTEX
 8
TUBO
 10
-1.7026
 20
9.7046
 30
0.0025
 70
192
 0
VERTEX
 8
TUBO
 10
-1.9125
 20
8.8669
 30
0.0025
 70
192
 0
VERTEX
 8
TUBO
 10
-2.1086
 20
8.9059
 30
0.0025
 70
192
 0
VERTEX
 8
TUBO
 10
-2.1086
 20
8.9059
 30
0.0025
 70
192
 0
VERTEX
 8
TUBO
 10
-2.1086
 20
8.9059
 30
0.0025
 70
192
 0
VERTEX
 8
TUBO
 10
-2.1086
 20
8.9059
 30
0.0025
 70
192
 0
VERTEX
 8
TUBO
 10
-2.1086
 20
8.9059
 30
0.0025
 70
192
 0
VERTEX
 8
TUBO
 10
-1.9125
 20
8.8669
 30
0.0025
 70
192
 0
VERTEX
 8
TUBO
 10
-1.9125
 20
8.8669
 30
0.0025
 70
192
 0
VERTEX
 8
TUBO
 10
-1.9125
 20
8.8669
 30
0.0025
 70
192
 0
VERTEX
 8
TUBO
 10
-1.9125
 20
8.8669
 30
0.0025
 70
192
 0
VERTEX
 8
TUBO
 10
-2.0392
 20
8.0127
 30
0.0025
 70
192
 0
VERTEX
 8
TUBO
 10
-2.2382
 20
8.0323
 30
0.0025
 70
192
 0
VERTEX
 8
TUBO
 10
-2.2382
 20
8.0323
 30
0.0025
 70
192
 0
VERTEX
 8
TUBO
 10
-2.2382
 20
8.0323
 30
0.0025
 70
192
 0
VERTEX
 8
TUBO
 10
-2.2382
 20
8.0323
 30
0.0025
 70
192
 0
VERTEX
 8
TUBO
 10
-2.2382
 20
8.0323
 30
0.0025
 70
192
 0
VERTEX
 8
TUBO
 10
-2.0392
 20
8.0127
 30
0.0025
 70
192
 0
VERTEX
 8
TUBO
 10
-2.0392
 20
8.0127
 30
0.0025
 70
192
 0
VERTEX
 8
TUBO
 10
-2.0392
 20
8.0127
 30
0.0025
 70
192
 0
VERTEX
 8
TUBO
 10
-2.0392
 20
8.0127
 30
0.0025
 70
192
 0
VERTEX
 8
TUBO
 10
-2.0815
 20
7.1501
 30
0.0025
 70
192
 0
VERTEX
 8
TUBO
 10
-2.2815
 20
7.1501
 30
0.0025
 70
192
 0
VERTEX
 8
TUBO
 10
-2.2815
 20
7.1501
 30
0.0025
 70
192
 0
VERTEX
 8
TUBO
 10
-2.2815
 20
7.1501
 30
0.0025
 70
192
 0
VERTEX
 8
TUBO
 10
-2.2815
 20
7.1501
 30
0.0025
 70
192
 0
VERTEX
 8
TUBO
 10
-2.2815
 20
7.1501
 30
0.0025
 70
192
 0
VERTEX
 8
TUBO
 10
-2.0815
 20
7.1501
 30
0.0025
 70
192
 0
VERTEX
 8
TUBO
 10
-2.0815
 20
7.1501
 30
0.0025
 70
192
 0
VERTEX
 8
TUBO
 10
-2.0815
 20
7.1501
 30
0.0025
 70
192
 0
VERTEX
 8
TUBO
 10
-2.0815
 20
7.1501
 30
0.0025
 70
192
 0
VERTEX
 8
TUBO
 10
-2.0392
 20
6.2876
 30
0.0025
 70
192
 0
VERTEX
 8
TUBO
 10
-2.2382
 20
6.268
 30
0.0025
 70
192
 0
VERTEX
 8
TUBO
 10
-2.2382
 20
6.268
 30
0.0025
 70
192
 0
VERTEX
 8
TUBO
 10
-2.2382
 20
6.268
 30
0.0025
 70
192
 0
VERTEX
 8
TUBO
 10
-2.2382
 20
6.268
 30
0.0025
 70
192
 0
VERTEX
 8
TUBO
 10
-2.2382
 20
6.268
 30
0.0025
 70
192
 0
VERTEX
 8
TUBO
 10
-2.0392
 20
6.2876
 30
0.0025
 70
192
 0
VERTEX
 8
TUBO
 10
-2.0392
 20
6.2876
 30
0.0025
 70
192
 0
VERTEX
 8
TUBO
 10
-2.0392
 20
6.2876
 30
0.0025
 70
192
 0
VERTEX
 8
TUBO
 10
-2.0392
 20
6.2876
 30
0.0025
 70
192
 0
VERTEX
 8
TUBO
 10
-1.9125
 20
5.4333
 30
0.0025
 70
192
 0
VERTEX
 8
TUBO
 10
-2.1086
 20
5.3943
 30
0.0025
 70
192
 0
VERTEX
 8
TUBO
 10
-2.1086
 20
5.3943
 30
0.0025
 70
192
 0
VERTEX
 8
TUBO
 10
-2.1086
 20
5.3943
 30
0.0025
 70
192
 0
VERTEX
 8
TUBO
 10
-2.1086
 20
5.3943
 30
0.0025
 70
192
 0
VERTEX
 8
TUBO
 10
-2.1086
 20
5.3943
 30
0.0025
 70
192
 0
VERTEX
 8
TUBO
 10
-1.9125
 20
5.4333
 30
0.0025
 70
192
 0
VERTEX
 8
TUBO
 10
-1.9125
 20
5.4333
 30
0.0025
 70
192
 0
VERTEX
 8
TUBO
 10
-1.9125
 20
5.4333
 30
0.0025
 70
192
 0
VERTEX
 8
TUBO
 10
-1.9125
 20
5.4333
 30
0.0025
 70
192
 0
VERTEX
 8
TUBO
 10
-1.7026
 20
4.5956
 30
0.0025
 70
192
 0
VERTEX
 8
TUBO
 10
-1.894
 20
4.5376
 30
0.0025
 70
192
 0
VERTEX
 8
TUBO
 10
-1.894
 20
4.5376
 30
0.0025
 70
192
 0
VERTEX
 8
TUBO
 10
-1.894
 20
4.5376
 30
0.0025
 70
192
 0
VERTEX
 8
TUBO
 10
-1.894
 20
4.5376
 30
0.0025
 70
192
 0
VERTEX
 8
TUBO
 10
-1.894
 20
4.5376
 30
0.0025
 70
192
 0
VERTEX
 8
TUBO
 10
-1.7026
 20
4.5956
 30
0.0025
 70
192
 0
VERTEX
 8
TUBO
 10
-1.7026
 20
4.5956
 30
0.0025
 70
192
 0
VERTEX
 8
TUBO
 10
-1.7026
 20
4.5956
 30
0.0025
 70
192
 0
VERTEX
 8
TUBO
 10
-1.7026
 20
4.5956
 30
0.0025
 70
192
 0
VERTEX
 8
TUBO
 10
-1.4117
 20
3.7825
 30
0.0025
 70
192
 0
VERTEX
 8
TUBO
 10
-1.5965
 20
3.706
 30
0.0025
 70
192
 0
VERTEX
 8
TUBO
 10
-1.5965
 20
3.706
 30
0.0025
 70
192
 0
VERTEX
 8
TUBO
 10
-1.5965
 20
3.706
 30
0.0025
 70
192
 0
VERTEX
 8
TUBO
 10
-1.5965
 20
3.706
 30
0.0025
 70
192
 0
VERTEX
 8
TUBO
 10
-1.5965
 20
3.706
 30
0.0025
 70
192
 0
VERTEX
 8
TUBO
 10
-1.4117
 20
3.7825
 30
0.0025
 70
192
 0
VERTEX
 8
TUBO
 10
-1.4117
 20
3.7825
 30
0.0025
 70
192
 0
VERTEX
 8
TUBO
 10
-1.4117
 20
3.7825
 30
0.0025
 70
192
 0
VERTEX
 8
TUBO
 10
-1.4117
 20
3.7825
 30
0.0025
 70
192
 0
VERTEX
 8
TUBO
 10
-1.0425
 20
3.0018
 30
0.0025
 70
192
 0
VERTEX
 8
TUBO
 10
-1.2188
 20
2.9075
 30
0.0025
 70
192
 0
VERTEX
 8
TUBO
 10
-1.2188
 20
2.9075
 30
0.0025
 70
192
 0
VERTEX
 8
TUBO
 10
-1.2188
 20
2.9075
 30
0.0025
 70
192
 0
VERTEX
 8
TUBO
 10
-1.2188
 20
2.9075
 30
0.0025
 70
192
 0
VERTEX
 8
TUBO
 10
-1.2188
 20
2.9075
 30
0.0025
 70
192
 0
VERTEX
 8
TUBO
 10
-1.0425
 20
3.0018
 30
0.0025
 70
192
 0
VERTEX
 8
TUBO
 10
-1.0425
 20
3.0018
 30
0.0025
 70
192
 0
VERTEX
 8
TUBO
 10
-1.0425
 20
3.0018
 30
0.0025
 70
192
 0
VERTEX
 8
TUBO
 10
-1.0425
 20
3.0018
 30
0.0025
 70
192
 0
VERTEX
 8
TUBO
 10
-0.5985
 20
2.2611
 30
0.0025
 70
192
 0
VERTEX
 8
TUBO
 10
-0.7648
 20
2.15
 30
0.0025
 70
192
 0
VERTEX
 8
TUBO
 10
-0.7648
 20
2.15
 30
0.0025
 70
192
 0
VERTEX
 8
TUBO
 10
-0.7648
 20
2.15
 30
0.0025
 70
192
 0
VERTEX
 8
TUBO
 10
-0.7648
 20
2.15
 30
0.0025
 70
192
 0
VERTEX
 8
TUBO
 10
-0.7648
 20
2.15
 30
0.0025
 70
192
 0
VERTEX
 8
TUBO
 10
-0.5985
 20
2.2611
 30
0.0025
 70
192
 0
VERTEX
 8
TUBO
 10
-0.5985
 20
2.2611
 30
0.0025
 70
192
 0
VERTEX
 8
TUBO
 10
-0.5985
 20
2.2611
 30
0.0025
 70
192
 0
VERTEX
 8
TUBO
 10
-0.5985
 20
2.2611
 30
0.0025
 70
192
 0
VERTEX
 8
TUBO
 10
-0.084
 20
1.5675
 30
0.0025
 70
192
 0
VERTEX
 8
TUBO
 10
-0.2386
 20
1.4406
 30
0.0025
 70
192
 0
VERTEX
 8
TUBO
 10
-0.2386
 20
1.4406
 30
0.0025
 70
192
 0
VERTEX
 8
TUBO
 10
-0.2386
 20
1.4406
 30
0.0025
 70
192
 0
VERTEX
 8
TUBO
 10
-0.2386
 20
1.4406
 30
0.0025
 70
192
 0
VERTEX
 8
TUBO
 10
-0.2386
 20
1.4406
 30
0.0025
 70
192
 0
VERTEX
 8
TUBO
 10
-0.084
 20
1.5675
 30
0.0025
 70
192
 0
VERTEX
 8
TUBO
 10
-0.084
 20
1.5675
 30
0.0025
 70
192
 0
VERTEX
 8
TUBO
 10
-0.084
 20
1.5675
 30
0.0025
 70
192
 0
VERTEX
 8
TUBO
 10
-0.084
 20
1.5675
 30
0.0025
 70
192
 0
VERTEX
 8
TUBO
 10
0.4959
 20
0.9276
 30
0.0025
 70
192
 0
VERTEX
 8
TUBO
 10
0.3545
 20
0.7862
 30
0.0025
 70
192
 0
VERTEX
 8
TUBO
 10
0.3545
 20
0.7862
 30
0.0025
 70
192
 0
VERTEX
 8
TUBO
 10
0.3545
 20
0.7862
 30
0.0025
 70
192
 0
VERTEX
 8
TUBO
 10
0.3545
 20
0.7862
 30
0.0025
 70
192
 0
VERTEX
 8
TUBO
 10
0.3545
 20
0.7862
 30
0.0025
 70
192
 0
VERTEX
 8
TUBO
 10
0.4959
 20
0.9276
 30
0.0025
 70
192
 0
VERTEX
 8
TUBO
 10
0.4959
 20
0.9276
 30
0.0025
 70
192
 0
VERTEX
 8
TUBO
 10
0.4959
 20
0.9276
 30
0.0025
 70
192
 0
VERTEX
 8
TUBO
 10
0.4959
 20
0.9276
 30
0.0025
 70
192
 0
VERTEX
 8
TUBO
 10
1.1358
 20
0.3476
 30
0.0025
 70
192
 0
VERTEX
 8
TUBO
 10
1.0089
 20
0.193
 30
0.0025
 70
192
 0
VERTEX
 8
TUBO
 10
1.0089
 20
0.193
 30
0.0025
 70
192
 0
VERTEX
 8
TUBO
 10
1.0089
 20
0.193
 30
0.0025
 70
192
 0
VERTEX
 8
TUBO
 10
1.0089
 20
0.193
 30
0.0025
 70
192
 0
VERTEX
 8
TUBO
 10
1.0089
 20
0.193
 30
0.0025
 70
192
 0
VERTEX
 8
TUBO
 10
1.1358
 20
0.3476
 30
0.0025
 70
192
 0
VERTEX
 8
TUBO
 10
1.1358
 20
0.3476
 30
0.0025
 70
192
 0
VERTEX
 8
TUBO
 10
1.1358
 20
0.3476
 30
0.0025
 70
192
 0
VERTEX
 8
TUBO
 10
1.1358
 20
0.3476
 30
0.0025
 70
192
 0
VERTEX
 8
TUBO
 10
1.8294
 20
-0.1668
 30
0.0025
 70
192
 0
VERTEX
 8
TUBO
 10
1.7183
 20
-0.3331
 30
0.0025
 70
192
 0
VERTEX
 8
TUBO
 10
1.7183
 20
-0.3331
 30
0.0025
 70
192
 0
VERTEX
 8
TUBO
 10
1.7183
 20
-0.3331
 30
0.0025
 70
192
 0
VERTEX
 8
TUBO
 10
1.7183
 20
-0.3331
 30
0.0025
 70
192
 0
VERTEX
 8
TUBO
 10
1.7183
 20
-0.3331
 30
0.0025
 70
192
 0
VERTEX
 8
TUBO
 10
1.8294
 20
-0.1668
 30
0.0025
 70
192
 0
VERTEX
 8
TUBO
 10
1.8294
 20
-0.1668
 30
0.0025
 70
192
 0
VERTEX
 8
TUBO
 10
1.8294
 20
-0.1668
 30
0.0025
 70
192
 0
VERTEX
 8
TUBO
 10
1.8294
 20
-0.1668
 30
0.0025
 70
192
 0
VERTEX
 8
TUBO
 10
2.5702
 20
-0.6108
 30
0.0025
 70
192
 0
VERTEX
 8
TUBO
 10
2.4759
 20
-0.7872
 30
0.0025
 70
192
 0
VERTEX
 8
TUBO
 10
2.4759
 20
-0.7872
 30
0.0025
 70
192
 0
VERTEX
 8
TUBO
 10
2.4759
 20
-0.7872
 30
0.0025
 70
192
 0
VERTEX
 8
TUBO
 10
2.4759
 20
-0.7872
 30
0.0025
 70
192
 0
VERTEX
 8
TUBO
 10
2.4759
 20
-0.7872
 30
0.0025
 70
192
 0
VERTEX
 8
TUBO
 10
2.5702
 20
-0.6108
 30
0.0025
 70
192
 0
VERTEX
 8
TUBO
 10
2.5702
 20
-0.6108
 30
0.0025
 70
192
 0
VERTEX
 8
TUBO
 10
2.5702
 20
-0.6108
 30
0.0025
 70
192
 0
VERTEX
 8
TUBO
 10
2.5702
 20
-0.6108
 30
0.0025
 70
192
 0
VERTEX
 8
TUBO
 10
3.3508
 20
-0.98
 30
0.0025
 70
192
 0
VERTEX
 8
TUBO
 10
3.2743
 20
-1.1648
 30
0.0025
 70
192
 0
VERTEX
 8
TUBO
 10
3.2743
 20
-1.1648
 30
0.0025
 70
192
 0
VERTEX
 8
TUBO
 10
3.2743
 20
-1.1648
 30
0.0025
 70
192
 0
VERTEX
 8
TUBO
 10
3.2743
 20
-1.1648
 30
0.0025
 70
192
 0
VERTEX
 8
TUBO
 10
3.2743
 20
-1.1648
 30
0.0025
 70
192
 0
VERTEX
 8
TUBO
 10
3.3508
 20
-0.98
 30
0.0025
 70
192
 0
VERTEX
 8
TUBO
 10
3.3508
 20
-0.98
 30
0.0025
 70
192
 0
VERTEX
 8
TUBO
 10
3.3508
 20
-0.98
 30
0.0025
 70
192
 0
VERTEX
 8
TUBO
 10
3.3508
 20
-0.98
 30
0.0025
 70
192
 0
VERTEX
 8
TUBO
 10
4.1639
 20
-1.271
 30
0.0025
 70
192
 0
VERTEX
 8
TUBO
 10
4.1059
 20
-1.4623
 30
0.0025
 70
192
 0
VERTEX
 8
TUBO
 10
4.1059
 20
-1.4623
 30
0.0025
 70
192
 0
VERTEX
 8
TUBO
 10
4.1059
 20
-1.4623
 30
0.0025
 70
192
 0
VERTEX
 8
TUBO
 10
4.1059
 20
-1.4623
 30
0.0025
 70
192
 0
VERTEX
 8
TUBO
 10
4.1059
 20
-1.4623
 30
0.0025
 70
192
 0
VERTEX
 8
TUBO
 10
4.1639
 20
-1.271
 30
0.0025
 70
192
 0
VERTEX
 8
TUBO
 10
4.1639
 20
-1.271
 30
0.0025
 70
192
 0
VERTEX
 8
TUBO
 10
4.1639
 20
-1.271
 30
0.0025
 70
192
 0
VERTEX
 8
TUBO
 10
4.1639
 20
-1.271
 30
0.0025
 70
192
 0
VERTEX
 8
TUBO
 10
5.0017
 20
-1.4808
 30
0.0025
 70
192
 0
VERTEX
 8
TUBO
 10
4.9626
 20
-1.677
 30
0.0025
 70
192
 0
VERTEX
 8
TUBO
 10
4.9626
 20
-1.677
 30
0.0025
 70
192
 0
VERTEX
 8
TUBO
 10
4.9626
 20
-1.677
 30
0.0025
 70
192
 0
VERTEX
 8
TUBO
 10
4.9626
 20
-1.677
 30
0.0025
 70
192
 0
VERTEX
 8
TUBO
 10
4.9626
 20
-1.677
 30
0.0025
 70
192
 0
VERTEX
 8
TUBO
 10
5.0017
 20
-1.4808
 30
0.0025
 70
192
 0
VERTEX
 8
TUBO
 10
5.0017
 20
-1.4808
 30
0.0025
 70
192
 0
VERTEX
 8
TUBO
 10
5.0017
 20
-1.4808
 30
0.0025
 70
192
 0
VERTEX
 8
TUBO
 10
5.0017
 20
-1.4808
 30
0.0025
 70
192
 0
VERTEX
 8
TUBO
 10
5.8559
 20
-1.6075
 30
0.0025
 70
192
 0
VERTEX
 8
TUBO
 10
5.8363
 20
-1.8065
 30
0.0025
 70
192
 0
VERTEX
 8
TUBO
 10
5.8363
 20
-1.8065
 30
0.0025
 70
192
 0
VERTEX
 8
TUBO
 10
5.8363
 20
-1.8065
 30
0.0025
 70
192
 0
VERTEX
 8
TUBO
 10
5.8363
 20
-1.8065
 30
0.0025
 70
192
 0
VERTEX
 8
TUBO
 10
5.8363
 20
-1.8065
 30
0.0025
 70
192
 0
VERTEX
 8
TUBO
 10
5.8559
 20
-1.6075
 30
0.0025
 70
192
 0
VERTEX
 8
TUBO
 10
5.8559
 20
-1.6075
 30
0.0025
 70
192
 0
VERTEX
 8
TUBO
 10
5.8559
 20
-1.6075
 30
0.0025
 70
192
 0
VERTEX
 8
TUBO
 10
5.8559
 20
-1.6075
 30
0.0025
 70
192
 0
VERTEX
 8
TUBO
 10
6.7185
 20
-1.6499
 30
0.0025
 70
192
 0
VERTEX
 8
TUBO
 10
6.7185
 20
-1.8499
 30
0.0025
 70
192
 0
VERTEX
 8
TUBO
 10
6.7185
 20
-1.8499
 30
0.0025
 70
192
 0
VERTEX
 8
TUBO
 10
6.7185
 20
-1.8499
 30
0.0025
 70
192
 0
VERTEX
 8
TUBO
 10
6.7185
 20
-1.8499
 30
0.0025
 70
192
 0
VERTEX
 8
TUBO
 10
6.7185
 20
-1.8499
 30
0.0025
 70
192
 0
VERTEX
 8
TUBO
 10
6.7185
 20
-1.6499
 30
0.0025
 70
192
 0
VERTEX
 8
TUBO
 10
6.7185
 20
-1.6499
 30
0.0025
 70
192
 0
VERTEX
 8
TUBO
 10
6.7185
 20
-1.6499
 30
0.0025
 70
192
 0
VERTEX
 8
TUBO
 10
6.7185
 20
-1.6499
 30
0.0025
 70
192
 0
VERTEX
 8
TUBO
 10
7.581
 20
-1.6075
 30
0.0025
 70
192
 0
VERTEX
 8
TUBO
 10
7.6006
 20
-1.8065
 30
0.0025
 70
192
 0
VERTEX
 8
TUBO
 10
7.6006
 20
-1.8065
 30
0.0025
 70
192
 0
VERTEX
 8
TUBO
 10
7.6006
 20
-1.8065
 30
0.0025
 70
192
 0
VERTEX
 8
TUBO
 10
7.6006
 20
-1.8065
 30
0.0025
 70
192
 0
VERTEX
 8
TUBO
 10
7.6006
 20
-1.8065
 30
0.0025
 70
192
 0
VERTEX
 8
TUBO
 10
7.581
 20
-1.6075
 30
0.0025
 70
192
 0
VERTEX
 8
TUBO
 10
7.581
 20
-1.6075
 30
0.0025
 70
192
 0
VERTEX
 8
TUBO
 10
7.581
 20
-1.6075
 30
0.0025
 70
192
 0
VERTEX
 8
TUBO
 10
7.581
 20
-1.6075
 30
0.0025
 70
192
 0
VERTEX
 8
TUBO
 10
8.4352
 20
-1.4808
 30
0.0025
 70
192
 0
VERTEX
 8
TUBO
 10
8.4743
 20
-1.677
 30
0.0025
 70
192
 0
VERTEX
 8
TUBO
 10
8.4743
 20
-1.677
 30
0.0025
 70
192
 0
VERTEX
 8
TUBO
 10
8.4743
 20
-1.677
 30
0.0025
 70
192
 0
VERTEX
 8
TUBO
 10
8.4743
 20
-1.677
 30
0.0025
 70
192
 0
VERTEX
 8
TUBO
 10
8.4743
 20
-1.677
 30
0.0025
 70
192
 0
VERTEX
 8
TUBO
 10
8.4352
 20
-1.4808
 30
0.0025
 70
192
 0
VERTEX
 8
TUBO
 10
8.4352
 20
-1.4808
 30
0.0025
 70
192
 0
VERTEX
 8
TUBO
 10
8.4352
 20
-1.4808
 30
0.0025
 70
192
 0
VERTEX
 8
TUBO
 10
8.4352
 20
-1.4808
 30
0.0025
 70
192
 0
VERTEX
 8
TUBO
 10
9.273
 20
-1.271
 30
0.0025
 70
192
 0
VERTEX
 8
TUBO
 10
9.331
 20
-1.4623
 30
0.0025
 70
192
 0
VERTEX
 8
TUBO
 10
9.331
 20
-1.4623
 30
0.0025
 70
192
 0
VERTEX
 8
TUBO
 10
9.331
 20
-1.4623
 30
0.0025
 70
192
 0
VERTEX
 8
TUBO
 10
9.331
 20
-1.4623
 30
0.0025
 70
192
 0
VERTEX
 8
TUBO
 10
9.331
 20
-1.4623
 30
0.0025
 70
192
 0
VERTEX
 8
TUBO
 10
9.273
 20
-1.271
 30
0.0025
 70
192
 0
VERTEX
 8
TUBO
 10
9.273
 20
-1.271
 30
0.0025
 70
192
 0
VERTEX
 8
TUBO
 10
9.273
 20
-1.271
 30
0.0025
 70
192
 0
VERTEX
 8
TUBO
 10
9.273
 20
-1.271
 30
0.0025
 70
192
 0
VERTEX
 8
TUBO
 10
10.0861
 20
-0.98
 30
0.0025
 70
192
 0
VERTEX
 8
TUBO
 10
10.1626
 20
-1.1648
 30
0.0025
 70
192
 0
VERTEX
 8
TUBO
 10
10.1626
 20
-1.1648
 30
0.0025
 70
192
 0
VERTEX
 8
TUBO
 10
10.1626
 20
-1.1648
 30
0.0025
 70
192
 0
VERTEX
 8
TUBO
 10
10.1626
 20
-1.1648
 30
0.0025
 70
192
 0
VERTEX
 8
TUBO
 10
10.1626
 20
-1.1648
 30
0.0025
 70
192
 0
VERTEX
 8
TUBO
 10
10.0861
 20
-0.98
 30
0.0025
 70
192
 0
VERTEX
 8
TUBO
 10
10.0861
 20
-0.98
 30
0.0025
 70
192
 0
VERTEX
 8
TUBO
 10
10.0861
 20
-0.98
 30
0.0025
 70
192
 0
VERTEX
 8
TUBO
 10
10.0861
 20
-0.98
 30
0.0025
 70
192
 0
VERTEX
 8
TUBO
 10
10.8667
 20
-0.6108
 30
0.0025
 70
192
 0
VERTEX
 8
TUBO
 10
10.961
 20
-0.7872
 30
0.0025
 70
192
 0
VERTEX
 8
TUBO
 10
10.961
 20
-0.7872
 30
0.0025
 70
192
 0
VERTEX
 8
TUBO
 10
10.961
 20
-0.7872
 30
0.0025
 70
192
 0
VERTEX
 8
TUBO
 10
10.961
 20
-0.7872
 30
0.0025
 70
192
 0
VERTEX
 8
TUBO
 10
10.961
 20
-0.7872
 30
0.0025
 70
192
 0
VERTEX
 8
TUBO
 10
10.8667
 20
-0.6108
 30
0.0025
 70
192
 0
VERTEX
 8
TUBO
 10
10.8667
 20
-0.6108
 30
0.0025
 70
192
 0
VERTEX
 8
TUBO
 10
10.8667
 20
-0.6108
 30
0.0025
 70
192
 0
VERTEX
 8
TUBO
 10
10.8667
 20
-0.6108
 30
0.0025
 70
192
 0
VERTEX
 8
TUBO
 10
11.6075
 20
-0.1668
 30
0.0025
 70
192
 0
VERTEX
 8
TUBO
 10
11.7186
 20
-0.3331
 30
0.0025
 70
192
 0
VERTEX
 8
TUBO
 10
11.7186
 20
-0.3331
 30
0.0025
 70
192
 0
VERTEX
 8
TUBO
 10
11.7186
 20
-0.3331
 30
0.0025
 70
192
 0
VERTEX
 8
TUBO
 10
11.7186
 20
-0.3331
 30
0.0025
 70
192
 0
VERTEX
 8
TUBO
 10
11.7186
 20
-0.3331
 30
0.0025
 70
192
 0
VERTEX
 8
TUBO
 10
11.6075
 20
-0.1668
 30
0.0025
 70
192
 0
VERTEX
 8
TUBO
 10
11.6075
 20
-0.1668
 30
0.0025
 70
192
 0
VERTEX
 8
TUBO
 10
11.6075
 20
-0.1668
 30
0.0025
 70
192
 0
VERTEX
 8
TUBO
 10
11.6075
 20
-0.1668
 30
0.0025
 70
192
 0
VERTEX
 8
TUBO
 10
12.3011
 20
0.3476
 30
0.0025
 70
192
 0
VERTEX
 8
TUBO
 10
12.428
 20
0.193
 30
0.0025
 70
192
 0
VERTEX
 8
TUBO
 10
12.428
 20
0.193
 30
0.0025
 70
192
 0
VERTEX
 8
TUBO
 10
12.428
 20
0.193
 30
0.0025
 70
192
 0
VERTEX
 8
TUBO
 10
12.428
 20
0.193
 30
0.0025
 70
192
 0
VERTEX
 8
TUBO
 10
12.428
 20
0.193
 30
0.0025
 70
192
 0
VERTEX
 8
TUBO
 10
12.3011
 20
0.3476
 30
0.0025
 70
192
 0
VERTEX
 8
TUBO
 10
12.3011
 20
0.3476
 30
0.0025
 70
192
 0
VERTEX
 8
TUBO
 10
12.3011
 20
0.3476
 30
0.0025
 70
192
 0
VERTEX
 8
TUBO
 10
12.3011
 20
0.3476
 30
0.0025
 70
192
 0
VERTEX
 8
TUBO
 10
12.941
 20
0.9276
 30
0.0025
 70
192
 0
VERTEX
 8
TUBO
 10
13.0824
 20
0.7862
 30
0.0025
 70
192
 0
VERTEX
 8
TUBO
 10
13.0824
 20
0.7862
 30
0.0025
 70
192
 0
VERTEX
 8
TUBO
 10
13.0824
 20
0.7862
 30
0.0025
 70
192
 0
VERTEX
 8
TUBO
 10
13.0824
 20
0.7862
 30
0.0025
 70
192
 0
VERTEX
 8
TUBO
 10
13.0824
 20
0.7862
 30
0.0025
 70
192
 0
VERTEX
 8
TUBO
 10
12.941
 20
0.9276
 30
0.0025
 70
192
 0
VERTEX
 8
TUBO
 10
12.941
 20
0.9276
 30
0.0025
 70
192
 0
VERTEX
 8
TUBO
 10
12.941
 20
0.9276
 30
0.0025
 70
192
 0
VERTEX
 8
TUBO
 10
12.941
 20
0.9276
 30
0.0025
 70
192
 0
VERTEX
 8
TUBO
 10
13.5209
 20
1.5675
 30
0.0025
 70
192
 0
VERTEX
 8
TUBO
 10
13.6755
 20
1.4406
 30
0.0025
 70
192
 0
VERTEX
 8
TUBO
 10
13.6755
 20
1.4406
 30
0.0025
 70
192
 0
VERTEX
 8
TUBO
 10
13.6755
 20
1.4406
 30
0.0025
 70
192
 0
VERTEX
 8
TUBO
 10
13.6755
 20
1.4406
 30
0.0025
 70
192
 0
VERTEX
 8
TUBO
 10
13.6755
 20
1.4406
 30
0.0025
 70
192
 0
VERTEX
 8
TUBO
 10
13.5209
 20
1.5675
 30
0.0025
 70
192
 0
VERTEX
 8
TUBO
 10
13.5209
 20
1.5675
 30
0.0025
 70
192
 0
VERTEX
 8
TUBO
 10
13.5209
 20
1.5675
 30
0.0025
 70
192
 0
VERTEX
 8
TUBO
 10
13.5209
 20
1.5675
 30
0.0025
 70
192
 0
VERTEX
 8
TUBO
 10
14.0354
 20
2.2611
 30
0.0025
 70
192
 0
VERTEX
 8
TUBO
 10
14.2017
 20
2.15
 30
0.0025
 70
192
 0
VERTEX
 8
TUBO
 10
14.2017
 20
2.15
 30
0.0025
 70
192
 0
VERTEX
 8
TUBO
 10
14.2017
 20
2.15
 30
0.0025
 70
192
 0
VERTEX
 8
TUBO
 10
14.2017
 20
2.15
 30
0.0025
 70
192
 0
VERTEX
 8
TUBO
 10
14.2017
 20
2.15
 30
0.0025
 70
192
 0
VERTEX
 8
TUBO
 10
14.0354
 20
2.2611
 30
0.0025
 70
192
 0
VERTEX
 8
TUBO
 10
14.0354
 20
2.2611
 30
0.0025
 70
192
 0
VERTEX
 8
TUBO
 10
14.0354
 20
2.2611
 30
0.0025
 70
192
 0
VERTEX
 8
TUBO
 10
14.0354
 20
2.2611
 30
0.0025
 70
192
 0
VERTEX
 8
TUBO
 10
14.4794
 20
3.0018
 30
0.0025
 70
192
 0
VERTEX
 8
TUBO
 10
14.6557
 20
2.9075
 30
0.0025
 70
192
 0
VERTEX
 8
TUBO
 10
14.6557
 20
2.9075
 30
0.0025
 70
192
 0
VERTEX
 8
TUBO
 10
14.6557
 20
2.9075
 30
0.0025
 70
192
 0
VERTEX
 8
TUBO
 10
14.6557
 20
2.9075
 30
0.0025
 70
192
 0
VERTEX
 8
TUBO
 10
14.6557
 20
2.9075
 30
0.0025
 70
192
 0
VERTEX
 8
TUBO
 10
14.4794
 20
3.0018
 30
0.0025
 70
192
 0
VERTEX
 8
TUBO
 10
14.4794
 20
3.0018
 30
0.0025
 70
192
 0
VERTEX
 8
TUBO
 10
14.4794
 20
3.0018
 30
0.0025
 70
192
 0
VERTEX
 8
TUBO
 10
14.4794
 20
3.0018
 30
0.0025
 70
192
 0
VERTEX
 8
TUBO
 10
14.8486
 20
3.7825
 30
0.0025
 70
192
 0
VERTEX
 8
TUBO
 10
15.0334
 20
3.706
 30
0.0025
 70
192
 0
VERTEX
 8
TUBO
 10
15.0334
 20
3.706
 30
0.0025
 70
192
 0
VERTEX
 8
TUBO
 10
15.0334
 20
3.706
 30
0.0025
 70
192
 0
VERTEX
 8
TUBO
 10
15.0334
 20
3.706
 30
0.0025
 70
192
 0
VERTEX
 8
TUBO
 10
15.0334
 20
3.706
 30
0.0025
 70
192
 0
VERTEX
 8
TUBO
 10
14.8486
 20
3.7825
 30
0.0025
 70
192
 0
VERTEX
 8
TUBO
 10
14.8486
 20
3.7825
 30
0.0025
 70
192
 0
VERTEX
 8
TUBO
 10
14.8486
 20
3.7825
 30
0.0025
 70
192
 0
VERTEX
 8
TUBO
 10
14.8486
 20
3.7825
 30
0.0025
 70
192
 0
VERTEX
 8
TUBO
 10
15.1395
 20
4.5956
 30
0.0025
 70
192
 0
VERTEX
 8
TUBO
 10
15.3309
 20
4.5376
 30
0.0025
 70
192
 0
VERTEX
 8
TUBO
 10
15.3309
 20
4.5376
 30
0.0025
 70
192
 0
VERTEX
 8
TUBO
 10
15.3309
 20
4.5376
 30
0.0025
 70
192
 0
VERTEX
 8
TUBO
 10
15.3309
 20
4.5376
 30
0.0025
 70
192
 0
VERTEX
 8
TUBO
 10
15.3309
 20
4.5376
 30
0.0025
 70
192
 0
VERTEX
 8
TUBO
 10
15.1395
 20
4.5956
 30
0.0025
 70
192
 0
VERTEX
 8
TUBO
 10
15.1395
 20
4.5956
 30
0.0025
 70
192
 0
VERTEX
 8
TUBO
 10
15.1395
 20
4.5956
 30
0.0025
 70
192
 0
VERTEX
 8
TUBO
 10
15.1395
 20
4.5956
 30
0.0025
 70
192
 0
VERTEX
 8
TUBO
 10
15.3494
 20
5.4333
 30
0.0025
 70
192
 0
VERTEX
 8
TUBO
 10
15.5455
 20
5.3943
 30
0.0025
 70
192
 0
VERTEX
 8
TUBO
 10
15.5455
 20
5.3943
 30
0.0025
 70
192
 0
VERTEX
 8
TUBO
 10
15.5455
 20
5.3943
 30
0.0025
 70
192
 0
VERTEX
 8
TUBO
 10
15.5455
 20
5.3943
 30
0.0025
 70
192
 0
VERTEX
 8
TUBO
 10
15.5455
 20
5.3943
 30
0.0025
 70
192
 0
VERTEX
 8
TUBO
 10
15.3494
 20
5.4333
 30
0.0025
 70
192
 0
VERTEX
 8
TUBO
 10
15.3494
 20
5.4333
 30
0.0025
 70
192
 0
VERTEX
 8
TUBO
 10
15.3494
 20
5.4333
 30
0.0025
 70
192
 0
VERTEX
 8
TUBO
 10
15.3494
 20
5.4333
 30
0.0025
 70
192
 0
VERTEX
 8
TUBO
 10
15.4761
 20
6.2876
 30
0.0025
 70
192
 0
VERTEX
 8
TUBO
 10
15.6751
 20
6.268
 30
0.0025
 70
192
 0
VERTEX
 8
TUBO
 10
15.6751
 20
6.268
 30
0.0025
 70
192
 0
VERTEX
 8
TUBO
 10
15.6751
 20
6.268
 30
0.0025
 70
192
 0
VERTEX
 8
TUBO
 10
15.6751
 20
6.268
 30
0.0025
 70
192
 0
VERTEX
 8
TUBO
 10
15.6751
 20
6.268
 30
0.0025
 70
192
 0
VERTEX
 8
TUBO
 10
15.4761
 20
6.2876
 30
0.0025
 70
192
 0
VERTEX
 8
TUBO
 10
15.4761
 20
6.2876
 30
0.0025
 70
192
 0
VERTEX
 8
TUBO
 10
15.4761
 20
6.2876
 30
0.0025
 70
192
 0
VERTEX
 8
TUBO
 10
15.4761
 20
6.2876
 30
0.0025
 70
192
 0
VERTEX
 8
TUBO
 10
0
 20
0
 30
0
 70
128
 71
1
 72
2
 73
12
 74
11
 0
VERTEX
 8
TUBO
 10
0
 20
0
 30
0
 70
128
 71
2
 72
3
 73
13
 74
12
 0
VERTEX
 8
TUBO
 10
0
 20
0
 30
0
 70
128
 71
3
 72
4
 73
14
 74
13
 0
VERTEX
 8
TUBO
 10
0
 20
0
 30
0
 70
128
 71
4
 72
5
 73
15
 74
14
 0
VERTEX
 8
TUBO
 10
0
 20
0
 30
0
 70
128
 71
5
 72
6
 73
16
 74
15
 0
VERTEX
 8
TUBO
 10
0
 20
0
 30
0
 70
128
 71
6
 72
7
 73
17
 74
16
 0
VERTEX
 8
TUBO
 10
0
 20
0
 30
0
 70
128
 71
7
 72
8
 73
18
 74
17
 0
VERTEX
 8
TUBO
 10
0
 20
0
 30
0
 70
128
 71
8
 72
9
 73
19
 74
18
 0
VERTEX
 8
TUBO
 10
0
 20
0
 30
0
 70
128
 71
9
 72
10
 73
20
 74
19
 0
VERTEX
 8
TUBO
 10
0
 20
0
 30
0
 70
128
 71
10
 72
1
 73
11
 74
20
 0
VERTEX
 8
TUBO
 10
0
 20
0
 30
0
 70
128
 71
11
 72
12
 73
22
 74
21
 0
VERTEX
 8
TUBO
 10
0
 20
0
 30
0
 70
128
 71
12
 72
13
 73
23
 74
22
 0
VERTEX
 8
TUBO
 10
0
 20
0
 30
0
 70
128
 71
13
 72
14
 73
24
 74
23
 0
VERTEX
 8
TUBO
 10
0
 20
0
 30
0
 70
128
 71
14
 72
15
 73
25
 74
24
 0
VERTEX
 8
TUBO
 10
0
 20
0
 30
0
 70
128
 71
15
 72
16
 73
26
 74
25
 0
VERTEX
 8
TUBO
 10
0
 20
0
 30
0
 70
128
 71
16
 72
17
 73
27
 74
26
 0
VERTEX
 8
TUBO
 10
0
 20
0
 30
0
 70
128
 71
17
 72
18
 73
28
 74
27
 0
VERTEX
 8
TUBO
 10
0
 20
0
 30
0
 70
128
 71
18
 72
19
 73
29
 74
28
 0
VERTEX
 8
TUBO
 10
0
 20
0
 30
0
 70
128
 71
19
 72
20
 73
30
 74
29
 0
VERTEX
 8
TUBO
 10
0
 20
0
 30
0
 70
128
 71
20
 72
11
 73
21
 74
30
 0
VERTEX
 8
TUBO
 10
0
 20
0
 30
0
 70
128
 71
21
 72
22
 73
32
 74
31
 0
VERTEX
 8
TUBO
 10
0
 20
0
 30
0
 70
128
 71
22
 72
23
 73
33
 74
32
 0
VERTEX
 8
TUBO
 10
0
 20
0
 30
0
 70
128
 71
23
 72
24
 73
34
 74
33
 0
VERTEX
 8
TUBO
 10
0
 20
0
 30
0
 70
128
 71
24
 72
25
 73
35
 74
34
 0
VERTEX
 8
TUBO
 10
0
 20
0
 30
0
 70
128
 71
25
 72
26
 73
36
 74
35
 0
VERTEX
 8
TUBO
 10
0
 20
0
 30
0
 70
128
 71
26
 72
27
 73
37
 74
36
 0
VERTEX
 8
TUBO
 10
0
 20
0
 30
0
 70
128
 71
27
 72
28
 73
38
 74
37
 0
VERTEX
 8
TUBO
 10
0
 20
0
 30
0
 70
128
 71
28
 72
29
 73
39
 74
38
 0
VERTEX
 8
TUBO
 10
0
 20
0
 30
0
 70
128
 71
29
 72
30
 73
40
 74
39
 0
VERTEX
 8
TUBO
 10
0
 20
0
 30
0
 70
128
 71
30
 72
21
 73
31
 74
40
 0
VERTEX
 8
TUBO
 10
0
 20
0
 30
0
 70
128
 71
31
 72
32
 73
42
 74
41
 0
VERTEX
 8
TUBO
 10
0
 20
0
 30
0
 70
128
 71
32
 72
33
 73
43
 74
42
 0
VERTEX
 8
TUBO
 10
0
 20
0
 30
0
 70
128
 71
33
 72
34
 73
44
 74
43
 0
VERTEX
 8
TUBO
 10
0
 20
0
 30
0
 70
128
 71
34
 72
35
 73
45
 74
44
 0
VERTEX
 8
TUBO
 10
0
 20
0
 30
0
 70
128
 71
35
 72
36
 73
46
 74
45
 0
VERTEX
 8
TUBO
 10
0
 20
0
 30
0
 70
128
 71
36
 72
37
 73
47
 74
46
 0
VERTEX
 8
TUBO
 10
0
 20
0
 30
0
 70
128
 71
37
 72
38
 73
48
 74
47
 0
VERTEX
 8
TUBO
 10
0
 20
0
 30
0
 70
128
 71
38
 72
39
 73
49
 74
48
 0
VERTEX
 8
TUBO
 10
0
 20
0
 30
0
 70
128
 71
39
 72
40
 73
50
 74
49
 0
VERTEX
 8
TUBO
 10
0
 20
0
 30
0
 70
128
 71
40
 72
31
 73
41
 74
50
 0
VERTEX
 8
TUBO
 10
0
 20
0
 30
0
 70
128
 71
41
 72
42
 73
52
 74
51
 0
VERTEX
 8
TUBO
 10
0
 20
0
 30
0
 70
128
 71
42
 72
43
 73
53
 74
52
 0
VERTEX
 8
TUBO
 10
0
 20
0
 30
0
 70
128
 71
43
 72
44
 73
54
 74
53
 0
VERTEX
 8
TUBO
 10
0
 20
0
 30
0
 70
128
 71
44
 72
45
 73
55
 74
54
 0
VERTEX
 8
TUBO
 10
0
 20
0
 30
0
 70
128
 71
45
 72
46
 73
56
 74
55
 0
VERTEX
 8
TUBO
 10
0
 20
0
 30
0
 70
128
 71
46
 72
47
 73
57
 74
56
 0
VERTEX
 8
TUBO
 10
0
 20
0
 30
0
 70
128
 71
47
 72
48
 73
58
 74
57
 0
VERTEX
 8
TUBO
 10
0
 20
0
 30
0
 70
128
 71
48
 72
49
 73
59
 74
58
 0
VERTEX
 8
TUBO
 10
0
 20
0
 30
0
 70
128
 71
49
 72
50
 73
60
 74
59
 0
VERTEX
 8
TUBO
 10
0
 20
0
 30
0
 70
128
 71
50
 72
41
 73
51
 74
60
 0
VERTEX
 8
TUBO
 10
0
 20
0
 30
0
 70
128
 71
51
 72
52
 73
62
 74
61
 0
VERTEX
 8
TUBO
 10
0
 20
0
 30
0
 70
128
 71
52
 72
53
 73
63
 74
62
 0
VERTEX
 8
TUBO
 10
0
 20
0
 30
0
 70
128
 71
53
 72
54
 73
64
 74
63
 0
VERTEX
 8
TUBO
 10
0
 20
0
 30
0
 70
128
 71
54
 72
55
 73
65
 74
64
 0
VERTEX
 8
TUBO
 10
0
 20
0
 30
0
 70
128
 71
55
 72
56
 73
66
 74
65
 0
VERTEX
 8
TUBO
 10
0
 20
0
 30
0
 70
128
 71
56
 72
57
 73
67
 74
66
 0
VERTEX
 8
TUBO
 10
0
 20
0
 30
0
 70
128
 71
57
 72
58
 73
68
 74
67
 0
VERTEX
 8
TUBO
 10
0
 20
0
 30
0
 70
128
 71
58
 72
59
 73
69
 74
68
 0
VERTEX
 8
TUBO
 10
0
 20
0
 30
0
 70
128
 71
59
 72
60
 73
70
 74
69
 0
VERTEX
 8
TUBO
 10
0
 20
0
 30
0
 70
128
 71
60
 72
51
 73
61
 74
70
 0
VERTEX
 8
TUBO
 10
0
 20
0
 30
0
 70
128
 71
61
 72
62
 73
72
 74
71
 0
VERTEX
 8
TUBO
 10
0
 20
0
 30
0
 70
128
 71
62
 72
63
 73
73
 74
72
 0
VERTEX
 8
TUBO
 10
0
 20
0
 30
0
 70
128
 71
63
 72
64
 73
74
 74
73
 0
VERTEX
 8
TUBO
 10
0
 20
0
 30
0
 70
128
 71
64
 72
65
 73
75
 74
74
 0
VERTEX
 8
TUBO
 10
0
 20
0
 30
0
 70
128
 71
65
 72
66
 73
76
 74
75
 0
VERTEX
 8
TUBO
 10
0
 20
0
 30
0
 70
128
 71
66
 72
67
 73
77
 74
76
 0
VERTEX
 8
TUBO
 10
0
 20
0
 30
0
 70
128
 71
67
 72
68
 73
78
 74
77
 0
VERTEX
 8
TUBO
 10
0
 20
0
 30
0
 70
128
 71
68
 72
69
 73
79
 74
78
 0
VERTEX
 8
TUBO
 10
0
 20
0
 30
0
 70
128
 71
69
 72
70
 73
80
 74
79
 0
VERTEX
 8
TUBO
 10
0
 20
0
 30
0
 70
128
 71
70
 72
61
 73
71
 74
80
 0
VERTEX
 8
TUBO
 10
0
 20
0
 30
0
 70
128
 71
71
 72
72
 73
82
 74
81
 0
VERTEX
 8
TUBO
 10
0
 20
0
 30
0
 70
128
 71
72
 72
73
 73
83
 74
82
 0
VERTEX
 8
TUBO
 10
0
 20
0
 30
0
 70
128
 71
73
 72
74
 73
84
 74
83
 0
VERTEX
 8
TUBO
 10
0
 20
0
 30
0
 70
128
 71
74
 72
75
 73
85
 74
84
 0
VERTEX
 8
TUBO
 10
0
 20
0
 30
0
 70
128
 71
75
 72
76
 73
86
 74
85
 0
VERTEX
 8
TUBO
 10
0
 20
0
 30
0
 70
128
 71
76
 72
77
 73
87
 74
86
 0
VERTEX
 8
TUBO
 10
0
 20
0
 30
0
 70
128
 71
77
 72
78
 73
88
 74
87
 0
VERTEX
 8
TUBO
 10
0
 20
0
 30
0
 70
128
 71
78
 72
79
 73
89
 74
88
 0
VERTEX
 8
TUBO
 10
0
 20
0
 30
0
 70
128
 71
79
 72
80
 73
90
 74
89
 0
VERTEX
 8
TUBO
 10
0
 20
0
 30
0
 70
128
 71
80
 72
71
 73
81
 74
90
 0
VERTEX
 8
TUBO
 10
0
 20
0
 30
0
 70
128
 71
81
 72
82
 73
92
 74
91
 0
VERTEX
 8
TUBO
 10
0
 20
0
 30
0
 70
128
 71
82
 72
83
 73
93
 74
92
 0
VERTEX
 8
TUBO
 10
0
 20
0
 30
0
 70
128
 71
83
 72
84
 73
94
 74
93
 0
VERTEX
 8
TUBO
 10
0
 20
0
 30
0
 70
128
 71
84
 72
85
 73
95
 74
94
 0
VERTEX
 8
TUBO
 10
0
 20
0
 30
0
 70
128
 71
85
 72
86
 73
96
 74
95
 0
VERTEX
 8
TUBO
 10
0
 20
0
 30
0
 70
128
 71
86
 72
87
 73
97
 74
96
 0
VERTEX
 8
TUBO
 10
0
 20
0
 30
0
 70
128
 71
87
 72
88
 73
98
 74
97
 0
VERTEX
 8
TUBO
 10
0
 20
0
 30
0
 70
128
 71
88
 72
89
 73
99
 74
98
 0
VERTEX
 8
TUBO
 10
0
 20
0
 30
0
 70
128
 71
89
 72
90
 73
100
 74
99
 0
VERTEX
 8
TUBO
 10
0
 20
0
 30
0
 70
128
 71
90
 72
81
 73
91
 74
100
 0
VERTEX
 8
TUBO
 10
0
 20
0
 30
0
 70
128
 71
91
 72
92
 73
102
 74
101
 0
VERTEX
 8
TUBO
 10
0
 20
0
 30
0
 70
128
 71
92
 72
93
 73
103
 74
102
 0
VERTEX
 8
TUBO
 10
0
 20
0
 30
0
 70
128
 71
93
 72
94
 73
104
 74
103
 0
VERTEX
 8
TUBO
 10
0
 20
0
 30
0
 70
128
 71
94
 72
95
 73
105
 74
104
 0
VERTEX
 8
TUBO
 10
0
 20
0
 30
0
 70
128
 71
95
 72
96
 73
106
 74
105
 0
VERTEX
 8
TUBO
 10
0
 20
0
 30
0
 70
128
 71
96
 72
97
 73
107
 74
106
 0
VERTEX
 8
TUBO
 10
0
 20
0
 30
0
 70
128
 71
97
 72
98
 73
108
 74
107
 0
VERTEX
 8
TUBO
 10
0
 20
0
 30
0
 70
128
 71
98
 72
99
 73
109
 74
108
 0
VERTEX
 8
TUBO
 10
0
 20
0
 30
0
 70
128
 71
99
 72
100
 73
110
 74
109
 0
VERTEX
 8
TUBO
 10
0
 20
0
 30
0
 70
128
 71
100
 72
91
 73
101
 74
110
 0
VERTEX
 8
TUBO
 10
0
 20
0
 30
0
 70
128
 71
101
 72
102
 73
112
 74
111
 0
VERTEX
 8
TUBO
 10
0
 20
0
 30
0
 70
128
 71
102
 72
103
 73
113
 74
112
 0
VERTEX
 8
TUBO
 10
0
 20
0
 30
0
 70
128
 71
103
 72
104
 73
114
 74
113
 0
VERTEX
 8
TUBO
 10
0
 20
0
 30
0
 70
128
 71
104
 72
105
 73
115
 74
114
 0
VERTEX
 8
TUBO
 10
0
 20
0
 30
0
 70
128
 71
105
 72
106
 73
116
 74
115
 0
VERTEX
 8
TUBO
 10
0
 20
0
 30
0
 70
128
 71
106
 72
107
 73
117
 74
116
 0
VERTEX
 8
TUBO
 10
0
 20
0
 30
0
 70
128
 71
107
 72
108
 73
118
 74
117
 0
VERTEX
 8
TUBO
 10
0
 20
0
 30
0
 70
128
 71
108
 72
109
 73
119
 74
118
 0
VERTEX
 8
TUBO
 10
0
 20
0
 30
0
 70
128
 71
109
 72
110
 73
120
 74
119
 0
VERTEX
 8
TUBO
 10
0
 20
0
 30
0
 70
128
 71
110
 72
101
 73
111
 74
120
 0
VERTEX
 8
TUBO
 10
0
 20
0
 30
0
 70
128
 71
111
 72
112
 73
122
 74
121
 0
VERTEX
 8
TUBO
 10
0
 20
0
 30
0
 70
128
 71
112
 72
113
 73
123
 74
122
 0
VERTEX
 8
TUBO
 10
0
 20
0
 30
0
 70
128
 71
113
 72
114
 73
124
 74
123
 0
VERTEX
 8
TUBO
 10
0
 20
0
 30
0
 70
128
 71
114
 72
115
 73
125
 74
124
 0
VERTEX
 8
TUBO
 10
0
 20
0
 30
0
 70
128
 71
115
 72
116
 73
126
 74
125
 0
VERTEX
 8
TUBO
 10
0
 20
0
 30
0
 70
128
 71
116
 72
117
 73
127
 74
126
 0
VERTEX
 8
TUBO
 10
0
 20
0
 30
0
 70
128
 71
117
 72
118
 73
128
 74
127
 0
VERTEX
 8
TUBO
 10
0
 20
0
 30
0
 70
128
 71
118
 72
119
 73
129
 74
128
 0
VERTEX
 8
TUBO
 10
0
 20
0
 30
0
 70
128
 71
119
 72
120
 73
130
 74
129
 0
VERTEX
 8
TUBO
 10
0
 20
0
 30
0
 70
128
 71
120
 72
111
 73
121
 74
130
 0
VERTEX
 8
TUBO
 10
0
 20
0
 30
0
 70
128
 71
121
 72
122
 73
132
 74
131
 0
VERTEX
 8
TUBO
 10
0
 20
0
 30
0
 70
128
 71
122
 72
123
 73
133
 74
132
 0
VERTEX
 8
TUBO
 10
0
 20
0
 30
0
 70
128
 71
123
 72
124
 73
134
 74
133
 0
VERTEX
 8
TUBO
 10
0
 20
0
 30
0
 70
128
 71
124
 72
125
 73
135
 74
134
 0
VERTEX
 8
TUBO
 10
0
 20
0
 30
0
 70
128
 71
125
 72
126
 73
136
 74
135
 0
VERTEX
 8
TUBO
 10
0
 20
0
 30
0
 70
128
 71
126
 72
127
 73
137
 74
136
 0
VERTEX
 8
TUBO
 10
0
 20
0
 30
0
 70
128
 71
127
 72
128
 73
138
 74
137
 0
VERTEX
 8
TUBO
 10
0
 20
0
 30
0
 70
128
 71
128
 72
129
 73
139
 74
138
 0
VERTEX
 8
TUBO
 10
0
 20
0
 30
0
 70
128
 71
129
 72
130
 73
140
 74
139
 0
VERTEX
 8
TUBO
 10
0
 20
0
 30
0
 70
128
 71
130
 72
121
 73
131
 74
140
 0
VERTEX
 8
TUBO
 10
0
 20
0
 30
0
 70
128
 71
131
 72
132
 73
142
 74
141
 0
VERTEX
 8
TUBO
 10
0
 20
0
 30
0
 70
128
 71
132
 72
133
 73
143
 74
142
 0
VERTEX
 8
TUBO
 10
0
 20
0
 30
0
 70
128
 71
133
 72
134
 73
144
 74
143
 0
VERTEX
 8
TUBO
 10
0
 20
0
 30
0
 70
128
 71
134
 72
135
 73
145
 74
144
 0
VERTEX
 8
TUBO
 10
0
 20
0
 30
0
 70
128
 71
135
 72
136
 73
146
 74
145
 0
VERTEX
 8
TUBO
 10
0
 20
0
 30
0
 70
128
 71
136
 72
137
 73
147
 74
146
 0
VERTEX
 8
TUBO
 10
0
 20
0
 30
0
 70
128
 71
137
 72
138
 73
148
 74
147
 0
VERTEX
 8
TUBO
 10
0
 20
0
 30
0
 70
128
 71
138
 72
139
 73
149
 74
148
 0
VERTEX
 8
TUBO
 10
0
 20
0
 30
0
 70
128
 71
139
 72
140
 73
150
 74
149
 0
VERTEX
 8
TUBO
 10
0
 20
0
 30
0
 70
128
 71
140
 72
131
 73
141
 74
150
 0
VERTEX
 8
TUBO
 10
0
 20
0
 30
0
 70
128
 71
141
 72
142
 73
152
 74
151
 0
VERTEX
 8
TUBO
 10
0
 20
0
 30
0
 70
128
 71
142
 72
143
 73
153
 74
152
 0
VERTEX
 8
TUBO
 10
0
 20
0
 30
0
 70
128
 71
143
 72
144
 73
154
 74
153
 0
VERTEX
 8
TUBO
 10
0
 20
0
 30
0
 70
128
 71
144
 72
145
 73
155
 74
154
 0
VERTEX
 8
TUBO
 10
0
 20
0
 30
0
 70
128
 71
145
 72
146
 73
156
 74
155
 0
VERTEX
 8
TUBO
 10
0
 20
0
 30
0
 70
128
 71
146
 72
147
 73
157
 74
156
 0
VERTEX
 8
TUBO
 10
0
 20
0
 30
0
 70
128
 71
147
 72
148
 73
158
 74
157
 0
VERTEX
 8
TUBO
 10
0
 20
0
 30
0
 70
128
 71
148
 72
149
 73
159
 74
158
 0
VERTEX
 8
TUBO
 10
0
 20
0
 30
0
 70
128
 71
149
 72
150
 73
160
 74
159
 0
VERTEX
 8
TUBO
 10
0
 20
0
 30
0
 70
128
 71
150
 72
141
 73
151
 74
160
 0
VERTEX
 8
TUBO
 10
0
 20
0
 30
0
 70
128
 71
151
 72
152
 73
162
 74
161
 0
VERTEX
 8
TUBO
 10
0
 20
0
 30
0
 70
128
 71
152
 72
153
 73
163
 74
162
 0
VERTEX
 8
TUBO
 10
0
 20
0
 30
0
 70
128
 71
153
 72
154
 73
164
 74
163
 0
VERTEX
 8
TUBO
 10
0
 20
0
 30
0
 70
128
 71
154
 72
155
 73
165
 74
164
 0
VERTEX
 8
TUBO
 10
0
 20
0
 30
0
 70
128
 71
155
 72
156
 73
166
 74
165
 0
VERTEX
 8
TUBO
 10
0
 20
0
 30
0
 70
128
 71
156
 72
157
 73
167
 74
166
 0
VERTEX
 8
TUBO
 10
0
 20
0
 30
0
 70
128
 71
157
 72
158
 73
168
 74
167
 0
VERTEX
 8
TUBO
 10
0
 20
0
 30
0
 70
128
 71
158
 72
159
 73
169
 74
168
 0
VERTEX
 8
TUBO
 10
0
 20
0
 30
0
 70
128
 71
159
 72
160
 73
170
 74
169
 0
VERTEX
 8
TUBO
 10
0
 20
0
 30
0
 70
128
 71
160
 72
151
 73
161
 74
170
 0
VERTEX
 8
TUBO
 10
0
 20
0
 30
0
 70
128
 71
161
 72
162
 73
172
 74
171
 0
VERTEX
 8
TUBO
 10
0
 20
0
 30
0
 70
128
 71
162
 72
163
 73
173
 74
172
 0
VERTEX
 8
TUBO
 10
0
 20
0
 30
0
 70
128
 71
163
 72
164
 73
174
 74
173
 0
VERTEX
 8
TUBO
 10
0
 20
0
 30
0
 70
128
 71
164
 72
165
 73
175
 74
174
 0
VERTEX
 8
TUBO
 10
0
 20
0
 30
0
 70
128
 71
165
 72
166
 73
176
 74
175
 0
VERTEX
 8
TUBO
 10
0
 20
0
 30
0
 70
128
 71
166
 72
167
 73
177
 74
176
 0
VERTEX
 8
TUBO
 10
0
 20
0
 30
0
 70
128
 71
167
 72
168
 73
178
 74
177
 0
VERTEX
 8
TUBO
 10
0
 20
0
 30
0
 70
128
 71
168
 72
169
 73
179
 74
178
 0
VERTEX
 8
TUBO
 10
0
 20
0
 30
0
 70
128
 71
169
 72
170
 73
180
 74
179
 0
VERTEX
 8
TUBO
 10
0
 20
0
 30
0
 70
128
 71
170
 72
161
 73
171
 74
180
 0
VERTEX
 8
TUBO
 10
0
 20
0
 30
0
 70
128
 71
171
 72
172
 73
182
 74
181
 0
VERTEX
 8
TUBO
 10
0
 20
0
 30
0
 70
128
 71
172
 72
173
 73
183
 74
182
 0
VERTEX
 8
TUBO
 10
0
 20
0
 30
0
 70
128
 71
173
 72
174
 73
184
 74
183
 0
VERTEX
 8
TUBO
 10
0
 20
0
 30
0
 70
128
 71
174
 72
175
 73
185
 74
184
 0
VERTEX
 8
TUBO
 10
0
 20
0
 30
0
 70
128
 71
175
 72
176
 73
186
 74
185
 0
VERTEX
 8
TUBO
 10
0
 20
0
 30
0
 70
128
 71
176
 72
177
 73
187
 74
186
 0
VERTEX
 8
TUBO
 10
0
 20
0
 30
0
 70
128
 71
177
 72
178
 73
188
 74
187
 0
VERTEX
 8
TUBO
 10
0
 20
0
 30
0
 70
128
 71
178
 72
179
 73
189
 74
188
 0
VERTEX
 8
TUBO
 10
0
 20
0
 30
0
 70
128
 71
179
 72
180
 73
190
 74
189
 0
VERTEX
 8
TUBO
 10
0
 20
0
 30
0
 70
128
 71
180
 72
171
 73
181
 74
190
 0
VERTEX
 8
TUBO
 10
0
 20
0
 30
0
 70
128
 71
181
 72
182
 73
192
 74
191
 0
VERTEX
 8
TUBO
 10
0
 20
0
 30
0
 70
128
 71
182
 72
183
 73
193
 74
192
 0
VERTEX
 8
TUBO
 10
0
 20
0
 30
0
 70
128
 71
183
 72
184
 73
194
 74
193
 0
VERTEX
 8
TUBO
 10
0
 20
0
 30
0
 70
128
 71
184
 72
185
 73
195
 74
194
 0
VERTEX
 8
TUBO
 10
0
 20
0
 30
0
 70
128
 71
185
 72
186
 73
196
 74
195
 0
VERTEX
 8
TUBO
 10
0
 20
0
 30
0
 70
128
 71
186
 72
187
 73
197
 74
196
 0
VERTEX
 8
TUBO
 10
0
 20
0
 30
0
 70
128
 71
187
 72
188
 73
198
 74
197
 0
VERTEX
 8
TUBO
 10
0
 20
0
 30
0
 70
128
 71
188
 72
189
 73
199
 74
198
 0
VERTEX
 8
TUBO
 10
0
 20
0
 30
0
 70
128
 71
189
 72
190
 73
200
 74
199
 0
VERTEX
 8
TUBO
 10
0
 20
0
 30
0
 70
128
 71
190
 72
181
 73
191
 74
200
 0
VERTEX
 8
TUBO
 10
0
 20
0
 30
0
 70
128
 71
191
 72
192
 73
202
 74
201
 0
VERTEX
 8
TUBO
 10
0
 20
0
 30
0
 70
128
 71
192
 72
193
 73
203
 74
202
 0
VERTEX
 8
TUBO
 10
0
 20
0
 30
0
 70
128
 71
193
 72
194
 73
204
 74
203
 0
VERTEX
 8
TUBO
 10
0
 20
0
 30
0
 70
128
 71
194
 72
195
 73
205
 74
204
 0
VERTEX
 8
TUBO
 10
0
 20
0
 30
0
 70
128
 71
195
 72
196
 73
206
 74
205
 0
VERTEX
 8
TUBO
 10
0
 20
0
 30
0
 70
128
 71
196
 72
197
 73
207
 74
206
 0
VERTEX
 8
TUBO
 10
0
 20
0
 30
0
 70
128
 71
197
 72
198
 73
208
 74
207
 0
VERTEX
 8
TUBO
 10
0
 20
0
 30
0
 70
128
 71
198
 72
199
 73
209
 74
208
 0
VERTEX
 8
TUBO
 10
0
 20
0
 30
0
 70
128
 71
199
 72
200
 73
210
 74
209
 0
VERTEX
 8
TUBO
 10
0
 20
0
 30
0
 70
128
 71
200
 72
191
 73
201
 74
210
 0
VERTEX
 8
TUBO
 10
0
 20
0
 30
0
 70
128
 71
201
 72
202
 73
212
 74
211
 0
VERTEX
 8
TUBO
 10
0
 20
0
 30
0
 70
128
 71
202
 72
203
 73
213
 74
212
 0
VERTEX
 8
TUBO
 10
0
 20
0
 30
0
 70
128
 71
203
 72
204
 73
214
 74
213
 0
VERTEX
 8
TUBO
 10
0
 20
0
 30
0
 70
128
 71
204
 72
205
 73
215
 74
214
 0
VERTEX
 8
TUBO
 10
0
 20
0
 30
0
 70
128
 71
205
 72
206
 73
216
 74
215
 0
VERTEX
 8
TUBO
 10
0
 20
0
 30
0
 70
128
 71
206
 72
207
 73
217
 74
216
 0
VERTEX
 8
TUBO
 10
0
 20
0
 30
0
 70
128
 71
207
 72
208
 73
218
 74
217
 0
VERTEX
 8
TUBO
 10
0
 20
0
 30
0
 70
128
 71
208
 72
209
 73
219
 74
218
 0
VERTEX
 8
TUBO
 10
0
 20
0
 30
0
 70
128
 71
209
 72
210
 73
220
 74
219
 0
VERTEX
 8
TUBO
 10
0
 20
0
 30
0
 70
128
 71
210
 72
201
 73
211
 74
220
 0
VERTEX
 8
TUBO
 10
0
 20
0
 30
0
 70
128
 71
211
 72
212
 73
222
 74
221
 0
VERTEX
 8
TUBO
 10
0
 20
0
 30
0
 70
128
 71
212
 72
213
 73
223
 74
222
 0
VERTEX
 8
TUBO
 10
0
 20
0
 30
0
 70
128
 71
213
 72
214
 73
224
 74
223
 0
VERTEX
 8
TUBO
 10
0
 20
0
 30
0
 70
128
 71
214
 72
215
 73
225
 74
224
 0
VERTEX
 8
TUBO
 10
0
 20
0
 30
0
 70
128
 71
215
 72
216
 73
226
 74
225
 0
VERTEX
 8
TUBO
 10
0
 20
0
 30
0
 70
128
 71
216
 72
217
 73
227
 74
226
 0
VERTEX
 8
TUBO
 10
0
 20
0
 30
0
 70
128
 71
217
 72
218
 73
228
 74
227
 0
VERTEX
 8
TUBO
 10
0
 20
0
 30
0
 70
128
 71
218
 72
219
 73
229
 74
228
 0
VERTEX
 8
TUBO
 10
0
 20
0
 30
0
 70
128
 71
219
 72
220
 73
230
 74
229
 0
VERTEX
 8
TUBO
 10
0
 20
0
 30
0
 70
128
 71
220
 72
211
 73
221
 74
230
 0
VERTEX
 8
TUBO
 10
0
 20
0
 30
0
 70
128
 71
221
 72
222
 73
232
 74
231
 0
VERTEX
 8
TUBO
 10
0
 20
0
 30
0
 70
128
 71
222
 72
223
 73
233
 74
232
 0
VERTEX
 8
TUBO
 10
0
 20
0
 30
0
 70
128
 71
223
 72
224
 73
234
 74
233
 0
VERTEX
 8
TUBO
 10
0
 20
0
 30
0
 70
128
 71
224
 72
225
 73
235
 74
234
 0
VERTEX
 8
TUBO
 10
0
 20
0
 30
0
 70
128
 71
225
 72
226
 73
236
 74
235
 0
VERTEX
 8
TUBO
 10
0
 20
0
 30
0
 70
128
 71
226
 72
227
 73
237
 74
236
 0
VERTEX
 8
TUBO
 10
0
 20
0
 30
0
 70
128
 71
227
 72
228
 73
238
 74
237
 0
VERTEX
 8
TUBO
 10
0
 20
0
 30
0
 70
128
 71
228
 72
229
 73
239
 74
238
 0
VERTEX
 8
TUBO
 10
0
 20
0
 30
0
 70
128
 71
229
 72
230
 73
240
 74
239
 0
VERTEX
 8
TUBO
 10
0
 20
0
 30
0
 70
128
 71
230
 72
221
 73
231
 74
240
 0
VERTEX
 8
TUBO
 10
0
 20
0
 30
0
 70
128
 71
231
 72
232
 73
242
 74
241
 0
VERTEX
 8
TUBO
 10
0
 20
0
 30
0
 70
128
 71
232
 72
233
 73
243
 74
242
 0
VERTEX
 8
TUBO
 10
0
 20
0
 30
0
 70
128
 71
233
 72
234
 73
244
 74
243
 0
VERTEX
 8
TUBO
 10
0
 20
0
 30
0
 70
128
 71
234
 72
235
 73
245
 74
244
 0
VERTEX
 8
TUBO
 10
0
 20
0
 30
0
 70
128
 71
235
 72
236
 73
246
 74
245
 0
VERTEX
 8
TUBO
 10
0
 20
0
 30
0
 70
128
 71
236
 72
237
 73
247
 74
246
 0
VERTEX
 8
TUBO
 10
0
 20
0
 30
0
 70
128
 71
237
 72
238
 73
248
 74
247
 0
VERTEX
 8
TUBO
 10
0
 20
0
 30
0
 70
128
 71
238
 72
239
 73
249
 74
248
 0
VERTEX
 8
TUBO
 10
0
 20
0
 30
0
 70
128
 71
239
 72
240
 73
250
 74
249
 0
VERTEX
 8
TUBO
 10
0
 20
0
 30
0
 70
128
 71
240
 72
231
 73
241
 74
250
 0
VERTEX
 8
TUBO
 10
0
 20
0
 30
0
 70
128
 71
241
 72
242
 73
252
 74
251
 0
VERTEX
 8
TUBO
 10
0
 20
0
 30
0
 70
128
 71
242
 72
243
 73
253
 74
252
 0
VERTEX
 8
TUBO
 10
0
 20
0
 30
0
 70
128
 71
243
 72
244
 73
254
 74
253
 0
VERTEX
 8
TUBO
 10
0
 20
0
 30
0
 70
128
 71
244
 72
245
 73
255
 74
254
 0
VERTEX
 8
TUBO
 10
0
 20
0
 30
0
 70
128
 71
245
 72
246
 73
256
 74
255
 0
VERTEX
 8
TUBO
 10
0
 20
0
 30
0
 70
128
 71
246
 72
247
 73
257
 74
256
 0
VERTEX
 8
TUBO
 10
0
 20
0
 30
0
 70
128
 71
247
 72
248
 73
258
 74
257
 0
VERTEX
 8
TUBO
 10
0
 20
0
 30
0
 70
128
 71
248
 72
249
 73
259
 74
258
 0
VERTEX
 8
TUBO
 10
0
 20
0
 30
0
 70
128
 71
249
 72
250
 73
260
 74
259
 0
VERTEX
 8
TUBO
 10
0
 20
0
 30
0
 70
128
 71
250
 72
241
 73
251
 74
260
 0
VERTEX
 8
TUBO
 10
0
 20
0
 30
0
 70
128
 71
251
 72
252
 73
262
 74
261
 0
VERTEX
 8
TUBO
 10
0
 20
0
 30
0
 70
128
 71
252
 72
253
 73
263
 74
262
 0
VERTEX
 8
TUBO
 10
0
 20
0
 30
0
 70
128
 71
253
 72
254
 73
264
 74
263
 0
VERTEX
 8
TUBO
 10
0
 20
0
 30
0
 70
128
 71
254
 72
255
 73
265
 74
264
 0
VERTEX
 8
TUBO
 10
0
 20
0
 30
0
 70
128
 71
255
 72
256
 73
266
 74
265
 0
VERTEX
 8
TUBO
 10
0
 20
0
 30
0
 70
128
 71
256
 72
257
 73
267
 74
266
 0
VERTEX
 8
TUBO
 10
0
 20
0
 30
0
 70
128
 71
257
 72
258
 73
268
 74
267
 0
VERTEX
 8
TUBO
 10
0
 20
0
 30
0
 70
128
 71
258
 72
259
 73
269
 74
268
 0
VERTEX
 8
TUBO
 10
0
 20
0
 30
0
 70
128
 71
259
 72
260
 73
270
 74
269
 0
VERTEX
 8
TUBO
 10
0
 20
0
 30
0
 70
128
 71
260
 72
251
 73
261
 74
270
 0
VERTEX
 8
TUBO
 10
0
 20
0
 30
0
 70
128
 71
261
 72
262
 73
272
 74
271
 0
VERTEX
 8
TUBO
 10
0
 20
0
 30
0
 70
128
 71
262
 72
263
 73
273
 74
272
 0
VERTEX
 8
TUBO
 10
0
 20
0
 30
0
 70
128
 71
263
 72
264
 73
274
 74
273
 0
VERTEX
 8
TUBO
 10
0
 20
0
 30
0
 70
128
 71
264
 72
265
 73
275
 74
274
 0
VERTEX
 8
TUBO
 10
0
 20
0
 30
0
 70
128
 71
265
 72
266
 73
276
 74
275
 0
VERTEX
 8
TUBO
 10
0
 20
0
 30
0
 70
128
 71
266
 72
267
 73
277
 74
276
 0
VERTEX
 8
TUBO
 10
0
 20
0
 30
0
 70
128
 71
267
 72
268
 73
278
 74
277
 0
VERTEX
 8
TUBO
 10
0
 20
0
 30
0
 70
128
 71
268
 72
269
 73
279
 74
278
 0
VERTEX
 8
TUBO
 10
0
 20
0
 30
0
 70
128
 71
269
 72
270
 73
280
 74
279
 0
VERTEX
 8
TUBO
 10
0
 20
0
 30
0
 70
128
 71
270
 72
261
 73
271
 74
280
 0
VERTEX
 8
TUBO
 10
0
 20
0
 30
0
 70
128
 71
271
 72
272
 73
282
 74
281
 0
VERTEX
 8
TUBO
 10
0
 20
0
 30
0
 70
128
 71
272
 72
273
 73
283
 74
282
 0
VERTEX
 8
TUBO
 10
0
 20
0
 30
0
 70
128
 71
273
 72
274
 73
284
 74
283
 0
VERTEX
 8
TUBO
 10
0
 20
0
 30
0
 70
128
 71
274
 72
275
 73
285
 74
284
 0
VERTEX
 8
TUBO
 10
0
 20
0
 30
0
 70
128
 71
275
 72
276
 73
286
 74
285
 0
VERTEX
 8
TUBO
 10
0
 20
0
 30
0
 70
128
 71
276
 72
277
 73
287
 74
286
 0
VERTEX
 8
TUBO
 10
0
 20
0
 30
0
 70
128
 71
277
 72
278
 73
288
 74
287
 0
VERTEX
 8
TUBO
 10
0
 20
0
 30
0
 70
128
 71
278
 72
279
 73
289
 74
288
 0
VERTEX
 8
TUBO
 10
0
 20
0
 30
0
 70
128
 71
279
 72
280
 73
290
 74
289
 0
VERTEX
 8
TUBO
 10
0
 20
0
 30
0
 70
128
 71
280
 72
271
 73
281
 74
290
 0
VERTEX
 8
TUBO
 10
0
 20
0
 30
0
 70
128
 71
281
 72
282
 73
292
 74
291
 0
VERTEX
 8
TUBO
 10
0
 20
0
 30
0
 70
128
 71
282
 72
283
 73
293
 74
292
 0
VERTEX
 8
TUBO
 10
0
 20
0
 30
0
 70
128
 71
283
 72
284
 73
294
 74
293
 0
VERTEX
 8
TUBO
 10
0
 20
0
 30
0
 70
128
 71
284
 72
285
 73
295
 74
294
 0
VERTEX
 8
TUBO
 10
0
 20
0
 30
0
 70
128
 71
285
 72
286
 73
296
 74
295
 0
VERTEX
 8
TUBO
 10
0
 20
0
 30
0
 70
128
 71
286
 72
287
 73
297
 74
296
 0
VERTEX
 8
TUBO
 10
0
 20
0
 30
0
 70
128
 71
287
 72
288
 73
298
 74
297
 0
VERTEX
 8
TUBO
 10
0
 20
0
 30
0
 70
128
 71
288
 72
289
 73
299
 74
298
 0
VERTEX
 8
TUBO
 10
0
 20
0
 30
0
 70
128
 71
289
 72
290
 73
300
 74
299
 0
VERTEX
 8
TUBO
 10
0
 20
0
 30
0
 70
128
 71
290
 72
281
 73
291
 74
300
 0
VERTEX
 8
TUBO
 10
0
 20
0
 30
0
 70
128
 71
291
 72
292
 73
302
 74
301
 0
VERTEX
 8
TUBO
 10
0
 20
0
 30
0
 70
128
 71
292
 72
293
 73
303
 74
302
 0
VERTEX
 8
TUBO
 10
0
 20
0
 30
0
 70
128
 71
293
 72
294
 73
304
 74
303
 0
VERTEX
 8
TUBO
 10
0
 20
0
 30
0
 70
128
 71
294
 72
295
 73
305
 74
304
 0
VERTEX
 8
TUBO
 10
0
 20
0
 30
0
 70
128
 71
295
 72
296
 73
306
 74
305
 0
VERTEX
 8
TUBO
 10
0
 20
0
 30
0
 70
128
 71
296
 72
297
 73
307
 74
306
 0
VERTEX
 8
TUBO
 10
0
 20
0
 30
0
 70
128
 71
297
 72
298
 73
308
 74
307
 0
VERTEX
 8
TUBO
 10
0
 20
0
 30
0
 70
128
 71
298
 72
299
 73
309
 74
308
 0
VERTEX
 8
TUBO
 10
0
 20
0
 30
0
 70
128
 71
299
 72
300
 73
310
 74
309
 0
VERTEX
 8
TUBO
 10
0
 20
0
 30
0
 70
128
 71
300
 72
291
 73
301
 74
310
 0
VERTEX
 8
TUBO
 10
0
 20
0
 30
0
 70
128
 71
301
 72
302
 73
312
 74
311
 0
VERTEX
 8
TUBO
 10
0
 20
0
 30
0
 70
128
 71
302
 72
303
 73
313
 74
312
 0
VERTEX
 8
TUBO
 10
0
 20
0
 30
0
 70
128
 71
303
 72
304
 73
314
 74
313
 0
VERTEX
 8
TUBO
 10
0
 20
0
 30
0
 70
128
 71
304
 72
305
 73
315
 74
314
 0
VERTEX
 8
TUBO
 10
0
 20
0
 30
0
 70
128
 71
305
 72
306
 73
316
 74
315
 0
VERTEX
 8
TUBO
 10
0
 20
0
 30
0
 70
128
 71
306
 72
307
 73
317
 74
316
 0
VERTEX
 8
TUBO
 10
0
 20
0
 30
0
 70
128
 71
307
 72
308
 73
318
 74
317
 0
VERTEX
 8
TUBO
 10
0
 20
0
 30
0
 70
128
 71
308
 72
309
 73
319
 74
318
 0
VERTEX
 8
TUBO
 10
0
 20
0
 30
0
 70
128
 71
309
 72
310
 73
320
 74
319
 0
VERTEX
 8
TUBO
 10
0
 20
0
 30
0
 70
128
 71
310
 72
301
 73
311
 74
320
 0
VERTEX
 8
TUBO
 10
0
 20
0
 30
0
 70
128
 71
311
 72
312
 73
322
 74
321
 0
VERTEX
 8
TUBO
 10
0
 20
0
 30
0
 70
128
 71
312
 72
313
 73
323
 74
322
 0
VERTEX
 8
TUBO
 10
0
 20
0
 30
0
 70
128
 71
313
 72
314
 73
324
 74
323
 0
VERTEX
 8
TUBO
 10
0
 20
0
 30
0
 70
128
 71
314
 72
315
 73
325
 74
324
 0
VERTEX
 8
TUBO
 10
0
 20
0
 30
0
 70
128
 71
315
 72
316
 73
326
 74
325
 0
VERTEX
 8
TUBO
 10
0
 20
0
 30
0
 70
128
 71
316
 72
317
 73
327
 74
326
 0
VERTEX
 8
TUBO
 10
0
 20
0
 30
0
 70
128
 71
317
 72
318
 73
328
 74
327
 0
VERTEX
 8
TUBO
 10
0
 20
0
 30
0
 70
128
 71
318
 72
319
 73
329
 74
328
 0
VERTEX
 8
TUBO
 10
0
 20
0
 30
0
 70
128
 71
319
 72
320
 73
330
 74
329
 0
VERTEX
 8
TUBO
 10
0
 20
0
 30
0
 70
128
 71
320
 72
311
 73
321
 74
330
 0
VERTEX
 8
TUBO
 10
0
 20
0
 30
0
 70
128
 71
321
 72
322
 73
332
 74
331
 0
VERTEX
 8
TUBO
 10
0
 20
0
 30
0
 70
128
 71
322
 72
323
 73
333
 74
332
 0
VERTEX
 8
TUBO
 10
0
 20
0
 30
0
 70
128
 71
323
 72
324
 73
334
 74
333
 0
VERTEX
 8
TUBO
 10
0
 20
0
 30
0
 70
128
 71
324
 72
325
 73
335
 74
334
 0
VERTEX
 8
TUBO
 10
0
 20
0
 30
0
 70
128
 71
325
 72
326
 73
336
 74
335
 0
VERTEX
 8
TUBO
 10
0
 20
0
 30
0
 70
128
 71
326
 72
327
 73
337
 74
336
 0
VERTEX
 8
TUBO
 10
0
 20
0
 30
0
 70
128
 71
327
 72
328
 73
338
 74
337
 0
VERTEX
 8
TUBO
 10
0
 20
0
 30
0
 70
128
 71
328
 72
329
 73
339
 74
338
 0
VERTEX
 8
TUBO
 10
0
 20
0
 30
0
 70
128
 71
329
 72
330
 73
340
 74
339
 0
VERTEX
 8
TUBO
 10
0
 20
0
 30
0
 70
128
 71
330
 72
321
 73
331
 74
340
 0
VERTEX
 8
TUBO
 10
0
 20
0
 30
0
 70
128
 71
331
 72
332
 73
342
 74
341
 0
VERTEX
 8
TUBO
 10
0
 20
0
 30
0
 70
128
 71
332
 72
333
 73
343
 74
342
 0
VERTEX
 8
TUBO
 10
0
 20
0
 30
0
 70
128
 71
333
 72
334
 73
344
 74
343
 0
VERTEX
 8
TUBO
 10
0
 20
0
 30
0
 70
128
 71
334
 72
335
 73
345
 74
344
 0
VERTEX
 8
TUBO
 10
0
 20
0
 30
0
 70
128
 71
335
 72
336
 73
346
 74
345
 0
VERTEX
 8
TUBO
 10
0
 20
0
 30
0
 70
128
 71
336
 72
337
 73
347
 74
346
 0
VERTEX
 8
TUBO
 10
0
 20
0
 30
0
 70
128
 71
337
 72
338
 73
348
 74
347
 0
VERTEX
 8
TUBO
 10
0
 20
0
 30
0
 70
128
 71
338
 72
339
 73
349
 74
348
 0
VERTEX
 8
TUBO
 10
0
 20
0
 30
0
 70
128
 71
339
 72
340
 73
350
 74
349
 0
VERTEX
 8
TUBO
 10
0
 20
0
 30
0
 70
128
 71
340
 72
331
 73
341
 74
350
 0
VERTEX
 8
TUBO
 10
0
 20
0
 30
0
 70
128
 71
341
 72
342
 73
352
 74
351
 0
VERTEX
 8
TUBO
 10
0
 20
0
 30
0
 70
128
 71
342
 72
343
 73
353
 74
352
 0
VERTEX
 8
TUBO
 10
0
 20
0
 30
0
 70
128
 71
343
 72
344
 73
354
 74
353
 0
VERTEX
 8
TUBO
 10
0
 20
0
 30
0
 70
128
 71
344
 72
345
 73
355
 74
354
 0
VERTEX
 8
TUBO
 10
0
 20
0
 30
0
 70
128
 71
345
 72
346
 73
356
 74
355
 0
VERTEX
 8
TUBO
 10
0
 20
0
 30
0
 70
128
 71
346
 72
347
 73
357
 74
356
 0
VERTEX
 8
TUBO
 10
0
 20
0
 30
0
 70
128
 71
347
 72
348
 73
358
 74
357
 0
VERTEX
 8
TUBO
 10
0
 20
0
 30
0
 70
128
 71
348
 72
349
 73
359
 74
358
 0
VERTEX
 8
TUBO
 10
0
 20
0
 30
0
 70
128
 71
349
 72
350
 73
360
 74
359
 0
VERTEX
 8
TUBO
 10
0
 20
0
 30
0
 70
128
 71
350
 72
341
 73
351
 74
360
 0
VERTEX
 8
TUBO
 10
0
 20
0
 30
0
 70
128
 71
351
 72
352
 73
362
 74
361
 0
VERTEX
 8
TUBO
 10
0
 20
0
 30
0
 70
128
 71
352
 72
353
 73
363
 74
362
 0
VERTEX
 8
TUBO
 10
0
 20
0
 30
0
 70
128
 71
353
 72
354
 73
364
 74
363
 0
VERTEX
 8
TUBO
 10
0
 20
0
 30
0
 70
128
 71
354
 72
355
 73
365
 74
364
 0
VERTEX
 8
TUBO
 10
0
 20
0
 30
0
 70
128
 71
355
 72
356
 73
366
 74
365
 0
VERTEX
 8
TUBO
 10
0
 20
0
 30
0
 70
128
 71
356
 72
357
 73
367
 74
366
 0
VERTEX
 8
TUBO
 10
0
 20
0
 30
0
 70
128
 71
357
 72
358
 73
368
 74
367
 0
VERTEX
 8
TUBO
 10
0
 20
0
 30
0
 70
128
 71
358
 72
359
 73
369
 74
368
 0
VERTEX
 8
TUBO
 10
0
 20
0
 30
0
 70
128
 71
359
 72
360
 73
370
 74
369
 0
VERTEX
 8
TUBO
 10
0
 20
0
 30
0
 70
128
 71
360
 72
351
 73
361
 74
370
 0
VERTEX
 8
TUBO
 10
0
 20
0
 30
0
 70
128
 71
361
 72
362
 73
372
 74
371
 0
VERTEX
 8
TUBO
 10
0
 20
0
 30
0
 70
128
 71
362
 72
363
 73
373
 74
372
 0
VERTEX
 8
TUBO
 10
0
 20
0
 30
0
 70
128
 71
363
 72
364
 73
374
 74
373
 0
VERTEX
 8
TUBO
 10
0
 20
0
 30
0
 70
128
 71
364
 72
365
 73
375
 74
374
 0
VERTEX
 8
TUBO
 10
0
 20
0
 30
0
 70
128
 71
365
 72
366
 73
376
 74
375
 0
VERTEX
 8
TUBO
 10
0
 20
0
 30
0
 70
128
 71
366
 72
367
 73
377
 74
376
 0
VERTEX
 8
TUBO
 10
0
 20
0
 30
0
 70
128
 71
367
 72
368
 73
378
 74
377
 0
VERTEX
 8
TUBO
 10
0
 20
0
 30
0
 70
128
 71
368
 72
369
 73
379
 74
378
 0
VERTEX
 8
TUBO
 10
0
 20
0
 30
0
 70
128
 71
369
 72
370
 73
380
 74
379
 0
VERTEX
 8
TUBO
 10
0
 20
0
 30
0
 70
128
 71
370
 72
361
 73
371
 74
380
 0
VERTEX
 8
TUBO
 10
0
 20
0
 30
0
 70
128
 71
371
 72
372
 73
382
 74
381
 0
VERTEX
 8
TUBO
 10
0
 20
0
 30
0
 70
128
 71
372
 72
373
 73
383
 74
382
 0
VERTEX
 8
TUBO
 10
0
 20
0
 30
0
 70
128
 71
373
 72
374
 73
384
 74
383
 0
VERTEX
 8
TUBO
 10
0
 20
0
 30
0
 70
128
 71
374
 72
375
 73
385
 74
384
 0
VERTEX
 8
TUBO
 10
0
 20
0
 30
0
 70
128
 71
375
 72
376
 73
386
 74
385
 0
VERTEX
 8
TUBO
 10
0
 20
0
 30
0
 70
128
 71
376
 72
377
 73
387
 74
386
 0
VERTEX
 8
TUBO
 10
0
 20
0
 30
0
 70
128
 71
377
 72
378
 73
388
 74
387
 0
VERTEX
 8
TUBO
 10
0
 20
0
 30
0
 70
128
 71
378
 72
379
 73
389
 74
388
 0
VERTEX
 8
TUBO
 10
0
 20
0
 30
0
 70
128
 71
379
 72
380
 73
390
 74
389
 0
VERTEX
 8
TUBO
 10
0
 20
0
 30
0
 70
128
 71
380
 72
371
 73
381
 74
390
 0
VERTEX
 8
TUBO
 10
0
 20
0
 30
0
 70
128
 71
381
 72
382
 73
392
 74
391
 0
VERTEX
 8
TUBO
 10
0
 20
0
 30
0
 70
128
 71
382
 72
383
 73
393
 74
392
 0
VERTEX
 8
TUBO
 10
0
 20
0
 30
0
 70
128
 71
383
 72
384
 73
394
 74
393
 0
VERTEX
 8
TUBO
 10
0
 20
0
 30
0
 70
128
 71
384
 72
385
 73
395
 74
394
 0
VERTEX
 8
TUBO
 10
0
 20
0
 30
0
 70
128
 71
385
 72
386
 73
396
 74
395
 0
VERTEX
 8
TUBO
 10
0
 20
0
 30
0
 70
128
 71
386
 72
387
 73
397
 74
396
 0
VERTEX
 8
TUBO
 10
0
 20
0
 30
0
 70
128
 71
387
 72
388
 73
398
 74
397
 0
VERTEX
 8
TUBO
 10
0
 20
0
 30
0
 70
128
 71
388
 72
389
 73
399
 74
398
 0
VERTEX
 8
TUBO
 10
0
 20
0
 30
0
 70
128
 71
389
 72
390
 73
400
 74
399
 0
VERTEX
 8
TUBO
 10
0
 20
0
 30
0
 70
128
 71
390
 72
381
 73
391
 74
400
 0
VERTEX
 8
TUBO
 10
0
 20
0
 30
0
 70
128
 71
391
 72
392
 73
402
 74
401
 0
VERTEX
 8
TUBO
 10
0
 20
0
 30
0
 70
128
 71
392
 72
393
 73
403
 74
402
 0
VERTEX
 8
TUBO
 10
0
 20
0
 30
0
 70
128
 71
393
 72
394
 73
404
 74
403
 0
VERTEX
 8
TUBO
 10
0
 20
0
 30
0
 70
128
 71
394
 72
395
 73
405
 74
404
 0
VERTEX
 8
TUBO
 10
0
 20
0
 30
0
 70
128
 71
395
 72
396
 73
406
 74
405
 0
VERTEX
 8
TUBO
 10
0
 20
0
 30
0
 70
128
 71
396
 72
397
 73
407
 74
406
 0
VERTEX
 8
TUBO
 10
0
 20
0
 30
0
 70
128
 71
397
 72
398
 73
408
 74
407
 0
VERTEX
 8
TUBO
 10
0
 20
0
 30
0
 70
128
 71
398
 72
399
 73
409
 74
408
 0
VERTEX
 8
TUBO
 10
0
 20
0
 30
0
 70
128
 71
399
 72
400
 73
410
 74
409
 0
VERTEX
 8
TUBO
 10
0
 20
0
 30
0
 70
128
 71
400
 72
391
 73
401
 74
410
 0
VERTEX
 8
TUBO
 10
0
 20
0
 30
0
 70
128
 71
401
 72
402
 73
412
 74
411
 0
VERTEX
 8
TUBO
 10
0
 20
0
 30
0
 70
128
 71
402
 72
403
 73
413
 74
412
 0
VERTEX
 8
TUBO
 10
0
 20
0
 30
0
 70
128
 71
403
 72
404
 73
414
 74
413
 0
VERTEX
 8
TUBO
 10
0
 20
0
 30
0
 70
128
 71
404
 72
405
 73
415
 74
414
 0
VERTEX
 8
TUBO
 10
0
 20
0
 30
0
 70
128
 71
405
 72
406
 73
416
 74
415
 0
VERTEX
 8
TUBO
 10
0
 20
0
 30
0
 70
128
 71
406
 72
407
 73
417
 74
416
 0
VERTEX
 8
TUBO
 10
0
 20
0
 30
0
 70
128
 71
407
 72
408
 73
418
 74
417
 0
VERTEX
 8
TUBO
 10
0
 20
0
 30
0
 70
128
 71
408
 72
409
 73
419
 74
418
 0
VERTEX
 8
TUBO
 10
0
 20
0
 30
0
 70
128
 71
409
 72
410
 73
420
 74
419
 0
VERTEX
 8
TUBO
 10
0
 20
0
 30
0
 70
128
 71
410
 72
401
 73
411
 74
420
 0
VERTEX
 8
TUBO
 10
0
 20
0
 30
0
 70
128
 71
411
 72
412
 73
422
 74
421
 0
VERTEX
 8
TUBO
 10
0
 20
0
 30
0
 70
128
 71
412
 72
413
 73
423
 74
422
 0
VERTEX
 8
TUBO
 10
0
 20
0
 30
0
 70
128
 71
413
 72
414
 73
424
 74
423
 0
VERTEX
 8
TUBO
 10
0
 20
0
 30
0
 70
128
 71
414
 72
415
 73
425
 74
424
 0
VERTEX
 8
TUBO
 10
0
 20
0
 30
0
 70
128
 71
415
 72
416
 73
426
 74
425
 0
VERTEX
 8
TUBO
 10
0
 20
0
 30
0
 70
128
 71
416
 72
417
 73
427
 74
426
 0
VERTEX
 8
TUBO
 10
0
 20
0
 30
0
 70
128
 71
417
 72
418
 73
428
 74
427
 0
VERTEX
 8
TUBO
 10
0
 20
0
 30
0
 70
128
 71
418
 72
419
 73
429
 74
428
 0
VERTEX
 8
TUBO
 10
0
 20
0
 30
0
 70
128
 71
419
 72
420
 73
430
 74
429
 0
VERTEX
 8
TUBO
 10
0
 20
0
 30
0
 70
128
 71
420
 72
411
 73
421
 74
430
 0
VERTEX
 8
TUBO
 10
0
 20
0
 30
0
 70
128
 71
421
 72
422
 73
432
 74
431
 0
VERTEX
 8
TUBO
 10
0
 20
0
 30
0
 70
128
 71
422
 72
423
 73
433
 74
432
 0
VERTEX
 8
TUBO
 10
0
 20
0
 30
0
 70
128
 71
423
 72
424
 73
434
 74
433
 0
VERTEX
 8
TUBO
 10
0
 20
0
 30
0
 70
128
 71
424
 72
425
 73
435
 74
434
 0
VERTEX
 8
TUBO
 10
0
 20
0
 30
0
 70
128
 71
425
 72
426
 73
436
 74
435
 0
VERTEX
 8
TUBO
 10
0
 20
0
 30
0
 70
128
 71
426
 72
427
 73
437
 74
436
 0
VERTEX
 8
TUBO
 10
0
 20
0
 30
0
 70
128
 71
427
 72
428
 73
438
 74
437
 0
VERTEX
 8
TUBO
 10
0
 20
0
 30
0
 70
128
 71
428
 72
429
 73
439
 74
438
 0
VERTEX
 8
TUBO
 10
0
 20
0
 30
0
 70
128
 71
429
 72
430
 73
440
 74
439
 0
VERTEX
 8
TUBO
 10
0
 20
0
 30
0
 70
128
 71
430
 72
421
 73
431
 74
440
 0
VERTEX
 8
TUBO
 10
0
 20
0
 30
0
 70
128
 71
431
 72
432
 73
442
 74
441
 0
VERTEX
 8
TUBO
 10
0
 20
0
 30
0
 70
128
 71
432
 72
433
 73
443
 74
442
 0
VERTEX
 8
TUBO
 10
0
 20
0
 30
0
 70
128
 71
433
 72
434
 73
444
 74
443
 0
VERTEX
 8
TUBO
 10
0
 20
0
 30
0
 70
128
 71
434
 72
435
 73
445
 74
444
 0
VERTEX
 8
TUBO
 10
0
 20
0
 30
0
 70
128
 71
435
 72
436
 73
446
 74
445
 0
VERTEX
 8
TUBO
 10
0
 20
0
 30
0
 70
128
 71
436
 72
437
 73
447
 74
446
 0
VERTEX
 8
TUBO
 10
0
 20
0
 30
0
 70
128
 71
437
 72
438
 73
448
 74
447
 0
VERTEX
 8
TUBO
 10
0
 20
0
 30
0
 70
128
 71
438
 72
439
 73
449
 74
448
 0
VERTEX
 8
TUBO
 10
0
 20
0
 30
0
 70
128
 71
439
 72
440
 73
450
 74
449
 0
VERTEX
 8
TUBO
 10
0
 20
0
 30
0
 70
128
 71
440
 72
431
 73
441
 74
450
 0
VERTEX
 8
TUBO
 10
0
 20
0
 30
0
 70
128
 71
441
 72
442
 73
452
 74
451
 0
VERTEX
 8
TUBO
 10
0
 20
0
 30
0
 70
128
 71
442
 72
443
 73
453
 74
452
 0
VERTEX
 8
TUBO
 10
0
 20
0
 30
0
 70
128
 71
443
 72
444
 73
454
 74
453
 0
VERTEX
 8
TUBO
 10
0
 20
0
 30
0
 70
128
 71
444
 72
445
 73
455
 74
454
 0
VERTEX
 8
TUBO
 10
0
 20
0
 30
0
 70
128
 71
445
 72
446
 73
456
 74
455
 0
VERTEX
 8
TUBO
 10
0
 20
0
 30
0
 70
128
 71
446
 72
447
 73
457
 74
456
 0
VERTEX
 8
TUBO
 10
0
 20
0
 30
0
 70
128
 71
447
 72
448
 73
458
 74
457
 0
VERTEX
 8
TUBO
 10
0
 20
0
 30
0
 70
128
 71
448
 72
449
 73
459
 74
458
 0
VERTEX
 8
TUBO
 10
0
 20
0
 30
0
 70
128
 71
449
 72
450
 73
460
 74
459
 0
VERTEX
 8
TUBO
 10
0
 20
0
 30
0
 70
128
 71
450
 72
441
 73
451
 74
460
 0
VERTEX
 8
TUBO
 10
0
 20
0
 30
0
 70
128
 71
451
 72
452
 73
462
 74
461
 0
VERTEX
 8
TUBO
 10
0
 20
0
 30
0
 70
128
 71
452
 72
453
 73
463
 74
462
 0
VERTEX
 8
TUBO
 10
0
 20
0
 30
0
 70
128
 71
453
 72
454
 73
464
 74
463
 0
VERTEX
 8
TUBO
 10
0
 20
0
 30
0
 70
128
 71
454
 72
455
 73
465
 74
464
 0
VERTEX
 8
TUBO
 10
0
 20
0
 30
0
 70
128
 71
455
 72
456
 73
466
 74
465
 0
VERTEX
 8
TUBO
 10
0
 20
0
 30
0
 70
128
 71
456
 72
457
 73
467
 74
466
 0
VERTEX
 8
TUBO
 10
0
 20
0
 30
0
 70
128
 71
457
 72
458
 73
468
 74
467
 0
VERTEX
 8
TUBO
 10
0
 20
0
 30
0
 70
128
 71
458
 72
459
 73
469
 74
468
 0
VERTEX
 8
TUBO
 10
0
 20
0
 30
0
 70
128
 71
459
 72
460
 73
470
 74
469
 0
VERTEX
 8
TUBO
 10
0
 20
0
 30
0
 70
128
 71
460
 72
451
 73
461
 74
470
 0
VERTEX
 8
TUBO
 10
0
 20
0
 30
0
 70
128
 71
461
 72
462
 73
472
 74
471
 0
VERTEX
 8
TUBO
 10
0
 20
0
 30
0
 70
128
 71
462
 72
463
 73
473
 74
472
 0
VERTEX
 8
TUBO
 10
0
 20
0
 30
0
 70
128
 71
463
 72
464
 73
474
 74
473
 0
VERTEX
 8
TUBO
 10
0
 20
0
 30
0
 70
128
 71
464
 72
465
 73
475
 74
474
 0
VERTEX
 8
TUBO
 10
0
 20
0
 30
0
 70
128
 71
465
 72
466
 73
476
 74
475
 0
VERTEX
 8
TUBO
 10
0
 20
0
 30
0
 70
128
 71
466
 72
467
 73
477
 74
476
 0
VERTEX
 8
TUBO
 10
0
 20
0
 30
0
 70
128
 71
467
 72
468
 73
478
 74
477
 0
VERTEX
 8
TUBO
 10
0
 20
0
 30
0
 70
128
 71
468
 72
469
 73
479
 74
478
 0
VERTEX
 8
TUBO
 10
0
 20
0
 30
0
 70
128
 71
469
 72
470
 73
480
 74
479
 0
VERTEX
 8
TUBO
 10
0
 20
0
 30
0
 70
128
 71
470
 72
461
 73
471
 74
480
 0
VERTEX
 8
TUBO
 10
0
 20
0
 30
0
 70
128
 71
471
 72
472
 73
482
 74
481
 0
VERTEX
 8
TUBO
 10
0
 20
0
 30
0
 70
128
 71
472
 72
473
 73
483
 74
482
 0
VERTEX
 8
TUBO
 10
0
 20
0
 30
0
 70
128
 71
473
 72
474
 73
484
 74
483
 0
VERTEX
 8
TUBO
 10
0
 20
0
 30
0
 70
128
 71
474
 72
475
 73
485
 74
484
 0
VERTEX
 8
TUBO
 10
0
 20
0
 30
0
 70
128
 71
475
 72
476
 73
486
 74
485
 0
VERTEX
 8
TUBO
 10
0
 20
0
 30
0
 70
128
 71
476
 72
477
 73
487
 74
486
 0
VERTEX
 8
TUBO
 10
0
 20
0
 30
0
 70
128
 71
477
 72
478
 73
488
 74
487
 0
VERTEX
 8
TUBO
 10
0
 20
0
 30
0
 70
128
 71
478
 72
479
 73
489
 74
488
 0
VERTEX
 8
TUBO
 10
0
 20
0
 30
0
 70
128
 71
479
 72
480
 73
490
 74
489
 0
VERTEX
 8
TUBO
 10
0
 20
0
 30
0
 70
128
 71
480
 72
471
 73
481
 74
490
 0
VERTEX
 8
TUBO
 10
0
 20
0
 30
0
 70
128
 71
481
 72
482
 73
492
 74
491
 0
VERTEX
 8
TUBO
 10
0
 20
0
 30
0
 70
128
 71
482
 72
483
 73
493
 74
492
 0
VERTEX
 8
TUBO
 10
0
 20
0
 30
0
 70
128
 71
483
 72
484
 73
494
 74
493
 0
VERTEX
 8
TUBO
 10
0
 20
0
 30
0
 70
128
 71
484
 72
485
 73
495
 74
494
 0
VERTEX
 8
TUBO
 10
0
 20
0
 30
0
 70
128
 71
485
 72
486
 73
496
 74
495
 0
VERTEX
 8
TUBO
 10
0
 20
0
 30
0
 70
128
 71
486
 72
487
 73
497
 74
496
 0
VERTEX
 8
TUBO
 10
0
 20
0
 30
0
 70
128
 71
487
 72
488
 73
498
 74
497
 0
VERTEX
 8
TUBO
 10
0
 20
0
 30
0
 70
128
 71
488
 72
489
 73
499
 74
498
 0
VERTEX
 8
TUBO
 10
0
 20
0
 30
0
 70
128
 71
489
 72
490
 73
500
 74
499
 0
VERTEX
 8
TUBO
 10
0
 20
0
 30
0
 70
128
 71
490
 72
481
 73
491
 74
500
 0
VERTEX
 8
TUBO
 10
0
 20
0
 30
0
 70
128
 71
491
 72
492
 73
502
 74
501
 0
VERTEX
 8
TUBO
 10
0
 20
0
 30
0
 70
128
 71
492
 72
493
 73
503
 74
502
 0
VERTEX
 8
TUBO
 10
0
 20
0
 30
0
 70
128
 71
493
 72
494
 73
504
 74
503
 0
VERTEX
 8
TUBO
 10
0
 20
0
 30
0
 70
128
 71
494
 72
495
 73
505
 74
504
 0
VERTEX
 8
TUBO
 10
0
 20
0
 30
0
 70
128
 71
495
 72
496
 73
506
 74
505
 0
VERTEX
 8
TUBO
 10
0
 20
0
 30
0
 70
128
 71
496
 72
497
 73
507
 74
506
 0
VERTEX
 8
TUBO
 10
0
 20
0
 30
0
 70
128
 71
497
 72
498
 73
508
 74
507
 0
VERTEX
 8
TUBO
 10
0
 20
0
 30
0
 70
128
 71
498
 72
499
 73
509
 74
508
 0
VERTEX
 8
TUBO
 10
0
 20
0
 30
0
 70
128
 71
499
 72
500
 73
510
 74
509
 0
VERTEX
 8
TUBO
 10
0
 20
0
 30
0
 70
128
 71
500
 72
491
 73
501
 74
510
 0
VERTEX
 8
TUBO
 10
0
 20
0
 30
0
 70
128
 71
501
 72
502
 73
512
 74
511
 0
VERTEX
 8
TUBO
 10
0
 20
0
 30
0
 70
128
 71
502
 72
503
 73
513
 74
512
 0
VERTEX
 8
TUBO
 10
0
 20
0
 30
0
 70
128
 71
503
 72
504
 73
514
 74
513
 0
VERTEX
 8
TUBO
 10
0
 20
0
 30
0
 70
128
 71
504
 72
505
 73
515
 74
514
 0
VERTEX
 8
TUBO
 10
0
 20
0
 30
0
 70
128
 71
505
 72
506
 73
516
 74
515
 0
VERTEX
 8
TUBO
 10
0
 20
0
 30
0
 70
128
 71
506
 72
507
 73
517
 74
516
 0
VERTEX
 8
TUBO
 10
0
 20
0
 30
0
 70
128
 71
507
 72
508
 73
518
 74
517
 0
VERTEX
 8
TUBO
 10
0
 20
0
 30
0
 70
128
 71
508
 72
509
 73
519
 74
518
 0
VERTEX
 8
TUBO
 10
0
 20
0
 30
0
 70
128
 71
509
 72
510
 73
520
 74
519
 0
VERTEX
 8
TUBO
 10
0
 20
0
 30
0
 70
128
 71
510
 72
501
 73
511
 74
520
 0
VERTEX
 8
TUBO
 10
0
 20
0
 30
0
 70
128
 71
511
 72
512
 73
522
 74
521
 0
VERTEX
 8
TUBO
 10
0
 20
0
 30
0
 70
128
 71
512
 72
513
 73
523
 74
522
 0
VERTEX
 8
TUBO
 10
0
 20
0
 30
0
 70
128
 71
513
 72
514
 73
524
 74
523
 0
VERTEX
 8
TUBO
 10
0
 20
0
 30
0
 70
128
 71
514
 72
515
 73
525
 74
524
 0
VERTEX
 8
TUBO
 10
0
 20
0
 30
0
 70
128
 71
515
 72
516
 73
526
 74
525
 0
VERTEX
 8
TUBO
 10
0
 20
0
 30
0
 70
128
 71
516
 72
517
 73
527
 74
526
 0
VERTEX
 8
TUBO
 10
0
 20
0
 30
0
 70
128
 71
517
 72
518
 73
528
 74
527
 0
VERTEX
 8
TUBO
 10
0
 20
0
 30
0
 70
128
 71
518
 72
519
 73
529
 74
528
 0
VERTEX
 8
TUBO
 10
0
 20
0
 30
0
 70
128
 71
519
 72
520
 73
530
 74
529
 0
VERTEX
 8
TUBO
 10
0
 20
0
 30
0
 70
128
 71
520
 72
511
 73
521
 74
530
 0
VERTEX
 8
TUBO
 10
0
 20
0
 30
0
 70
128
 71
521
 72
522
 73
532
 74
531
 0
VERTEX
 8
TUBO
 10
0
 20
0
 30
0
 70
128
 71
522
 72
523
 73
533
 74
532
 0
VERTEX
 8
TUBO
 10
0
 20
0
 30
0
 70
128
 71
523
 72
524
 73
534
 74
533
 0
VERTEX
 8
TUBO
 10
0
 20
0
 30
0
 70
128
 71
524
 72
525
 73
535
 74
534
 0
VERTEX
 8
TUBO
 10
0
 20
0
 30
0
 70
128
 71
525
 72
526
 73
536
 74
535
 0
VERTEX
 8
TUBO
 10
0
 20
0
 30
0
 70
128
 71
526
 72
527
 73
537
 74
536
 0
VERTEX
 8
TUBO
 10
0
 20
0
 30
0
 70
128
 71
527
 72
528
 73
538
 74
537
 0
VERTEX
 8
TUBO
 10
0
 20
0
 30
0
 70
128
 71
528
 72
529
 73
539
 74
538
 0
VERTEX
 8
TUBO
 10
0
 20
0
 30
0
 70
128
 71
529
 72
530
 73
540
 74
539
 0
VERTEX
 8
TUBO
 10
0
 20
0
 30
0
 70
128
 71
530
 72
521
 73
531
 74
540
 0
VERTEX
 8
TUBO
 10
0
 20
0
 30
0
 70
128
 71
531
 72
532
 73
542
 74
541
 0
VERTEX
 8
TUBO
 10
0
 20
0
 30
0
 70
128
 71
532
 72
533
 73
543
 74
542
 0
VERTEX
 8
TUBO
 10
0
 20
0
 30
0
 70
128
 71
533
 72
534
 73
544
 74
543
 0
VERTEX
 8
TUBO
 10
0
 20
0
 30
0
 70
128
 71
534
 72
535
 73
545
 74
544
 0
VERTEX
 8
TUBO
 10
0
 20
0
 30
0
 70
128
 71
535
 72
536
 73
546
 74
545
 0
VERTEX
 8
TUBO
 10
0
 20
0
 30
0
 70
128
 71
536
 72
537
 73
547
 74
546
 0
VERTEX
 8
TUBO
 10
0
 20
0
 30
0
 70
128
 71
537
 72
538
 73
548
 74
547
 0
VERTEX
 8
TUBO
 10
0
 20
0
 30
0
 70
128
 71
538
 72
539
 73
549
 74
548
 0
VERTEX
 8
TUBO
 10
0
 20
0
 30
0
 70
128
 71
539
 72
540
 73
550
 74
549
 0
VERTEX
 8
TUBO
 10
0
 20
0
 30
0
 70
128
 71
540
 72
531
 73
541
 74
550
 0
VERTEX
 8
TUBO
 10
0
 20
0
 30
0
 70
128
 71
541
 72
542
 73
552
 74
551
 0
VERTEX
 8
TUBO
 10
0
 20
0
 30
0
 70
128
 71
542
 72
543
 73
553
 74
552
 0
VERTEX
 8
TUBO
 10
0
 20
0
 30
0
 70
128
 71
543
 72
544
 73
554
 74
553
 0
VERTEX
 8
TUBO
 10
0
 20
0
 30
0
 70
128
 71
544
 72
545
 73
555
 74
554
 0
VERTEX
 8
TUBO
 10
0
 20
0
 30
0
 70
128
 71
545
 72
546
 73
556
 74
555
 0
VERTEX
 8
TUBO
 10
0
 20
0
 30
0
 70
128
 71
546
 72
547
 73
557
 74
556
 0
VERTEX
 8
TUBO
 10
0
 20
0
 30
0
 70
128
 71
547
 72
548
 73
558
 74
557
 0
VERTEX
 8
TUBO
 10
0
 20
0
 30
0
 70
128
 71
548
 72
549
 73
559
 74
558
 0
VERTEX
 8
TUBO
 10
0
 20
0
 30
0
 70
128
 71
549
 72
550
 73
560
 74
559
 0
VERTEX
 8
TUBO
 10
0
 20
0
 30
0
 70
128
 71
550
 72
541
 73
551
 74
560
 0
VERTEX
 8
TUBO
 10
0
 20
0
 30
0
 70
128
 71
551
 72
552
 73
562
 74
561
 0
VERTEX
 8
TUBO
 10
0
 20
0
 30
0
 70
128
 71
552
 72
553
 73
563
 74
562
 0
VERTEX
 8
TUBO
 10
0
 20
0
 30
0
 70
128
 71
553
 72
554
 73
564
 74
563
 0
VERTEX
 8
TUBO
 10
0
 20
0
 30
0
 70
128
 71
554
 72
555
 73
565
 74
564
 0
VERTEX
 8
TUBO
 10
0
 20
0
 30
0
 70
128
 71
555
 72
556
 73
566
 74
565
 0
VERTEX
 8
TUBO
 10
0
 20
0
 30
0
 70
128
 71
556
 72
557
 73
567
 74
566
 0
VERTEX
 8
TUBO
 10
0
 20
0
 30
0
 70
128
 71
557
 72
558
 73
568
 74
567
 0
VERTEX
 8
TUBO
 10
0
 20
0
 30
0
 70
128
 71
558
 72
559
 73
569
 74
568
 0
VERTEX
 8
TUBO
 10
0
 20
0
 30
0
 70
128
 71
559
 72
560
 73
570
 74
569
 0
VERTEX
 8
TUBO
 10
0
 20
0
 30
0
 70
128
 71
560
 72
551
 73
561
 74
570
 0
VERTEX
 8
TUBO
 10
0
 20
0
 30
0
 70
128
 71
561
 72
562
 73
572
 74
571
 0
VERTEX
 8
TUBO
 10
0
 20
0
 30
0
 70
128
 71
562
 72
563
 73
573
 74
572
 0
VERTEX
 8
TUBO
 10
0
 20
0
 30
0
 70
128
 71
563
 72
564
 73
574
 74
573
 0
VERTEX
 8
TUBO
 10
0
 20
0
 30
0
 70
128
 71
564
 72
565
 73
575
 74
574
 0
VERTEX
 8
TUBO
 10
0
 20
0
 30
0
 70
128
 71
565
 72
566
 73
576
 74
575
 0
VERTEX
 8
TUBO
 10
0
 20
0
 30
0
 70
128
 71
566
 72
567
 73
577
 74
576
 0
VERTEX
 8
TUBO
 10
0
 20
0
 30
0
 70
128
 71
567
 72
568
 73
578
 74
577
 0
VERTEX
 8
TUBO
 10
0
 20
0
 30
0
 70
128
 71
568
 72
569
 73
579
 74
578
 0
VERTEX
 8
TUBO
 10
0
 20
0
 30
0
 70
128
 71
569
 72
570
 73
580
 74
579
 0
VERTEX
 8
TUBO
 10
0
 20
0
 30
0
 70
128
 71
570
 72
561
 73
571
 74
580
 0
VERTEX
 8
TUBO
 10
0
 20
0
 30
0
 70
128
 71
571
 72
572
 73
582
 74
581
 0
VERTEX
 8
TUBO
 10
0
 20
0
 30
0
 70
128
 71
572
 72
573
 73
583
 74
582
 0
VERTEX
 8
TUBO
 10
0
 20
0
 30
0
 70
128
 71
573
 72
574
 73
584
 74
583
 0
VERTEX
 8
TUBO
 10
0
 20
0
 30
0
 70
128
 71
574
 72
575
 73
585
 74
584
 0
VERTEX
 8
TUBO
 10
0
 20
0
 30
0
 70
128
 71
575
 72
576
 73
586
 74
585
 0
VERTEX
 8
TUBO
 10
0
 20
0
 30
0
 70
128
 71
576
 72
577
 73
587
 74
586
 0
VERTEX
 8
TUBO
 10
0
 20
0
 30
0
 70
128
 71
577
 72
578
 73
588
 74
587
 0
VERTEX
 8
TUBO
 10
0
 20
0
 30
0
 70
128
 71
578
 72
579
 73
589
 74
588
 0
VERTEX
 8
TUBO
 10
0
 20
0
 30
0
 70
128
 71
579
 72
580
 73
590
 74
589
 0
VERTEX
 8
TUBO
 10
0
 20
0
 30
0
 70
128
 71
580
 72
571
 73
581
 74
590
 0
VERTEX
 8
TUBO
 10
0
 20
0
 30
0
 70
128
 71
581
 72
582
 73
592
 74
591
 0
VERTEX
 8
TUBO
 10
0
 20
0
 30
0
 70
128
 71
582
 72
583
 73
593
 74
592
 0
VERTEX
 8
TUBO
 10
0
 20
0
 30
0
 70
128
 71
583
 72
584
 73
594
 74
593
 0
VERTEX
 8
TUBO
 10
0
 20
0
 30
0
 70
128
 71
584
 72
585
 73
595
 74
594
 0
VERTEX
 8
TUBO
 10
0
 20
0
 30
0
 70
128
 71
585
 72
586
 73
596
 74
595
 0
VERTEX
 8
TUBO
 10
0
 20
0
 30
0
 70
128
 71
586
 72
587
 73
597
 74
596
 0
VERTEX
 8
TUBO
 10
0
 20
0
 30
0
 70
128
 71
587
 72
588
 73
598
 74
597
 0
VERTEX
 8
TUBO
 10
0
 20
0
 30
0
 70
128
 71
588
 72
589
 73
599
 74
598
 0
VERTEX
 8
TUBO
 10
0
 20
0
 30
0
 70
128
 71
589
 72
590
 73
600
 74
599
 0
VERTEX
 8
TUBO
 10
0
 20
0
 30
0
 70
128
 71
590
 72
581
 73
591
 74
600
 0
VERTEX
 8
TUBO
 10
0
 20
0
 30
0
 70
128
 71
591
 72
592
 73
602
 74
601
 0
VERTEX
 8
TUBO
 10
0
 20
0
 30
0
 70
128
 71
592
 72
593
 73
603
 74
602
 0
VERTEX
 8
TUBO
 10
0
 20
0
 30
0
 70
128
 71
593
 72
594
 73
604
 74
603
 0
VERTEX
 8
TUBO
 10
0
 20
0
 30
0
 70
128
 71
594
 72
595
 73
605
 74
604
 0
VERTEX
 8
TUBO
 10
0
 20
0
 30
0
 70
128
 71
595
 72
596
 73
606
 74
605
 0
VERTEX
 8
TUBO
 10
0
 20
0
 30
0
 70
128
 71
596
 72
597
 73
607
 74
606
 0
VERTEX
 8
TUBO
 10
0
 20
0
 30
0
 70
128
 71
597
 72
598
 73
608
 74
607
 0
VERTEX
 8
TUBO
 10
0
 20
0
 30
0
 70
128
 71
598
 72
599
 73
609
 74
608
 0
VERTEX
 8
TUBO
 10
0
 20
0
 30
0
 70
128
 71
599
 72
600
 73
610
 74
609
 0
VERTEX
 8
TUBO
 10
0
 20
0
 30
0
 70
128
 71
600
 72
591
 73
601
 74
610
 0
VERTEX
 8
TUBO
 10
0
 20
0
 30
0
 70
128
 71
601
 72
602
 73
612
 74
611
 0
VERTEX
 8
TUBO
 10
0
 20
0
 30
0
 70
128
 71
602
 72
603
 73
613
 74
612
 0
VERTEX
 8
TUBO
 10
0
 20
0
 30
0
 70
128
 71
603
 72
604
 73
614
 74
613
 0
VERTEX
 8
TUBO
 10
0
 20
0
 30
0
 70
128
 71
604
 72
605
 73
615
 74
614
 0
VERTEX
 8
TUBO
 10
0
 20
0
 30
0
 70
128
 71
605
 72
606
 73
616
 74
615
 0
VERTEX
 8
TUBO
 10
0
 20
0
 30
0
 70
128
 71
606
 72
607
 73
617
 74
616
 0
VERTEX
 8
TUBO
 10
0
 20
0
 30
0
 70
128
 71
607
 72
608
 73
618
 74
617
 0
VERTEX
 8
TUBO
 10
0
 20
0
 30
0
 70
128
 71
608
 72
609
 73
619
 74
618
 0
VERTEX
 8
TUBO
 10
0
 20
0
 30
0
 70
128
 71
609
 72
610
 73
620
 74
619
 0
VERTEX
 8
TUBO
 10
0
 20
0
 30
0
 70
128
 71
610
 72
601
 73
611
 74
620
 0
VERTEX
 8
TUBO
 10
0
 20
0
 30
0
 70
128
 71
611
 72
612
 73
622
 74
621
 0
VERTEX
 8
TUBO
 10
0
 20
0
 30
0
 70
128
 71
612
 72
613
 73
623
 74
622
 0
VERTEX
 8
TUBO
 10
0
 20
0
 30
0
 70
128
 71
613
 72
614
 73
624
 74
623
 0
VERTEX
 8
TUBO
 10
0
 20
0
 30
0
 70
128
 71
614
 72
615
 73
625
 74
624
 0
VERTEX
 8
TUBO
 10
0
 20
0
 30
0
 70
128
 71
615
 72
616
 73
626
 74
625
 0
VERTEX
 8
TUBO
 10
0
 20
0
 30
0
 70
128
 71
616
 72
617
 73
627
 74
626
 0
VERTEX
 8
TUBO
 10
0
 20
0
 30
0
 70
128
 71
617
 72
618
 73
628
 74
627
 0
VERTEX
 8
TUBO
 10
0
 20
0
 30
0
 70
128
 71
618
 72
619
 73
629
 74
628
 0
VERTEX
 8
TUBO
 10
0
 20
0
 30
0
 70
128
 71
619
 72
620
 73
630
 74
629
 0
VERTEX
 8
TUBO
 10
0
 20
0
 30
0
 70
128
 71
620
 72
611
 73
621
 74
630
 0
VERTEX
 8
TUBO
 10
0
 20
0
 30
0
 70
128
 71
621
 72
622
 73
632
 74
631
 0
VERTEX
 8
TUBO
 10
0
 20
0
 30
0
 70
128
 71
622
 72
623
 73
633
 74
632
 0
VERTEX
 8
TUBO
 10
0
 20
0
 30
0
 70
128
 71
623
 72
624
 73
634
 74
633
 0
VERTEX
 8
TUBO
 10
0
 20
0
 30
0
 70
128
 71
624
 72
625
 73
635
 74
634
 0
VERTEX
 8
TUBO
 10
0
 20
0
 30
0
 70
128
 71
625
 72
626
 73
636
 74
635
 0
VERTEX
 8
TUBO
 10
0
 20
0
 30
0
 70
128
 71
626
 72
627
 73
637
 74
636
 0
VERTEX
 8
TUBO
 10
0
 20
0
 30
0
 70
128
 71
627
 72
628
 73
638
 74
637
 0
VERTEX
 8
TUBO
 10
0
 20
0
 30
0
 70
128
 71
628
 72
629
 73
639
 74
638
 0
VERTEX
 8
TUBO
 10
0
 20
0
 30
0
 70
128
 71
629
 72
630
 73
640
 74
639
 0
VERTEX
 8
TUBO
 10
0
 20
0
 30
0
 70
128
 71
630
 72
621
 73
631
 74
640
 0
VERTEX
 8
TUBO
 10
0
 20
0
 30
0
 70
128
 71
631
 72
632
 73
2
 74
1
 0
VERTEX
 8
TUBO
 10
0
 20
0
 30
0
 70
128
 71
632
 72
633
 73
3
 74
2
 0
VERTEX
 8
TUBO
 10
0
 20
0
 30
0
 70
128
 71
633
 72
634
 73
4
 74
3
 0
VERTEX
 8
TUBO
 10
0
 20
0
 30
0
 70
128
 71
634
 72
635
 73
5
 74
4
 0
VERTEX
 8
TUBO
 10
0
 20
0
 30
0
 70
128
 71
635
 72
636
 73
6
 74
5
 0
VERTEX
 8
TUBO
 10
0
 20
0
 30
0
 70
128
 71
636
 72
637
 73
7
 74
6
 0
VERTEX
 8
TUBO
 10
0
 20
0
 30
0
 70
128
 71
637
 72
638
 73
8
 74
7
 0
VERTEX
 8
TUBO
 10
0
 20
0
 30
0
 70
128
 71
638
 72
639
 73
9
 74
8
 0
VERTEX
 8
TUBO
 10
0
 20
0
 30
0
 70
128
 71
639
 72
640
 73
10
 74
9
 0
VERTEX
 8
TUBO
 10
0
 20
0
 30
0
 70
128
 71
640
 72
631
 73
1
 74
10
 0
SEQEND
 0
POLYLINE
 8
FULGOR
 66
1
 10
0.0
 20
0.0
 30
0.0
 70
64
 71
363
 72
183
 0
VERTEX
 8
FULGOR
 10
6.9478
 20
-13.4532
 30
0.0025
 70
192
 0
VERTEX
 8
FULGOR
 10
4.5031
 20
-13.5455
 30
0.0025
 70
192
 0
VERTEX
 8
FULGOR
 10
7.9556
 20
-13.5221
 30
0.0025
 70
192
 0
VERTEX
 8
FULGOR
 10
4.6422
 20
-13.2786
 30
0.0025
 70
192
 0
VERTEX
 8
FULGOR
 10
4.6422
 20
-13.1946
 30
0.0025
 70
192
 0
VERTEX
 8
FULGOR
 10
4.9836
 20
-13.1946
 30
0.0025
 70
192
 0
VERTEX
 8
FULGOR
 10
4.9836
 20
-13.095
 30
0.0025
 70
192
 0
VERTEX
 8
FULGOR
 10
4.5031
 20
-13.095
 30
0.0025
 70
192
 0
VERTEX
 8
FULGOR
 10
5.1248
 20
-13.3497
 30
0.0025
 70
192
 0
VERTEX
 8
FULGOR
 10
5.126
 20
-13.3708
 30
0.0025
 70
192
 0
VERTEX
 8
FULGOR
 10
5.1292
 20
-13.3902
 30
0.0025
 70
192
 0
VERTEX
 8
FULGOR
 10
4.6422
 20
-13.5455
 30
0.0025
 70
192
 0
VERTEX
 8
FULGOR
 10
4.6422
 20
-13.3588
 30
0.0025
 70
192
 0
VERTEX
 8
FULGOR
 10
4.9836
 20
-13.3588
 30
0.0025
 70
192
 0
VERTEX
 8
FULGOR
 10
4.9836
 20
-13.2786
 30
0.0025
 70
192
 0
VERTEX
 8
FULGOR
 10
5.1248
 20
-13.095
 30
0.0025
 70
192
 0
VERTEX
 8
FULGOR
 10
5.1343
 20
-13.4081
 30
0.0025
 70
192
 0
VERTEX
 8
FULGOR
 10
5.1413
 20
-13.4246
 30
0.0025
 70
192
 0
VERTEX
 8
FULGOR
 10
5.1499
 20
-13.4396
 30
0.0025
 70
192
 0
VERTEX
 8
FULGOR
 10
5.1601
 20
-13.4533
 30
0.0025
 70
192
 0
VERTEX
 8
FULGOR
 10
5.2837
 20
-13.5221
 30
0.0025
 70
192
 0
VERTEX
 8
FULGOR
 10
5.3314
 20
-13.532
 30
0.0025
 70
192
 0
VERTEX
 8
FULGOR
 10
5.4089
 20
-13.5402
 30
0.0025
 70
192
 0
VERTEX
 8
FULGOR
 10
5.4893
 20
-13.5427
 30
0.0025
 70
192
 0
VERTEX
 8
FULGOR
 10
5.5791
 20
-13.5395
 30
0.0025
 70
192
 0
VERTEX
 8
FULGOR
 10
5.6469
 20
-13.5305
 30
0.0025
 70
192
 0
VERTEX
 8
FULGOR
 10
5.1718
 20
-13.4657
 30
0.0025
 70
192
 0
VERTEX
 8
FULGOR
 10
5.7305
 20
-13.5077
 30
0.0025
 70
192
 0
VERTEX
 8
FULGOR
 10
5.1848
 20
-13.4769
 30
0.0025
 70
192
 0
VERTEX
 8
FULGOR
 10
5.199
 20
-13.4869
 30
0.0025
 70
192
 0
VERTEX
 8
FULGOR
 10
5.2223
 20
-13.5
 30
0.0025
 70
192
 0
VERTEX
 8
FULGOR
 10
5.2476
 20
-13.5108
 30
0.0025
 70
192
 0
VERTEX
 8
FULGOR
 10
5.8228
 20
-13.4454
 30
0.0025
 70
192
 0
VERTEX
 8
FULGOR
 10
5.6944
 20
-13.5196
 30
0.0025
 70
192
 0
VERTEX
 8
FULGOR
 10
5.7557
 20
-13.4967
 30
0.0025
 70
192
 0
VERTEX
 8
FULGOR
 10
5.7788
 20
-13.4838
 30
0.0025
 70
192
 0
VERTEX
 8
FULGOR
 10
5.7996
 20
-13.4688
 30
0.0025
 70
192
 0
VERTEX
 8
FULGOR
 10
5.8514
 20
-13.3768
 30
0.0025
 70
192
 0
VERTEX
 8
FULGOR
 10
5.8525
 20
-13.3583
 30
0.0025
 70
192
 0
VERTEX
 8
FULGOR
 10
5.8527
 20
-13.095
 30
0.0025
 70
192
 0
VERTEX
 8
FULGOR
 10
5.8119
 20
-13.4576
 30
0.0025
 70
192
 0
VERTEX
 8
FULGOR
 10
5.8322
 20
-13.4322
 30
0.0025
 70
192
 0
VERTEX
 8
FULGOR
 10
5.7136
 20
-13.357
 30
0.0025
 70
192
 0
VERTEX
 8
FULGOR
 10
5.7128
 20
-13.3633
 30
0.0025
 70
192
 0
VERTEX
 8
FULGOR
 10
5.7114
 20
-13.3696
 30
0.0025
 70
192
 0
VERTEX
 8
FULGOR
 10
5.7093
 20
-13.3758
 30
0.0025
 70
192
 0
VERTEX
 8
FULGOR
 10
5.7066
 20
-13.382
 30
0.0025
 70
192
 0
VERTEX
 8
FULGOR
 10
5.7031
 20
-13.388
 30
0.0025
 70
192
 0
VERTEX
 8
FULGOR
 10
5.699
 20
-13.3939
 30
0.0025
 70
192
 0
VERTEX
 8
FULGOR
 10
5.6915
 20
-13.4025
 30
0.0025
 70
192
 0
VERTEX
 8
FULGOR
 10
5.6823
 20
-13.4107
 30
0.0025
 70
192
 0
VERTEX
 8
FULGOR
 10
5.6714
 20
-13.4185
 30
0.0025
 70
192
 0
VERTEX
 8
FULGOR
 10
5.6588
 20
-13.4257
 30
0.0025
 70
192
 0
VERTEX
 8
FULGOR
 10
5.84
 20
-13.4178
 30
0.0025
 70
192
 0
VERTEX
 8
FULGOR
 10
5.846
 20
-13.4023
 30
0.0025
 70
192
 0
VERTEX
 8
FULGOR
 10
5.8501
 20
-13.3856
 30
0.0025
 70
192
 0
VERTEX
 8
FULGOR
 10
5.7137
 20
-13.095
 30
0.0025
 70
192
 0
VERTEX
 8
FULGOR
 10
5.7137
 20
-13.3506
 30
0.0025
 70
192
 0
VERTEX
 8
FULGOR
 10
5.41
 20
-13.4522
 30
0.0025
 70
192
 0
VERTEX
 8
FULGOR
 10
5.6391
 20
-13.4344
 30
0.0025
 70
192
 0
VERTEX
 8
FULGOR
 10
5.3442
 20
-13.4399
 30
0.0025
 70
192
 0
VERTEX
 8
FULGOR
 10
5.3238
 20
-13.4326
 30
0.0025
 70
192
 0
VERTEX
 8
FULGOR
 10
5.6162
 20
-13.4418
 30
0.0025
 70
192
 0
VERTEX
 8
FULGOR
 10
5.5826
 20
-13.4491
 30
0.0025
 70
192
 0
VERTEX
 8
FULGOR
 10
5.5435
 20
-13.4539
 30
0.0025
 70
192
 0
VERTEX
 8
FULGOR
 10
5.284
 20
-13.4053
 30
0.0025
 70
192
 0
VERTEX
 8
FULGOR
 10
5.2791
 20
-13.3993
 30
0.0025
 70
192
 0
VERTEX
 8
FULGOR
 10
5.275
 20
-13.3929
 30
0.0025
 70
192
 0
VERTEX
 8
FULGOR
 10
5.2715
 20
-13.3861
 30
0.0025
 70
192
 0
VERTEX
 8
FULGOR
 10
5.2687
 20
-13.379
 30
0.0025
 70
192
 0
VERTEX
 8
FULGOR
 10
5.4888
 20
-13.456
 30
0.0025
 70
192
 0
VERTEX
 8
FULGOR
 10
5.2645
 20
-13.3598
 30
0.0025
 70
192
 0
VERTEX
 8
FULGOR
 10
5.2638
 20
-13.3472
 30
0.0025
 70
192
 0
VERTEX
 8
FULGOR
 10
5.2638
 20
-13.095
 30
0.0025
 70
192
 0
VERTEX
 8
FULGOR
 10
5.3679
 20
-13.4458
 30
0.0025
 70
192
 0
VERTEX
 8
FULGOR
 10
5.3107
 20
-13.4262
 30
0.0025
 70
192
 0
VERTEX
 8
FULGOR
 10
5.2992
 20
-13.419
 30
0.0025
 70
192
 0
VERTEX
 8
FULGOR
 10
5.2895
 20
-13.4111
 30
0.0025
 70
192
 0
VERTEX
 8
FULGOR
 10
6.1326
 20
-13.446
 30
0.0025
 70
192
 0
VERTEX
 8
FULGOR
 10
6.1326
 20
-13.095
 30
0.0025
 70
192
 0
VERTEX
 8
FULGOR
 10
7.2374
 20
-13.1365
 30
0.0025
 70
192
 0
VERTEX
 8
FULGOR
 10
5.2665
 20
-13.3716
 30
0.0025
 70
192
 0
VERTEX
 8
FULGOR
 10
5.9935
 20
-13.095
 30
0.0025
 70
192
 0
VERTEX
 8
FULGOR
 10
6.9624
 20
-13.0954
 30
0.0025
 70
192
 0
VERTEX
 8
FULGOR
 10
5.9935
 20
-13.5455
 30
0.0025
 70
192
 0
VERTEX
 8
FULGOR
 10
6.474
 20
-13.5455
 30
0.0025
 70
192
 0
VERTEX
 8
FULGOR
 10
6.474
 20
-13.446
 30
0.0025
 70
192
 0
VERTEX
 8
FULGOR
 10
7.1589
 20
-13.1188
 30
0.0025
 70
192
 0
VERTEX
 8
FULGOR
 10
7.0757
 20
-13.1055
 30
0.0025
 70
192
 0
VERTEX
 8
FULGOR
 10
6.8991
 20
-13.0955
 30
0.0025
 70
192
 0
VERTEX
 8
FULGOR
 10
6.655
 20
-13.1637
 30
0.0025
 70
192
 0
VERTEX
 8
FULGOR
 10
6.6314
 20
-13.1792
 30
0.0025
 70
192
 0
VERTEX
 8
FULGOR
 10
6.6113
 20
-13.1952
 30
0.0025
 70
192
 0
VERTEX
 8
FULGOR
 10
6.5944
 20
-13.2117
 30
0.0025
 70
192
 0
VERTEX
 8
FULGOR
 10
6.8418
 20
-13.1013
 30
0.0025
 70
192
 0
VERTEX
 8
FULGOR
 10
6.7908
 20
-13.1111
 30
0.0025
 70
192
 0
VERTEX
 8
FULGOR
 10
6.7407
 20
-13.1255
 30
0.0025
 70
192
 0
VERTEX
 8
FULGOR
 10
6.5562
 20
-13.2727
 30
0.0025
 70
192
 0
VERTEX
 8
FULGOR
 10
6.5522
 20
-13.2857
 30
0.0025
 70
192
 0
VERTEX
 8
FULGOR
 10
6.6955
 20
-13.1431
 30
0.0025
 70
192
 0
VERTEX
 8
FULGOR
 10
6.6724
 20
-13.1542
 30
0.0025
 70
192
 0
VERTEX
 8
FULGOR
 10
6.5811
 20
-13.2275
 30
0.0025
 70
192
 0
VERTEX
 8
FULGOR
 10
6.5483
 20
-13.3384
 30
0.0025
 70
192
 0
VERTEX
 8
FULGOR
 10
6.5715
 20
-13.2414
 30
0.0025
 70
192
 0
VERTEX
 8
FULGOR
 10
6.5631
 20
-13.2565
 30
0.0025
 70
192
 0
VERTEX
 8
FULGOR
 10
6.5493
 20
-13.2993
 30
0.0025
 70
192
 0
VERTEX
 8
FULGOR
 10
6.5481
 20
-13.3088
 30
0.0025
 70
192
 0
VERTEX
 8
FULGOR
 10
6.5474
 20
-13.3235
 30
0.0025
 70
192
 0
VERTEX
 8
FULGOR
 10
6.5509
 20
-13.353
 30
0.0025
 70
192
 0
VERTEX
 8
FULGOR
 10
6.6094
 20
-13.4431
 30
0.0025
 70
192
 0
VERTEX
 8
FULGOR
 10
6.6315
 20
-13.4609
 30
0.0025
 70
192
 0
VERTEX
 8
FULGOR
 10
6.5552
 20
-13.3672
 30
0.0025
 70
192
 0
VERTEX
 8
FULGOR
 10
6.6926
 20
-13.4968
 30
0.0025
 70
192
 0
VERTEX
 8
FULGOR
 10
6.726
 20
-13.5107
 30
0.0025
 70
192
 0
VERTEX
 8
FULGOR
 10
6.5609
 20
-13.381
 30
0.0025
 70
192
 0
VERTEX
 8
FULGOR
 10
6.5681
 20
-13.3943
 30
0.0025
 70
192
 0
VERTEX
 8
FULGOR
 10
6.8833
 20
-13.5432
 30
0.0025
 70
192
 0
VERTEX
 8
FULGOR
 10
6.9268
 20
-13.5453
 30
0.0025
 70
192
 0
VERTEX
 8
FULGOR
 10
6.9624
 20
-13.5451
 30
0.0025
 70
192
 0
VERTEX
 8
FULGOR
 10
7.0188
 20
-13.5419
 30
0.0025
 70
192
 0
VERTEX
 8
FULGOR
 10
6.5798
 20
-13.4115
 30
0.0025
 70
192
 0
VERTEX
 8
FULGOR
 10
6.5936
 20
-13.4277
 30
0.0025
 70
192
 0
VERTEX
 8
FULGOR
 10
6.6608
 20
-13.4801
 30
0.0025
 70
192
 0
VERTEX
 8
FULGOR
 10
7.0777
 20
-13.3116
 30
0.0025
 70
192
 0
VERTEX
 8
FULGOR
 10
6.7714
 20
-13.5249
 30
0.0025
 70
192
 0
VERTEX
 8
FULGOR
 10
6.8216
 20
-13.5357
 30
0.0025
 70
192
 0
VERTEX
 8
FULGOR
 10
7.0889
 20
-13.5327
 30
0.0025
 70
192
 0
VERTEX
 8
FULGOR
 10
7.2374
 20
-13.5041
 30
0.0025
 70
192
 0
VERTEX
 8
FULGOR
 10
6.9217
 20
-13.4529
 30
0.0025
 70
192
 0
VERTEX
 8
FULGOR
 10
6.8911
 20
-13.4505
 30
0.0025
 70
192
 0
VERTEX
 8
FULGOR
 10
7.2374
 20
-13.3116
 30
0.0025
 70
192
 0
VERTEX
 8
FULGOR
 10
6.8339
 20
-13.4377
 30
0.0025
 70
192
 0
VERTEX
 8
FULGOR
 10
6.8132
 20
-13.4296
 30
0.0025
 70
192
 0
VERTEX
 8
FULGOR
 10
7.0776
 20
-13.4435
 30
0.0025
 70
192
 0
VERTEX
 8
FULGOR
 10
7.0594
 20
-13.4469
 30
0.0025
 70
192
 0
VERTEX
 8
FULGOR
 10
6.7652
 20
-13.3991
 30
0.0025
 70
192
 0
VERTEX
 8
FULGOR
 10
7.0093
 20
-13.452
 30
0.0025
 70
192
 0
VERTEX
 8
FULGOR
 10
6.9725
 20
-13.4534
 30
0.0025
 70
192
 0
VERTEX
 8
FULGOR
 10
6.8617
 20
-13.4454
 30
0.0025
 70
192
 0
VERTEX
 8
FULGOR
 10
6.7941
 20
-13.4199
 30
0.0025
 70
192
 0
VERTEX
 8
FULGOR
 10
6.7299
 20
-13.3432
 30
0.0025
 70
192
 0
VERTEX
 8
FULGOR
 10
6.7278
 20
-13.3336
 30
0.0025
 70
192
 0
VERTEX
 8
FULGOR
 10
6.7265
 20
-13.3238
 30
0.0025
 70
192
 0
VERTEX
 8
FULGOR
 10
6.7261
 20
-13.3135
 30
0.0025
 70
192
 0
VERTEX
 8
FULGOR
 10
6.7266
 20
-13.3033
 30
0.0025
 70
192
 0
VERTEX
 8
FULGOR
 10
6.7768
 20
-13.4086
 30
0.0025
 70
192
 0
VERTEX
 8
FULGOR
 10
6.7549
 20
-13.3887
 30
0.0025
 70
192
 0
VERTEX
 8
FULGOR
 10
6.746
 20
-13.3774
 30
0.0025
 70
192
 0
VERTEX
 8
FULGOR
 10
6.7393
 20
-13.2671
 30
0.0025
 70
192
 0
VERTEX
 8
FULGOR
 10
6.7447
 20
-13.2591
 30
0.0025
 70
192
 0
VERTEX
 8
FULGOR
 10
6.7509
 20
-13.2517
 30
0.0025
 70
192
 0
VERTEX
 8
FULGOR
 10
6.7386
 20
-13.3653
 30
0.0025
 70
192
 0
VERTEX
 8
FULGOR
 10
6.7736
 20
-13.2318
 30
0.0025
 70
192
 0
VERTEX
 8
FULGOR
 10
6.7867
 20
-13.2233
 30
0.0025
 70
192
 0
VERTEX
 8
FULGOR
 10
6.7328
 20
-13.3523
 30
0.0025
 70
192
 0
VERTEX
 8
FULGOR
 10
6.8311
 20
-13.2036
 30
0.0025
 70
192
 0
VERTEX
 8
FULGOR
 10
6.8572
 20
-13.1961
 30
0.0025
 70
192
 0
VERTEX
 8
FULGOR
 10
6.7283
 20
-13.2936
 30
0.0025
 70
192
 0
VERTEX
 8
FULGOR
 10
6.9031
 20
-13.1889
 30
0.0025
 70
192
 0
VERTEX
 8
FULGOR
 10
6.731
 20
-13.2843
 30
0.0025
 70
192
 0
VERTEX
 8
FULGOR
 10
7.015
 20
-13.1926
 30
0.0025
 70
192
 0
VERTEX
 8
FULGOR
 10
6.7347
 20
-13.2755
 30
0.0025
 70
192
 0
VERTEX
 8
FULGOR
 10
7.2374
 20
-13.2327
 30
0.0025
 70
192
 0
VERTEX
 8
FULGOR
 10
7.3787
 20
-13.3203
 30
0.0025
 70
192
 0
VERTEX
 8
FULGOR
 10
7.3799
 20
-13.3403
 30
0.0025
 70
192
 0
VERTEX
 8
FULGOR
 10
6.7616
 20
-13.2413
 30
0.0025
 70
192
 0
VERTEX
 8
FULGOR
 10
6.8057
 20
-13.2135
 30
0.0025
 70
192
 0
VERTEX
 8
FULGOR
 10
7.3964
 20
-13.3938
 30
0.0025
 70
192
 0
VERTEX
 8
FULGOR
 10
7.4058
 20
-13.4095
 30
0.0025
 70
192
 0
VERTEX
 8
FULGOR
 10
7.4169
 20
-13.4242
 30
0.0025
 70
192
 0
VERTEX
 8
FULGOR
 10
7.4296
 20
-13.4379
 30
0.0025
 70
192
 0
VERTEX
 8
FULGOR
 10
7.4513
 20
-13.4567
 30
0.0025
 70
192
 0
VERTEX
 8
FULGOR
 10
6.8882
 20
-13.1905
 30
0.0025
 70
192
 0
VERTEX
 8
FULGOR
 10
6.9217
 20
-13.1882
 30
0.0025
 70
192
 0
VERTEX
 8
FULGOR
 10
7.1017
 20
-13.205
 30
0.0025
 70
192
 0
VERTEX
 8
FULGOR
 10
7.3833
 20
-13.3592
 30
0.0025
 70
192
 0
VERTEX
 8
FULGOR
 10
7.3889
 20
-13.3771
 30
0.0025
 70
192
 0
VERTEX
 8
FULGOR
 10
7.7206
 20
-13.5419
 30
0.0025
 70
192
 0
VERTEX
 8
FULGOR
 10
7.7788
 20
-13.5442
 30
0.0025
 70
192
 0
VERTEX
 8
FULGOR
 10
7.4759
 20
-13.4733
 30
0.0025
 70
192
 0
VERTEX
 8
FULGOR
 10
7.9214
 20
-13.5305
 30
0.0025
 70
192
 0
VERTEX
 8
FULGOR
 10
7.5028
 20
-13.488
 30
0.0025
 70
192
 0
VERTEX
 8
FULGOR
 10
7.5417
 20
-13.5045
 30
0.0025
 70
192
 0
VERTEX
 8
FULGOR
 10
7.5935
 20
-13.5208
 30
0.0025
 70
192
 0
VERTEX
 8
FULGOR
 10
7.6576
 20
-13.5343
 30
0.0025
 70
192
 0
VERTEX
 8
FULGOR
 10
7.8473
 20
-13.541
 30
0.0025
 70
192
 0
VERTEX
 8
FULGOR
 10
8.1344
 20
-13.4312
 30
0.0025
 70
192
 0
VERTEX
 8
FULGOR
 10
7.9851
 20
-13.5148
 30
0.0025
 70
192
 0
VERTEX
 8
FULGOR
 10
8.0356
 20
-13.4966
 30
0.0025
 70
192
 0
VERTEX
 8
FULGOR
 10
8.0729
 20
-13.4784
 30
0.0025
 70
192
 0
VERTEX
 8
FULGOR
 10
8.0983
 20
-13.4624
 30
0.0025
 70
192
 0
VERTEX
 8
FULGOR
 10
8.121
 20
-13.4444
 30
0.0025
 70
192
 0
VERTEX
 8
FULGOR
 10
8.1776
 20
-13.3404
 30
0.0025
 70
192
 0
VERTEX
 8
FULGOR
 10
8.1788
 20
-13.3204
 30
0.0025
 70
192
 0
VERTEX
 8
FULGOR
 10
8.1777
 20
-13.3004
 30
0.0025
 70
192
 0
VERTEX
 8
FULGOR
 10
8.1743
 20
-13.2815
 30
0.0025
 70
192
 0
VERTEX
 8
FULGOR
 10
8.1463
 20
-13.417
 30
0.0025
 70
192
 0
VERTEX
 8
FULGOR
 10
8.1566
 20
-13.4018
 30
0.0025
 70
192
 0
VERTEX
 8
FULGOR
 10
8.1651
 20
-13.3856
 30
0.0025
 70
192
 0
VERTEX
 8
FULGOR
 10
8.1408
 20
-13.2166
 30
0.0025
 70
192
 0
VERTEX
 8
FULGOR
 10
8.1281
 20
-13.2029
 30
0.0025
 70
192
 0
VERTEX
 8
FULGOR
 10
8.1064
 20
-13.1842
 30
0.0025
 70
192
 0
VERTEX
 8
FULGOR
 10
8.0818
 20
-13.1675
 30
0.0025
 70
192
 0
VERTEX
 8
FULGOR
 10
8.0549
 20
-13.1528
 30
0.0025
 70
192
 0
VERTEX
 8
FULGOR
 10
8.016
 20
-13.1362
 30
0.0025
 70
192
 0
VERTEX
 8
FULGOR
 10
8.1717
 20
-13.3684
 30
0.0025
 70
192
 0
VERTEX
 8
FULGOR
 10
8.1762
 20
-13.35
 30
0.0025
 70
192
 0
VERTEX
 8
FULGOR
 10
8.1688
 20
-13.2637
 30
0.0025
 70
192
 0
VERTEX
 8
FULGOR
 10
8.1613
 20
-13.247
 30
0.0025
 70
192
 0
VERTEX
 8
FULGOR
 10
7.7103
 20
-13.0996
 30
0.0025
 70
192
 0
VERTEX
 8
FULGOR
 10
8.1519
 20
-13.2313
 30
0.0025
 70
192
 0
VERTEX
 8
FULGOR
 10
7.9642
 20
-13.1199
 30
0.0025
 70
192
 0
VERTEX
 8
FULGOR
 10
7.9
 20
-13.1064
 30
0.0025
 70
192
 0
VERTEX
 8
FULGOR
 10
7.837
 20
-13.0987
 30
0.0025
 70
192
 0
VERTEX
 8
FULGOR
 10
7.4591
 20
-13.1781
 30
0.0025
 70
192
 0
VERTEX
 8
FULGOR
 10
7.4364
 20
-13.1962
 30
0.0025
 70
192
 0
VERTEX
 8
FULGOR
 10
7.4229
 20
-13.2094
 30
0.0025
 70
192
 0
VERTEX
 8
FULGOR
 10
7.411
 20
-13.2236
 30
0.0025
 70
192
 0
VERTEX
 8
FULGOR
 10
7.4008
 20
-13.2388
 30
0.0025
 70
192
 0
VERTEX
 8
FULGOR
 10
7.3923
 20
-13.255
 30
0.0025
 70
192
 0
VERTEX
 8
FULGOR
 10
7.3858
 20
-13.2723
 30
0.0025
 70
192
 0
VERTEX
 8
FULGOR
 10
7.7788
 20
-13.0963
 30
0.0025
 70
192
 0
VERTEX
 8
FULGOR
 10
7.3799
 20
-13.3002
 30
0.0025
 70
192
 0
VERTEX
 8
FULGOR
 10
7.5584
 20
-13.3204
 30
0.0025
 70
192
 0
VERTEX
 8
FULGOR
 10
7.5589
 20
-13.3313
 30
0.0025
 70
192
 0
VERTEX
 8
FULGOR
 10
7.6362
 20
-13.1101
 30
0.0025
 70
192
 0
VERTEX
 8
FULGOR
 10
7.5724
 20
-13.1257
 30
0.0025
 70
192
 0
VERTEX
 8
FULGOR
 10
7.5218
 20
-13.1439
 30
0.0025
 70
192
 0
VERTEX
 8
FULGOR
 10
7.4845
 20
-13.1622
 30
0.0025
 70
192
 0
VERTEX
 8
FULGOR
 10
7.3813
 20
-13.2907
 30
0.0025
 70
192
 0
VERTEX
 8
FULGOR
 10
7.5805
 20
-13.386
 30
0.0025
 70
192
 0
VERTEX
 8
FULGOR
 10
7.5869
 20
-13.3935
 30
0.0025
 70
192
 0
VERTEX
 8
FULGOR
 10
7.5604
 20
-13.3416
 30
0.0025
 70
192
 0
VERTEX
 8
FULGOR
 10
7.5627
 20
-13.3515
 30
0.0025
 70
192
 0
VERTEX
 8
FULGOR
 10
7.5659
 20
-13.3609
 30
0.0025
 70
192
 0
VERTEX
 8
FULGOR
 10
7.57
 20
-13.3697
 30
0.0025
 70
192
 0
VERTEX
 8
FULGOR
 10
7.667
 20
-13.4385
 30
0.0025
 70
192
 0
VERTEX
 8
FULGOR
 10
7.6975
 20
-13.4457
 30
0.0025
 70
192
 0
VERTEX
 8
FULGOR
 10
7.5748
 20
-13.3781
 30
0.0025
 70
192
 0
VERTEX
 8
FULGOR
 10
7.7788
 20
-13.4528
 30
0.0025
 70
192
 0
VERTEX
 8
FULGOR
 10
7.8274
 20
-13.4504
 30
0.0025
 70
192
 0
VERTEX
 8
FULGOR
 10
7.5978
 20
-13.4038
 30
0.0025
 70
192
 0
VERTEX
 8
FULGOR
 10
7.8965
 20
-13.4367
 30
0.0025
 70
192
 0
VERTEX
 8
FULGOR
 10
7.9184
 20
-13.4285
 30
0.0025
 70
192
 0
VERTEX
 8
FULGOR
 10
7.9383
 20
-13.4186
 30
0.0025
 70
192
 0
VERTEX
 8
FULGOR
 10
7.6103
 20
-13.4131
 30
0.0025
 70
192
 0
VERTEX
 8
FULGOR
 10
7.9637
 20
-13.4004
 30
0.0025
 70
192
 0
VERTEX
 8
FULGOR
 10
7.6241
 20
-13.4213
 30
0.0025
 70
192
 0
VERTEX
 8
FULGOR
 10
7.6445
 20
-13.4308
 30
0.0025
 70
192
 0
VERTEX
 8
FULGOR
 10
7.9854
 20
-13.3739
 30
0.0025
 70
192
 0
VERTEX
 8
FULGOR
 10
7.737
 20
-13.451
 30
0.0025
 70
192
 0
VERTEX
 8
FULGOR
 10
7.8665
 20
-13.4444
 30
0.0025
 70
192
 0
VERTEX
 8
FULGOR
 10
7.9517
 20
-13.41
 30
0.0025
 70
192
 0
VERTEX
 8
FULGOR
 10
7.9982
 20
-13.3365
 30
0.0025
 70
192
 0
VERTEX
 8
FULGOR
 10
7.9988
 20
-13.3313
 30
0.0025
 70
192
 0
VERTEX
 8
FULGOR
 10
7.9993
 20
-13.3204
 30
0.0025
 70
192
 0
VERTEX
 8
FULGOR
 10
7.9988
 20
-13.3096
 30
0.0025
 70
192
 0
VERTEX
 8
FULGOR
 10
7.9741
 20
-13.3898
 30
0.0025
 70
192
 0
VERTEX
 8
FULGOR
 10
7.9801
 20
-13.3821
 30
0.0025
 70
192
 0
VERTEX
 8
FULGOR
 10
7.9918
 20
-13.2801
 30
0.0025
 70
192
 0
VERTEX
 8
FULGOR
 10
7.9877
 20
-13.2712
 30
0.0025
 70
192
 0
VERTEX
 8
FULGOR
 10
7.9899
 20
-13.3653
 30
0.0025
 70
192
 0
VERTEX
 8
FULGOR
 10
7.9935
 20
-13.3562
 30
0.0025
 70
192
 0
VERTEX
 8
FULGOR
 10
7.9708
 20
-13.2475
 30
0.0025
 70
192
 0
VERTEX
 8
FULGOR
 10
7.9963
 20
-13.3466
 30
0.0025
 70
192
 0
VERTEX
 8
FULGOR
 10
7.9974
 20
-13.2993
 30
0.0025
 70
192
 0
VERTEX
 8
FULGOR
 10
7.9335
 20
-13.2198
 30
0.0025
 70
192
 0
VERTEX
 8
FULGOR
 10
7.9131
 20
-13.2104
 30
0.0025
 70
192
 0
VERTEX
 8
FULGOR
 10
7.995
 20
-13.2894
 30
0.0025
 70
192
 0
VERTEX
 8
FULGOR
 10
7.9828
 20
-13.2629
 30
0.0025
 70
192
 0
VERTEX
 8
FULGOR
 10
7.9772
 20
-13.255
 30
0.0025
 70
192
 0
VERTEX
 8
FULGOR
 10
7.9598
 20
-13.2373
 30
0.0025
 70
192
 0
VERTEX
 8
FULGOR
 10
7.7302
 20
-13.1908
 30
0.0025
 70
192
 0
VERTEX
 8
FULGOR
 10
7.6912
 20
-13.1967
 30
0.0025
 70
192
 0
VERTEX
 8
FULGOR
 10
7.6613
 20
-13.2044
 30
0.0025
 70
192
 0
VERTEX
 8
FULGOR
 10
7.9474
 20
-13.228
 30
0.0025
 70
192
 0
VERTEX
 8
FULGOR
 10
7.8906
 20
-13.2027
 30
0.0025
 70
192
 0
VERTEX
 8
FULGOR
 10
7.8601
 20
-13.1955
 30
0.0025
 70
192
 0
VERTEX
 8
FULGOR
 10
7.8206
 20
-13.1902
 30
0.0025
 70
192
 0
VERTEX
 8
FULGOR
 10
7.7788
 20
-13.1885
 30
0.0025
 70
192
 0
VERTEX
 8
FULGOR
 10
7.6393
 20
-13.2125
 30
0.0025
 70
192
 0
VERTEX
 8
FULGOR
 10
7.6194
 20
-13.2224
 30
0.0025
 70
192
 0
VERTEX
 8
FULGOR
 10
7.606
 20
-13.2309
 30
0.0025
 70
192
 0
VERTEX
 8
FULGOR
 10
7.5941
 20
-13.2405
 30
0.0025
 70
192
 0
VERTEX
 8
FULGOR
 10
7.5836
 20
-13.2511
 30
0.0025
 70
192
 0
VERTEX
 8
FULGOR
 10
7.5776
 20
-13.2588
 30
0.0025
 70
192
 0
VERTEX
 8
FULGOR
 10
7.5723
 20
-13.2669
 30
0.0025
 70
192
 0
VERTEX
 8
FULGOR
 10
7.5678
 20
-13.2755
 30
0.0025
 70
192
 0
VERTEX
 8
FULGOR
 10
7.5642
 20
-13.2846
 30
0.0025
 70
192
 0
VERTEX
 8
FULGOR
 10
7.5614
 20
-13.2942
 30
0.0025
 70
192
 0
VERTEX
 8
FULGOR
 10
8.5438
 20
-13.3551
 30
0.0025
 70
192
 0
VERTEX
 8
FULGOR
 10
7.5595
 20
-13.3043
 30
0.0025
 70
192
 0
VERTEX
 8
FULGOR
 10
7.5589
 20
-13.3096
 30
0.0025
 70
192
 0
VERTEX
 8
FULGOR
 10
8.32
 20
-13.5455
 30
0.0025
 70
192
 0
VERTEX
 8
FULGOR
 10
8.4592
 20
-13.5455
 30
0.0025
 70
192
 0
VERTEX
 8
FULGOR
 10
8.4592
 20
-13.3551
 30
0.0025
 70
192
 0
VERTEX
 8
FULGOR
 10
8.642
 20
-13.4002
 30
0.0025
 70
192
 0
VERTEX
 8
FULGOR
 10
8.6528
 20
-13.4117
 30
0.0025
 70
192
 0
VERTEX
 8
FULGOR
 10
8.7505
 20
-13.5455
 30
0.0025
 70
192
 0
VERTEX
 8
FULGOR
 10
8.9987
 20
-13.5455
 30
0.0025
 70
192
 0
VERTEX
 8
FULGOR
 10
8.9653
 20
-13.5281
 30
0.0025
 70
192
 0
VERTEX
 8
FULGOR
 10
8.5898
 20
-13.3644
 30
0.0025
 70
192
 0
VERTEX
 8
FULGOR
 10
8.6012
 20
-13.3698
 30
0.0025
 70
192
 0
VERTEX
 8
FULGOR
 10
8.917
 20
-13.4948
 30
0.0025
 70
192
 0
VERTEX
 8
FULGOR
 10
8.8808
 20
-13.461
 30
0.0025
 70
192
 0
VERTEX
 8
FULGOR
 10
8.32
 20
-13.2751
 30
0.0025
 70
192
 0
VERTEX
 8
FULGOR
 10
8.8347
 20
-13.3989
 30
0.0025
 70
192
 0
VERTEX
 8
FULGOR
 10
8.8123
 20
-13.3736
 30
0.0025
 70
192
 0
VERTEX
 8
FULGOR
 10
8.7911
 20
-13.3555
 30
0.0025
 70
192
 0
VERTEX
 8
FULGOR
 10
8.6283
 20
-13.3879
 30
0.0025
 70
192
 0
VERTEX
 8
FULGOR
 10
7.8854
 20
-13.5356
 30
0.0025
 70
192
 0
VERTEX
 8
FULGOR
 10
8.7401
 20
-13.328
 30
0.0025
 70
192
 0
VERTEX
 8
FULGOR
 10
8.9373
 20
-13.5106
 30
0.0025
 70
192
 0
VERTEX
 8
FULGOR
 10
8.8075
 20
-13.2997
 30
0.0025
 70
192
 0
VERTEX
 8
FULGOR
 10
8.7706
 20
-13.342
 30
0.0025
 70
192
 0
VERTEX
 8
FULGOR
 10
8.8312
 20
-13.2802
 30
0.0025
 70
192
 0
VERTEX
 8
FULGOR
 10
8.7549
 20
-13.3337
 30
0.0025
 70
192
 0
VERTEX
 8
FULGOR
 10
8.8536
 20
-13.2456
 30
0.0025
 70
192
 0
VERTEX
 8
FULGOR
 10
8.8585
 20
-13.2264
 30
0.0025
 70
192
 0
VERTEX
 8
FULGOR
 10
8.7724
 20
-13.3178
 30
0.0025
 70
192
 0
VERTEX
 8
FULGOR
 10
8.8564
 20
-13.1893
 30
0.0025
 70
192
 0
VERTEX
 8
FULGOR
 10
8.8482
 20
-13.1708
 30
0.0025
 70
192
 0
VERTEX
 8
FULGOR
 10
8.8354
 20
-13.1548
 30
0.0025
 70
192
 0
VERTEX
 8
FULGOR
 10
8.8144
 20
-13.138
 30
0.0025
 70
192
 0
VERTEX
 8
FULGOR
 10
8.8452
 20
-13.2624
 30
0.0025
 70
192
 0
VERTEX
 8
FULGOR
 10
8.7124
 20
-13.1025
 30
0.0025
 70
192
 0
VERTEX
 8
FULGOR
 10
8.6716
 20
-13.097
 30
0.0025
 70
192
 0
VERTEX
 8
FULGOR
 10
8.8596
 20
-13.2103
 30
0.0025
 70
192
 0
VERTEX
 8
FULGOR
 10
8.4592
 20
-13.1752
 30
0.0025
 70
192
 0
VERTEX
 8
FULGOR
 10
8.7778
 20
-13.1199
 30
0.0025
 70
192
 0
VERTEX
 8
FULGOR
 10
8.6317
 20
-13.095
 30
0.0025
 70
192
 0
VERTEX
 8
FULGOR
 10
8.32
 20
-13.095
 30
0.0025
 70
192
 0
VERTEX
 8
FULGOR
 10
8.4592
 20
-13.2749
 30
0.0025
 70
192
 0
VERTEX
 8
FULGOR
 10
8.586
 20
-13.2751
 30
0.0025
 70
192
 0
VERTEX
 8
FULGOR
 10
8.6221
 20
-13.2721
 30
0.0025
 70
192
 0
VERTEX
 8
FULGOR
 10
8.6629
 20
-13.2574
 30
0.0025
 70
192
 0
VERTEX
 8
FULGOR
 10
8.6719
 20
-13.2501
 30
0.0025
 70
192
 0
VERTEX
 8
FULGOR
 10
8.6774
 20
-13.2432
 30
0.0025
 70
192
 0
VERTEX
 8
FULGOR
 10
8.6824
 20
-13.2186
 30
0.0025
 70
192
 0
VERTEX
 8
FULGOR
 10
8.68
 20
-13.2098
 30
0.0025
 70
192
 0
VERTEX
 8
FULGOR
 10
8.6147
 20
-13.1768
 30
0.0025
 70
192
 0
VERTEX
 8
FULGOR
 10
8.66
 20
-13.1893
 30
0.0025
 70
192
 0
VERTEX
 8
FULGOR
 10
8.5988
 20
-13.1755
 30
0.0025
 70
192
 0
VERTEX
 8
FULGOR
 10
8.6437
 20
-13.1826
 30
0.0025
 70
192
 0
VERTEX
 8
FULGOR
 10
8.6308
 20
-13.1793
 30
0.0025
 70
192
 0
VERTEX
 8
FULGOR
 10
7.6251
 20
-13.5274
 30
0.0025
 70
192
 0
VERTEX
 8
FULGOR
 10
7.5702
 20
-13.5135
 30
0.0025
 70
192
 0
VERTEX
 8
FULGOR
 10
8.5818
 20
-13.1752
 30
0.0025
 70
192
 0
VERTEX
 8
FULGOR
 10
8.579
 20
-13.095
 30
0.0025
 70
192
 0
VERTEX
 8
FULGOR
 10
8.6753
 20
-13.2022
 30
0.0025
 70
192
 0
VERTEX
 8
FULGOR
 10
8.6693
 20
-13.1959
 30
0.0025
 70
192
 0
VERTEX
 8
FULGOR
 10
8.6826
 20
-13.2271
 30
0.0025
 70
192
 0
VERTEX
 8
FULGOR
 10
8.6811
 20
-13.2353
 30
0.0025
 70
192
 0
VERTEX
 8
FULGOR
 10
8.5437
 20
-13.275
 30
0.0025
 70
192
 0
VERTEX
 8
FULGOR
 10
8.7454
 20
-13.5385
 30
0.0025
 70
192
 0
VERTEX
 8
FULGOR
 10
8.7383
 20
-13.5287
 30
0.0025
 70
192
 0
VERTEX
 8
FULGOR
 10
6.876
 20
-13.4479
 30
0.0025
 70
192
 0
VERTEX
 8
FULGOR
 10
8.7255
 20
-13.511
 30
0.0025
 70
192
 0
VERTEX
 8
FULGOR
 10
8.7136
 20
-13.4946
 30
0.0025
 70
192
 0
VERTEX
 8
FULGOR
 10
6.9059
 20
-13.4517
 30
0.0025
 70
192
 0
VERTEX
 8
FULGOR
 10
8.32
 20
-13.3552
 30
0.0025
 70
192
 0
VERTEX
 8
FULGOR
 10
8.6817
 20
-13.4505
 30
0.0025
 70
192
 0
VERTEX
 8
FULGOR
 10
8.6698
 20
-13.434
 30
0.0025
 70
192
 0
VERTEX
 8
FULGOR
 10
0
 20
0
 30
0
 70
128
 71
244
 72
245
 73
188
 74
3
 0
VERTEX
 8
FULGOR
 10
0
 20
0
 30
0
 70
128
 71
137
 72
135
 73
127
 74
120
 0
VERTEX
 8
FULGOR
 10
0
 20
0
 30
0
 70
128
 71
287
 72
288
 73
220
 74
219
 0
VERTEX
 8
FULGOR
 10
0
 20
0
 30
0
 70
128
 71
135
 72
134
 73
128
 74
127
 0
VERTEX
 8
FULGOR
 10
0
 20
0
 30
0
 70
128
 71
145
 72
144
 73
106
 74
99
 0
VERTEX
 8
FULGOR
 10
0
 20
0
 30
0
 70
128
 71
152
 72
148
 73
115
 74
112
 0
VERTEX
 8
FULGOR
 10
0
 20
0
 30
0
 70
128
 71
288
 72
289
 73
221
 74
220
 0
VERTEX
 8
FULGOR
 10
0
 20
0
 30
0
 70
128
 71
155
 72
152
 73
112
 74
109
 0
VERTEX
 8
FULGOR
 10
0
 20
0
 30
0
 70
128
 71
141
 72
155
 73
109
 74
103
 0
VERTEX
 8
FULGOR
 10
0
 20
0
 30
0
 70
128
 71
289
 72
290
 73
230
 74
221
 0
VERTEX
 8
FULGOR
 10
0
 20
0
 30
0
 70
128
 71
290
 72
292
 73
223
 74
230
 0
VERTEX
 8
FULGOR
 10
0
 20
0
 30
0
 70
128
 71
142
 72
141
 73
103
 74
108
 0
VERTEX
 8
FULGOR
 10
0
 20
0
 30
0
 70
128
 71
143
 72
142
 73
108
 74
107
 0
VERTEX
 8
FULGOR
 10
0
 20
0
 30
0
 70
128
 71
144
 72
143
 73
107
 74
106
 0
VERTEX
 8
FULGOR
 10
0
 20
0
 30
0
 70
128
 71
254
 72
255
 73
207
 74
206
 0
VERTEX
 8
FULGOR
 10
0
 20
0
 30
0
 70
128
 71
265
 72
254
 73
206
 74
199
 0
VERTEX
 8
FULGOR
 10
0
 20
0
 30
0
 70
128
 71
263
 72
265
 73
199
 74
198
 0
VERTEX
 8
FULGOR
 10
0
 20
0
 30
0
 70
128
 71
251
 72
240
 73
179
 74
178
 0
VERTEX
 8
FULGOR
 10
0
 20
0
 30
0
 70
128
 71
5
 72
8
 73
7
 74
6
 0
VERTEX
 8
FULGOR
 10
0
 20
0
 30
0
 70
128
 71
8
 72
5
 73
4
 74
4
 0
VERTEX
 8
FULGOR
 10
0
 20
0
 30
0
 70
128
 71
8
 72
4
 73
13
 74
2
 0
VERTEX
 8
FULGOR
 10
0
 20
0
 30
0
 70
128
 71
237
 72
238
 73
185
 74
346
 0
VERTEX
 8
FULGOR
 10
0
 20
0
 30
0
 70
128
 71
339
 72
340
 73
321
 74
328
 0
VERTEX
 8
FULGOR
 10
0
 20
0
 30
0
 70
128
 71
161
 72
174
 73
84
 74
89
 0
VERTEX
 8
FULGOR
 10
0
 20
0
 30
0
 70
128
 71
174
 72
159
 73
90
 74
84
 0
VERTEX
 8
FULGOR
 10
0
 20
0
 30
0
 70
128
 71
249
 72
237
 73
346
 74
184
 0
VERTEX
 8
FULGOR
 10
0
 20
0
 30
0
 70
128
 71
248
 72
249
 73
184
 74
347
 0
VERTEX
 8
FULGOR
 10
0
 20
0
 30
0
 70
128
 71
159
 72
173
 73
95
 74
90
 0
VERTEX
 8
FULGOR
 10
0
 20
0
 30
0
 70
128
 71
173
 72
157
 73
96
 74
95
 0
VERTEX
 8
FULGOR
 10
0
 20
0
 30
0
 70
128
 71
246
 72
248
 73
347
 74
183
 0
VERTEX
 8
FULGOR
 10
0
 20
0
 30
0
 70
128
 71
362
 72
307
 73
305
 74
359
 0
VERTEX
 8
FULGOR
 10
0
 20
0
 30
0
 70
128
 71
151
 72
150
 73
94
 74
93
 0
VERTEX
 8
FULGOR
 10
0
 20
0
 30
0
 70
128
 71
353
 72
352
 73
319
 74
318
 0
VERTEX
 8
FULGOR
 10
0
 20
0
 30
0
 70
128
 71
175
 72
161
 73
89
 74
88
 0
VERTEX
 8
FULGOR
 10
0
 20
0
 30
0
 70
128
 71
253
 72
247
 73
190
 74
189
 0
VERTEX
 8
FULGOR
 10
0
 20
0
 30
0
 70
128
 71
153
 72
166
 73
92
 74
91
 0
VERTEX
 8
FULGOR
 10
0
 20
0
 30
0
 70
128
 71
166
 72
151
 73
93
 74
92
 0
VERTEX
 8
FULGOR
 10
0
 20
0
 30
0
 70
128
 71
273
 72
274
 73
226
 74
210
 0
VERTEX
 8
FULGOR
 10
0
 20
0
 30
0
 70
128
 71
163
 72
175
 73
88
 74
81
 0
VERTEX
 8
FULGOR
 10
0
 20
0
 30
0
 70
128
 71
167
 72
154
 73
101
 74
100
 0
VERTEX
 8
FULGOR
 10
0
 20
0
 30
0
 70
128
 71
154
 72
153
 73
91
 74
101
 0
VERTEX
 8
FULGOR
 10
0
 20
0
 30
0
 70
128
 71
274
 72
275
 73
227
 74
226
 0
VERTEX
 8
FULGOR
 10
0
 20
0
 30
0
 70
128
 71
13
 72
12
 73
2
 74
2
 0
VERTEX
 8
FULGOR
 10
0
 20
0
 30
0
 70
128
 71
13
 72
4
 73
15
 74
14
 0
VERTEX
 8
FULGOR
 10
0
 20
0
 30
0
 70
128
 71
16
 72
74
 73
73
 74
9
 0
VERTEX
 8
FULGOR
 10
0
 20
0
 30
0
 70
128
 71
73
 72
72
 73
10
 74
9
 0
VERTEX
 8
FULGOR
 10
0
 20
0
 30
0
 70
128
 71
72
 72
82
 73
11
 74
10
 0
VERTEX
 8
FULGOR
 10
0
 20
0
 30
0
 70
128
 71
82
 72
70
 73
18
 74
17
 0
VERTEX
 8
FULGOR
 10
0
 20
0
 30
0
 70
128
 71
58
 72
57
 73
40
 74
39
 0
VERTEX
 8
FULGOR
 10
0
 20
0
 30
0
 70
128
 71
82
 72
17
 73
11
 74
11
 0
VERTEX
 8
FULGOR
 10
0
 20
0
 30
0
 70
128
 71
43
 72
58
 73
39
 74
38
 0
VERTEX
 8
FULGOR
 10
0
 20
0
 30
0
 70
128
 71
70
 72
69
 73
20
 74
19
 0
VERTEX
 8
FULGOR
 10
0
 20
0
 30
0
 70
128
 71
70
 72
19
 73
18
 74
18
 0
VERTEX
 8
FULGOR
 10
0
 20
0
 30
0
 70
128
 71
69
 72
68
 73
27
 74
20
 0
VERTEX
 8
FULGOR
 10
0
 20
0
 30
0
 70
128
 71
68
 72
67
 73
29
 74
27
 0
VERTEX
 8
FULGOR
 10
0
 20
0
 30
0
 70
128
 71
67
 72
66
 73
30
 74
29
 0
VERTEX
 8
FULGOR
 10
0
 20
0
 30
0
 70
128
 71
66
 72
78
 73
31
 74
30
 0
VERTEX
 8
FULGOR
 10
0
 20
0
 30
0
 70
128
 71
78
 72
77
 73
32
 74
31
 0
VERTEX
 8
FULGOR
 10
0
 20
0
 30
0
 70
128
 71
32
 72
77
 73
76
 74
21
 0
VERTEX
 8
FULGOR
 10
0
 20
0
 30
0
 70
128
 71
76
 72
62
 73
21
 74
21
 0
VERTEX
 8
FULGOR
 10
0
 20
0
 30
0
 70
128
 71
62
 72
61
 73
22
 74
21
 0
VERTEX
 8
FULGOR
 10
0
 20
0
 30
0
 70
128
 71
61
 72
75
 73
22
 74
22
 0
VERTEX
 8
FULGOR
 10
0
 20
0
 30
0
 70
128
 71
75
 72
59
 73
23
 74
22
 0
VERTEX
 8
FULGOR
 10
0
 20
0
 30
0
 70
128
 71
23
 72
59
 73
71
 74
24
 0
VERTEX
 8
FULGOR
 10
0
 20
0
 30
0
 70
128
 71
275
 72
281
 73
228
 74
227
 0
VERTEX
 8
FULGOR
 10
0
 20
0
 30
0
 70
128
 71
157
 72
156
 73
97
 74
96
 0
VERTEX
 8
FULGOR
 10
0
 20
0
 30
0
 70
128
 71
291
 72
296
 73
333
 74
354
 0
VERTEX
 8
FULGOR
 10
0
 20
0
 30
0
 70
128
 71
281
 72
282
 73
229
 74
228
 0
VERTEX
 8
FULGOR
 10
0
 20
0
 30
0
 70
128
 71
282
 72
283
 73
215
 74
229
 0
VERTEX
 8
FULGOR
 10
0
 20
0
 30
0
 70
128
 71
283
 72
284
 73
216
 74
215
 0
VERTEX
 8
FULGOR
 10
0
 20
0
 30
0
 70
128
 71
129
 72
1
 73
118
 74
117
 0
VERTEX
 8
FULGOR
 10
0
 20
0
 30
0
 70
128
 71
238
 72
251
 73
178
 74
185
 0
VERTEX
 8
FULGOR
 10
0
 20
0
 30
0
 70
128
 71
245
 72
253
 73
189
 74
188
 0
VERTEX
 8
FULGOR
 10
0
 20
0
 30
0
 70
128
 71
337
 72
338
 73
325
 74
316
 0
VERTEX
 8
FULGOR
 10
0
 20
0
 30
0
 70
128
 71
336
 72
337
 73
316
 74
314
 0
VERTEX
 8
FULGOR
 10
0
 20
0
 30
0
 70
128
 71
241
 72
252
 73
311
 74
186
 0
VERTEX
 8
FULGOR
 10
0
 20
0
 30
0
 70
128
 71
24
 72
71
 73
65
 74
25
 0
VERTEX
 8
FULGOR
 10
0
 20
0
 30
0
 70
128
 71
65
 72
64
 73
25
 74
25
 0
VERTEX
 8
FULGOR
 10
0
 20
0
 30
0
 70
128
 71
156
 72
167
 73
100
 74
97
 0
VERTEX
 8
FULGOR
 10
0
 20
0
 30
0
 70
128
 71
149
 72
162
 73
104
 74
102
 0
VERTEX
 8
FULGOR
 10
0
 20
0
 30
0
 70
128
 71
64
 72
63
 73
26
 74
25
 0
VERTEX
 8
FULGOR
 10
0
 20
0
 30
0
 70
128
 71
162
 72
160
 73
105
 74
104
 0
VERTEX
 8
FULGOR
 10
0
 20
0
 30
0
 70
128
 71
63
 72
60
 73
26
 74
26
 0
VERTEX
 8
FULGOR
 10
0
 20
0
 30
0
 70
128
 71
266
 72
269
 73
196
 74
195
 0
VERTEX
 8
FULGOR
 10
0
 20
0
 30
0
 70
128
 71
360
 72
129
 73
117
 74
126
 0
VERTEX
 8
FULGOR
 10
0
 20
0
 30
0
 70
128
 71
60
 72
53
 73
34
 74
26
 0
VERTEX
 8
FULGOR
 10
0
 20
0
 30
0
 70
128
 71
53
 72
52
 73
34
 74
34
 0
VERTEX
 8
FULGOR
 10
0
 20
0
 30
0
 70
128
 71
52
 72
51
 73
28
 74
34
 0
VERTEX
 8
FULGOR
 10
0
 20
0
 30
0
 70
128
 71
51
 72
50
 73
35
 74
28
 0
VERTEX
 8
FULGOR
 10
0
 20
0
 30
0
 70
128
 71
50
 72
49
 73
36
 74
35
 0
VERTEX
 8
FULGOR
 10
0
 20
0
 30
0
 70
128
 71
36
 72
49
 73
48
 74
37
 0
VERTEX
 8
FULGOR
 10
0
 20
0
 30
0
 70
128
 71
44
 72
43
 73
38
 74
56
 0
VERTEX
 8
FULGOR
 10
0
 20
0
 30
0
 70
128
 71
37
 72
48
 73
47
 74
41
 0
VERTEX
 8
FULGOR
 10
0
 20
0
 30
0
 70
128
 71
33
 72
47
 73
46
 74
42
 0
VERTEX
 8
FULGOR
 10
0
 20
0
 30
0
 70
128
 71
45
 72
55
 73
54
 74
54
 0
VERTEX
 8
FULGOR
 10
0
 20
0
 30
0
 70
128
 71
47
 72
33
 73
41
 74
41
 0
VERTEX
 8
FULGOR
 10
0
 20
0
 30
0
 70
128
 71
42
 72
46
 73
45
 74
54
 0
VERTEX
 8
FULGOR
 10
0
 20
0
 30
0
 70
128
 71
55
 72
45
 73
44
 74
56
 0
VERTEX
 8
FULGOR
 10
0
 20
0
 30
0
 70
128
 71
83
 72
80
 73
79
 74
85
 0
VERTEX
 8
FULGOR
 10
0
 20
0
 30
0
 70
128
 71
79
 72
87
 73
86
 74
85
 0
VERTEX
 8
FULGOR
 10
0
 20
0
 30
0
 70
128
 71
134
 72
124
 73
131
 74
128
 0
VERTEX
 8
FULGOR
 10
0
 20
0
 30
0
 70
128
 71
334
 72
335
 73
320
 74
312
 0
VERTEX
 8
FULGOR
 10
0
 20
0
 30
0
 70
128
 71
308
 72
307
 73
362
 74
363
 0
VERTEX
 8
FULGOR
 10
0
 20
0
 30
0
 70
128
 71
139
 72
357
 73
114
 74
113
 0
VERTEX
 8
FULGOR
 10
0
 20
0
 30
0
 70
128
 71
305
 72
304
 73
358
 74
359
 0
VERTEX
 8
FULGOR
 10
0
 20
0
 30
0
 70
128
 71
335
 72
336
 73
314
 74
320
 0
VERTEX
 8
FULGOR
 10
0
 20
0
 30
0
 70
128
 71
355
 72
356
 73
313
 74
301
 0
VERTEX
 8
FULGOR
 10
0
 20
0
 30
0
 70
128
 71
301
 72
300
 73
299
 74
355
 0
VERTEX
 8
FULGOR
 10
0
 20
0
 30
0
 70
128
 71
352
 72
339
 73
328
 74
319
 0
VERTEX
 8
FULGOR
 10
0
 20
0
 30
0
 70
128
 71
343
 72
348
 73
349
 74
331
 0
VERTEX
 8
FULGOR
 10
0
 20
0
 30
0
 70
128
 71
342
 72
344
 73
330
 74
324
 0
VERTEX
 8
FULGOR
 10
0
 20
0
 30
0
 70
128
 71
262
 72
263
 73
198
 74
197
 0
VERTEX
 8
FULGOR
 10
0
 20
0
 30
0
 70
128
 71
303
 72
312
 73
317
 74
310
 0
VERTEX
 8
FULGOR
 10
0
 20
0
 30
0
 70
128
 71
250
 72
262
 73
197
 74
187
 0
VERTEX
 8
FULGOR
 10
0
 20
0
 30
0
 70
128
 71
291
 72
354
 73
334
 74
302
 0
VERTEX
 8
FULGOR
 10
0
 20
0
 30
0
 70
128
 71
341
 72
343
 73
331
 74
327
 0
VERTEX
 8
FULGOR
 10
0
 20
0
 30
0
 70
128
 71
150
 72
149
 73
102
 74
94
 0
VERTEX
 8
FULGOR
 10
0
 20
0
 30
0
 70
128
 71
1
 72
138
 73
119
 74
118
 0
VERTEX
 8
FULGOR
 10
0
 20
0
 30
0
 70
128
 71
338
 72
353
 73
318
 74
325
 0
VERTEX
 8
FULGOR
 10
0
 20
0
 30
0
 70
128
 71
280
 72
273
 73
210
 74
222
 0
VERTEX
 8
FULGOR
 10
0
 20
0
 30
0
 70
128
 71
285
 72
286
 73
218
 74
217
 0
VERTEX
 8
FULGOR
 10
0
 20
0
 30
0
 70
128
 71
160
 72
158
 73
98
 74
105
 0
VERTEX
 8
FULGOR
 10
0
 20
0
 30
0
 70
128
 71
138
 72
137
 73
120
 74
119
 0
VERTEX
 8
FULGOR
 10
0
 20
0
 30
0
 70
128
 71
286
 72
287
 73
219
 74
218
 0
VERTEX
 8
FULGOR
 10
0
 20
0
 30
0
 70
128
 71
261
 72
270
 73
211
 74
209
 0
VERTEX
 8
FULGOR
 10
0
 20
0
 30
0
 70
128
 71
348
 72
329
 73
332
 74
349
 0
VERTEX
 8
FULGOR
 10
0
 20
0
 30
0
 70
128
 71
329
 72
333
 73
306
 74
332
 0
VERTEX
 8
FULGOR
 10
0
 20
0
 30
0
 70
128
 71
333
 72
296
 73
361
 74
306
 0
VERTEX
 8
FULGOR
 10
0
 20
0
 30
0
 70
128
 71
296
 72
295
 73
294
 74
361
 0
VERTEX
 8
FULGOR
 10
0
 20
0
 30
0
 70
128
 71
358
 72
304
 73
313
 74
356
 0
VERTEX
 8
FULGOR
 10
0
 20
0
 30
0
 70
128
 71
148
 72
147
 73
116
 74
115
 0
VERTEX
 8
FULGOR
 10
0
 20
0
 30
0
 70
128
 71
158
 72
145
 73
99
 74
98
 0
VERTEX
 8
FULGOR
 10
0
 20
0
 30
0
 70
128
 71
260
 72
261
 73
209
 74
208
 0
VERTEX
 8
FULGOR
 10
0
 20
0
 30
0
 70
128
 71
269
 72
260
 73
208
 74
196
 0
VERTEX
 8
FULGOR
 10
0
 20
0
 30
0
 70
128
 71
276
 72
267
 73
204
 74
203
 0
VERTEX
 8
FULGOR
 10
0
 20
0
 30
0
 70
128
 71
232
 72
242
 73
182
 74
180
 0
VERTEX
 8
FULGOR
 10
0
 20
0
 30
0
 70
128
 71
242
 72
246
 73
183
 74
182
 0
VERTEX
 8
FULGOR
 10
0
 20
0
 30
0
 70
128
 71
272
 72
276
 73
203
 74
202
 0
VERTEX
 8
FULGOR
 10
0
 20
0
 30
0
 70
128
 71
264
 72
272
 73
202
 74
201
 0
VERTEX
 8
FULGOR
 10
0
 20
0
 30
0
 70
128
 71
240
 72
241
 73
186
 74
179
 0
VERTEX
 8
FULGOR
 10
0
 20
0
 30
0
 70
128
 71
147
 72
136
 73
121
 74
116
 0
VERTEX
 8
FULGOR
 10
0
 20
0
 30
0
 70
128
 71
340
 72
350
 73
322
 74
321
 0
VERTEX
 8
FULGOR
 10
0
 20
0
 30
0
 70
128
 71
303
 72
302
 73
334
 74
312
 0
VERTEX
 8
FULGOR
 10
0
 20
0
 30
0
 70
128
 71
345
 72
341
 73
327
 74
326
 0
VERTEX
 8
FULGOR
 10
0
 20
0
 30
0
 70
128
 71
252
 72
243
 73
181
 74
311
 0
VERTEX
 8
FULGOR
 10
0
 20
0
 30
0
 70
128
 71
344
 72
345
 73
326
 74
330
 0
VERTEX
 8
FULGOR
 10
0
 20
0
 30
0
 70
128
 71
231
 72
232
 73
180
 74
172
 0
VERTEX
 8
FULGOR
 10
0
 20
0
 30
0
 70
128
 71
257
 72
266
 73
195
 74
194
 0
VERTEX
 8
FULGOR
 10
0
 20
0
 30
0
 70
128
 71
256
 72
257
 73
194
 74
193
 0
VERTEX
 8
FULGOR
 10
0
 20
0
 30
0
 70
128
 71
297
 72
310
 73
317
 74
315
 0
VERTEX
 8
FULGOR
 10
0
 20
0
 30
0
 70
128
 71
357
 72
130
 73
125
 74
114
 0
VERTEX
 8
FULGOR
 10
0
 20
0
 30
0
 70
128
 71
255
 72
256
 73
193
 74
207
 0
VERTEX
 8
FULGOR
 10
0
 20
0
 30
0
 70
128
 71
298
 72
297
 73
315
 74
309
 0
VERTEX
 8
FULGOR
 10
0
 20
0
 30
0
 70
128
 71
298
 72
309
 73
308
 74
363
 0
VERTEX
 8
FULGOR
 10
0
 20
0
 30
0
 70
128
 71
243
 72
244
 73
3
 74
181
 0
VERTEX
 8
FULGOR
 10
0
 20
0
 30
0
 70
128
 71
259
 72
250
 73
187
 74
192
 0
VERTEX
 8
FULGOR
 10
0
 20
0
 30
0
 70
128
 71
279
 72
280
 73
222
 74
214
 0
VERTEX
 8
FULGOR
 10
0
 20
0
 30
0
 70
128
 71
278
 72
279
 73
214
 74
213
 0
VERTEX
 8
FULGOR
 10
0
 20
0
 30
0
 70
128
 71
258
 72
259
 73
192
 74
191
 0
VERTEX
 8
FULGOR
 10
0
 20
0
 30
0
 70
128
 71
247
 72
258
 73
191
 74
190
 0
VERTEX
 8
FULGOR
 10
0
 20
0
 30
0
 70
128
 71
351
 72
342
 73
324
 74
323
 0
VERTEX
 8
FULGOR
 10
0
 20
0
 30
0
 70
128
 71
350
 72
351
 73
323
 74
322
 0
VERTEX
 8
FULGOR
 10
0
 20
0
 30
0
 70
128
 71
284
 72
285
 73
217
 74
216
 0
VERTEX
 8
FULGOR
 10
0
 20
0
 30
0
 70
128
 71
136
 72
146
 73
122
 74
121
 0
VERTEX
 8
FULGOR
 10
0
 20
0
 30
0
 70
128
 71
146
 72
140
 73
110
 74
122
 0
VERTEX
 8
FULGOR
 10
0
 20
0
 30
0
 70
128
 71
130
 72
360
 73
126
 74
125
 0
VERTEX
 8
FULGOR
 10
0
 20
0
 30
0
 70
128
 71
140
 72
133
 73
111
 74
110
 0
VERTEX
 8
FULGOR
 10
0
 20
0
 30
0
 70
128
 71
133
 72
132
 73
123
 74
111
 0
VERTEX
 8
FULGOR
 10
0
 20
0
 30
0
 70
128
 71
132
 72
139
 73
113
 74
123
 0
VERTEX
 8
FULGOR
 10
0
 20
0
 30
0
 70
128
 71
292
 72
293
 73
164
 74
223
 0
VERTEX
 8
FULGOR
 10
0
 20
0
 30
0
 70
128
 71
293
 72
224
 73
165
 74
164
 0
VERTEX
 8
FULGOR
 10
0
 20
0
 30
0
 70
128
 71
224
 72
225
 73
176
 74
165
 0
VERTEX
 8
FULGOR
 10
0
 20
0
 30
0
 70
128
 71
225
 72
233
 73
177
 74
176
 0
VERTEX
 8
FULGOR
 10
0
 20
0
 30
0
 70
128
 71
233
 72
234
 73
168
 74
177
 0
VERTEX
 8
FULGOR
 10
0
 20
0
 30
0
 70
128
 71
234
 72
235
 73
169
 74
168
 0
VERTEX
 8
FULGOR
 10
0
 20
0
 30
0
 70
128
 71
235
 72
236
 73
170
 74
169
 0
VERTEX
 8
FULGOR
 10
0
 20
0
 30
0
 70
128
 71
236
 72
239
 73
171
 74
170
 0
VERTEX
 8
FULGOR
 10
0
 20
0
 30
0
 70
128
 71
239
 72
231
 73
172
 74
171
 0
VERTEX
 8
FULGOR
 10
0
 20
0
 30
0
 70
128
 71
213
 72
212
 73
277
 74
278
 0
VERTEX
 8
FULGOR
 10
0
 20
0
 30
0
 70
128
 71
212
 72
205
 73
268
 74
277
 0
VERTEX
 8
FULGOR
 10
0
 20
0
 30
0
 70
128
 71
267
 72
268
 73
205
 74
204
 0
VERTEX
 8
FULGOR
 10
0
 20
0
 30
0
 70
128
 71
270
 72
271
 73
200
 74
211
 0
VERTEX
 8
FULGOR
 10
0
 20
0
 30
0
 70
128
 71
271
 72
264
 73
201
 74
200
 0
SEQEND
 0
POLYLINE
 8
MILANO
 66
1
 10
0.0
 20
0.0
 30
0.0
 70
64
 71
93
 72
47
 0
VERTEX
 8
MILANO
 10
6.9729
 20
-13.8515
 30
0.0026
 70
192
 0
VERTEX
 8
MILANO
 10
7.3612
 20
-14.0039
 30
0.0026
 70
192
 0
VERTEX
 8
MILANO
 10
7.3653
 20
-14.0389
 30
0.0026
 70
192
 0
VERTEX
 8
MILANO
 10
7.3801
 20
-14.0708
 30
0.0026
 70
192
 0
VERTEX
 8
MILANO
 10
7.4048
 20
-14.0957
 30
0.0026
 70
192
 0
VERTEX
 8
MILANO
 10
7.4355
 20
-14.1127
 30
0.0026
 70
192
 0
VERTEX
 8
MILANO
 10
7.4692
 20
-14.1225
 30
0.0026
 70
192
 0
VERTEX
 8
MILANO
 10
7.5041
 20
-14.1264
 30
0.0026
 70
192
 0
VERTEX
 8
MILANO
 10
7.2146
 20
-14.0797
 30
0.0026
 70
192
 0
VERTEX
 8
MILANO
 10
7.5391
 20
-14.1237
 30
0.0026
 70
192
 0
VERTEX
 8
MILANO
 10
7.5729
 20
-14.1143
 30
0.0026
 70
192
 0
VERTEX
 8
MILANO
 10
7.6035
 20
-14.0971
 30
0.0026
 70
192
 0
VERTEX
 8
MILANO
 10
6.8259
 20
-14.0596
 30
0.0026
 70
192
 0
VERTEX
 8
MILANO
 10
6.8811
 20
-14.1589
 30
0.0026
 70
192
 0
VERTEX
 8
MILANO
 10
6.9264
 20
-14.1589
 30
0.0026
 70
192
 0
VERTEX
 8
MILANO
 10
7.6274
 20
-14.0715
 30
0.0026
 70
192
 0
VERTEX
 8
MILANO
 10
7.6429
 20
-14.0399
 30
0.0026
 70
192
 0
VERTEX
 8
MILANO
 10
6.5757
 20
-14.1589
 30
0.0026
 70
192
 0
VERTEX
 8
MILANO
 10
6.6971
 20
-14.0254
 30
0.0026
 70
192
 0
VERTEX
 8
MILANO
 10
6.8073
 20
-14.0254
 30
0.0026
 70
192
 0
VERTEX
 8
MILANO
 10
7.6479
 20
-14.0051
 30
0.0026
 70
192
 0
VERTEX
 8
MILANO
 10
7.6434
 20
-13.9701
 30
0.0026
 70
192
 0
VERTEX
 8
MILANO
 10
7.6285
 20
-13.9383
 30
0.0026
 70
192
 0
VERTEX
 8
MILANO
 10
6.4243
 20
-13.8515
 30
0.0026
 70
192
 0
VERTEX
 8
MILANO
 10
6.4243
 20
-14.1254
 30
0.0026
 70
192
 0
VERTEX
 8
MILANO
 10
7.6045
 20
-13.9128
 30
0.0026
 70
192
 0
VERTEX
 8
MILANO
 10
7.5739
 20
-13.8956
 30
0.0026
 70
192
 0
VERTEX
 8
MILANO
 10
7.54
 20
-13.8862
 30
0.0026
 70
192
 0
VERTEX
 8
MILANO
 10
6.2703
 20
-13.8515
 30
0.0026
 70
192
 0
VERTEX
 8
MILANO
 10
6.3085
 20
-13.8515
 30
0.0026
 70
192
 0
VERTEX
 8
MILANO
 10
6.3085
 20
-14.1589
 30
0.0026
 70
192
 0
VERTEX
 8
MILANO
 10
6.2703
 20
-14.1589
 30
0.0026
 70
192
 0
VERTEX
 8
MILANO
 10
5.8101
 20
-14.1589
 30
0.0026
 70
192
 0
VERTEX
 8
MILANO
 10
5.8578
 20
-13.8496
 30
0.0026
 70
192
 0
VERTEX
 8
MILANO
 10
6.1479
 20
-13.8496
 30
0.0026
 70
192
 0
VERTEX
 8
MILANO
 10
6.1621
 20
-13.8496
 30
0.0026
 70
192
 0
VERTEX
 8
MILANO
 10
6.2123
 20
-14.1589
 30
0.0026
 70
192
 0
VERTEX
 8
MILANO
 10
6.1708
 20
-14.1589
 30
0.0026
 70
192
 0
VERTEX
 8
MILANO
 10
6.0025
 20
-14.1589
 30
0.0026
 70
192
 0
VERTEX
 8
MILANO
 10
5.8812
 20
-13.9514
 30
0.0026
 70
192
 0
VERTEX
 8
MILANO
 10
6.5604
 20
-14.1254
 30
0.0026
 70
192
 0
VERTEX
 8
MILANO
 10
6.5604
 20
-14.1589
 30
0.0026
 70
192
 0
VERTEX
 8
MILANO
 10
6.3866
 20
-14.1589
 30
0.0026
 70
192
 0
VERTEX
 8
MILANO
 10
5.867
 20
-13.8496
 30
0.0026
 70
192
 0
VERTEX
 8
MILANO
 10
6.0102
 20
-14.0958
 30
0.0026
 70
192
 0
VERTEX
 8
MILANO
 10
6.1375
 20
-13.9514
 30
0.0026
 70
192
 0
VERTEX
 8
MILANO
 10
6.0211
 20
-14.1589
 30
0.0026
 70
192
 0
VERTEX
 8
MILANO
 10
5.8512
 20
-14.1589
 30
0.0026
 70
192
 0
VERTEX
 8
MILANO
 10
7.5052
 20
-13.8463
 30
0.0026
 70
192
 0
VERTEX
 8
MILANO
 10
7.4593
 20
-13.8488
 30
0.0026
 70
192
 0
VERTEX
 8
MILANO
 10
7.4148
 20
-13.86
 30
0.0026
 70
192
 0
VERTEX
 8
MILANO
 10
7.3755
 20
-13.8835
 30
0.0026
 70
192
 0
VERTEX
 8
MILANO
 10
7.344
 20
-13.917
 30
0.0026
 70
192
 0
VERTEX
 8
MILANO
 10
7.3234
 20
-13.958
 30
0.0026
 70
192
 0
VERTEX
 8
MILANO
 10
7.3171
 20
-14.0036
 30
0.0026
 70
192
 0
VERTEX
 8
MILANO
 10
7.3225
 20
-14.0494
 30
0.0026
 70
192
 0
VERTEX
 8
MILANO
 10
7.3417
 20
-14.091
 30
0.0026
 70
192
 0
VERTEX
 8
MILANO
 10
7.3741
 20
-14.1236
 30
0.0026
 70
192
 0
VERTEX
 8
MILANO
 10
7.4142
 20
-14.1458
 30
0.0026
 70
192
 0
VERTEX
 8
MILANO
 10
7.4583
 20
-14.1587
 30
0.0026
 70
192
 0
VERTEX
 8
MILANO
 10
7.504
 20
-14.1637
 30
0.0026
 70
192
 0
VERTEX
 8
MILANO
 10
7.5497
 20
-14.1602
 30
0.0026
 70
192
 0
VERTEX
 8
MILANO
 10
7.594
 20
-14.1479
 30
0.0026
 70
192
 0
VERTEX
 8
MILANO
 10
7.634
 20
-14.1255
 30
0.0026
 70
192
 0
VERTEX
 8
MILANO
 10
7.6653
 20
-14.0919
 30
0.0026
 70
192
 0
VERTEX
 8
MILANO
 10
7.6855
 20
-14.0506
 30
0.0026
 70
192
 0
VERTEX
 8
MILANO
 10
7.692
 20
-14.0051
 30
0.0026
 70
192
 0
VERTEX
 8
MILANO
 10
7.6861
 20
-13.9594
 30
0.0026
 70
192
 0
VERTEX
 8
MILANO
 10
7.6667
 20
-13.9178
 30
0.0026
 70
192
 0
VERTEX
 8
MILANO
 10
7.6352
 20
-13.8844
 30
0.0026
 70
192
 0
VERTEX
 8
MILANO
 10
6.9729
 20
-14.1589
 30
0.0026
 70
192
 0
VERTEX
 8
MILANO
 10
7.013
 20
-14.1589
 30
0.0026
 70
192
 0
VERTEX
 8
MILANO
 10
7.013
 20
-13.9348
 30
0.0026
 70
192
 0
VERTEX
 8
MILANO
 10
7.2413
 20
-14.1589
 30
0.0026
 70
192
 0
VERTEX
 8
MILANO
 10
7.2544
 20
-14.1589
 30
0.0026
 70
192
 0
VERTEX
 8
MILANO
 10
7.2544
 20
-13.8515
 30
0.0026
 70
192
 0
VERTEX
 8
MILANO
 10
7.2141
 20
-13.8515
 30
0.0026
 70
192
 0
VERTEX
 8
MILANO
 10
7.5952
 20
-13.8619
 30
0.0026
 70
192
 0
VERTEX
 8
MILANO
 10
6.9878
 20
-13.8515
 30
0.0026
 70
192
 0
VERTEX
 8
MILANO
 10
6.6261
 20
-14.1589
 30
0.0026
 70
192
 0
VERTEX
 8
MILANO
 10
6.6773
 20
-14.0596
 30
0.0026
 70
192
 0
VERTEX
 8
MILANO
 10
7.5509
 20
-13.8497
 30
0.0026
 70
192
 0
VERTEX
 8
MILANO
 10
7.505
 20
-13.8837
 30
0.0026
 70
192
 0
VERTEX
 8
MILANO
 10
7.47
 20
-13.8856
 30
0.0026
 70
192
 0
VERTEX
 8
MILANO
 10
6.7584
 20
-13.8515
 30
0.0026
 70
192
 0
VERTEX
 8
MILANO
 10
6.7454
 20
-13.8515
 30
0.0026
 70
192
 0
VERTEX
 8
MILANO
 10
7.4359
 20
-13.8941
 30
0.0026
 70
192
 0
VERTEX
 8
MILANO
 10
7.4059
 20
-13.9121
 30
0.0026
 70
192
 0
VERTEX
 8
MILANO
 10
7.3818
 20
-13.9377
 30
0.0026
 70
192
 0
VERTEX
 8
MILANO
 10
6.7561
 20
-13.927
 30
0.0026
 70
192
 0
VERTEX
 8
MILANO
 10
6.7471
 20
-13.927
 30
0.0026
 70
192
 0
VERTEX
 8
MILANO
 10
6.3833
 20
-13.8515
 30
0.0026
 70
192
 0
VERTEX
 8
MILANO
 10
7.3661
 20
-13.9691
 30
0.0026
 70
192
 0
VERTEX
 8
MILANO
 10
0
 20
0
 30
0
 70
128
 71
71
 72
1
 73
73
 74
72
 0
VERTEX
 8
MILANO
 10
0
 20
0
 30
0
 70
128
 71
1
 72
79
 73
73
 74
73
 0
VERTEX
 8
MILANO
 10
0
 20
0
 30
0
 70
128
 71
73
 72
79
 73
9
 74
74
 0
VERTEX
 8
MILANO
 10
0
 20
0
 30
0
 70
128
 71
76
 72
75
 73
9
 74
77
 0
VERTEX
 8
MILANO
 10
0
 20
0
 30
0
 70
128
 71
9
 72
75
 73
74
 74
74
 0
VERTEX
 8
MILANO
 10
0
 20
0
 30
0
 70
128
 71
18
 72
86
 73
19
 74
81
 0
VERTEX
 8
MILANO
 10
0
 20
0
 30
0
 70
128
 71
80
 72
18
 73
81
 74
81
 0
VERTEX
 8
MILANO
 10
0
 20
0
 30
0
 70
128
 71
86
 72
85
 73
90
 74
91
 0
VERTEX
 8
MILANO
 10
0
 20
0
 30
0
 70
128
 71
15
 72
13
 73
20
 74
20
 0
VERTEX
 8
MILANO
 10
0
 20
0
 30
0
 70
128
 71
86
 72
91
 73
19
 74
19
 0
VERTEX
 8
MILANO
 10
0
 20
0
 30
0
 70
128
 71
85
 72
15
 73
20
 74
90
 0
VERTEX
 8
MILANO
 10
0
 20
0
 30
0
 70
128
 71
13
 72
81
 73
19
 74
20
 0
VERTEX
 8
MILANO
 10
0
 20
0
 30
0
 70
128
 71
15
 72
14
 73
13
 74
13
 0
VERTEX
 8
MILANO
 10
0
 20
0
 30
0
 70
128
 71
92
 72
24
 73
25
 74
43
 0
VERTEX
 8
MILANO
 10
0
 20
0
 30
0
 70
128
 71
25
 72
41
 73
42
 74
43
 0
VERTEX
 8
MILANO
 10
0
 20
0
 30
0
 70
128
 71
29
 72
30
 73
31
 74
32
 0
VERTEX
 8
MILANO
 10
0
 20
0
 30
0
 70
128
 71
33
 72
34
 73
40
 74
48
 0
VERTEX
 8
MILANO
 10
0
 20
0
 30
0
 70
128
 71
34
 72
44
 73
40
 74
40
 0
VERTEX
 8
MILANO
 10
0
 20
0
 30
0
 70
128
 71
40
 72
44
 73
45
 74
39
 0
VERTEX
 8
MILANO
 10
0
 20
0
 30
0
 70
128
 71
45
 72
35
 73
46
 74
47
 0
VERTEX
 8
MILANO
 10
0
 20
0
 30
0
 70
128
 71
46
 72
36
 73
37
 74
38
 0
VERTEX
 8
MILANO
 10
0
 20
0
 30
0
 70
128
 71
45
 72
47
 73
39
 74
39
 0
VERTEX
 8
MILANO
 10
0
 20
0
 30
0
 70
128
 71
35
 72
36
 73
46
 74
46
 0
VERTEX
 8
MILANO
 10
0
 20
0
 30
0
 70
128
 71
50
 72
49
 73
83
 74
84
 0
VERTEX
 8
MILANO
 10
0
 20
0
 30
0
 70
128
 71
51
 72
50
 73
84
 74
87
 0
VERTEX
 8
MILANO
 10
0
 20
0
 30
0
 70
128
 71
5
 72
6
 73
59
 74
58
 0
VERTEX
 8
MILANO
 10
0
 20
0
 30
0
 70
128
 71
28
 72
83
 73
49
 74
82
 0
VERTEX
 8
MILANO
 10
0
 20
0
 30
0
 70
128
 71
27
 72
28
 73
82
 74
78
 0
VERTEX
 8
MILANO
 10
0
 20
0
 30
0
 70
128
 71
26
 72
27
 73
78
 74
70
 0
VERTEX
 8
MILANO
 10
0
 20
0
 30
0
 70
128
 71
23
 72
26
 73
70
 74
69
 0
VERTEX
 8
MILANO
 10
0
 20
0
 30
0
 70
128
 71
6
 72
7
 73
60
 74
59
 0
VERTEX
 8
MILANO
 10
0
 20
0
 30
0
 70
128
 71
7
 72
8
 73
61
 74
60
 0
VERTEX
 8
MILANO
 10
0
 20
0
 30
0
 70
128
 71
22
 72
23
 73
69
 74
68
 0
VERTEX
 8
MILANO
 10
0
 20
0
 30
0
 70
128
 71
21
 72
22
 73
68
 74
67
 0
VERTEX
 8
MILANO
 10
0
 20
0
 30
0
 70
128
 71
17
 72
21
 73
67
 74
66
 0
VERTEX
 8
MILANO
 10
0
 20
0
 30
0
 70
128
 71
16
 72
17
 73
66
 74
65
 0
VERTEX
 8
MILANO
 10
0
 20
0
 30
0
 70
128
 71
12
 72
16
 73
65
 74
64
 0
VERTEX
 8
MILANO
 10
0
 20
0
 30
0
 70
128
 71
11
 72
12
 73
64
 74
63
 0
VERTEX
 8
MILANO
 10
0
 20
0
 30
0
 70
128
 71
10
 72
11
 73
63
 74
62
 0
VERTEX
 8
MILANO
 10
0
 20
0
 30
0
 70
128
 71
4
 72
5
 73
58
 74
57
 0
VERTEX
 8
MILANO
 10
0
 20
0
 30
0
 70
128
 71
57
 72
56
 73
3
 74
4
 0
VERTEX
 8
MILANO
 10
0
 20
0
 30
0
 70
128
 71
56
 72
55
 73
2
 74
3
 0
VERTEX
 8
MILANO
 10
0
 20
0
 30
0
 70
128
 71
55
 72
54
 73
93
 74
2
 0
VERTEX
 8
MILANO
 10
0
 20
0
 30
0
 70
128
 71
54
 72
53
 73
89
 74
93
 0
VERTEX
 8
MILANO
 10
0
 20
0
 30
0
 70
128
 71
53
 72
52
 73
88
 74
89
 0
VERTEX
 8
MILANO
 10
0
 20
0
 30
0
 70
128
 71
52
 72
51
 73
87
 74
88
 0
VERTEX
 8
MILANO
 10
0
 20
0
 30
0
 70
128
 71
8
 72
10
 73
62
 74
61
 0
SEQEND
 0
ENDSEC
 0
EOF
