 0
SECTION
 2
HEADER
 9
$ACADVER
 1
AC1009
 0
ENDSEC
 0
SECTION
 2
TABLES
 0
TABLE
 2
LTYPE
 70
1
 0
LTYPE
 2
CONTINUOUS
 70
64
 3
solid line
 72
65
 73
0
 40
0.0
 0
ENDTAB
 0
TABLE
 2
LAYER
 70
6
 0
LAYER
 2
0
 70
0
 62
7
 6
CONTINUOUS
 0
LAYER
 2
FSH_905_ID_WT_MBK
 70
64
 62
7
 6
CONTINUOUS
 0
LAYER
 2
VETRO
 70
64
 62
39
 6
CONTINUOUS
 0
LAYER
 2
SERIGRAFIA
 70
64
 62
7
 6
CONTINUOUS
 0
LAYER
 2
PIANO
 70
64
 62
7
 6
CONTINUOUS
 0
LAYER
 2
PIANO_1
 70
64
 62
7
 6
CONTINUOUS
 0
LAYER
 2
PIANO_2
 70
64
 62
7
 6
CONTINUOUS
 0
LAYER
 2
PIANO_3
 70
64
 62
7
 6
CONTINUOUS
 0
LAYER
 2
PIANO_4
 70
64
 62
7
 6
CONTINUOUS
 0
LAYER
 2
PIANO_5
 70
64
 62
7
 6
CONTINUOUS
 0
LAYER
 2
PIANO_6
 70
64
 62
7
 6
CONTINUOUS
 0
LAYER
 2
PIANO_7
 70
64
 62
7
 6
CONTINUOUS
 0
LAYER
 2
PIANO_8
 70
64
 62
7
 6
CONTINUOUS
 0
LAYER
 2
PIANO_9
 70
64
 62
7
 6
CONTINUOUS
 0
LAYER
 2
PIANO_10
 70
64
 62
7
 6
CONTINUOUS
 0
LAYER
 2
TUBO_1
 70
64
 62
7
 6
CONTINUOUS
 0
LAYER
 2
TUBO
 70
64
 62
7
 6
CONTINUOUS
 0
LAYER
 2
LOGO_FULGOR_MILANO
 70
64
 62
7
 6
CONTINUOUS
 0
LAYER
 2
FULGOR
 70
64
 62
7
 6
CONTINUOUS
 0
LAYER
 2
MILANO
 70
64
 62
7
 6
CONTINUOUS
 0
ENDTAB
 0
ENDSEC
 0
SECTION
 2
BLOCKS
 0
ENDSEC
 0
SECTION
 2
ENTITIES
 0
POLYLINE
 8
VETRO
 66
1
 10
0.0
 20
0.0
 30
0.0
 70
64
 71
8
 72
6
 0
VERTEX
 8
VETRO
 10
-45
 20
-26
 30
-0.4
 70
192
 0
VERTEX
 8
VETRO
 10
-45
 20
-26
 30
0
 70
192
 0
VERTEX
 8
VETRO
 10
45
 20
-26
 30
-0.4
 70
192
 0
VERTEX
 8
VETRO
 10
45
 20
-26
 30
0
 70
192
 0
VERTEX
 8
VETRO
 10
45
 20
26
 30
-0.4
 70
192
 0
VERTEX
 8
VETRO
 10
45
 20
26
 30
0
 70
192
 0
VERTEX
 8
VETRO
 10
-45
 20
26
 30
-0.4
 70
192
 0
VERTEX
 8
VETRO
 10
-45
 20
26
 30
0
 70
192
 0
VERTEX
 8
VETRO
 10
0
 20
0
 30
0
 70
128
 71
1
 72
2
 73
4
 74
3
 0
VERTEX
 8
VETRO
 10
0
 20
0
 30
0
 70
128
 71
3
 72
4
 73
6
 74
5
 0
VERTEX
 8
VETRO
 10
0
 20
0
 30
0
 70
128
 71
5
 72
6
 73
8
 74
7
 0
VERTEX
 8
VETRO
 10
0
 20
0
 30
0
 70
128
 71
7
 72
8
 73
2
 74
1
 0
VERTEX
 8
VETRO
 10
0
 20
0
 30
0
 70
128
 71
2
 72
8
 73
6
 74
4
 0
VERTEX
 8
VETRO
 10
0
 20
0
 30
0
 70
128
 71
7
 72
1
 73
3
 74
5
 0
SEQEND
 0
POLYLINE
 8
PIANO
 66
1
 10
0.0
 20
0.0
 30
0.0
 70
64
 71
4
 72
1
 0
VERTEX
 8
PIANO
 10
18.4
 20
-16.7
 30
0.0025
 70
192
 0
VERTEX
 8
PIANO
 10
40.4
 20
-16.7
 30
0.0025
 70
192
 0
VERTEX
 8
PIANO
 10
18.4
 20
-16.47
 30
0.0025
 70
192
 0
VERTEX
 8
PIANO
 10
40.4
 20
-16.47
 30
0.0025
 70
192
 0
VERTEX
 8
PIANO
 10
0
 20
0
 30
0
 70
128
 71
1
 72
3
 73
4
 74
2
 0
SEQEND
 0
POLYLINE
 8
PIANO_1
 66
1
 10
0.0
 20
0.0
 30
0.0
 70
64
 71
4
 72
1
 0
VERTEX
 8
PIANO_1
 10
18.4
 20
21.47
 30
0.0025
 70
192
 0
VERTEX
 8
PIANO_1
 10
40.4
 20
21.47
 30
0.0025
 70
192
 0
VERTEX
 8
PIANO_1
 10
18.4
 20
21.7
 30
0.0025
 70
192
 0
VERTEX
 8
PIANO_1
 10
40.4
 20
21.7
 30
0.0025
 70
192
 0
VERTEX
 8
PIANO_1
 10
0
 20
0
 30
0
 70
128
 71
1
 72
3
 73
4
 74
2
 0
SEQEND
 0
POLYLINE
 8
PIANO_2
 66
1
 10
0.0
 20
0.0
 30
0.0
 70
64
 71
4
 72
1
 0
VERTEX
 8
PIANO_2
 10
-40.4
 20
-16.7
 30
0.0025
 70
192
 0
VERTEX
 8
PIANO_2
 10
-18.4
 20
-16.7
 30
0.0025
 70
192
 0
VERTEX
 8
PIANO_2
 10
-40.4
 20
-16.47
 30
0.0025
 70
192
 0
VERTEX
 8
PIANO_2
 10
-18.4
 20
-16.47
 30
0.0025
 70
192
 0
VERTEX
 8
PIANO_2
 10
0
 20
0
 30
0
 70
128
 71
1
 72
3
 73
4
 74
2
 0
SEQEND
 0
POLYLINE
 8
PIANO_3
 66
1
 10
0.0
 20
0.0
 30
0.0
 70
64
 71
4
 72
1
 0
VERTEX
 8
PIANO_3
 10
-40.4
 20
21.47
 30
0.0025
 70
192
 0
VERTEX
 8
PIANO_3
 10
-18.4
 20
21.47
 30
0.0025
 70
192
 0
VERTEX
 8
PIANO_3
 10
-40.4
 20
21.7
 30
0.0025
 70
192
 0
VERTEX
 8
PIANO_3
 10
-18.4
 20
21.7
 30
0.0025
 70
192
 0
VERTEX
 8
PIANO_3
 10
0
 20
0
 30
0
 70
128
 71
1
 72
3
 73
4
 74
2
 0
SEQEND
 0
POLYLINE
 8
PIANO_4
 66
1
 10
0.0
 20
0.0
 30
0.0
 70
64
 71
4
 72
1
 0
VERTEX
 8
PIANO_4
 10
28.5
 20
-7.65
 30
0.0025
 70
192
 0
VERTEX
 8
PIANO_4
 10
30.3
 20
-7.65
 30
0.0025
 70
192
 0
VERTEX
 8
PIANO_4
 10
28.5
 20
-7.35
 30
0.0025
 70
192
 0
VERTEX
 8
PIANO_4
 10
30.3
 20
-7.35
 30
0.0025
 70
192
 0
VERTEX
 8
PIANO_4
 10
0
 20
0
 30
0
 70
128
 71
1
 72
3
 73
4
 74
2
 0
SEQEND
 0
POLYLINE
 8
PIANO_5
 66
1
 10
0.0
 20
0.0
 30
0.0
 70
64
 71
4
 72
1
 0
VERTEX
 8
PIANO_5
 10
-30.3
 20
12.35
 30
0.0025
 70
192
 0
VERTEX
 8
PIANO_5
 10
-28.5
 20
12.35
 30
0.0025
 70
192
 0
VERTEX
 8
PIANO_5
 10
-30.3
 20
12.65
 30
0.0025
 70
192
 0
VERTEX
 8
PIANO_5
 10
-28.5
 20
12.65
 30
0.0025
 70
192
 0
VERTEX
 8
PIANO_5
 10
0
 20
0
 30
0
 70
128
 71
1
 72
3
 73
4
 74
2
 0
SEQEND
 0
POLYLINE
 8
PIANO_6
 66
1
 10
0.0
 20
0.0
 30
0.0
 70
64
 71
4
 72
1
 0
VERTEX
 8
PIANO_6
 10
-30.3
 20
-7.65
 30
0.0025
 70
192
 0
VERTEX
 8
PIANO_6
 10
-28.5
 20
-7.65
 30
0.0025
 70
192
 0
VERTEX
 8
PIANO_6
 10
-30.3
 20
-7.35
 30
0.0025
 70
192
 0
VERTEX
 8
PIANO_6
 10
-28.5
 20
-7.35
 30
0.0025
 70
192
 0
VERTEX
 8
PIANO_6
 10
0
 20
0
 30
0
 70
128
 71
1
 72
3
 73
4
 74
2
 0
SEQEND
 0
POLYLINE
 8
PIANO_7
 66
1
 10
0.0
 20
0.0
 30
0.0
 70
64
 71
4
 72
1
 0
VERTEX
 8
PIANO_7
 10
28.5
 20
12.35
 30
0.0025
 70
192
 0
VERTEX
 8
PIANO_7
 10
30.3
 20
12.35
 30
0.0025
 70
192
 0
VERTEX
 8
PIANO_7
 10
28.5
 20
12.65
 30
0.0025
 70
192
 0
VERTEX
 8
PIANO_7
 10
30.3
 20
12.65
 30
0.0025
 70
192
 0
VERTEX
 8
PIANO_7
 10
0
 20
0
 30
0
 70
128
 71
1
 72
3
 73
4
 74
2
 0
SEQEND
 0
POLYLINE
 8
PIANO_8
 66
1
 10
0.0
 20
0.0
 30
0.0
 70
64
 71
4
 72
1
 0
VERTEX
 8
PIANO_8
 10
-5.85
 20
-21.5
 30
0.0025
 70
192
 0
VERTEX
 8
PIANO_8
 10
-3.75
 20
-21.5
 30
0.0025
 70
192
 0
VERTEX
 8
PIANO_8
 10
-5.85
 20
-20.55
 30
0.0025
 70
192
 0
VERTEX
 8
PIANO_8
 10
-3.75
 20
-20.55
 30
0.0025
 70
192
 0
VERTEX
 8
PIANO_8
 10
0
 20
0
 30
0
 70
128
 71
1
 72
3
 73
4
 74
2
 0
SEQEND
 0
POLYLINE
 8
PIANO_9
 66
1
 10
0.0
 20
0.0
 30
0.0
 70
64
 71
4
 72
1
 0
VERTEX
 8
PIANO_9
 10
3.73
 20
-21.5
 30
0.0025
 70
192
 0
VERTEX
 8
PIANO_9
 10
5.83
 20
-21.5
 30
0.0025
 70
192
 0
VERTEX
 8
PIANO_9
 10
3.73
 20
-20.55
 30
0.0025
 70
192
 0
VERTEX
 8
PIANO_9
 10
5.83
 20
-20.55
 30
0.0025
 70
192
 0
VERTEX
 8
PIANO_9
 10
0
 20
0
 30
0
 70
128
 71
1
 72
3
 73
4
 74
2
 0
SEQEND
 0
POLYLINE
 8
PIANO_10
 66
1
 10
0.0
 20
0.0
 30
0.0
 70
64
 71
4
 72
1
 0
VERTEX
 8
PIANO_10
 10
-3.52
 20
-21.5
 30
0.0025
 70
192
 0
VERTEX
 8
PIANO_10
 10
3.48
 20
-21.5
 30
0.0025
 70
192
 0
VERTEX
 8
PIANO_10
 10
-3.52
 20
-20.55
 30
0.0025
 70
192
 0
VERTEX
 8
PIANO_10
 10
3.48
 20
-20.55
 30
0.0025
 70
192
 0
VERTEX
 8
PIANO_10
 10
0
 20
0
 30
0
 70
128
 71
1
 72
3
 73
4
 74
2
 0
SEQEND
 0
POLYLINE
 8
TUBO_1
 66
1
 10
0.0
 20
0.0
 30
0.0
 70
64
 71
640
 72
640
 0
VERTEX
 8
TUBO_1
 10
14.4202
 20
4.9657
 30
0.0025
 70
192
 0
VERTEX
 8
TUBO_1
 10
14.5002
 20
4.9657
 30
0.0025
 70
192
 0
VERTEX
 8
TUBO_1
 10
14.5002
 20
4.9657
 30
0.0025
 70
192
 0
VERTEX
 8
TUBO_1
 10
14.5002
 20
4.9657
 30
0.0025
 70
192
 0
VERTEX
 8
TUBO_1
 10
14.5002
 20
4.9657
 30
0.0025
 70
192
 0
VERTEX
 8
TUBO_1
 10
14.5002
 20
4.9657
 30
0.0025
 70
192
 0
VERTEX
 8
TUBO_1
 10
14.4202
 20
4.9657
 30
0.0025
 70
192
 0
VERTEX
 8
TUBO_1
 10
14.4202
 20
4.9657
 30
0.0025
 70
192
 0
VERTEX
 8
TUBO_1
 10
14.4202
 20
4.9657
 30
0.0025
 70
192
 0
VERTEX
 8
TUBO_1
 10
14.4202
 20
4.9657
 30
0.0025
 70
192
 0
VERTEX
 8
TUBO_1
 10
14.3507
 20
6.3791
 30
0.0025
 70
192
 0
VERTEX
 8
TUBO_1
 10
14.4304
 20
6.3869
 30
0.0025
 70
192
 0
VERTEX
 8
TUBO_1
 10
14.4304
 20
6.3869
 30
0.0025
 70
192
 0
VERTEX
 8
TUBO_1
 10
14.4304
 20
6.3869
 30
0.0025
 70
192
 0
VERTEX
 8
TUBO_1
 10
14.4304
 20
6.3869
 30
0.0025
 70
192
 0
VERTEX
 8
TUBO_1
 10
14.4304
 20
6.3869
 30
0.0025
 70
192
 0
VERTEX
 8
TUBO_1
 10
14.3507
 20
6.3791
 30
0.0025
 70
192
 0
VERTEX
 8
TUBO_1
 10
14.3507
 20
6.3791
 30
0.0025
 70
192
 0
VERTEX
 8
TUBO_1
 10
14.3507
 20
6.3791
 30
0.0025
 70
192
 0
VERTEX
 8
TUBO_1
 10
14.3507
 20
6.3791
 30
0.0025
 70
192
 0
VERTEX
 8
TUBO_1
 10
14.1431
 20
7.7789
 30
0.0025
 70
192
 0
VERTEX
 8
TUBO_1
 10
14.2216
 20
7.7945
 30
0.0025
 70
192
 0
VERTEX
 8
TUBO_1
 10
14.2216
 20
7.7945
 30
0.0025
 70
192
 0
VERTEX
 8
TUBO_1
 10
14.2216
 20
7.7945
 30
0.0025
 70
192
 0
VERTEX
 8
TUBO_1
 10
14.2216
 20
7.7945
 30
0.0025
 70
192
 0
VERTEX
 8
TUBO_1
 10
14.2216
 20
7.7945
 30
0.0025
 70
192
 0
VERTEX
 8
TUBO_1
 10
14.1431
 20
7.7789
 30
0.0025
 70
192
 0
VERTEX
 8
TUBO_1
 10
14.1431
 20
7.7789
 30
0.0025
 70
192
 0
VERTEX
 8
TUBO_1
 10
14.1431
 20
7.7789
 30
0.0025
 70
192
 0
VERTEX
 8
TUBO_1
 10
14.1431
 20
7.7789
 30
0.0025
 70
192
 0
VERTEX
 8
TUBO_1
 10
13.7993
 20
9.1516
 30
0.0025
 70
192
 0
VERTEX
 8
TUBO_1
 10
13.8758
 20
9.1748
 30
0.0025
 70
192
 0
VERTEX
 8
TUBO_1
 10
13.8758
 20
9.1748
 30
0.0025
 70
192
 0
VERTEX
 8
TUBO_1
 10
13.8758
 20
9.1748
 30
0.0025
 70
192
 0
VERTEX
 8
TUBO_1
 10
13.8758
 20
9.1748
 30
0.0025
 70
192
 0
VERTEX
 8
TUBO_1
 10
13.8758
 20
9.1748
 30
0.0025
 70
192
 0
VERTEX
 8
TUBO_1
 10
13.7993
 20
9.1516
 30
0.0025
 70
192
 0
VERTEX
 8
TUBO_1
 10
13.7993
 20
9.1516
 30
0.0025
 70
192
 0
VERTEX
 8
TUBO_1
 10
13.7993
 20
9.1516
 30
0.0025
 70
192
 0
VERTEX
 8
TUBO_1
 10
13.7993
 20
9.1516
 30
0.0025
 70
192
 0
VERTEX
 8
TUBO_1
 10
13.3225
 20
10.484
 30
0.0025
 70
192
 0
VERTEX
 8
TUBO_1
 10
13.3964
 20
10.5146
 30
0.0025
 70
192
 0
VERTEX
 8
TUBO_1
 10
13.3964
 20
10.5146
 30
0.0025
 70
192
 0
VERTEX
 8
TUBO_1
 10
13.3964
 20
10.5146
 30
0.0025
 70
192
 0
VERTEX
 8
TUBO_1
 10
13.3964
 20
10.5146
 30
0.0025
 70
192
 0
VERTEX
 8
TUBO_1
 10
13.3964
 20
10.5146
 30
0.0025
 70
192
 0
VERTEX
 8
TUBO_1
 10
13.3225
 20
10.484
 30
0.0025
 70
192
 0
VERTEX
 8
TUBO_1
 10
13.3225
 20
10.484
 30
0.0025
 70
192
 0
VERTEX
 8
TUBO_1
 10
13.3225
 20
10.484
 30
0.0025
 70
192
 0
VERTEX
 8
TUBO_1
 10
13.3225
 20
10.484
 30
0.0025
 70
192
 0
VERTEX
 8
TUBO_1
 10
12.7175
 20
11.7632
 30
0.0025
 70
192
 0
VERTEX
 8
TUBO_1
 10
12.788
 20
11.8009
 30
0.0025
 70
192
 0
VERTEX
 8
TUBO_1
 10
12.788
 20
11.8009
 30
0.0025
 70
192
 0
VERTEX
 8
TUBO_1
 10
12.788
 20
11.8009
 30
0.0025
 70
192
 0
VERTEX
 8
TUBO_1
 10
12.788
 20
11.8009
 30
0.0025
 70
192
 0
VERTEX
 8
TUBO_1
 10
12.788
 20
11.8009
 30
0.0025
 70
192
 0
VERTEX
 8
TUBO_1
 10
12.7175
 20
11.7632
 30
0.0025
 70
192
 0
VERTEX
 8
TUBO_1
 10
12.7175
 20
11.7632
 30
0.0025
 70
192
 0
VERTEX
 8
TUBO_1
 10
12.7175
 20
11.7632
 30
0.0025
 70
192
 0
VERTEX
 8
TUBO_1
 10
12.7175
 20
11.7632
 30
0.0025
 70
192
 0
VERTEX
 8
TUBO_1
 10
11.99
 20
12.977
 30
0.0025
 70
192
 0
VERTEX
 8
TUBO_1
 10
12.0565
 20
13.0214
 30
0.0025
 70
192
 0
VERTEX
 8
TUBO_1
 10
12.0565
 20
13.0214
 30
0.0025
 70
192
 0
VERTEX
 8
TUBO_1
 10
12.0565
 20
13.0214
 30
0.0025
 70
192
 0
VERTEX
 8
TUBO_1
 10
12.0565
 20
13.0214
 30
0.0025
 70
192
 0
VERTEX
 8
TUBO_1
 10
12.0565
 20
13.0214
 30
0.0025
 70
192
 0
VERTEX
 8
TUBO_1
 10
11.99
 20
12.977
 30
0.0025
 70
192
 0
VERTEX
 8
TUBO_1
 10
11.99
 20
12.977
 30
0.0025
 70
192
 0
VERTEX
 8
TUBO_1
 10
11.99
 20
12.977
 30
0.0025
 70
192
 0
VERTEX
 8
TUBO_1
 10
11.99
 20
12.977
 30
0.0025
 70
192
 0
VERTEX
 8
TUBO_1
 10
11.147
 20
14.1136
 30
0.0025
 70
192
 0
VERTEX
 8
TUBO_1
 10
11.2088
 20
14.1644
 30
0.0025
 70
192
 0
VERTEX
 8
TUBO_1
 10
11.2088
 20
14.1644
 30
0.0025
 70
192
 0
VERTEX
 8
TUBO_1
 10
11.2088
 20
14.1644
 30
0.0025
 70
192
 0
VERTEX
 8
TUBO_1
 10
11.2088
 20
14.1644
 30
0.0025
 70
192
 0
VERTEX
 8
TUBO_1
 10
11.2088
 20
14.1644
 30
0.0025
 70
192
 0
VERTEX
 8
TUBO_1
 10
11.147
 20
14.1136
 30
0.0025
 70
192
 0
VERTEX
 8
TUBO_1
 10
11.147
 20
14.1136
 30
0.0025
 70
192
 0
VERTEX
 8
TUBO_1
 10
11.147
 20
14.1136
 30
0.0025
 70
192
 0
VERTEX
 8
TUBO_1
 10
11.147
 20
14.1136
 30
0.0025
 70
192
 0
VERTEX
 8
TUBO_1
 10
10.1967
 20
15.1621
 30
0.0025
 70
192
 0
VERTEX
 8
TUBO_1
 10
10.2532
 20
15.2187
 30
0.0025
 70
192
 0
VERTEX
 8
TUBO_1
 10
10.2532
 20
15.2187
 30
0.0025
 70
192
 0
VERTEX
 8
TUBO_1
 10
10.2532
 20
15.2187
 30
0.0025
 70
192
 0
VERTEX
 8
TUBO_1
 10
10.2532
 20
15.2187
 30
0.0025
 70
192
 0
VERTEX
 8
TUBO_1
 10
10.2532
 20
15.2187
 30
0.0025
 70
192
 0
VERTEX
 8
TUBO_1
 10
10.1967
 20
15.1621
 30
0.0025
 70
192
 0
VERTEX
 8
TUBO_1
 10
10.1967
 20
15.1621
 30
0.0025
 70
192
 0
VERTEX
 8
TUBO_1
 10
10.1967
 20
15.1621
 30
0.0025
 70
192
 0
VERTEX
 8
TUBO_1
 10
10.1967
 20
15.1621
 30
0.0025
 70
192
 0
VERTEX
 8
TUBO_1
 10
9.1481
 20
16.1125
 30
0.0025
 70
192
 0
VERTEX
 8
TUBO_1
 10
9.1989
 20
16.1743
 30
0.0025
 70
192
 0
VERTEX
 8
TUBO_1
 10
9.1989
 20
16.1743
 30
0.0025
 70
192
 0
VERTEX
 8
TUBO_1
 10
9.1989
 20
16.1743
 30
0.0025
 70
192
 0
VERTEX
 8
TUBO_1
 10
9.1989
 20
16.1743
 30
0.0025
 70
192
 0
VERTEX
 8
TUBO_1
 10
9.1989
 20
16.1743
 30
0.0025
 70
192
 0
VERTEX
 8
TUBO_1
 10
9.1481
 20
16.1125
 30
0.0025
 70
192
 0
VERTEX
 8
TUBO_1
 10
9.1481
 20
16.1125
 30
0.0025
 70
192
 0
VERTEX
 8
TUBO_1
 10
9.1481
 20
16.1125
 30
0.0025
 70
192
 0
VERTEX
 8
TUBO_1
 10
9.1481
 20
16.1125
 30
0.0025
 70
192
 0
VERTEX
 8
TUBO_1
 10
8.0115
 20
16.9555
 30
0.0025
 70
192
 0
VERTEX
 8
TUBO_1
 10
8.056
 20
17.022
 30
0.0025
 70
192
 0
VERTEX
 8
TUBO_1
 10
8.056
 20
17.022
 30
0.0025
 70
192
 0
VERTEX
 8
TUBO_1
 10
8.056
 20
17.022
 30
0.0025
 70
192
 0
VERTEX
 8
TUBO_1
 10
8.056
 20
17.022
 30
0.0025
 70
192
 0
VERTEX
 8
TUBO_1
 10
8.056
 20
17.022
 30
0.0025
 70
192
 0
VERTEX
 8
TUBO_1
 10
8.0115
 20
16.9555
 30
0.0025
 70
192
 0
VERTEX
 8
TUBO_1
 10
8.0115
 20
16.9555
 30
0.0025
 70
192
 0
VERTEX
 8
TUBO_1
 10
8.0115
 20
16.9555
 30
0.0025
 70
192
 0
VERTEX
 8
TUBO_1
 10
8.0115
 20
16.9555
 30
0.0025
 70
192
 0
VERTEX
 8
TUBO_1
 10
6.7977
 20
17.683
 30
0.0025
 70
192
 0
VERTEX
 8
TUBO_1
 10
6.8354
 20
17.7535
 30
0.0025
 70
192
 0
VERTEX
 8
TUBO_1
 10
6.8354
 20
17.7535
 30
0.0025
 70
192
 0
VERTEX
 8
TUBO_1
 10
6.8354
 20
17.7535
 30
0.0025
 70
192
 0
VERTEX
 8
TUBO_1
 10
6.8354
 20
17.7535
 30
0.0025
 70
192
 0
VERTEX
 8
TUBO_1
 10
6.8354
 20
17.7535
 30
0.0025
 70
192
 0
VERTEX
 8
TUBO_1
 10
6.7977
 20
17.683
 30
0.0025
 70
192
 0
VERTEX
 8
TUBO_1
 10
6.7977
 20
17.683
 30
0.0025
 70
192
 0
VERTEX
 8
TUBO_1
 10
6.7977
 20
17.683
 30
0.0025
 70
192
 0
VERTEX
 8
TUBO_1
 10
6.7977
 20
17.683
 30
0.0025
 70
192
 0
VERTEX
 8
TUBO_1
 10
5.5185
 20
18.288
 30
0.0025
 70
192
 0
VERTEX
 8
TUBO_1
 10
5.5491
 20
18.3619
 30
0.0025
 70
192
 0
VERTEX
 8
TUBO_1
 10
5.5491
 20
18.3619
 30
0.0025
 70
192
 0
VERTEX
 8
TUBO_1
 10
5.5491
 20
18.3619
 30
0.0025
 70
192
 0
VERTEX
 8
TUBO_1
 10
5.5491
 20
18.3619
 30
0.0025
 70
192
 0
VERTEX
 8
TUBO_1
 10
5.5491
 20
18.3619
 30
0.0025
 70
192
 0
VERTEX
 8
TUBO_1
 10
5.5185
 20
18.288
 30
0.0025
 70
192
 0
VERTEX
 8
TUBO_1
 10
5.5185
 20
18.288
 30
0.0025
 70
192
 0
VERTEX
 8
TUBO_1
 10
5.5185
 20
18.288
 30
0.0025
 70
192
 0
VERTEX
 8
TUBO_1
 10
5.5185
 20
18.288
 30
0.0025
 70
192
 0
VERTEX
 8
TUBO_1
 10
4.1861
 20
18.7647
 30
0.0025
 70
192
 0
VERTEX
 8
TUBO_1
 10
4.2093
 20
18.8413
 30
0.0025
 70
192
 0
VERTEX
 8
TUBO_1
 10
4.2093
 20
18.8413
 30
0.0025
 70
192
 0
VERTEX
 8
TUBO_1
 10
4.2093
 20
18.8413
 30
0.0025
 70
192
 0
VERTEX
 8
TUBO_1
 10
4.2093
 20
18.8413
 30
0.0025
 70
192
 0
VERTEX
 8
TUBO_1
 10
4.2093
 20
18.8413
 30
0.0025
 70
192
 0
VERTEX
 8
TUBO_1
 10
4.1861
 20
18.7647
 30
0.0025
 70
192
 0
VERTEX
 8
TUBO_1
 10
4.1861
 20
18.7647
 30
0.0025
 70
192
 0
VERTEX
 8
TUBO_1
 10
4.1861
 20
18.7647
 30
0.0025
 70
192
 0
VERTEX
 8
TUBO_1
 10
4.1861
 20
18.7647
 30
0.0025
 70
192
 0
VERTEX
 8
TUBO_1
 10
2.8134
 20
19.1086
 30
0.0025
 70
192
 0
VERTEX
 8
TUBO_1
 10
2.829
 20
19.1871
 30
0.0025
 70
192
 0
VERTEX
 8
TUBO_1
 10
2.829
 20
19.1871
 30
0.0025
 70
192
 0
VERTEX
 8
TUBO_1
 10
2.829
 20
19.1871
 30
0.0025
 70
192
 0
VERTEX
 8
TUBO_1
 10
2.829
 20
19.1871
 30
0.0025
 70
192
 0
VERTEX
 8
TUBO_1
 10
2.829
 20
19.1871
 30
0.0025
 70
192
 0
VERTEX
 8
TUBO_1
 10
2.8134
 20
19.1086
 30
0.0025
 70
192
 0
VERTEX
 8
TUBO_1
 10
2.8134
 20
19.1086
 30
0.0025
 70
192
 0
VERTEX
 8
TUBO_1
 10
2.8134
 20
19.1086
 30
0.0025
 70
192
 0
VERTEX
 8
TUBO_1
 10
2.8134
 20
19.1086
 30
0.0025
 70
192
 0
VERTEX
 8
TUBO_1
 10
1.4136
 20
19.3162
 30
0.0025
 70
192
 0
VERTEX
 8
TUBO_1
 10
1.4214
 20
19.3958
 30
0.0025
 70
192
 0
VERTEX
 8
TUBO_1
 10
1.4214
 20
19.3958
 30
0.0025
 70
192
 0
VERTEX
 8
TUBO_1
 10
1.4214
 20
19.3958
 30
0.0025
 70
192
 0
VERTEX
 8
TUBO_1
 10
1.4214
 20
19.3958
 30
0.0025
 70
192
 0
VERTEX
 8
TUBO_1
 10
1.4214
 20
19.3958
 30
0.0025
 70
192
 0
VERTEX
 8
TUBO_1
 10
1.4136
 20
19.3162
 30
0.0025
 70
192
 0
VERTEX
 8
TUBO_1
 10
1.4136
 20
19.3162
 30
0.0025
 70
192
 0
VERTEX
 8
TUBO_1
 10
1.4136
 20
19.3162
 30
0.0025
 70
192
 0
VERTEX
 8
TUBO_1
 10
1.4136
 20
19.3162
 30
0.0025
 70
192
 0
VERTEX
 8
TUBO_1
 10
0.0002
 20
19.3857
 30
0.0025
 70
192
 0
VERTEX
 8
TUBO_1
 10
0.0002
 20
19.4657
 30
0.0025
 70
192
 0
VERTEX
 8
TUBO_1
 10
0.0002
 20
19.4657
 30
0.0025
 70
192
 0
VERTEX
 8
TUBO_1
 10
0.0002
 20
19.4657
 30
0.0025
 70
192
 0
VERTEX
 8
TUBO_1
 10
0.0002
 20
19.4657
 30
0.0025
 70
192
 0
VERTEX
 8
TUBO_1
 10
0.0002
 20
19.4657
 30
0.0025
 70
192
 0
VERTEX
 8
TUBO_1
 10
0.0002
 20
19.3857
 30
0.0025
 70
192
 0
VERTEX
 8
TUBO_1
 10
0.0002
 20
19.3857
 30
0.0025
 70
192
 0
VERTEX
 8
TUBO_1
 10
0.0002
 20
19.3857
 30
0.0025
 70
192
 0
VERTEX
 8
TUBO_1
 10
0.0002
 20
19.3857
 30
0.0025
 70
192
 0
VERTEX
 8
TUBO_1
 10
-1.4132
 20
19.3162
 30
0.0025
 70
192
 0
VERTEX
 8
TUBO_1
 10
-1.4211
 20
19.3958
 30
0.0025
 70
192
 0
VERTEX
 8
TUBO_1
 10
-1.4211
 20
19.3958
 30
0.0025
 70
192
 0
VERTEX
 8
TUBO_1
 10
-1.4211
 20
19.3958
 30
0.0025
 70
192
 0
VERTEX
 8
TUBO_1
 10
-1.4211
 20
19.3958
 30
0.0025
 70
192
 0
VERTEX
 8
TUBO_1
 10
-1.4211
 20
19.3958
 30
0.0025
 70
192
 0
VERTEX
 8
TUBO_1
 10
-1.4132
 20
19.3162
 30
0.0025
 70
192
 0
VERTEX
 8
TUBO_1
 10
-1.4132
 20
19.3162
 30
0.0025
 70
192
 0
VERTEX
 8
TUBO_1
 10
-1.4132
 20
19.3162
 30
0.0025
 70
192
 0
VERTEX
 8
TUBO_1
 10
-1.4132
 20
19.3162
 30
0.0025
 70
192
 0
VERTEX
 8
TUBO_1
 10
-2.813
 20
19.1086
 30
0.0025
 70
192
 0
VERTEX
 8
TUBO_1
 10
-2.8286
 20
19.1871
 30
0.0025
 70
192
 0
VERTEX
 8
TUBO_1
 10
-2.8286
 20
19.1871
 30
0.0025
 70
192
 0
VERTEX
 8
TUBO_1
 10
-2.8286
 20
19.1871
 30
0.0025
 70
192
 0
VERTEX
 8
TUBO_1
 10
-2.8286
 20
19.1871
 30
0.0025
 70
192
 0
VERTEX
 8
TUBO_1
 10
-2.8286
 20
19.1871
 30
0.0025
 70
192
 0
VERTEX
 8
TUBO_1
 10
-2.813
 20
19.1086
 30
0.0025
 70
192
 0
VERTEX
 8
TUBO_1
 10
-2.813
 20
19.1086
 30
0.0025
 70
192
 0
VERTEX
 8
TUBO_1
 10
-2.813
 20
19.1086
 30
0.0025
 70
192
 0
VERTEX
 8
TUBO_1
 10
-2.813
 20
19.1086
 30
0.0025
 70
192
 0
VERTEX
 8
TUBO_1
 10
-4.1857
 20
18.7647
 30
0.0025
 70
192
 0
VERTEX
 8
TUBO_1
 10
-4.2089
 20
18.8413
 30
0.0025
 70
192
 0
VERTEX
 8
TUBO_1
 10
-4.2089
 20
18.8413
 30
0.0025
 70
192
 0
VERTEX
 8
TUBO_1
 10
-4.2089
 20
18.8413
 30
0.0025
 70
192
 0
VERTEX
 8
TUBO_1
 10
-4.2089
 20
18.8413
 30
0.0025
 70
192
 0
VERTEX
 8
TUBO_1
 10
-4.2089
 20
18.8413
 30
0.0025
 70
192
 0
VERTEX
 8
TUBO_1
 10
-4.1857
 20
18.7647
 30
0.0025
 70
192
 0
VERTEX
 8
TUBO_1
 10
-4.1857
 20
18.7647
 30
0.0025
 70
192
 0
VERTEX
 8
TUBO_1
 10
-4.1857
 20
18.7647
 30
0.0025
 70
192
 0
VERTEX
 8
TUBO_1
 10
-4.1857
 20
18.7647
 30
0.0025
 70
192
 0
VERTEX
 8
TUBO_1
 10
-5.5181
 20
18.288
 30
0.0025
 70
192
 0
VERTEX
 8
TUBO_1
 10
-5.5487
 20
18.3619
 30
0.0025
 70
192
 0
VERTEX
 8
TUBO_1
 10
-5.5487
 20
18.3619
 30
0.0025
 70
192
 0
VERTEX
 8
TUBO_1
 10
-5.5487
 20
18.3619
 30
0.0025
 70
192
 0
VERTEX
 8
TUBO_1
 10
-5.5487
 20
18.3619
 30
0.0025
 70
192
 0
VERTEX
 8
TUBO_1
 10
-5.5487
 20
18.3619
 30
0.0025
 70
192
 0
VERTEX
 8
TUBO_1
 10
-5.5181
 20
18.288
 30
0.0025
 70
192
 0
VERTEX
 8
TUBO_1
 10
-5.5181
 20
18.288
 30
0.0025
 70
192
 0
VERTEX
 8
TUBO_1
 10
-5.5181
 20
18.288
 30
0.0025
 70
192
 0
VERTEX
 8
TUBO_1
 10
-5.5181
 20
18.288
 30
0.0025
 70
192
 0
VERTEX
 8
TUBO_1
 10
-6.7974
 20
17.683
 30
0.0025
 70
192
 0
VERTEX
 8
TUBO_1
 10
-6.8351
 20
17.7535
 30
0.0025
 70
192
 0
VERTEX
 8
TUBO_1
 10
-6.8351
 20
17.7535
 30
0.0025
 70
192
 0
VERTEX
 8
TUBO_1
 10
-6.8351
 20
17.7535
 30
0.0025
 70
192
 0
VERTEX
 8
TUBO_1
 10
-6.8351
 20
17.7535
 30
0.0025
 70
192
 0
VERTEX
 8
TUBO_1
 10
-6.8351
 20
17.7535
 30
0.0025
 70
192
 0
VERTEX
 8
TUBO_1
 10
-6.7974
 20
17.683
 30
0.0025
 70
192
 0
VERTEX
 8
TUBO_1
 10
-6.7974
 20
17.683
 30
0.0025
 70
192
 0
VERTEX
 8
TUBO_1
 10
-6.7974
 20
17.683
 30
0.0025
 70
192
 0
VERTEX
 8
TUBO_1
 10
-6.7974
 20
17.683
 30
0.0025
 70
192
 0
VERTEX
 8
TUBO_1
 10
-8.0111
 20
16.9555
 30
0.0025
 70
192
 0
VERTEX
 8
TUBO_1
 10
-8.0556
 20
17.022
 30
0.0025
 70
192
 0
VERTEX
 8
TUBO_1
 10
-8.0556
 20
17.022
 30
0.0025
 70
192
 0
VERTEX
 8
TUBO_1
 10
-8.0556
 20
17.022
 30
0.0025
 70
192
 0
VERTEX
 8
TUBO_1
 10
-8.0556
 20
17.022
 30
0.0025
 70
192
 0
VERTEX
 8
TUBO_1
 10
-8.0556
 20
17.022
 30
0.0025
 70
192
 0
VERTEX
 8
TUBO_1
 10
-8.0111
 20
16.9555
 30
0.0025
 70
192
 0
VERTEX
 8
TUBO_1
 10
-8.0111
 20
16.9555
 30
0.0025
 70
192
 0
VERTEX
 8
TUBO_1
 10
-8.0111
 20
16.9555
 30
0.0025
 70
192
 0
VERTEX
 8
TUBO_1
 10
-8.0111
 20
16.9555
 30
0.0025
 70
192
 0
VERTEX
 8
TUBO_1
 10
-9.1478
 20
16.1125
 30
0.0025
 70
192
 0
VERTEX
 8
TUBO_1
 10
-9.1985
 20
16.1743
 30
0.0025
 70
192
 0
VERTEX
 8
TUBO_1
 10
-9.1985
 20
16.1743
 30
0.0025
 70
192
 0
VERTEX
 8
TUBO_1
 10
-9.1985
 20
16.1743
 30
0.0025
 70
192
 0
VERTEX
 8
TUBO_1
 10
-9.1985
 20
16.1743
 30
0.0025
 70
192
 0
VERTEX
 8
TUBO_1
 10
-9.1985
 20
16.1743
 30
0.0025
 70
192
 0
VERTEX
 8
TUBO_1
 10
-9.1478
 20
16.1125
 30
0.0025
 70
192
 0
VERTEX
 8
TUBO_1
 10
-9.1478
 20
16.1125
 30
0.0025
 70
192
 0
VERTEX
 8
TUBO_1
 10
-9.1478
 20
16.1125
 30
0.0025
 70
192
 0
VERTEX
 8
TUBO_1
 10
-9.1478
 20
16.1125
 30
0.0025
 70
192
 0
VERTEX
 8
TUBO_1
 10
-10.1963
 20
15.1621
 30
0.0025
 70
192
 0
VERTEX
 8
TUBO_1
 10
-10.2529
 20
15.2187
 30
0.0025
 70
192
 0
VERTEX
 8
TUBO_1
 10
-10.2529
 20
15.2187
 30
0.0025
 70
192
 0
VERTEX
 8
TUBO_1
 10
-10.2529
 20
15.2187
 30
0.0025
 70
192
 0
VERTEX
 8
TUBO_1
 10
-10.2529
 20
15.2187
 30
0.0025
 70
192
 0
VERTEX
 8
TUBO_1
 10
-10.2529
 20
15.2187
 30
0.0025
 70
192
 0
VERTEX
 8
TUBO_1
 10
-10.1963
 20
15.1621
 30
0.0025
 70
192
 0
VERTEX
 8
TUBO_1
 10
-10.1963
 20
15.1621
 30
0.0025
 70
192
 0
VERTEX
 8
TUBO_1
 10
-10.1963
 20
15.1621
 30
0.0025
 70
192
 0
VERTEX
 8
TUBO_1
 10
-10.1963
 20
15.1621
 30
0.0025
 70
192
 0
VERTEX
 8
TUBO_1
 10
-11.1466
 20
14.1136
 30
0.0025
 70
192
 0
VERTEX
 8
TUBO_1
 10
-11.2085
 20
14.1644
 30
0.0025
 70
192
 0
VERTEX
 8
TUBO_1
 10
-11.2085
 20
14.1644
 30
0.0025
 70
192
 0
VERTEX
 8
TUBO_1
 10
-11.2085
 20
14.1644
 30
0.0025
 70
192
 0
VERTEX
 8
TUBO_1
 10
-11.2085
 20
14.1644
 30
0.0025
 70
192
 0
VERTEX
 8
TUBO_1
 10
-11.2085
 20
14.1644
 30
0.0025
 70
192
 0
VERTEX
 8
TUBO_1
 10
-11.1466
 20
14.1136
 30
0.0025
 70
192
 0
VERTEX
 8
TUBO_1
 10
-11.1466
 20
14.1136
 30
0.0025
 70
192
 0
VERTEX
 8
TUBO_1
 10
-11.1466
 20
14.1136
 30
0.0025
 70
192
 0
VERTEX
 8
TUBO_1
 10
-11.1466
 20
14.1136
 30
0.0025
 70
192
 0
VERTEX
 8
TUBO_1
 10
-11.9896
 20
12.977
 30
0.0025
 70
192
 0
VERTEX
 8
TUBO_1
 10
-12.0561
 20
13.0214
 30
0.0025
 70
192
 0
VERTEX
 8
TUBO_1
 10
-12.0561
 20
13.0214
 30
0.0025
 70
192
 0
VERTEX
 8
TUBO_1
 10
-12.0561
 20
13.0214
 30
0.0025
 70
192
 0
VERTEX
 8
TUBO_1
 10
-12.0561
 20
13.0214
 30
0.0025
 70
192
 0
VERTEX
 8
TUBO_1
 10
-12.0561
 20
13.0214
 30
0.0025
 70
192
 0
VERTEX
 8
TUBO_1
 10
-11.9896
 20
12.977
 30
0.0025
 70
192
 0
VERTEX
 8
TUBO_1
 10
-11.9896
 20
12.977
 30
0.0025
 70
192
 0
VERTEX
 8
TUBO_1
 10
-11.9896
 20
12.977
 30
0.0025
 70
192
 0
VERTEX
 8
TUBO_1
 10
-11.9896
 20
12.977
 30
0.0025
 70
192
 0
VERTEX
 8
TUBO_1
 10
-12.7171
 20
11.7632
 30
0.0025
 70
192
 0
VERTEX
 8
TUBO_1
 10
-12.7877
 20
11.8009
 30
0.0025
 70
192
 0
VERTEX
 8
TUBO_1
 10
-12.7877
 20
11.8009
 30
0.0025
 70
192
 0
VERTEX
 8
TUBO_1
 10
-12.7877
 20
11.8009
 30
0.0025
 70
192
 0
VERTEX
 8
TUBO_1
 10
-12.7877
 20
11.8009
 30
0.0025
 70
192
 0
VERTEX
 8
TUBO_1
 10
-12.7877
 20
11.8009
 30
0.0025
 70
192
 0
VERTEX
 8
TUBO_1
 10
-12.7171
 20
11.7632
 30
0.0025
 70
192
 0
VERTEX
 8
TUBO_1
 10
-12.7171
 20
11.7632
 30
0.0025
 70
192
 0
VERTEX
 8
TUBO_1
 10
-12.7171
 20
11.7632
 30
0.0025
 70
192
 0
VERTEX
 8
TUBO_1
 10
-12.7171
 20
11.7632
 30
0.0025
 70
192
 0
VERTEX
 8
TUBO_1
 10
-13.3222
 20
10.484
 30
0.0025
 70
192
 0
VERTEX
 8
TUBO_1
 10
-13.3961
 20
10.5146
 30
0.0025
 70
192
 0
VERTEX
 8
TUBO_1
 10
-13.3961
 20
10.5146
 30
0.0025
 70
192
 0
VERTEX
 8
TUBO_1
 10
-13.3961
 20
10.5146
 30
0.0025
 70
192
 0
VERTEX
 8
TUBO_1
 10
-13.3961
 20
10.5146
 30
0.0025
 70
192
 0
VERTEX
 8
TUBO_1
 10
-13.3961
 20
10.5146
 30
0.0025
 70
192
 0
VERTEX
 8
TUBO_1
 10
-13.3222
 20
10.484
 30
0.0025
 70
192
 0
VERTEX
 8
TUBO_1
 10
-13.3222
 20
10.484
 30
0.0025
 70
192
 0
VERTEX
 8
TUBO_1
 10
-13.3222
 20
10.484
 30
0.0025
 70
192
 0
VERTEX
 8
TUBO_1
 10
-13.3222
 20
10.484
 30
0.0025
 70
192
 0
VERTEX
 8
TUBO_1
 10
-13.7989
 20
9.1516
 30
0.0025
 70
192
 0
VERTEX
 8
TUBO_1
 10
-13.8755
 20
9.1748
 30
0.0025
 70
192
 0
VERTEX
 8
TUBO_1
 10
-13.8755
 20
9.1748
 30
0.0025
 70
192
 0
VERTEX
 8
TUBO_1
 10
-13.8755
 20
9.1748
 30
0.0025
 70
192
 0
VERTEX
 8
TUBO_1
 10
-13.8755
 20
9.1748
 30
0.0025
 70
192
 0
VERTEX
 8
TUBO_1
 10
-13.8755
 20
9.1748
 30
0.0025
 70
192
 0
VERTEX
 8
TUBO_1
 10
-13.7989
 20
9.1516
 30
0.0025
 70
192
 0
VERTEX
 8
TUBO_1
 10
-13.7989
 20
9.1516
 30
0.0025
 70
192
 0
VERTEX
 8
TUBO_1
 10
-13.7989
 20
9.1516
 30
0.0025
 70
192
 0
VERTEX
 8
TUBO_1
 10
-13.7989
 20
9.1516
 30
0.0025
 70
192
 0
VERTEX
 8
TUBO_1
 10
-14.1427
 20
7.7789
 30
0.0025
 70
192
 0
VERTEX
 8
TUBO_1
 10
-14.2212
 20
7.7945
 30
0.0025
 70
192
 0
VERTEX
 8
TUBO_1
 10
-14.2212
 20
7.7945
 30
0.0025
 70
192
 0
VERTEX
 8
TUBO_1
 10
-14.2212
 20
7.7945
 30
0.0025
 70
192
 0
VERTEX
 8
TUBO_1
 10
-14.2212
 20
7.7945
 30
0.0025
 70
192
 0
VERTEX
 8
TUBO_1
 10
-14.2212
 20
7.7945
 30
0.0025
 70
192
 0
VERTEX
 8
TUBO_1
 10
-14.1427
 20
7.7789
 30
0.0025
 70
192
 0
VERTEX
 8
TUBO_1
 10
-14.1427
 20
7.7789
 30
0.0025
 70
192
 0
VERTEX
 8
TUBO_1
 10
-14.1427
 20
7.7789
 30
0.0025
 70
192
 0
VERTEX
 8
TUBO_1
 10
-14.1427
 20
7.7789
 30
0.0025
 70
192
 0
VERTEX
 8
TUBO_1
 10
-14.3504
 20
6.3791
 30
0.0025
 70
192
 0
VERTEX
 8
TUBO_1
 10
-14.43
 20
6.3869
 30
0.0025
 70
192
 0
VERTEX
 8
TUBO_1
 10
-14.43
 20
6.3869
 30
0.0025
 70
192
 0
VERTEX
 8
TUBO_1
 10
-14.43
 20
6.3869
 30
0.0025
 70
192
 0
VERTEX
 8
TUBO_1
 10
-14.43
 20
6.3869
 30
0.0025
 70
192
 0
VERTEX
 8
TUBO_1
 10
-14.43
 20
6.3869
 30
0.0025
 70
192
 0
VERTEX
 8
TUBO_1
 10
-14.3504
 20
6.3791
 30
0.0025
 70
192
 0
VERTEX
 8
TUBO_1
 10
-14.3504
 20
6.3791
 30
0.0025
 70
192
 0
VERTEX
 8
TUBO_1
 10
-14.3504
 20
6.3791
 30
0.0025
 70
192
 0
VERTEX
 8
TUBO_1
 10
-14.3504
 20
6.3791
 30
0.0025
 70
192
 0
VERTEX
 8
TUBO_1
 10
-14.4198
 20
4.9657
 30
0.0025
 70
192
 0
VERTEX
 8
TUBO_1
 10
-14.4998
 20
4.9657
 30
0.0025
 70
192
 0
VERTEX
 8
TUBO_1
 10
-14.4998
 20
4.9657
 30
0.0025
 70
192
 0
VERTEX
 8
TUBO_1
 10
-14.4998
 20
4.9657
 30
0.0025
 70
192
 0
VERTEX
 8
TUBO_1
 10
-14.4998
 20
4.9657
 30
0.0025
 70
192
 0
VERTEX
 8
TUBO_1
 10
-14.4998
 20
4.9657
 30
0.0025
 70
192
 0
VERTEX
 8
TUBO_1
 10
-14.4198
 20
4.9657
 30
0.0025
 70
192
 0
VERTEX
 8
TUBO_1
 10
-14.4198
 20
4.9657
 30
0.0025
 70
192
 0
VERTEX
 8
TUBO_1
 10
-14.4198
 20
4.9657
 30
0.0025
 70
192
 0
VERTEX
 8
TUBO_1
 10
-14.4198
 20
4.9657
 30
0.0025
 70
192
 0
VERTEX
 8
TUBO_1
 10
-14.3504
 20
3.5523
 30
0.0025
 70
192
 0
VERTEX
 8
TUBO_1
 10
-14.43
 20
3.5444
 30
0.0025
 70
192
 0
VERTEX
 8
TUBO_1
 10
-14.43
 20
3.5444
 30
0.0025
 70
192
 0
VERTEX
 8
TUBO_1
 10
-14.43
 20
3.5444
 30
0.0025
 70
192
 0
VERTEX
 8
TUBO_1
 10
-14.43
 20
3.5444
 30
0.0025
 70
192
 0
VERTEX
 8
TUBO_1
 10
-14.43
 20
3.5444
 30
0.0025
 70
192
 0
VERTEX
 8
TUBO_1
 10
-14.3504
 20
3.5523
 30
0.0025
 70
192
 0
VERTEX
 8
TUBO_1
 10
-14.3504
 20
3.5523
 30
0.0025
 70
192
 0
VERTEX
 8
TUBO_1
 10
-14.3504
 20
3.5523
 30
0.0025
 70
192
 0
VERTEX
 8
TUBO_1
 10
-14.3504
 20
3.5523
 30
0.0025
 70
192
 0
VERTEX
 8
TUBO_1
 10
-14.1427
 20
2.1525
 30
0.0025
 70
192
 0
VERTEX
 8
TUBO_1
 10
-14.2212
 20
2.1369
 30
0.0025
 70
192
 0
VERTEX
 8
TUBO_1
 10
-14.2212
 20
2.1369
 30
0.0025
 70
192
 0
VERTEX
 8
TUBO_1
 10
-14.2212
 20
2.1369
 30
0.0025
 70
192
 0
VERTEX
 8
TUBO_1
 10
-14.2212
 20
2.1369
 30
0.0025
 70
192
 0
VERTEX
 8
TUBO_1
 10
-14.2212
 20
2.1369
 30
0.0025
 70
192
 0
VERTEX
 8
TUBO_1
 10
-14.1427
 20
2.1525
 30
0.0025
 70
192
 0
VERTEX
 8
TUBO_1
 10
-14.1427
 20
2.1525
 30
0.0025
 70
192
 0
VERTEX
 8
TUBO_1
 10
-14.1427
 20
2.1525
 30
0.0025
 70
192
 0
VERTEX
 8
TUBO_1
 10
-14.1427
 20
2.1525
 30
0.0025
 70
192
 0
VERTEX
 8
TUBO_1
 10
-13.7989
 20
0.7798
 30
0.0025
 70
192
 0
VERTEX
 8
TUBO_1
 10
-13.8755
 20
0.7565
 30
0.0025
 70
192
 0
VERTEX
 8
TUBO_1
 10
-13.8755
 20
0.7565
 30
0.0025
 70
192
 0
VERTEX
 8
TUBO_1
 10
-13.8755
 20
0.7565
 30
0.0025
 70
192
 0
VERTEX
 8
TUBO_1
 10
-13.8755
 20
0.7565
 30
0.0025
 70
192
 0
VERTEX
 8
TUBO_1
 10
-13.8755
 20
0.7565
 30
0.0025
 70
192
 0
VERTEX
 8
TUBO_1
 10
-13.7989
 20
0.7798
 30
0.0025
 70
192
 0
VERTEX
 8
TUBO_1
 10
-13.7989
 20
0.7798
 30
0.0025
 70
192
 0
VERTEX
 8
TUBO_1
 10
-13.7989
 20
0.7798
 30
0.0025
 70
192
 0
VERTEX
 8
TUBO_1
 10
-13.7989
 20
0.7798
 30
0.0025
 70
192
 0
VERTEX
 8
TUBO_1
 10
-13.3222
 20
-0.5526
 30
0.0025
 70
192
 0
VERTEX
 8
TUBO_1
 10
-13.3961
 20
-0.5832
 30
0.0025
 70
192
 0
VERTEX
 8
TUBO_1
 10
-13.3961
 20
-0.5832
 30
0.0025
 70
192
 0
VERTEX
 8
TUBO_1
 10
-13.3961
 20
-0.5832
 30
0.0025
 70
192
 0
VERTEX
 8
TUBO_1
 10
-13.3961
 20
-0.5832
 30
0.0025
 70
192
 0
VERTEX
 8
TUBO_1
 10
-13.3961
 20
-0.5832
 30
0.0025
 70
192
 0
VERTEX
 8
TUBO_1
 10
-13.3222
 20
-0.5526
 30
0.0025
 70
192
 0
VERTEX
 8
TUBO_1
 10
-13.3222
 20
-0.5526
 30
0.0025
 70
192
 0
VERTEX
 8
TUBO_1
 10
-13.3222
 20
-0.5526
 30
0.0025
 70
192
 0
VERTEX
 8
TUBO_1
 10
-13.3222
 20
-0.5526
 30
0.0025
 70
192
 0
VERTEX
 8
TUBO_1
 10
-12.7171
 20
-1.8319
 30
0.0025
 70
192
 0
VERTEX
 8
TUBO_1
 10
-12.7877
 20
-1.8696
 30
0.0025
 70
192
 0
VERTEX
 8
TUBO_1
 10
-12.7877
 20
-1.8696
 30
0.0025
 70
192
 0
VERTEX
 8
TUBO_1
 10
-12.7877
 20
-1.8696
 30
0.0025
 70
192
 0
VERTEX
 8
TUBO_1
 10
-12.7877
 20
-1.8696
 30
0.0025
 70
192
 0
VERTEX
 8
TUBO_1
 10
-12.7877
 20
-1.8696
 30
0.0025
 70
192
 0
VERTEX
 8
TUBO_1
 10
-12.7171
 20
-1.8319
 30
0.0025
 70
192
 0
VERTEX
 8
TUBO_1
 10
-12.7171
 20
-1.8319
 30
0.0025
 70
192
 0
VERTEX
 8
TUBO_1
 10
-12.7171
 20
-1.8319
 30
0.0025
 70
192
 0
VERTEX
 8
TUBO_1
 10
-12.7171
 20
-1.8319
 30
0.0025
 70
192
 0
VERTEX
 8
TUBO_1
 10
-11.9896
 20
-3.0457
 30
0.0025
 70
192
 0
VERTEX
 8
TUBO_1
 10
-12.0561
 20
-3.0901
 30
0.0025
 70
192
 0
VERTEX
 8
TUBO_1
 10
-12.0561
 20
-3.0901
 30
0.0025
 70
192
 0
VERTEX
 8
TUBO_1
 10
-12.0561
 20
-3.0901
 30
0.0025
 70
192
 0
VERTEX
 8
TUBO_1
 10
-12.0561
 20
-3.0901
 30
0.0025
 70
192
 0
VERTEX
 8
TUBO_1
 10
-12.0561
 20
-3.0901
 30
0.0025
 70
192
 0
VERTEX
 8
TUBO_1
 10
-11.9896
 20
-3.0457
 30
0.0025
 70
192
 0
VERTEX
 8
TUBO_1
 10
-11.9896
 20
-3.0457
 30
0.0025
 70
192
 0
VERTEX
 8
TUBO_1
 10
-11.9896
 20
-3.0457
 30
0.0025
 70
192
 0
VERTEX
 8
TUBO_1
 10
-11.9896
 20
-3.0457
 30
0.0025
 70
192
 0
VERTEX
 8
TUBO_1
 10
-11.1466
 20
-4.1823
 30
0.0025
 70
192
 0
VERTEX
 8
TUBO_1
 10
-11.2085
 20
-4.233
 30
0.0025
 70
192
 0
VERTEX
 8
TUBO_1
 10
-11.2085
 20
-4.233
 30
0.0025
 70
192
 0
VERTEX
 8
TUBO_1
 10
-11.2085
 20
-4.233
 30
0.0025
 70
192
 0
VERTEX
 8
TUBO_1
 10
-11.2085
 20
-4.233
 30
0.0025
 70
192
 0
VERTEX
 8
TUBO_1
 10
-11.2085
 20
-4.233
 30
0.0025
 70
192
 0
VERTEX
 8
TUBO_1
 10
-11.1466
 20
-4.1823
 30
0.0025
 70
192
 0
VERTEX
 8
TUBO_1
 10
-11.1466
 20
-4.1823
 30
0.0025
 70
192
 0
VERTEX
 8
TUBO_1
 10
-11.1466
 20
-4.1823
 30
0.0025
 70
192
 0
VERTEX
 8
TUBO_1
 10
-11.1466
 20
-4.1823
 30
0.0025
 70
192
 0
VERTEX
 8
TUBO_1
 10
-10.1963
 20
-5.2308
 30
0.0025
 70
192
 0
VERTEX
 8
TUBO_1
 10
-10.2529
 20
-5.2874
 30
0.0025
 70
192
 0
VERTEX
 8
TUBO_1
 10
-10.2529
 20
-5.2874
 30
0.0025
 70
192
 0
VERTEX
 8
TUBO_1
 10
-10.2529
 20
-5.2874
 30
0.0025
 70
192
 0
VERTEX
 8
TUBO_1
 10
-10.2529
 20
-5.2874
 30
0.0025
 70
192
 0
VERTEX
 8
TUBO_1
 10
-10.2529
 20
-5.2874
 30
0.0025
 70
192
 0
VERTEX
 8
TUBO_1
 10
-10.1963
 20
-5.2308
 30
0.0025
 70
192
 0
VERTEX
 8
TUBO_1
 10
-10.1963
 20
-5.2308
 30
0.0025
 70
192
 0
VERTEX
 8
TUBO_1
 10
-10.1963
 20
-5.2308
 30
0.0025
 70
192
 0
VERTEX
 8
TUBO_1
 10
-10.1963
 20
-5.2308
 30
0.0025
 70
192
 0
VERTEX
 8
TUBO_1
 10
-9.1478
 20
-6.1811
 30
0.0025
 70
192
 0
VERTEX
 8
TUBO_1
 10
-9.1985
 20
-6.243
 30
0.0025
 70
192
 0
VERTEX
 8
TUBO_1
 10
-9.1985
 20
-6.243
 30
0.0025
 70
192
 0
VERTEX
 8
TUBO_1
 10
-9.1985
 20
-6.243
 30
0.0025
 70
192
 0
VERTEX
 8
TUBO_1
 10
-9.1985
 20
-6.243
 30
0.0025
 70
192
 0
VERTEX
 8
TUBO_1
 10
-9.1985
 20
-6.243
 30
0.0025
 70
192
 0
VERTEX
 8
TUBO_1
 10
-9.1478
 20
-6.1811
 30
0.0025
 70
192
 0
VERTEX
 8
TUBO_1
 10
-9.1478
 20
-6.1811
 30
0.0025
 70
192
 0
VERTEX
 8
TUBO_1
 10
-9.1478
 20
-6.1811
 30
0.0025
 70
192
 0
VERTEX
 8
TUBO_1
 10
-9.1478
 20
-6.1811
 30
0.0025
 70
192
 0
VERTEX
 8
TUBO_1
 10
-8.0111
 20
-7.0241
 30
0.0025
 70
192
 0
VERTEX
 8
TUBO_1
 10
-8.0556
 20
-7.0906
 30
0.0025
 70
192
 0
VERTEX
 8
TUBO_1
 10
-8.0556
 20
-7.0906
 30
0.0025
 70
192
 0
VERTEX
 8
TUBO_1
 10
-8.0556
 20
-7.0906
 30
0.0025
 70
192
 0
VERTEX
 8
TUBO_1
 10
-8.0556
 20
-7.0906
 30
0.0025
 70
192
 0
VERTEX
 8
TUBO_1
 10
-8.0556
 20
-7.0906
 30
0.0025
 70
192
 0
VERTEX
 8
TUBO_1
 10
-8.0111
 20
-7.0241
 30
0.0025
 70
192
 0
VERTEX
 8
TUBO_1
 10
-8.0111
 20
-7.0241
 30
0.0025
 70
192
 0
VERTEX
 8
TUBO_1
 10
-8.0111
 20
-7.0241
 30
0.0025
 70
192
 0
VERTEX
 8
TUBO_1
 10
-8.0111
 20
-7.0241
 30
0.0025
 70
192
 0
VERTEX
 8
TUBO_1
 10
-6.7974
 20
-7.7516
 30
0.0025
 70
192
 0
VERTEX
 8
TUBO_1
 10
-6.8351
 20
-7.8222
 30
0.0025
 70
192
 0
VERTEX
 8
TUBO_1
 10
-6.8351
 20
-7.8222
 30
0.0025
 70
192
 0
VERTEX
 8
TUBO_1
 10
-6.8351
 20
-7.8222
 30
0.0025
 70
192
 0
VERTEX
 8
TUBO_1
 10
-6.8351
 20
-7.8222
 30
0.0025
 70
192
 0
VERTEX
 8
TUBO_1
 10
-6.8351
 20
-7.8222
 30
0.0025
 70
192
 0
VERTEX
 8
TUBO_1
 10
-6.7974
 20
-7.7516
 30
0.0025
 70
192
 0
VERTEX
 8
TUBO_1
 10
-6.7974
 20
-7.7516
 30
0.0025
 70
192
 0
VERTEX
 8
TUBO_1
 10
-6.7974
 20
-7.7516
 30
0.0025
 70
192
 0
VERTEX
 8
TUBO_1
 10
-6.7974
 20
-7.7516
 30
0.0025
 70
192
 0
VERTEX
 8
TUBO_1
 10
-5.5181
 20
-8.3567
 30
0.0025
 70
192
 0
VERTEX
 8
TUBO_1
 10
-5.5487
 20
-8.4306
 30
0.0025
 70
192
 0
VERTEX
 8
TUBO_1
 10
-5.5487
 20
-8.4306
 30
0.0025
 70
192
 0
VERTEX
 8
TUBO_1
 10
-5.5487
 20
-8.4306
 30
0.0025
 70
192
 0
VERTEX
 8
TUBO_1
 10
-5.5487
 20
-8.4306
 30
0.0025
 70
192
 0
VERTEX
 8
TUBO_1
 10
-5.5487
 20
-8.4306
 30
0.0025
 70
192
 0
VERTEX
 8
TUBO_1
 10
-5.5181
 20
-8.3567
 30
0.0025
 70
192
 0
VERTEX
 8
TUBO_1
 10
-5.5181
 20
-8.3567
 30
0.0025
 70
192
 0
VERTEX
 8
TUBO_1
 10
-5.5181
 20
-8.3567
 30
0.0025
 70
192
 0
VERTEX
 8
TUBO_1
 10
-5.5181
 20
-8.3567
 30
0.0025
 70
192
 0
VERTEX
 8
TUBO_1
 10
-4.1857
 20
-8.8334
 30
0.0025
 70
192
 0
VERTEX
 8
TUBO_1
 10
-4.2089
 20
-8.91
 30
0.0025
 70
192
 0
VERTEX
 8
TUBO_1
 10
-4.2089
 20
-8.91
 30
0.0025
 70
192
 0
VERTEX
 8
TUBO_1
 10
-4.2089
 20
-8.91
 30
0.0025
 70
192
 0
VERTEX
 8
TUBO_1
 10
-4.2089
 20
-8.91
 30
0.0025
 70
192
 0
VERTEX
 8
TUBO_1
 10
-4.2089
 20
-8.91
 30
0.0025
 70
192
 0
VERTEX
 8
TUBO_1
 10
-4.1857
 20
-8.8334
 30
0.0025
 70
192
 0
VERTEX
 8
TUBO_1
 10
-4.1857
 20
-8.8334
 30
0.0025
 70
192
 0
VERTEX
 8
TUBO_1
 10
-4.1857
 20
-8.8334
 30
0.0025
 70
192
 0
VERTEX
 8
TUBO_1
 10
-4.1857
 20
-8.8334
 30
0.0025
 70
192
 0
VERTEX
 8
TUBO_1
 10
-2.813
 20
-9.1773
 30
0.0025
 70
192
 0
VERTEX
 8
TUBO_1
 10
-2.8286
 20
-9.2557
 30
0.0025
 70
192
 0
VERTEX
 8
TUBO_1
 10
-2.8286
 20
-9.2557
 30
0.0025
 70
192
 0
VERTEX
 8
TUBO_1
 10
-2.8286
 20
-9.2557
 30
0.0025
 70
192
 0
VERTEX
 8
TUBO_1
 10
-2.8286
 20
-9.2557
 30
0.0025
 70
192
 0
VERTEX
 8
TUBO_1
 10
-2.8286
 20
-9.2557
 30
0.0025
 70
192
 0
VERTEX
 8
TUBO_1
 10
-2.813
 20
-9.1773
 30
0.0025
 70
192
 0
VERTEX
 8
TUBO_1
 10
-2.813
 20
-9.1773
 30
0.0025
 70
192
 0
VERTEX
 8
TUBO_1
 10
-2.813
 20
-9.1773
 30
0.0025
 70
192
 0
VERTEX
 8
TUBO_1
 10
-2.813
 20
-9.1773
 30
0.0025
 70
192
 0
VERTEX
 8
TUBO_1
 10
-1.4132
 20
-9.3849
 30
0.0025
 70
192
 0
VERTEX
 8
TUBO_1
 10
-1.4211
 20
-9.4645
 30
0.0025
 70
192
 0
VERTEX
 8
TUBO_1
 10
-1.4211
 20
-9.4645
 30
0.0025
 70
192
 0
VERTEX
 8
TUBO_1
 10
-1.4211
 20
-9.4645
 30
0.0025
 70
192
 0
VERTEX
 8
TUBO_1
 10
-1.4211
 20
-9.4645
 30
0.0025
 70
192
 0
VERTEX
 8
TUBO_1
 10
-1.4211
 20
-9.4645
 30
0.0025
 70
192
 0
VERTEX
 8
TUBO_1
 10
-1.4132
 20
-9.3849
 30
0.0025
 70
192
 0
VERTEX
 8
TUBO_1
 10
-1.4132
 20
-9.3849
 30
0.0025
 70
192
 0
VERTEX
 8
TUBO_1
 10
-1.4132
 20
-9.3849
 30
0.0025
 70
192
 0
VERTEX
 8
TUBO_1
 10
-1.4132
 20
-9.3849
 30
0.0025
 70
192
 0
VERTEX
 8
TUBO_1
 10
0.0002
 20
-9.4543
 30
0.0025
 70
192
 0
VERTEX
 8
TUBO_1
 10
0.0002
 20
-9.5343
 30
0.0025
 70
192
 0
VERTEX
 8
TUBO_1
 10
0.0002
 20
-9.5343
 30
0.0025
 70
192
 0
VERTEX
 8
TUBO_1
 10
0.0002
 20
-9.5343
 30
0.0025
 70
192
 0
VERTEX
 8
TUBO_1
 10
0.0002
 20
-9.5343
 30
0.0025
 70
192
 0
VERTEX
 8
TUBO_1
 10
0.0002
 20
-9.5343
 30
0.0025
 70
192
 0
VERTEX
 8
TUBO_1
 10
0.0002
 20
-9.4543
 30
0.0025
 70
192
 0
VERTEX
 8
TUBO_1
 10
0.0002
 20
-9.4543
 30
0.0025
 70
192
 0
VERTEX
 8
TUBO_1
 10
0.0002
 20
-9.4543
 30
0.0025
 70
192
 0
VERTEX
 8
TUBO_1
 10
0.0002
 20
-9.4543
 30
0.0025
 70
192
 0
VERTEX
 8
TUBO_1
 10
1.4136
 20
-9.3849
 30
0.0025
 70
192
 0
VERTEX
 8
TUBO_1
 10
1.4214
 20
-9.4645
 30
0.0025
 70
192
 0
VERTEX
 8
TUBO_1
 10
1.4214
 20
-9.4645
 30
0.0025
 70
192
 0
VERTEX
 8
TUBO_1
 10
1.4214
 20
-9.4645
 30
0.0025
 70
192
 0
VERTEX
 8
TUBO_1
 10
1.4214
 20
-9.4645
 30
0.0025
 70
192
 0
VERTEX
 8
TUBO_1
 10
1.4214
 20
-9.4645
 30
0.0025
 70
192
 0
VERTEX
 8
TUBO_1
 10
1.4136
 20
-9.3849
 30
0.0025
 70
192
 0
VERTEX
 8
TUBO_1
 10
1.4136
 20
-9.3849
 30
0.0025
 70
192
 0
VERTEX
 8
TUBO_1
 10
1.4136
 20
-9.3849
 30
0.0025
 70
192
 0
VERTEX
 8
TUBO_1
 10
1.4136
 20
-9.3849
 30
0.0025
 70
192
 0
VERTEX
 8
TUBO_1
 10
2.8134
 20
-9.1773
 30
0.0025
 70
192
 0
VERTEX
 8
TUBO_1
 10
2.829
 20
-9.2557
 30
0.0025
 70
192
 0
VERTEX
 8
TUBO_1
 10
2.829
 20
-9.2557
 30
0.0025
 70
192
 0
VERTEX
 8
TUBO_1
 10
2.829
 20
-9.2557
 30
0.0025
 70
192
 0
VERTEX
 8
TUBO_1
 10
2.829
 20
-9.2557
 30
0.0025
 70
192
 0
VERTEX
 8
TUBO_1
 10
2.829
 20
-9.2557
 30
0.0025
 70
192
 0
VERTEX
 8
TUBO_1
 10
2.8134
 20
-9.1773
 30
0.0025
 70
192
 0
VERTEX
 8
TUBO_1
 10
2.8134
 20
-9.1773
 30
0.0025
 70
192
 0
VERTEX
 8
TUBO_1
 10
2.8134
 20
-9.1773
 30
0.0025
 70
192
 0
VERTEX
 8
TUBO_1
 10
2.8134
 20
-9.1773
 30
0.0025
 70
192
 0
VERTEX
 8
TUBO_1
 10
4.1861
 20
-8.8334
 30
0.0025
 70
192
 0
VERTEX
 8
TUBO_1
 10
4.2093
 20
-8.91
 30
0.0025
 70
192
 0
VERTEX
 8
TUBO_1
 10
4.2093
 20
-8.91
 30
0.0025
 70
192
 0
VERTEX
 8
TUBO_1
 10
4.2093
 20
-8.91
 30
0.0025
 70
192
 0
VERTEX
 8
TUBO_1
 10
4.2093
 20
-8.91
 30
0.0025
 70
192
 0
VERTEX
 8
TUBO_1
 10
4.2093
 20
-8.91
 30
0.0025
 70
192
 0
VERTEX
 8
TUBO_1
 10
4.1861
 20
-8.8334
 30
0.0025
 70
192
 0
VERTEX
 8
TUBO_1
 10
4.1861
 20
-8.8334
 30
0.0025
 70
192
 0
VERTEX
 8
TUBO_1
 10
4.1861
 20
-8.8334
 30
0.0025
 70
192
 0
VERTEX
 8
TUBO_1
 10
4.1861
 20
-8.8334
 30
0.0025
 70
192
 0
VERTEX
 8
TUBO_1
 10
5.5185
 20
-8.3567
 30
0.0025
 70
192
 0
VERTEX
 8
TUBO_1
 10
5.5491
 20
-8.4306
 30
0.0025
 70
192
 0
VERTEX
 8
TUBO_1
 10
5.5491
 20
-8.4306
 30
0.0025
 70
192
 0
VERTEX
 8
TUBO_1
 10
5.5491
 20
-8.4306
 30
0.0025
 70
192
 0
VERTEX
 8
TUBO_1
 10
5.5491
 20
-8.4306
 30
0.0025
 70
192
 0
VERTEX
 8
TUBO_1
 10
5.5491
 20
-8.4306
 30
0.0025
 70
192
 0
VERTEX
 8
TUBO_1
 10
5.5185
 20
-8.3567
 30
0.0025
 70
192
 0
VERTEX
 8
TUBO_1
 10
5.5185
 20
-8.3567
 30
0.0025
 70
192
 0
VERTEX
 8
TUBO_1
 10
5.5185
 20
-8.3567
 30
0.0025
 70
192
 0
VERTEX
 8
TUBO_1
 10
5.5185
 20
-8.3567
 30
0.0025
 70
192
 0
VERTEX
 8
TUBO_1
 10
6.7977
 20
-7.7516
 30
0.0025
 70
192
 0
VERTEX
 8
TUBO_1
 10
6.8354
 20
-7.8222
 30
0.0025
 70
192
 0
VERTEX
 8
TUBO_1
 10
6.8354
 20
-7.8222
 30
0.0025
 70
192
 0
VERTEX
 8
TUBO_1
 10
6.8354
 20
-7.8222
 30
0.0025
 70
192
 0
VERTEX
 8
TUBO_1
 10
6.8354
 20
-7.8222
 30
0.0025
 70
192
 0
VERTEX
 8
TUBO_1
 10
6.8354
 20
-7.8222
 30
0.0025
 70
192
 0
VERTEX
 8
TUBO_1
 10
6.7977
 20
-7.7516
 30
0.0025
 70
192
 0
VERTEX
 8
TUBO_1
 10
6.7977
 20
-7.7516
 30
0.0025
 70
192
 0
VERTEX
 8
TUBO_1
 10
6.7977
 20
-7.7516
 30
0.0025
 70
192
 0
VERTEX
 8
TUBO_1
 10
6.7977
 20
-7.7516
 30
0.0025
 70
192
 0
VERTEX
 8
TUBO_1
 10
8.0115
 20
-7.0241
 30
0.0025
 70
192
 0
VERTEX
 8
TUBO_1
 10
8.056
 20
-7.0906
 30
0.0025
 70
192
 0
VERTEX
 8
TUBO_1
 10
8.056
 20
-7.0906
 30
0.0025
 70
192
 0
VERTEX
 8
TUBO_1
 10
8.056
 20
-7.0906
 30
0.0025
 70
192
 0
VERTEX
 8
TUBO_1
 10
8.056
 20
-7.0906
 30
0.0025
 70
192
 0
VERTEX
 8
TUBO_1
 10
8.056
 20
-7.0906
 30
0.0025
 70
192
 0
VERTEX
 8
TUBO_1
 10
8.0115
 20
-7.0241
 30
0.0025
 70
192
 0
VERTEX
 8
TUBO_1
 10
8.0115
 20
-7.0241
 30
0.0025
 70
192
 0
VERTEX
 8
TUBO_1
 10
8.0115
 20
-7.0241
 30
0.0025
 70
192
 0
VERTEX
 8
TUBO_1
 10
8.0115
 20
-7.0241
 30
0.0025
 70
192
 0
VERTEX
 8
TUBO_1
 10
9.1481
 20
-6.1811
 30
0.0025
 70
192
 0
VERTEX
 8
TUBO_1
 10
9.1989
 20
-6.243
 30
0.0025
 70
192
 0
VERTEX
 8
TUBO_1
 10
9.1989
 20
-6.243
 30
0.0025
 70
192
 0
VERTEX
 8
TUBO_1
 10
9.1989
 20
-6.243
 30
0.0025
 70
192
 0
VERTEX
 8
TUBO_1
 10
9.1989
 20
-6.243
 30
0.0025
 70
192
 0
VERTEX
 8
TUBO_1
 10
9.1989
 20
-6.243
 30
0.0025
 70
192
 0
VERTEX
 8
TUBO_1
 10
9.1481
 20
-6.1811
 30
0.0025
 70
192
 0
VERTEX
 8
TUBO_1
 10
9.1481
 20
-6.1811
 30
0.0025
 70
192
 0
VERTEX
 8
TUBO_1
 10
9.1481
 20
-6.1811
 30
0.0025
 70
192
 0
VERTEX
 8
TUBO_1
 10
9.1481
 20
-6.1811
 30
0.0025
 70
192
 0
VERTEX
 8
TUBO_1
 10
10.1967
 20
-5.2308
 30
0.0025
 70
192
 0
VERTEX
 8
TUBO_1
 10
10.2532
 20
-5.2874
 30
0.0025
 70
192
 0
VERTEX
 8
TUBO_1
 10
10.2532
 20
-5.2874
 30
0.0025
 70
192
 0
VERTEX
 8
TUBO_1
 10
10.2532
 20
-5.2874
 30
0.0025
 70
192
 0
VERTEX
 8
TUBO_1
 10
10.2532
 20
-5.2874
 30
0.0025
 70
192
 0
VERTEX
 8
TUBO_1
 10
10.2532
 20
-5.2874
 30
0.0025
 70
192
 0
VERTEX
 8
TUBO_1
 10
10.1967
 20
-5.2308
 30
0.0025
 70
192
 0
VERTEX
 8
TUBO_1
 10
10.1967
 20
-5.2308
 30
0.0025
 70
192
 0
VERTEX
 8
TUBO_1
 10
10.1967
 20
-5.2308
 30
0.0025
 70
192
 0
VERTEX
 8
TUBO_1
 10
10.1967
 20
-5.2308
 30
0.0025
 70
192
 0
VERTEX
 8
TUBO_1
 10
11.147
 20
-4.1823
 30
0.0025
 70
192
 0
VERTEX
 8
TUBO_1
 10
11.2088
 20
-4.233
 30
0.0025
 70
192
 0
VERTEX
 8
TUBO_1
 10
11.2088
 20
-4.233
 30
0.0025
 70
192
 0
VERTEX
 8
TUBO_1
 10
11.2088
 20
-4.233
 30
0.0025
 70
192
 0
VERTEX
 8
TUBO_1
 10
11.2088
 20
-4.233
 30
0.0025
 70
192
 0
VERTEX
 8
TUBO_1
 10
11.2088
 20
-4.233
 30
0.0025
 70
192
 0
VERTEX
 8
TUBO_1
 10
11.147
 20
-4.1823
 30
0.0025
 70
192
 0
VERTEX
 8
TUBO_1
 10
11.147
 20
-4.1823
 30
0.0025
 70
192
 0
VERTEX
 8
TUBO_1
 10
11.147
 20
-4.1823
 30
0.0025
 70
192
 0
VERTEX
 8
TUBO_1
 10
11.147
 20
-4.1823
 30
0.0025
 70
192
 0
VERTEX
 8
TUBO_1
 10
11.99
 20
-3.0457
 30
0.0025
 70
192
 0
VERTEX
 8
TUBO_1
 10
12.0565
 20
-3.0901
 30
0.0025
 70
192
 0
VERTEX
 8
TUBO_1
 10
12.0565
 20
-3.0901
 30
0.0025
 70
192
 0
VERTEX
 8
TUBO_1
 10
12.0565
 20
-3.0901
 30
0.0025
 70
192
 0
VERTEX
 8
TUBO_1
 10
12.0565
 20
-3.0901
 30
0.0025
 70
192
 0
VERTEX
 8
TUBO_1
 10
12.0565
 20
-3.0901
 30
0.0025
 70
192
 0
VERTEX
 8
TUBO_1
 10
11.99
 20
-3.0457
 30
0.0025
 70
192
 0
VERTEX
 8
TUBO_1
 10
11.99
 20
-3.0457
 30
0.0025
 70
192
 0
VERTEX
 8
TUBO_1
 10
11.99
 20
-3.0457
 30
0.0025
 70
192
 0
VERTEX
 8
TUBO_1
 10
11.99
 20
-3.0457
 30
0.0025
 70
192
 0
VERTEX
 8
TUBO_1
 10
12.7175
 20
-1.8319
 30
0.0025
 70
192
 0
VERTEX
 8
TUBO_1
 10
12.788
 20
-1.8696
 30
0.0025
 70
192
 0
VERTEX
 8
TUBO_1
 10
12.788
 20
-1.8696
 30
0.0025
 70
192
 0
VERTEX
 8
TUBO_1
 10
12.788
 20
-1.8696
 30
0.0025
 70
192
 0
VERTEX
 8
TUBO_1
 10
12.788
 20
-1.8696
 30
0.0025
 70
192
 0
VERTEX
 8
TUBO_1
 10
12.788
 20
-1.8696
 30
0.0025
 70
192
 0
VERTEX
 8
TUBO_1
 10
12.7175
 20
-1.8319
 30
0.0025
 70
192
 0
VERTEX
 8
TUBO_1
 10
12.7175
 20
-1.8319
 30
0.0025
 70
192
 0
VERTEX
 8
TUBO_1
 10
12.7175
 20
-1.8319
 30
0.0025
 70
192
 0
VERTEX
 8
TUBO_1
 10
12.7175
 20
-1.8319
 30
0.0025
 70
192
 0
VERTEX
 8
TUBO_1
 10
13.3225
 20
-0.5526
 30
0.0025
 70
192
 0
VERTEX
 8
TUBO_1
 10
13.3964
 20
-0.5832
 30
0.0025
 70
192
 0
VERTEX
 8
TUBO_1
 10
13.3964
 20
-0.5832
 30
0.0025
 70
192
 0
VERTEX
 8
TUBO_1
 10
13.3964
 20
-0.5832
 30
0.0025
 70
192
 0
VERTEX
 8
TUBO_1
 10
13.3964
 20
-0.5832
 30
0.0025
 70
192
 0
VERTEX
 8
TUBO_1
 10
13.3964
 20
-0.5832
 30
0.0025
 70
192
 0
VERTEX
 8
TUBO_1
 10
13.3225
 20
-0.5526
 30
0.0025
 70
192
 0
VERTEX
 8
TUBO_1
 10
13.3225
 20
-0.5526
 30
0.0025
 70
192
 0
VERTEX
 8
TUBO_1
 10
13.3225
 20
-0.5526
 30
0.0025
 70
192
 0
VERTEX
 8
TUBO_1
 10
13.3225
 20
-0.5526
 30
0.0025
 70
192
 0
VERTEX
 8
TUBO_1
 10
13.7993
 20
0.7798
 30
0.0025
 70
192
 0
VERTEX
 8
TUBO_1
 10
13.8758
 20
0.7565
 30
0.0025
 70
192
 0
VERTEX
 8
TUBO_1
 10
13.8758
 20
0.7565
 30
0.0025
 70
192
 0
VERTEX
 8
TUBO_1
 10
13.8758
 20
0.7565
 30
0.0025
 70
192
 0
VERTEX
 8
TUBO_1
 10
13.8758
 20
0.7565
 30
0.0025
 70
192
 0
VERTEX
 8
TUBO_1
 10
13.8758
 20
0.7565
 30
0.0025
 70
192
 0
VERTEX
 8
TUBO_1
 10
13.7993
 20
0.7798
 30
0.0025
 70
192
 0
VERTEX
 8
TUBO_1
 10
13.7993
 20
0.7798
 30
0.0025
 70
192
 0
VERTEX
 8
TUBO_1
 10
13.7993
 20
0.7798
 30
0.0025
 70
192
 0
VERTEX
 8
TUBO_1
 10
13.7993
 20
0.7798
 30
0.0025
 70
192
 0
VERTEX
 8
TUBO_1
 10
14.1431
 20
2.1525
 30
0.0025
 70
192
 0
VERTEX
 8
TUBO_1
 10
14.2216
 20
2.1369
 30
0.0025
 70
192
 0
VERTEX
 8
TUBO_1
 10
14.2216
 20
2.1369
 30
0.0025
 70
192
 0
VERTEX
 8
TUBO_1
 10
14.2216
 20
2.1369
 30
0.0025
 70
192
 0
VERTEX
 8
TUBO_1
 10
14.2216
 20
2.1369
 30
0.0025
 70
192
 0
VERTEX
 8
TUBO_1
 10
14.2216
 20
2.1369
 30
0.0025
 70
192
 0
VERTEX
 8
TUBO_1
 10
14.1431
 20
2.1525
 30
0.0025
 70
192
 0
VERTEX
 8
TUBO_1
 10
14.1431
 20
2.1525
 30
0.0025
 70
192
 0
VERTEX
 8
TUBO_1
 10
14.1431
 20
2.1525
 30
0.0025
 70
192
 0
VERTEX
 8
TUBO_1
 10
14.1431
 20
2.1525
 30
0.0025
 70
192
 0
VERTEX
 8
TUBO_1
 10
14.3507
 20
3.5523
 30
0.0025
 70
192
 0
VERTEX
 8
TUBO_1
 10
14.4304
 20
3.5444
 30
0.0025
 70
192
 0
VERTEX
 8
TUBO_1
 10
14.4304
 20
3.5444
 30
0.0025
 70
192
 0
VERTEX
 8
TUBO_1
 10
14.4304
 20
3.5444
 30
0.0025
 70
192
 0
VERTEX
 8
TUBO_1
 10
14.4304
 20
3.5444
 30
0.0025
 70
192
 0
VERTEX
 8
TUBO_1
 10
14.4304
 20
3.5444
 30
0.0025
 70
192
 0
VERTEX
 8
TUBO_1
 10
14.3507
 20
3.5523
 30
0.0025
 70
192
 0
VERTEX
 8
TUBO_1
 10
14.3507
 20
3.5523
 30
0.0025
 70
192
 0
VERTEX
 8
TUBO_1
 10
14.3507
 20
3.5523
 30
0.0025
 70
192
 0
VERTEX
 8
TUBO_1
 10
14.3507
 20
3.5523
 30
0.0025
 70
192
 0
VERTEX
 8
TUBO_1
 10
0
 20
0
 30
0
 70
128
 71
1
 72
2
 73
12
 74
11
 0
VERTEX
 8
TUBO_1
 10
0
 20
0
 30
0
 70
128
 71
2
 72
3
 73
13
 74
12
 0
VERTEX
 8
TUBO_1
 10
0
 20
0
 30
0
 70
128
 71
3
 72
4
 73
14
 74
13
 0
VERTEX
 8
TUBO_1
 10
0
 20
0
 30
0
 70
128
 71
4
 72
5
 73
15
 74
14
 0
VERTEX
 8
TUBO_1
 10
0
 20
0
 30
0
 70
128
 71
5
 72
6
 73
16
 74
15
 0
VERTEX
 8
TUBO_1
 10
0
 20
0
 30
0
 70
128
 71
6
 72
7
 73
17
 74
16
 0
VERTEX
 8
TUBO_1
 10
0
 20
0
 30
0
 70
128
 71
7
 72
8
 73
18
 74
17
 0
VERTEX
 8
TUBO_1
 10
0
 20
0
 30
0
 70
128
 71
8
 72
9
 73
19
 74
18
 0
VERTEX
 8
TUBO_1
 10
0
 20
0
 30
0
 70
128
 71
9
 72
10
 73
20
 74
19
 0
VERTEX
 8
TUBO_1
 10
0
 20
0
 30
0
 70
128
 71
10
 72
1
 73
11
 74
20
 0
VERTEX
 8
TUBO_1
 10
0
 20
0
 30
0
 70
128
 71
11
 72
12
 73
22
 74
21
 0
VERTEX
 8
TUBO_1
 10
0
 20
0
 30
0
 70
128
 71
12
 72
13
 73
23
 74
22
 0
VERTEX
 8
TUBO_1
 10
0
 20
0
 30
0
 70
128
 71
13
 72
14
 73
24
 74
23
 0
VERTEX
 8
TUBO_1
 10
0
 20
0
 30
0
 70
128
 71
14
 72
15
 73
25
 74
24
 0
VERTEX
 8
TUBO_1
 10
0
 20
0
 30
0
 70
128
 71
15
 72
16
 73
26
 74
25
 0
VERTEX
 8
TUBO_1
 10
0
 20
0
 30
0
 70
128
 71
16
 72
17
 73
27
 74
26
 0
VERTEX
 8
TUBO_1
 10
0
 20
0
 30
0
 70
128
 71
17
 72
18
 73
28
 74
27
 0
VERTEX
 8
TUBO_1
 10
0
 20
0
 30
0
 70
128
 71
18
 72
19
 73
29
 74
28
 0
VERTEX
 8
TUBO_1
 10
0
 20
0
 30
0
 70
128
 71
19
 72
20
 73
30
 74
29
 0
VERTEX
 8
TUBO_1
 10
0
 20
0
 30
0
 70
128
 71
20
 72
11
 73
21
 74
30
 0
VERTEX
 8
TUBO_1
 10
0
 20
0
 30
0
 70
128
 71
21
 72
22
 73
32
 74
31
 0
VERTEX
 8
TUBO_1
 10
0
 20
0
 30
0
 70
128
 71
22
 72
23
 73
33
 74
32
 0
VERTEX
 8
TUBO_1
 10
0
 20
0
 30
0
 70
128
 71
23
 72
24
 73
34
 74
33
 0
VERTEX
 8
TUBO_1
 10
0
 20
0
 30
0
 70
128
 71
24
 72
25
 73
35
 74
34
 0
VERTEX
 8
TUBO_1
 10
0
 20
0
 30
0
 70
128
 71
25
 72
26
 73
36
 74
35
 0
VERTEX
 8
TUBO_1
 10
0
 20
0
 30
0
 70
128
 71
26
 72
27
 73
37
 74
36
 0
VERTEX
 8
TUBO_1
 10
0
 20
0
 30
0
 70
128
 71
27
 72
28
 73
38
 74
37
 0
VERTEX
 8
TUBO_1
 10
0
 20
0
 30
0
 70
128
 71
28
 72
29
 73
39
 74
38
 0
VERTEX
 8
TUBO_1
 10
0
 20
0
 30
0
 70
128
 71
29
 72
30
 73
40
 74
39
 0
VERTEX
 8
TUBO_1
 10
0
 20
0
 30
0
 70
128
 71
30
 72
21
 73
31
 74
40
 0
VERTEX
 8
TUBO_1
 10
0
 20
0
 30
0
 70
128
 71
31
 72
32
 73
42
 74
41
 0
VERTEX
 8
TUBO_1
 10
0
 20
0
 30
0
 70
128
 71
32
 72
33
 73
43
 74
42
 0
VERTEX
 8
TUBO_1
 10
0
 20
0
 30
0
 70
128
 71
33
 72
34
 73
44
 74
43
 0
VERTEX
 8
TUBO_1
 10
0
 20
0
 30
0
 70
128
 71
34
 72
35
 73
45
 74
44
 0
VERTEX
 8
TUBO_1
 10
0
 20
0
 30
0
 70
128
 71
35
 72
36
 73
46
 74
45
 0
VERTEX
 8
TUBO_1
 10
0
 20
0
 30
0
 70
128
 71
36
 72
37
 73
47
 74
46
 0
VERTEX
 8
TUBO_1
 10
0
 20
0
 30
0
 70
128
 71
37
 72
38
 73
48
 74
47
 0
VERTEX
 8
TUBO_1
 10
0
 20
0
 30
0
 70
128
 71
38
 72
39
 73
49
 74
48
 0
VERTEX
 8
TUBO_1
 10
0
 20
0
 30
0
 70
128
 71
39
 72
40
 73
50
 74
49
 0
VERTEX
 8
TUBO_1
 10
0
 20
0
 30
0
 70
128
 71
40
 72
31
 73
41
 74
50
 0
VERTEX
 8
TUBO_1
 10
0
 20
0
 30
0
 70
128
 71
41
 72
42
 73
52
 74
51
 0
VERTEX
 8
TUBO_1
 10
0
 20
0
 30
0
 70
128
 71
42
 72
43
 73
53
 74
52
 0
VERTEX
 8
TUBO_1
 10
0
 20
0
 30
0
 70
128
 71
43
 72
44
 73
54
 74
53
 0
VERTEX
 8
TUBO_1
 10
0
 20
0
 30
0
 70
128
 71
44
 72
45
 73
55
 74
54
 0
VERTEX
 8
TUBO_1
 10
0
 20
0
 30
0
 70
128
 71
45
 72
46
 73
56
 74
55
 0
VERTEX
 8
TUBO_1
 10
0
 20
0
 30
0
 70
128
 71
46
 72
47
 73
57
 74
56
 0
VERTEX
 8
TUBO_1
 10
0
 20
0
 30
0
 70
128
 71
47
 72
48
 73
58
 74
57
 0
VERTEX
 8
TUBO_1
 10
0
 20
0
 30
0
 70
128
 71
48
 72
49
 73
59
 74
58
 0
VERTEX
 8
TUBO_1
 10
0
 20
0
 30
0
 70
128
 71
49
 72
50
 73
60
 74
59
 0
VERTEX
 8
TUBO_1
 10
0
 20
0
 30
0
 70
128
 71
50
 72
41
 73
51
 74
60
 0
VERTEX
 8
TUBO_1
 10
0
 20
0
 30
0
 70
128
 71
51
 72
52
 73
62
 74
61
 0
VERTEX
 8
TUBO_1
 10
0
 20
0
 30
0
 70
128
 71
52
 72
53
 73
63
 74
62
 0
VERTEX
 8
TUBO_1
 10
0
 20
0
 30
0
 70
128
 71
53
 72
54
 73
64
 74
63
 0
VERTEX
 8
TUBO_1
 10
0
 20
0
 30
0
 70
128
 71
54
 72
55
 73
65
 74
64
 0
VERTEX
 8
TUBO_1
 10
0
 20
0
 30
0
 70
128
 71
55
 72
56
 73
66
 74
65
 0
VERTEX
 8
TUBO_1
 10
0
 20
0
 30
0
 70
128
 71
56
 72
57
 73
67
 74
66
 0
VERTEX
 8
TUBO_1
 10
0
 20
0
 30
0
 70
128
 71
57
 72
58
 73
68
 74
67
 0
VERTEX
 8
TUBO_1
 10
0
 20
0
 30
0
 70
128
 71
58
 72
59
 73
69
 74
68
 0
VERTEX
 8
TUBO_1
 10
0
 20
0
 30
0
 70
128
 71
59
 72
60
 73
70
 74
69
 0
VERTEX
 8
TUBO_1
 10
0
 20
0
 30
0
 70
128
 71
60
 72
51
 73
61
 74
70
 0
VERTEX
 8
TUBO_1
 10
0
 20
0
 30
0
 70
128
 71
61
 72
62
 73
72
 74
71
 0
VERTEX
 8
TUBO_1
 10
0
 20
0
 30
0
 70
128
 71
62
 72
63
 73
73
 74
72
 0
VERTEX
 8
TUBO_1
 10
0
 20
0
 30
0
 70
128
 71
63
 72
64
 73
74
 74
73
 0
VERTEX
 8
TUBO_1
 10
0
 20
0
 30
0
 70
128
 71
64
 72
65
 73
75
 74
74
 0
VERTEX
 8
TUBO_1
 10
0
 20
0
 30
0
 70
128
 71
65
 72
66
 73
76
 74
75
 0
VERTEX
 8
TUBO_1
 10
0
 20
0
 30
0
 70
128
 71
66
 72
67
 73
77
 74
76
 0
VERTEX
 8
TUBO_1
 10
0
 20
0
 30
0
 70
128
 71
67
 72
68
 73
78
 74
77
 0
VERTEX
 8
TUBO_1
 10
0
 20
0
 30
0
 70
128
 71
68
 72
69
 73
79
 74
78
 0
VERTEX
 8
TUBO_1
 10
0
 20
0
 30
0
 70
128
 71
69
 72
70
 73
80
 74
79
 0
VERTEX
 8
TUBO_1
 10
0
 20
0
 30
0
 70
128
 71
70
 72
61
 73
71
 74
80
 0
VERTEX
 8
TUBO_1
 10
0
 20
0
 30
0
 70
128
 71
71
 72
72
 73
82
 74
81
 0
VERTEX
 8
TUBO_1
 10
0
 20
0
 30
0
 70
128
 71
72
 72
73
 73
83
 74
82
 0
VERTEX
 8
TUBO_1
 10
0
 20
0
 30
0
 70
128
 71
73
 72
74
 73
84
 74
83
 0
VERTEX
 8
TUBO_1
 10
0
 20
0
 30
0
 70
128
 71
74
 72
75
 73
85
 74
84
 0
VERTEX
 8
TUBO_1
 10
0
 20
0
 30
0
 70
128
 71
75
 72
76
 73
86
 74
85
 0
VERTEX
 8
TUBO_1
 10
0
 20
0
 30
0
 70
128
 71
76
 72
77
 73
87
 74
86
 0
VERTEX
 8
TUBO_1
 10
0
 20
0
 30
0
 70
128
 71
77
 72
78
 73
88
 74
87
 0
VERTEX
 8
TUBO_1
 10
0
 20
0
 30
0
 70
128
 71
78
 72
79
 73
89
 74
88
 0
VERTEX
 8
TUBO_1
 10
0
 20
0
 30
0
 70
128
 71
79
 72
80
 73
90
 74
89
 0
VERTEX
 8
TUBO_1
 10
0
 20
0
 30
0
 70
128
 71
80
 72
71
 73
81
 74
90
 0
VERTEX
 8
TUBO_1
 10
0
 20
0
 30
0
 70
128
 71
81
 72
82
 73
92
 74
91
 0
VERTEX
 8
TUBO_1
 10
0
 20
0
 30
0
 70
128
 71
82
 72
83
 73
93
 74
92
 0
VERTEX
 8
TUBO_1
 10
0
 20
0
 30
0
 70
128
 71
83
 72
84
 73
94
 74
93
 0
VERTEX
 8
TUBO_1
 10
0
 20
0
 30
0
 70
128
 71
84
 72
85
 73
95
 74
94
 0
VERTEX
 8
TUBO_1
 10
0
 20
0
 30
0
 70
128
 71
85
 72
86
 73
96
 74
95
 0
VERTEX
 8
TUBO_1
 10
0
 20
0
 30
0
 70
128
 71
86
 72
87
 73
97
 74
96
 0
VERTEX
 8
TUBO_1
 10
0
 20
0
 30
0
 70
128
 71
87
 72
88
 73
98
 74
97
 0
VERTEX
 8
TUBO_1
 10
0
 20
0
 30
0
 70
128
 71
88
 72
89
 73
99
 74
98
 0
VERTEX
 8
TUBO_1
 10
0
 20
0
 30
0
 70
128
 71
89
 72
90
 73
100
 74
99
 0
VERTEX
 8
TUBO_1
 10
0
 20
0
 30
0
 70
128
 71
90
 72
81
 73
91
 74
100
 0
VERTEX
 8
TUBO_1
 10
0
 20
0
 30
0
 70
128
 71
91
 72
92
 73
102
 74
101
 0
VERTEX
 8
TUBO_1
 10
0
 20
0
 30
0
 70
128
 71
92
 72
93
 73
103
 74
102
 0
VERTEX
 8
TUBO_1
 10
0
 20
0
 30
0
 70
128
 71
93
 72
94
 73
104
 74
103
 0
VERTEX
 8
TUBO_1
 10
0
 20
0
 30
0
 70
128
 71
94
 72
95
 73
105
 74
104
 0
VERTEX
 8
TUBO_1
 10
0
 20
0
 30
0
 70
128
 71
95
 72
96
 73
106
 74
105
 0
VERTEX
 8
TUBO_1
 10
0
 20
0
 30
0
 70
128
 71
96
 72
97
 73
107
 74
106
 0
VERTEX
 8
TUBO_1
 10
0
 20
0
 30
0
 70
128
 71
97
 72
98
 73
108
 74
107
 0
VERTEX
 8
TUBO_1
 10
0
 20
0
 30
0
 70
128
 71
98
 72
99
 73
109
 74
108
 0
VERTEX
 8
TUBO_1
 10
0
 20
0
 30
0
 70
128
 71
99
 72
100
 73
110
 74
109
 0
VERTEX
 8
TUBO_1
 10
0
 20
0
 30
0
 70
128
 71
100
 72
91
 73
101
 74
110
 0
VERTEX
 8
TUBO_1
 10
0
 20
0
 30
0
 70
128
 71
101
 72
102
 73
112
 74
111
 0
VERTEX
 8
TUBO_1
 10
0
 20
0
 30
0
 70
128
 71
102
 72
103
 73
113
 74
112
 0
VERTEX
 8
TUBO_1
 10
0
 20
0
 30
0
 70
128
 71
103
 72
104
 73
114
 74
113
 0
VERTEX
 8
TUBO_1
 10
0
 20
0
 30
0
 70
128
 71
104
 72
105
 73
115
 74
114
 0
VERTEX
 8
TUBO_1
 10
0
 20
0
 30
0
 70
128
 71
105
 72
106
 73
116
 74
115
 0
VERTEX
 8
TUBO_1
 10
0
 20
0
 30
0
 70
128
 71
106
 72
107
 73
117
 74
116
 0
VERTEX
 8
TUBO_1
 10
0
 20
0
 30
0
 70
128
 71
107
 72
108
 73
118
 74
117
 0
VERTEX
 8
TUBO_1
 10
0
 20
0
 30
0
 70
128
 71
108
 72
109
 73
119
 74
118
 0
VERTEX
 8
TUBO_1
 10
0
 20
0
 30
0
 70
128
 71
109
 72
110
 73
120
 74
119
 0
VERTEX
 8
TUBO_1
 10
0
 20
0
 30
0
 70
128
 71
110
 72
101
 73
111
 74
120
 0
VERTEX
 8
TUBO_1
 10
0
 20
0
 30
0
 70
128
 71
111
 72
112
 73
122
 74
121
 0
VERTEX
 8
TUBO_1
 10
0
 20
0
 30
0
 70
128
 71
112
 72
113
 73
123
 74
122
 0
VERTEX
 8
TUBO_1
 10
0
 20
0
 30
0
 70
128
 71
113
 72
114
 73
124
 74
123
 0
VERTEX
 8
TUBO_1
 10
0
 20
0
 30
0
 70
128
 71
114
 72
115
 73
125
 74
124
 0
VERTEX
 8
TUBO_1
 10
0
 20
0
 30
0
 70
128
 71
115
 72
116
 73
126
 74
125
 0
VERTEX
 8
TUBO_1
 10
0
 20
0
 30
0
 70
128
 71
116
 72
117
 73
127
 74
126
 0
VERTEX
 8
TUBO_1
 10
0
 20
0
 30
0
 70
128
 71
117
 72
118
 73
128
 74
127
 0
VERTEX
 8
TUBO_1
 10
0
 20
0
 30
0
 70
128
 71
118
 72
119
 73
129
 74
128
 0
VERTEX
 8
TUBO_1
 10
0
 20
0
 30
0
 70
128
 71
119
 72
120
 73
130
 74
129
 0
VERTEX
 8
TUBO_1
 10
0
 20
0
 30
0
 70
128
 71
120
 72
111
 73
121
 74
130
 0
VERTEX
 8
TUBO_1
 10
0
 20
0
 30
0
 70
128
 71
121
 72
122
 73
132
 74
131
 0
VERTEX
 8
TUBO_1
 10
0
 20
0
 30
0
 70
128
 71
122
 72
123
 73
133
 74
132
 0
VERTEX
 8
TUBO_1
 10
0
 20
0
 30
0
 70
128
 71
123
 72
124
 73
134
 74
133
 0
VERTEX
 8
TUBO_1
 10
0
 20
0
 30
0
 70
128
 71
124
 72
125
 73
135
 74
134
 0
VERTEX
 8
TUBO_1
 10
0
 20
0
 30
0
 70
128
 71
125
 72
126
 73
136
 74
135
 0
VERTEX
 8
TUBO_1
 10
0
 20
0
 30
0
 70
128
 71
126
 72
127
 73
137
 74
136
 0
VERTEX
 8
TUBO_1
 10
0
 20
0
 30
0
 70
128
 71
127
 72
128
 73
138
 74
137
 0
VERTEX
 8
TUBO_1
 10
0
 20
0
 30
0
 70
128
 71
128
 72
129
 73
139
 74
138
 0
VERTEX
 8
TUBO_1
 10
0
 20
0
 30
0
 70
128
 71
129
 72
130
 73
140
 74
139
 0
VERTEX
 8
TUBO_1
 10
0
 20
0
 30
0
 70
128
 71
130
 72
121
 73
131
 74
140
 0
VERTEX
 8
TUBO_1
 10
0
 20
0
 30
0
 70
128
 71
131
 72
132
 73
142
 74
141
 0
VERTEX
 8
TUBO_1
 10
0
 20
0
 30
0
 70
128
 71
132
 72
133
 73
143
 74
142
 0
VERTEX
 8
TUBO_1
 10
0
 20
0
 30
0
 70
128
 71
133
 72
134
 73
144
 74
143
 0
VERTEX
 8
TUBO_1
 10
0
 20
0
 30
0
 70
128
 71
134
 72
135
 73
145
 74
144
 0
VERTEX
 8
TUBO_1
 10
0
 20
0
 30
0
 70
128
 71
135
 72
136
 73
146
 74
145
 0
VERTEX
 8
TUBO_1
 10
0
 20
0
 30
0
 70
128
 71
136
 72
137
 73
147
 74
146
 0
VERTEX
 8
TUBO_1
 10
0
 20
0
 30
0
 70
128
 71
137
 72
138
 73
148
 74
147
 0
VERTEX
 8
TUBO_1
 10
0
 20
0
 30
0
 70
128
 71
138
 72
139
 73
149
 74
148
 0
VERTEX
 8
TUBO_1
 10
0
 20
0
 30
0
 70
128
 71
139
 72
140
 73
150
 74
149
 0
VERTEX
 8
TUBO_1
 10
0
 20
0
 30
0
 70
128
 71
140
 72
131
 73
141
 74
150
 0
VERTEX
 8
TUBO_1
 10
0
 20
0
 30
0
 70
128
 71
141
 72
142
 73
152
 74
151
 0
VERTEX
 8
TUBO_1
 10
0
 20
0
 30
0
 70
128
 71
142
 72
143
 73
153
 74
152
 0
VERTEX
 8
TUBO_1
 10
0
 20
0
 30
0
 70
128
 71
143
 72
144
 73
154
 74
153
 0
VERTEX
 8
TUBO_1
 10
0
 20
0
 30
0
 70
128
 71
144
 72
145
 73
155
 74
154
 0
VERTEX
 8
TUBO_1
 10
0
 20
0
 30
0
 70
128
 71
145
 72
146
 73
156
 74
155
 0
VERTEX
 8
TUBO_1
 10
0
 20
0
 30
0
 70
128
 71
146
 72
147
 73
157
 74
156
 0
VERTEX
 8
TUBO_1
 10
0
 20
0
 30
0
 70
128
 71
147
 72
148
 73
158
 74
157
 0
VERTEX
 8
TUBO_1
 10
0
 20
0
 30
0
 70
128
 71
148
 72
149
 73
159
 74
158
 0
VERTEX
 8
TUBO_1
 10
0
 20
0
 30
0
 70
128
 71
149
 72
150
 73
160
 74
159
 0
VERTEX
 8
TUBO_1
 10
0
 20
0
 30
0
 70
128
 71
150
 72
141
 73
151
 74
160
 0
VERTEX
 8
TUBO_1
 10
0
 20
0
 30
0
 70
128
 71
151
 72
152
 73
162
 74
161
 0
VERTEX
 8
TUBO_1
 10
0
 20
0
 30
0
 70
128
 71
152
 72
153
 73
163
 74
162
 0
VERTEX
 8
TUBO_1
 10
0
 20
0
 30
0
 70
128
 71
153
 72
154
 73
164
 74
163
 0
VERTEX
 8
TUBO_1
 10
0
 20
0
 30
0
 70
128
 71
154
 72
155
 73
165
 74
164
 0
VERTEX
 8
TUBO_1
 10
0
 20
0
 30
0
 70
128
 71
155
 72
156
 73
166
 74
165
 0
VERTEX
 8
TUBO_1
 10
0
 20
0
 30
0
 70
128
 71
156
 72
157
 73
167
 74
166
 0
VERTEX
 8
TUBO_1
 10
0
 20
0
 30
0
 70
128
 71
157
 72
158
 73
168
 74
167
 0
VERTEX
 8
TUBO_1
 10
0
 20
0
 30
0
 70
128
 71
158
 72
159
 73
169
 74
168
 0
VERTEX
 8
TUBO_1
 10
0
 20
0
 30
0
 70
128
 71
159
 72
160
 73
170
 74
169
 0
VERTEX
 8
TUBO_1
 10
0
 20
0
 30
0
 70
128
 71
160
 72
151
 73
161
 74
170
 0
VERTEX
 8
TUBO_1
 10
0
 20
0
 30
0
 70
128
 71
161
 72
162
 73
172
 74
171
 0
VERTEX
 8
TUBO_1
 10
0
 20
0
 30
0
 70
128
 71
162
 72
163
 73
173
 74
172
 0
VERTEX
 8
TUBO_1
 10
0
 20
0
 30
0
 70
128
 71
163
 72
164
 73
174
 74
173
 0
VERTEX
 8
TUBO_1
 10
0
 20
0
 30
0
 70
128
 71
164
 72
165
 73
175
 74
174
 0
VERTEX
 8
TUBO_1
 10
0
 20
0
 30
0
 70
128
 71
165
 72
166
 73
176
 74
175
 0
VERTEX
 8
TUBO_1
 10
0
 20
0
 30
0
 70
128
 71
166
 72
167
 73
177
 74
176
 0
VERTEX
 8
TUBO_1
 10
0
 20
0
 30
0
 70
128
 71
167
 72
168
 73
178
 74
177
 0
VERTEX
 8
TUBO_1
 10
0
 20
0
 30
0
 70
128
 71
168
 72
169
 73
179
 74
178
 0
VERTEX
 8
TUBO_1
 10
0
 20
0
 30
0
 70
128
 71
169
 72
170
 73
180
 74
179
 0
VERTEX
 8
TUBO_1
 10
0
 20
0
 30
0
 70
128
 71
170
 72
161
 73
171
 74
180
 0
VERTEX
 8
TUBO_1
 10
0
 20
0
 30
0
 70
128
 71
171
 72
172
 73
182
 74
181
 0
VERTEX
 8
TUBO_1
 10
0
 20
0
 30
0
 70
128
 71
172
 72
173
 73
183
 74
182
 0
VERTEX
 8
TUBO_1
 10
0
 20
0
 30
0
 70
128
 71
173
 72
174
 73
184
 74
183
 0
VERTEX
 8
TUBO_1
 10
0
 20
0
 30
0
 70
128
 71
174
 72
175
 73
185
 74
184
 0
VERTEX
 8
TUBO_1
 10
0
 20
0
 30
0
 70
128
 71
175
 72
176
 73
186
 74
185
 0
VERTEX
 8
TUBO_1
 10
0
 20
0
 30
0
 70
128
 71
176
 72
177
 73
187
 74
186
 0
VERTEX
 8
TUBO_1
 10
0
 20
0
 30
0
 70
128
 71
177
 72
178
 73
188
 74
187
 0
VERTEX
 8
TUBO_1
 10
0
 20
0
 30
0
 70
128
 71
178
 72
179
 73
189
 74
188
 0
VERTEX
 8
TUBO_1
 10
0
 20
0
 30
0
 70
128
 71
179
 72
180
 73
190
 74
189
 0
VERTEX
 8
TUBO_1
 10
0
 20
0
 30
0
 70
128
 71
180
 72
171
 73
181
 74
190
 0
VERTEX
 8
TUBO_1
 10
0
 20
0
 30
0
 70
128
 71
181
 72
182
 73
192
 74
191
 0
VERTEX
 8
TUBO_1
 10
0
 20
0
 30
0
 70
128
 71
182
 72
183
 73
193
 74
192
 0
VERTEX
 8
TUBO_1
 10
0
 20
0
 30
0
 70
128
 71
183
 72
184
 73
194
 74
193
 0
VERTEX
 8
TUBO_1
 10
0
 20
0
 30
0
 70
128
 71
184
 72
185
 73
195
 74
194
 0
VERTEX
 8
TUBO_1
 10
0
 20
0
 30
0
 70
128
 71
185
 72
186
 73
196
 74
195
 0
VERTEX
 8
TUBO_1
 10
0
 20
0
 30
0
 70
128
 71
186
 72
187
 73
197
 74
196
 0
VERTEX
 8
TUBO_1
 10
0
 20
0
 30
0
 70
128
 71
187
 72
188
 73
198
 74
197
 0
VERTEX
 8
TUBO_1
 10
0
 20
0
 30
0
 70
128
 71
188
 72
189
 73
199
 74
198
 0
VERTEX
 8
TUBO_1
 10
0
 20
0
 30
0
 70
128
 71
189
 72
190
 73
200
 74
199
 0
VERTEX
 8
TUBO_1
 10
0
 20
0
 30
0
 70
128
 71
190
 72
181
 73
191
 74
200
 0
VERTEX
 8
TUBO_1
 10
0
 20
0
 30
0
 70
128
 71
191
 72
192
 73
202
 74
201
 0
VERTEX
 8
TUBO_1
 10
0
 20
0
 30
0
 70
128
 71
192
 72
193
 73
203
 74
202
 0
VERTEX
 8
TUBO_1
 10
0
 20
0
 30
0
 70
128
 71
193
 72
194
 73
204
 74
203
 0
VERTEX
 8
TUBO_1
 10
0
 20
0
 30
0
 70
128
 71
194
 72
195
 73
205
 74
204
 0
VERTEX
 8
TUBO_1
 10
0
 20
0
 30
0
 70
128
 71
195
 72
196
 73
206
 74
205
 0
VERTEX
 8
TUBO_1
 10
0
 20
0
 30
0
 70
128
 71
196
 72
197
 73
207
 74
206
 0
VERTEX
 8
TUBO_1
 10
0
 20
0
 30
0
 70
128
 71
197
 72
198
 73
208
 74
207
 0
VERTEX
 8
TUBO_1
 10
0
 20
0
 30
0
 70
128
 71
198
 72
199
 73
209
 74
208
 0
VERTEX
 8
TUBO_1
 10
0
 20
0
 30
0
 70
128
 71
199
 72
200
 73
210
 74
209
 0
VERTEX
 8
TUBO_1
 10
0
 20
0
 30
0
 70
128
 71
200
 72
191
 73
201
 74
210
 0
VERTEX
 8
TUBO_1
 10
0
 20
0
 30
0
 70
128
 71
201
 72
202
 73
212
 74
211
 0
VERTEX
 8
TUBO_1
 10
0
 20
0
 30
0
 70
128
 71
202
 72
203
 73
213
 74
212
 0
VERTEX
 8
TUBO_1
 10
0
 20
0
 30
0
 70
128
 71
203
 72
204
 73
214
 74
213
 0
VERTEX
 8
TUBO_1
 10
0
 20
0
 30
0
 70
128
 71
204
 72
205
 73
215
 74
214
 0
VERTEX
 8
TUBO_1
 10
0
 20
0
 30
0
 70
128
 71
205
 72
206
 73
216
 74
215
 0
VERTEX
 8
TUBO_1
 10
0
 20
0
 30
0
 70
128
 71
206
 72
207
 73
217
 74
216
 0
VERTEX
 8
TUBO_1
 10
0
 20
0
 30
0
 70
128
 71
207
 72
208
 73
218
 74
217
 0
VERTEX
 8
TUBO_1
 10
0
 20
0
 30
0
 70
128
 71
208
 72
209
 73
219
 74
218
 0
VERTEX
 8
TUBO_1
 10
0
 20
0
 30
0
 70
128
 71
209
 72
210
 73
220
 74
219
 0
VERTEX
 8
TUBO_1
 10
0
 20
0
 30
0
 70
128
 71
210
 72
201
 73
211
 74
220
 0
VERTEX
 8
TUBO_1
 10
0
 20
0
 30
0
 70
128
 71
211
 72
212
 73
222
 74
221
 0
VERTEX
 8
TUBO_1
 10
0
 20
0
 30
0
 70
128
 71
212
 72
213
 73
223
 74
222
 0
VERTEX
 8
TUBO_1
 10
0
 20
0
 30
0
 70
128
 71
213
 72
214
 73
224
 74
223
 0
VERTEX
 8
TUBO_1
 10
0
 20
0
 30
0
 70
128
 71
214
 72
215
 73
225
 74
224
 0
VERTEX
 8
TUBO_1
 10
0
 20
0
 30
0
 70
128
 71
215
 72
216
 73
226
 74
225
 0
VERTEX
 8
TUBO_1
 10
0
 20
0
 30
0
 70
128
 71
216
 72
217
 73
227
 74
226
 0
VERTEX
 8
TUBO_1
 10
0
 20
0
 30
0
 70
128
 71
217
 72
218
 73
228
 74
227
 0
VERTEX
 8
TUBO_1
 10
0
 20
0
 30
0
 70
128
 71
218
 72
219
 73
229
 74
228
 0
VERTEX
 8
TUBO_1
 10
0
 20
0
 30
0
 70
128
 71
219
 72
220
 73
230
 74
229
 0
VERTEX
 8
TUBO_1
 10
0
 20
0
 30
0
 70
128
 71
220
 72
211
 73
221
 74
230
 0
VERTEX
 8
TUBO_1
 10
0
 20
0
 30
0
 70
128
 71
221
 72
222
 73
232
 74
231
 0
VERTEX
 8
TUBO_1
 10
0
 20
0
 30
0
 70
128
 71
222
 72
223
 73
233
 74
232
 0
VERTEX
 8
TUBO_1
 10
0
 20
0
 30
0
 70
128
 71
223
 72
224
 73
234
 74
233
 0
VERTEX
 8
TUBO_1
 10
0
 20
0
 30
0
 70
128
 71
224
 72
225
 73
235
 74
234
 0
VERTEX
 8
TUBO_1
 10
0
 20
0
 30
0
 70
128
 71
225
 72
226
 73
236
 74
235
 0
VERTEX
 8
TUBO_1
 10
0
 20
0
 30
0
 70
128
 71
226
 72
227
 73
237
 74
236
 0
VERTEX
 8
TUBO_1
 10
0
 20
0
 30
0
 70
128
 71
227
 72
228
 73
238
 74
237
 0
VERTEX
 8
TUBO_1
 10
0
 20
0
 30
0
 70
128
 71
228
 72
229
 73
239
 74
238
 0
VERTEX
 8
TUBO_1
 10
0
 20
0
 30
0
 70
128
 71
229
 72
230
 73
240
 74
239
 0
VERTEX
 8
TUBO_1
 10
0
 20
0
 30
0
 70
128
 71
230
 72
221
 73
231
 74
240
 0
VERTEX
 8
TUBO_1
 10
0
 20
0
 30
0
 70
128
 71
231
 72
232
 73
242
 74
241
 0
VERTEX
 8
TUBO_1
 10
0
 20
0
 30
0
 70
128
 71
232
 72
233
 73
243
 74
242
 0
VERTEX
 8
TUBO_1
 10
0
 20
0
 30
0
 70
128
 71
233
 72
234
 73
244
 74
243
 0
VERTEX
 8
TUBO_1
 10
0
 20
0
 30
0
 70
128
 71
234
 72
235
 73
245
 74
244
 0
VERTEX
 8
TUBO_1
 10
0
 20
0
 30
0
 70
128
 71
235
 72
236
 73
246
 74
245
 0
VERTEX
 8
TUBO_1
 10
0
 20
0
 30
0
 70
128
 71
236
 72
237
 73
247
 74
246
 0
VERTEX
 8
TUBO_1
 10
0
 20
0
 30
0
 70
128
 71
237
 72
238
 73
248
 74
247
 0
VERTEX
 8
TUBO_1
 10
0
 20
0
 30
0
 70
128
 71
238
 72
239
 73
249
 74
248
 0
VERTEX
 8
TUBO_1
 10
0
 20
0
 30
0
 70
128
 71
239
 72
240
 73
250
 74
249
 0
VERTEX
 8
TUBO_1
 10
0
 20
0
 30
0
 70
128
 71
240
 72
231
 73
241
 74
250
 0
VERTEX
 8
TUBO_1
 10
0
 20
0
 30
0
 70
128
 71
241
 72
242
 73
252
 74
251
 0
VERTEX
 8
TUBO_1
 10
0
 20
0
 30
0
 70
128
 71
242
 72
243
 73
253
 74
252
 0
VERTEX
 8
TUBO_1
 10
0
 20
0
 30
0
 70
128
 71
243
 72
244
 73
254
 74
253
 0
VERTEX
 8
TUBO_1
 10
0
 20
0
 30
0
 70
128
 71
244
 72
245
 73
255
 74
254
 0
VERTEX
 8
TUBO_1
 10
0
 20
0
 30
0
 70
128
 71
245
 72
246
 73
256
 74
255
 0
VERTEX
 8
TUBO_1
 10
0
 20
0
 30
0
 70
128
 71
246
 72
247
 73
257
 74
256
 0
VERTEX
 8
TUBO_1
 10
0
 20
0
 30
0
 70
128
 71
247
 72
248
 73
258
 74
257
 0
VERTEX
 8
TUBO_1
 10
0
 20
0
 30
0
 70
128
 71
248
 72
249
 73
259
 74
258
 0
VERTEX
 8
TUBO_1
 10
0
 20
0
 30
0
 70
128
 71
249
 72
250
 73
260
 74
259
 0
VERTEX
 8
TUBO_1
 10
0
 20
0
 30
0
 70
128
 71
250
 72
241
 73
251
 74
260
 0
VERTEX
 8
TUBO_1
 10
0
 20
0
 30
0
 70
128
 71
251
 72
252
 73
262
 74
261
 0
VERTEX
 8
TUBO_1
 10
0
 20
0
 30
0
 70
128
 71
252
 72
253
 73
263
 74
262
 0
VERTEX
 8
TUBO_1
 10
0
 20
0
 30
0
 70
128
 71
253
 72
254
 73
264
 74
263
 0
VERTEX
 8
TUBO_1
 10
0
 20
0
 30
0
 70
128
 71
254
 72
255
 73
265
 74
264
 0
VERTEX
 8
TUBO_1
 10
0
 20
0
 30
0
 70
128
 71
255
 72
256
 73
266
 74
265
 0
VERTEX
 8
TUBO_1
 10
0
 20
0
 30
0
 70
128
 71
256
 72
257
 73
267
 74
266
 0
VERTEX
 8
TUBO_1
 10
0
 20
0
 30
0
 70
128
 71
257
 72
258
 73
268
 74
267
 0
VERTEX
 8
TUBO_1
 10
0
 20
0
 30
0
 70
128
 71
258
 72
259
 73
269
 74
268
 0
VERTEX
 8
TUBO_1
 10
0
 20
0
 30
0
 70
128
 71
259
 72
260
 73
270
 74
269
 0
VERTEX
 8
TUBO_1
 10
0
 20
0
 30
0
 70
128
 71
260
 72
251
 73
261
 74
270
 0
VERTEX
 8
TUBO_1
 10
0
 20
0
 30
0
 70
128
 71
261
 72
262
 73
272
 74
271
 0
VERTEX
 8
TUBO_1
 10
0
 20
0
 30
0
 70
128
 71
262
 72
263
 73
273
 74
272
 0
VERTEX
 8
TUBO_1
 10
0
 20
0
 30
0
 70
128
 71
263
 72
264
 73
274
 74
273
 0
VERTEX
 8
TUBO_1
 10
0
 20
0
 30
0
 70
128
 71
264
 72
265
 73
275
 74
274
 0
VERTEX
 8
TUBO_1
 10
0
 20
0
 30
0
 70
128
 71
265
 72
266
 73
276
 74
275
 0
VERTEX
 8
TUBO_1
 10
0
 20
0
 30
0
 70
128
 71
266
 72
267
 73
277
 74
276
 0
VERTEX
 8
TUBO_1
 10
0
 20
0
 30
0
 70
128
 71
267
 72
268
 73
278
 74
277
 0
VERTEX
 8
TUBO_1
 10
0
 20
0
 30
0
 70
128
 71
268
 72
269
 73
279
 74
278
 0
VERTEX
 8
TUBO_1
 10
0
 20
0
 30
0
 70
128
 71
269
 72
270
 73
280
 74
279
 0
VERTEX
 8
TUBO_1
 10
0
 20
0
 30
0
 70
128
 71
270
 72
261
 73
271
 74
280
 0
VERTEX
 8
TUBO_1
 10
0
 20
0
 30
0
 70
128
 71
271
 72
272
 73
282
 74
281
 0
VERTEX
 8
TUBO_1
 10
0
 20
0
 30
0
 70
128
 71
272
 72
273
 73
283
 74
282
 0
VERTEX
 8
TUBO_1
 10
0
 20
0
 30
0
 70
128
 71
273
 72
274
 73
284
 74
283
 0
VERTEX
 8
TUBO_1
 10
0
 20
0
 30
0
 70
128
 71
274
 72
275
 73
285
 74
284
 0
VERTEX
 8
TUBO_1
 10
0
 20
0
 30
0
 70
128
 71
275
 72
276
 73
286
 74
285
 0
VERTEX
 8
TUBO_1
 10
0
 20
0
 30
0
 70
128
 71
276
 72
277
 73
287
 74
286
 0
VERTEX
 8
TUBO_1
 10
0
 20
0
 30
0
 70
128
 71
277
 72
278
 73
288
 74
287
 0
VERTEX
 8
TUBO_1
 10
0
 20
0
 30
0
 70
128
 71
278
 72
279
 73
289
 74
288
 0
VERTEX
 8
TUBO_1
 10
0
 20
0
 30
0
 70
128
 71
279
 72
280
 73
290
 74
289
 0
VERTEX
 8
TUBO_1
 10
0
 20
0
 30
0
 70
128
 71
280
 72
271
 73
281
 74
290
 0
VERTEX
 8
TUBO_1
 10
0
 20
0
 30
0
 70
128
 71
281
 72
282
 73
292
 74
291
 0
VERTEX
 8
TUBO_1
 10
0
 20
0
 30
0
 70
128
 71
282
 72
283
 73
293
 74
292
 0
VERTEX
 8
TUBO_1
 10
0
 20
0
 30
0
 70
128
 71
283
 72
284
 73
294
 74
293
 0
VERTEX
 8
TUBO_1
 10
0
 20
0
 30
0
 70
128
 71
284
 72
285
 73
295
 74
294
 0
VERTEX
 8
TUBO_1
 10
0
 20
0
 30
0
 70
128
 71
285
 72
286
 73
296
 74
295
 0
VERTEX
 8
TUBO_1
 10
0
 20
0
 30
0
 70
128
 71
286
 72
287
 73
297
 74
296
 0
VERTEX
 8
TUBO_1
 10
0
 20
0
 30
0
 70
128
 71
287
 72
288
 73
298
 74
297
 0
VERTEX
 8
TUBO_1
 10
0
 20
0
 30
0
 70
128
 71
288
 72
289
 73
299
 74
298
 0
VERTEX
 8
TUBO_1
 10
0
 20
0
 30
0
 70
128
 71
289
 72
290
 73
300
 74
299
 0
VERTEX
 8
TUBO_1
 10
0
 20
0
 30
0
 70
128
 71
290
 72
281
 73
291
 74
300
 0
VERTEX
 8
TUBO_1
 10
0
 20
0
 30
0
 70
128
 71
291
 72
292
 73
302
 74
301
 0
VERTEX
 8
TUBO_1
 10
0
 20
0
 30
0
 70
128
 71
292
 72
293
 73
303
 74
302
 0
VERTEX
 8
TUBO_1
 10
0
 20
0
 30
0
 70
128
 71
293
 72
294
 73
304
 74
303
 0
VERTEX
 8
TUBO_1
 10
0
 20
0
 30
0
 70
128
 71
294
 72
295
 73
305
 74
304
 0
VERTEX
 8
TUBO_1
 10
0
 20
0
 30
0
 70
128
 71
295
 72
296
 73
306
 74
305
 0
VERTEX
 8
TUBO_1
 10
0
 20
0
 30
0
 70
128
 71
296
 72
297
 73
307
 74
306
 0
VERTEX
 8
TUBO_1
 10
0
 20
0
 30
0
 70
128
 71
297
 72
298
 73
308
 74
307
 0
VERTEX
 8
TUBO_1
 10
0
 20
0
 30
0
 70
128
 71
298
 72
299
 73
309
 74
308
 0
VERTEX
 8
TUBO_1
 10
0
 20
0
 30
0
 70
128
 71
299
 72
300
 73
310
 74
309
 0
VERTEX
 8
TUBO_1
 10
0
 20
0
 30
0
 70
128
 71
300
 72
291
 73
301
 74
310
 0
VERTEX
 8
TUBO_1
 10
0
 20
0
 30
0
 70
128
 71
301
 72
302
 73
312
 74
311
 0
VERTEX
 8
TUBO_1
 10
0
 20
0
 30
0
 70
128
 71
302
 72
303
 73
313
 74
312
 0
VERTEX
 8
TUBO_1
 10
0
 20
0
 30
0
 70
128
 71
303
 72
304
 73
314
 74
313
 0
VERTEX
 8
TUBO_1
 10
0
 20
0
 30
0
 70
128
 71
304
 72
305
 73
315
 74
314
 0
VERTEX
 8
TUBO_1
 10
0
 20
0
 30
0
 70
128
 71
305
 72
306
 73
316
 74
315
 0
VERTEX
 8
TUBO_1
 10
0
 20
0
 30
0
 70
128
 71
306
 72
307
 73
317
 74
316
 0
VERTEX
 8
TUBO_1
 10
0
 20
0
 30
0
 70
128
 71
307
 72
308
 73
318
 74
317
 0
VERTEX
 8
TUBO_1
 10
0
 20
0
 30
0
 70
128
 71
308
 72
309
 73
319
 74
318
 0
VERTEX
 8
TUBO_1
 10
0
 20
0
 30
0
 70
128
 71
309
 72
310
 73
320
 74
319
 0
VERTEX
 8
TUBO_1
 10
0
 20
0
 30
0
 70
128
 71
310
 72
301
 73
311
 74
320
 0
VERTEX
 8
TUBO_1
 10
0
 20
0
 30
0
 70
128
 71
311
 72
312
 73
322
 74
321
 0
VERTEX
 8
TUBO_1
 10
0
 20
0
 30
0
 70
128
 71
312
 72
313
 73
323
 74
322
 0
VERTEX
 8
TUBO_1
 10
0
 20
0
 30
0
 70
128
 71
313
 72
314
 73
324
 74
323
 0
VERTEX
 8
TUBO_1
 10
0
 20
0
 30
0
 70
128
 71
314
 72
315
 73
325
 74
324
 0
VERTEX
 8
TUBO_1
 10
0
 20
0
 30
0
 70
128
 71
315
 72
316
 73
326
 74
325
 0
VERTEX
 8
TUBO_1
 10
0
 20
0
 30
0
 70
128
 71
316
 72
317
 73
327
 74
326
 0
VERTEX
 8
TUBO_1
 10
0
 20
0
 30
0
 70
128
 71
317
 72
318
 73
328
 74
327
 0
VERTEX
 8
TUBO_1
 10
0
 20
0
 30
0
 70
128
 71
318
 72
319
 73
329
 74
328
 0
VERTEX
 8
TUBO_1
 10
0
 20
0
 30
0
 70
128
 71
319
 72
320
 73
330
 74
329
 0
VERTEX
 8
TUBO_1
 10
0
 20
0
 30
0
 70
128
 71
320
 72
311
 73
321
 74
330
 0
VERTEX
 8
TUBO_1
 10
0
 20
0
 30
0
 70
128
 71
321
 72
322
 73
332
 74
331
 0
VERTEX
 8
TUBO_1
 10
0
 20
0
 30
0
 70
128
 71
322
 72
323
 73
333
 74
332
 0
VERTEX
 8
TUBO_1
 10
0
 20
0
 30
0
 70
128
 71
323
 72
324
 73
334
 74
333
 0
VERTEX
 8
TUBO_1
 10
0
 20
0
 30
0
 70
128
 71
324
 72
325
 73
335
 74
334
 0
VERTEX
 8
TUBO_1
 10
0
 20
0
 30
0
 70
128
 71
325
 72
326
 73
336
 74
335
 0
VERTEX
 8
TUBO_1
 10
0
 20
0
 30
0
 70
128
 71
326
 72
327
 73
337
 74
336
 0
VERTEX
 8
TUBO_1
 10
0
 20
0
 30
0
 70
128
 71
327
 72
328
 73
338
 74
337
 0
VERTEX
 8
TUBO_1
 10
0
 20
0
 30
0
 70
128
 71
328
 72
329
 73
339
 74
338
 0
VERTEX
 8
TUBO_1
 10
0
 20
0
 30
0
 70
128
 71
329
 72
330
 73
340
 74
339
 0
VERTEX
 8
TUBO_1
 10
0
 20
0
 30
0
 70
128
 71
330
 72
321
 73
331
 74
340
 0
VERTEX
 8
TUBO_1
 10
0
 20
0
 30
0
 70
128
 71
331
 72
332
 73
342
 74
341
 0
VERTEX
 8
TUBO_1
 10
0
 20
0
 30
0
 70
128
 71
332
 72
333
 73
343
 74
342
 0
VERTEX
 8
TUBO_1
 10
0
 20
0
 30
0
 70
128
 71
333
 72
334
 73
344
 74
343
 0
VERTEX
 8
TUBO_1
 10
0
 20
0
 30
0
 70
128
 71
334
 72
335
 73
345
 74
344
 0
VERTEX
 8
TUBO_1
 10
0
 20
0
 30
0
 70
128
 71
335
 72
336
 73
346
 74
345
 0
VERTEX
 8
TUBO_1
 10
0
 20
0
 30
0
 70
128
 71
336
 72
337
 73
347
 74
346
 0
VERTEX
 8
TUBO_1
 10
0
 20
0
 30
0
 70
128
 71
337
 72
338
 73
348
 74
347
 0
VERTEX
 8
TUBO_1
 10
0
 20
0
 30
0
 70
128
 71
338
 72
339
 73
349
 74
348
 0
VERTEX
 8
TUBO_1
 10
0
 20
0
 30
0
 70
128
 71
339
 72
340
 73
350
 74
349
 0
VERTEX
 8
TUBO_1
 10
0
 20
0
 30
0
 70
128
 71
340
 72
331
 73
341
 74
350
 0
VERTEX
 8
TUBO_1
 10
0
 20
0
 30
0
 70
128
 71
341
 72
342
 73
352
 74
351
 0
VERTEX
 8
TUBO_1
 10
0
 20
0
 30
0
 70
128
 71
342
 72
343
 73
353
 74
352
 0
VERTEX
 8
TUBO_1
 10
0
 20
0
 30
0
 70
128
 71
343
 72
344
 73
354
 74
353
 0
VERTEX
 8
TUBO_1
 10
0
 20
0
 30
0
 70
128
 71
344
 72
345
 73
355
 74
354
 0
VERTEX
 8
TUBO_1
 10
0
 20
0
 30
0
 70
128
 71
345
 72
346
 73
356
 74
355
 0
VERTEX
 8
TUBO_1
 10
0
 20
0
 30
0
 70
128
 71
346
 72
347
 73
357
 74
356
 0
VERTEX
 8
TUBO_1
 10
0
 20
0
 30
0
 70
128
 71
347
 72
348
 73
358
 74
357
 0
VERTEX
 8
TUBO_1
 10
0
 20
0
 30
0
 70
128
 71
348
 72
349
 73
359
 74
358
 0
VERTEX
 8
TUBO_1
 10
0
 20
0
 30
0
 70
128
 71
349
 72
350
 73
360
 74
359
 0
VERTEX
 8
TUBO_1
 10
0
 20
0
 30
0
 70
128
 71
350
 72
341
 73
351
 74
360
 0
VERTEX
 8
TUBO_1
 10
0
 20
0
 30
0
 70
128
 71
351
 72
352
 73
362
 74
361
 0
VERTEX
 8
TUBO_1
 10
0
 20
0
 30
0
 70
128
 71
352
 72
353
 73
363
 74
362
 0
VERTEX
 8
TUBO_1
 10
0
 20
0
 30
0
 70
128
 71
353
 72
354
 73
364
 74
363
 0
VERTEX
 8
TUBO_1
 10
0
 20
0
 30
0
 70
128
 71
354
 72
355
 73
365
 74
364
 0
VERTEX
 8
TUBO_1
 10
0
 20
0
 30
0
 70
128
 71
355
 72
356
 73
366
 74
365
 0
VERTEX
 8
TUBO_1
 10
0
 20
0
 30
0
 70
128
 71
356
 72
357
 73
367
 74
366
 0
VERTEX
 8
TUBO_1
 10
0
 20
0
 30
0
 70
128
 71
357
 72
358
 73
368
 74
367
 0
VERTEX
 8
TUBO_1
 10
0
 20
0
 30
0
 70
128
 71
358
 72
359
 73
369
 74
368
 0
VERTEX
 8
TUBO_1
 10
0
 20
0
 30
0
 70
128
 71
359
 72
360
 73
370
 74
369
 0
VERTEX
 8
TUBO_1
 10
0
 20
0
 30
0
 70
128
 71
360
 72
351
 73
361
 74
370
 0
VERTEX
 8
TUBO_1
 10
0
 20
0
 30
0
 70
128
 71
361
 72
362
 73
372
 74
371
 0
VERTEX
 8
TUBO_1
 10
0
 20
0
 30
0
 70
128
 71
362
 72
363
 73
373
 74
372
 0
VERTEX
 8
TUBO_1
 10
0
 20
0
 30
0
 70
128
 71
363
 72
364
 73
374
 74
373
 0
VERTEX
 8
TUBO_1
 10
0
 20
0
 30
0
 70
128
 71
364
 72
365
 73
375
 74
374
 0
VERTEX
 8
TUBO_1
 10
0
 20
0
 30
0
 70
128
 71
365
 72
366
 73
376
 74
375
 0
VERTEX
 8
TUBO_1
 10
0
 20
0
 30
0
 70
128
 71
366
 72
367
 73
377
 74
376
 0
VERTEX
 8
TUBO_1
 10
0
 20
0
 30
0
 70
128
 71
367
 72
368
 73
378
 74
377
 0
VERTEX
 8
TUBO_1
 10
0
 20
0
 30
0
 70
128
 71
368
 72
369
 73
379
 74
378
 0
VERTEX
 8
TUBO_1
 10
0
 20
0
 30
0
 70
128
 71
369
 72
370
 73
380
 74
379
 0
VERTEX
 8
TUBO_1
 10
0
 20
0
 30
0
 70
128
 71
370
 72
361
 73
371
 74
380
 0
VERTEX
 8
TUBO_1
 10
0
 20
0
 30
0
 70
128
 71
371
 72
372
 73
382
 74
381
 0
VERTEX
 8
TUBO_1
 10
0
 20
0
 30
0
 70
128
 71
372
 72
373
 73
383
 74
382
 0
VERTEX
 8
TUBO_1
 10
0
 20
0
 30
0
 70
128
 71
373
 72
374
 73
384
 74
383
 0
VERTEX
 8
TUBO_1
 10
0
 20
0
 30
0
 70
128
 71
374
 72
375
 73
385
 74
384
 0
VERTEX
 8
TUBO_1
 10
0
 20
0
 30
0
 70
128
 71
375
 72
376
 73
386
 74
385
 0
VERTEX
 8
TUBO_1
 10
0
 20
0
 30
0
 70
128
 71
376
 72
377
 73
387
 74
386
 0
VERTEX
 8
TUBO_1
 10
0
 20
0
 30
0
 70
128
 71
377
 72
378
 73
388
 74
387
 0
VERTEX
 8
TUBO_1
 10
0
 20
0
 30
0
 70
128
 71
378
 72
379
 73
389
 74
388
 0
VERTEX
 8
TUBO_1
 10
0
 20
0
 30
0
 70
128
 71
379
 72
380
 73
390
 74
389
 0
VERTEX
 8
TUBO_1
 10
0
 20
0
 30
0
 70
128
 71
380
 72
371
 73
381
 74
390
 0
VERTEX
 8
TUBO_1
 10
0
 20
0
 30
0
 70
128
 71
381
 72
382
 73
392
 74
391
 0
VERTEX
 8
TUBO_1
 10
0
 20
0
 30
0
 70
128
 71
382
 72
383
 73
393
 74
392
 0
VERTEX
 8
TUBO_1
 10
0
 20
0
 30
0
 70
128
 71
383
 72
384
 73
394
 74
393
 0
VERTEX
 8
TUBO_1
 10
0
 20
0
 30
0
 70
128
 71
384
 72
385
 73
395
 74
394
 0
VERTEX
 8
TUBO_1
 10
0
 20
0
 30
0
 70
128
 71
385
 72
386
 73
396
 74
395
 0
VERTEX
 8
TUBO_1
 10
0
 20
0
 30
0
 70
128
 71
386
 72
387
 73
397
 74
396
 0
VERTEX
 8
TUBO_1
 10
0
 20
0
 30
0
 70
128
 71
387
 72
388
 73
398
 74
397
 0
VERTEX
 8
TUBO_1
 10
0
 20
0
 30
0
 70
128
 71
388
 72
389
 73
399
 74
398
 0
VERTEX
 8
TUBO_1
 10
0
 20
0
 30
0
 70
128
 71
389
 72
390
 73
400
 74
399
 0
VERTEX
 8
TUBO_1
 10
0
 20
0
 30
0
 70
128
 71
390
 72
381
 73
391
 74
400
 0
VERTEX
 8
TUBO_1
 10
0
 20
0
 30
0
 70
128
 71
391
 72
392
 73
402
 74
401
 0
VERTEX
 8
TUBO_1
 10
0
 20
0
 30
0
 70
128
 71
392
 72
393
 73
403
 74
402
 0
VERTEX
 8
TUBO_1
 10
0
 20
0
 30
0
 70
128
 71
393
 72
394
 73
404
 74
403
 0
VERTEX
 8
TUBO_1
 10
0
 20
0
 30
0
 70
128
 71
394
 72
395
 73
405
 74
404
 0
VERTEX
 8
TUBO_1
 10
0
 20
0
 30
0
 70
128
 71
395
 72
396
 73
406
 74
405
 0
VERTEX
 8
TUBO_1
 10
0
 20
0
 30
0
 70
128
 71
396
 72
397
 73
407
 74
406
 0
VERTEX
 8
TUBO_1
 10
0
 20
0
 30
0
 70
128
 71
397
 72
398
 73
408
 74
407
 0
VERTEX
 8
TUBO_1
 10
0
 20
0
 30
0
 70
128
 71
398
 72
399
 73
409
 74
408
 0
VERTEX
 8
TUBO_1
 10
0
 20
0
 30
0
 70
128
 71
399
 72
400
 73
410
 74
409
 0
VERTEX
 8
TUBO_1
 10
0
 20
0
 30
0
 70
128
 71
400
 72
391
 73
401
 74
410
 0
VERTEX
 8
TUBO_1
 10
0
 20
0
 30
0
 70
128
 71
401
 72
402
 73
412
 74
411
 0
VERTEX
 8
TUBO_1
 10
0
 20
0
 30
0
 70
128
 71
402
 72
403
 73
413
 74
412
 0
VERTEX
 8
TUBO_1
 10
0
 20
0
 30
0
 70
128
 71
403
 72
404
 73
414
 74
413
 0
VERTEX
 8
TUBO_1
 10
0
 20
0
 30
0
 70
128
 71
404
 72
405
 73
415
 74
414
 0
VERTEX
 8
TUBO_1
 10
0
 20
0
 30
0
 70
128
 71
405
 72
406
 73
416
 74
415
 0
VERTEX
 8
TUBO_1
 10
0
 20
0
 30
0
 70
128
 71
406
 72
407
 73
417
 74
416
 0
VERTEX
 8
TUBO_1
 10
0
 20
0
 30
0
 70
128
 71
407
 72
408
 73
418
 74
417
 0
VERTEX
 8
TUBO_1
 10
0
 20
0
 30
0
 70
128
 71
408
 72
409
 73
419
 74
418
 0
VERTEX
 8
TUBO_1
 10
0
 20
0
 30
0
 70
128
 71
409
 72
410
 73
420
 74
419
 0
VERTEX
 8
TUBO_1
 10
0
 20
0
 30
0
 70
128
 71
410
 72
401
 73
411
 74
420
 0
VERTEX
 8
TUBO_1
 10
0
 20
0
 30
0
 70
128
 71
411
 72
412
 73
422
 74
421
 0
VERTEX
 8
TUBO_1
 10
0
 20
0
 30
0
 70
128
 71
412
 72
413
 73
423
 74
422
 0
VERTEX
 8
TUBO_1
 10
0
 20
0
 30
0
 70
128
 71
413
 72
414
 73
424
 74
423
 0
VERTEX
 8
TUBO_1
 10
0
 20
0
 30
0
 70
128
 71
414
 72
415
 73
425
 74
424
 0
VERTEX
 8
TUBO_1
 10
0
 20
0
 30
0
 70
128
 71
415
 72
416
 73
426
 74
425
 0
VERTEX
 8
TUBO_1
 10
0
 20
0
 30
0
 70
128
 71
416
 72
417
 73
427
 74
426
 0
VERTEX
 8
TUBO_1
 10
0
 20
0
 30
0
 70
128
 71
417
 72
418
 73
428
 74
427
 0
VERTEX
 8
TUBO_1
 10
0
 20
0
 30
0
 70
128
 71
418
 72
419
 73
429
 74
428
 0
VERTEX
 8
TUBO_1
 10
0
 20
0
 30
0
 70
128
 71
419
 72
420
 73
430
 74
429
 0
VERTEX
 8
TUBO_1
 10
0
 20
0
 30
0
 70
128
 71
420
 72
411
 73
421
 74
430
 0
VERTEX
 8
TUBO_1
 10
0
 20
0
 30
0
 70
128
 71
421
 72
422
 73
432
 74
431
 0
VERTEX
 8
TUBO_1
 10
0
 20
0
 30
0
 70
128
 71
422
 72
423
 73
433
 74
432
 0
VERTEX
 8
TUBO_1
 10
0
 20
0
 30
0
 70
128
 71
423
 72
424
 73
434
 74
433
 0
VERTEX
 8
TUBO_1
 10
0
 20
0
 30
0
 70
128
 71
424
 72
425
 73
435
 74
434
 0
VERTEX
 8
TUBO_1
 10
0
 20
0
 30
0
 70
128
 71
425
 72
426
 73
436
 74
435
 0
VERTEX
 8
TUBO_1
 10
0
 20
0
 30
0
 70
128
 71
426
 72
427
 73
437
 74
436
 0
VERTEX
 8
TUBO_1
 10
0
 20
0
 30
0
 70
128
 71
427
 72
428
 73
438
 74
437
 0
VERTEX
 8
TUBO_1
 10
0
 20
0
 30
0
 70
128
 71
428
 72
429
 73
439
 74
438
 0
VERTEX
 8
TUBO_1
 10
0
 20
0
 30
0
 70
128
 71
429
 72
430
 73
440
 74
439
 0
VERTEX
 8
TUBO_1
 10
0
 20
0
 30
0
 70
128
 71
430
 72
421
 73
431
 74
440
 0
VERTEX
 8
TUBO_1
 10
0
 20
0
 30
0
 70
128
 71
431
 72
432
 73
442
 74
441
 0
VERTEX
 8
TUBO_1
 10
0
 20
0
 30
0
 70
128
 71
432
 72
433
 73
443
 74
442
 0
VERTEX
 8
TUBO_1
 10
0
 20
0
 30
0
 70
128
 71
433
 72
434
 73
444
 74
443
 0
VERTEX
 8
TUBO_1
 10
0
 20
0
 30
0
 70
128
 71
434
 72
435
 73
445
 74
444
 0
VERTEX
 8
TUBO_1
 10
0
 20
0
 30
0
 70
128
 71
435
 72
436
 73
446
 74
445
 0
VERTEX
 8
TUBO_1
 10
0
 20
0
 30
0
 70
128
 71
436
 72
437
 73
447
 74
446
 0
VERTEX
 8
TUBO_1
 10
0
 20
0
 30
0
 70
128
 71
437
 72
438
 73
448
 74
447
 0
VERTEX
 8
TUBO_1
 10
0
 20
0
 30
0
 70
128
 71
438
 72
439
 73
449
 74
448
 0
VERTEX
 8
TUBO_1
 10
0
 20
0
 30
0
 70
128
 71
439
 72
440
 73
450
 74
449
 0
VERTEX
 8
TUBO_1
 10
0
 20
0
 30
0
 70
128
 71
440
 72
431
 73
441
 74
450
 0
VERTEX
 8
TUBO_1
 10
0
 20
0
 30
0
 70
128
 71
441
 72
442
 73
452
 74
451
 0
VERTEX
 8
TUBO_1
 10
0
 20
0
 30
0
 70
128
 71
442
 72
443
 73
453
 74
452
 0
VERTEX
 8
TUBO_1
 10
0
 20
0
 30
0
 70
128
 71
443
 72
444
 73
454
 74
453
 0
VERTEX
 8
TUBO_1
 10
0
 20
0
 30
0
 70
128
 71
444
 72
445
 73
455
 74
454
 0
VERTEX
 8
TUBO_1
 10
0
 20
0
 30
0
 70
128
 71
445
 72
446
 73
456
 74
455
 0
VERTEX
 8
TUBO_1
 10
0
 20
0
 30
0
 70
128
 71
446
 72
447
 73
457
 74
456
 0
VERTEX
 8
TUBO_1
 10
0
 20
0
 30
0
 70
128
 71
447
 72
448
 73
458
 74
457
 0
VERTEX
 8
TUBO_1
 10
0
 20
0
 30
0
 70
128
 71
448
 72
449
 73
459
 74
458
 0
VERTEX
 8
TUBO_1
 10
0
 20
0
 30
0
 70
128
 71
449
 72
450
 73
460
 74
459
 0
VERTEX
 8
TUBO_1
 10
0
 20
0
 30
0
 70
128
 71
450
 72
441
 73
451
 74
460
 0
VERTEX
 8
TUBO_1
 10
0
 20
0
 30
0
 70
128
 71
451
 72
452
 73
462
 74
461
 0
VERTEX
 8
TUBO_1
 10
0
 20
0
 30
0
 70
128
 71
452
 72
453
 73
463
 74
462
 0
VERTEX
 8
TUBO_1
 10
0
 20
0
 30
0
 70
128
 71
453
 72
454
 73
464
 74
463
 0
VERTEX
 8
TUBO_1
 10
0
 20
0
 30
0
 70
128
 71
454
 72
455
 73
465
 74
464
 0
VERTEX
 8
TUBO_1
 10
0
 20
0
 30
0
 70
128
 71
455
 72
456
 73
466
 74
465
 0
VERTEX
 8
TUBO_1
 10
0
 20
0
 30
0
 70
128
 71
456
 72
457
 73
467
 74
466
 0
VERTEX
 8
TUBO_1
 10
0
 20
0
 30
0
 70
128
 71
457
 72
458
 73
468
 74
467
 0
VERTEX
 8
TUBO_1
 10
0
 20
0
 30
0
 70
128
 71
458
 72
459
 73
469
 74
468
 0
VERTEX
 8
TUBO_1
 10
0
 20
0
 30
0
 70
128
 71
459
 72
460
 73
470
 74
469
 0
VERTEX
 8
TUBO_1
 10
0
 20
0
 30
0
 70
128
 71
460
 72
451
 73
461
 74
470
 0
VERTEX
 8
TUBO_1
 10
0
 20
0
 30
0
 70
128
 71
461
 72
462
 73
472
 74
471
 0
VERTEX
 8
TUBO_1
 10
0
 20
0
 30
0
 70
128
 71
462
 72
463
 73
473
 74
472
 0
VERTEX
 8
TUBO_1
 10
0
 20
0
 30
0
 70
128
 71
463
 72
464
 73
474
 74
473
 0
VERTEX
 8
TUBO_1
 10
0
 20
0
 30
0
 70
128
 71
464
 72
465
 73
475
 74
474
 0
VERTEX
 8
TUBO_1
 10
0
 20
0
 30
0
 70
128
 71
465
 72
466
 73
476
 74
475
 0
VERTEX
 8
TUBO_1
 10
0
 20
0
 30
0
 70
128
 71
466
 72
467
 73
477
 74
476
 0
VERTEX
 8
TUBO_1
 10
0
 20
0
 30
0
 70
128
 71
467
 72
468
 73
478
 74
477
 0
VERTEX
 8
TUBO_1
 10
0
 20
0
 30
0
 70
128
 71
468
 72
469
 73
479
 74
478
 0
VERTEX
 8
TUBO_1
 10
0
 20
0
 30
0
 70
128
 71
469
 72
470
 73
480
 74
479
 0
VERTEX
 8
TUBO_1
 10
0
 20
0
 30
0
 70
128
 71
470
 72
461
 73
471
 74
480
 0
VERTEX
 8
TUBO_1
 10
0
 20
0
 30
0
 70
128
 71
471
 72
472
 73
482
 74
481
 0
VERTEX
 8
TUBO_1
 10
0
 20
0
 30
0
 70
128
 71
472
 72
473
 73
483
 74
482
 0
VERTEX
 8
TUBO_1
 10
0
 20
0
 30
0
 70
128
 71
473
 72
474
 73
484
 74
483
 0
VERTEX
 8
TUBO_1
 10
0
 20
0
 30
0
 70
128
 71
474
 72
475
 73
485
 74
484
 0
VERTEX
 8
TUBO_1
 10
0
 20
0
 30
0
 70
128
 71
475
 72
476
 73
486
 74
485
 0
VERTEX
 8
TUBO_1
 10
0
 20
0
 30
0
 70
128
 71
476
 72
477
 73
487
 74
486
 0
VERTEX
 8
TUBO_1
 10
0
 20
0
 30
0
 70
128
 71
477
 72
478
 73
488
 74
487
 0
VERTEX
 8
TUBO_1
 10
0
 20
0
 30
0
 70
128
 71
478
 72
479
 73
489
 74
488
 0
VERTEX
 8
TUBO_1
 10
0
 20
0
 30
0
 70
128
 71
479
 72
480
 73
490
 74
489
 0
VERTEX
 8
TUBO_1
 10
0
 20
0
 30
0
 70
128
 71
480
 72
471
 73
481
 74
490
 0
VERTEX
 8
TUBO_1
 10
0
 20
0
 30
0
 70
128
 71
481
 72
482
 73
492
 74
491
 0
VERTEX
 8
TUBO_1
 10
0
 20
0
 30
0
 70
128
 71
482
 72
483
 73
493
 74
492
 0
VERTEX
 8
TUBO_1
 10
0
 20
0
 30
0
 70
128
 71
483
 72
484
 73
494
 74
493
 0
VERTEX
 8
TUBO_1
 10
0
 20
0
 30
0
 70
128
 71
484
 72
485
 73
495
 74
494
 0
VERTEX
 8
TUBO_1
 10
0
 20
0
 30
0
 70
128
 71
485
 72
486
 73
496
 74
495
 0
VERTEX
 8
TUBO_1
 10
0
 20
0
 30
0
 70
128
 71
486
 72
487
 73
497
 74
496
 0
VERTEX
 8
TUBO_1
 10
0
 20
0
 30
0
 70
128
 71
487
 72
488
 73
498
 74
497
 0
VERTEX
 8
TUBO_1
 10
0
 20
0
 30
0
 70
128
 71
488
 72
489
 73
499
 74
498
 0
VERTEX
 8
TUBO_1
 10
0
 20
0
 30
0
 70
128
 71
489
 72
490
 73
500
 74
499
 0
VERTEX
 8
TUBO_1
 10
0
 20
0
 30
0
 70
128
 71
490
 72
481
 73
491
 74
500
 0
VERTEX
 8
TUBO_1
 10
0
 20
0
 30
0
 70
128
 71
491
 72
492
 73
502
 74
501
 0
VERTEX
 8
TUBO_1
 10
0
 20
0
 30
0
 70
128
 71
492
 72
493
 73
503
 74
502
 0
VERTEX
 8
TUBO_1
 10
0
 20
0
 30
0
 70
128
 71
493
 72
494
 73
504
 74
503
 0
VERTEX
 8
TUBO_1
 10
0
 20
0
 30
0
 70
128
 71
494
 72
495
 73
505
 74
504
 0
VERTEX
 8
TUBO_1
 10
0
 20
0
 30
0
 70
128
 71
495
 72
496
 73
506
 74
505
 0
VERTEX
 8
TUBO_1
 10
0
 20
0
 30
0
 70
128
 71
496
 72
497
 73
507
 74
506
 0
VERTEX
 8
TUBO_1
 10
0
 20
0
 30
0
 70
128
 71
497
 72
498
 73
508
 74
507
 0
VERTEX
 8
TUBO_1
 10
0
 20
0
 30
0
 70
128
 71
498
 72
499
 73
509
 74
508
 0
VERTEX
 8
TUBO_1
 10
0
 20
0
 30
0
 70
128
 71
499
 72
500
 73
510
 74
509
 0
VERTEX
 8
TUBO_1
 10
0
 20
0
 30
0
 70
128
 71
500
 72
491
 73
501
 74
510
 0
VERTEX
 8
TUBO_1
 10
0
 20
0
 30
0
 70
128
 71
501
 72
502
 73
512
 74
511
 0
VERTEX
 8
TUBO_1
 10
0
 20
0
 30
0
 70
128
 71
502
 72
503
 73
513
 74
512
 0
VERTEX
 8
TUBO_1
 10
0
 20
0
 30
0
 70
128
 71
503
 72
504
 73
514
 74
513
 0
VERTEX
 8
TUBO_1
 10
0
 20
0
 30
0
 70
128
 71
504
 72
505
 73
515
 74
514
 0
VERTEX
 8
TUBO_1
 10
0
 20
0
 30
0
 70
128
 71
505
 72
506
 73
516
 74
515
 0
VERTEX
 8
TUBO_1
 10
0
 20
0
 30
0
 70
128
 71
506
 72
507
 73
517
 74
516
 0
VERTEX
 8
TUBO_1
 10
0
 20
0
 30
0
 70
128
 71
507
 72
508
 73
518
 74
517
 0
VERTEX
 8
TUBO_1
 10
0
 20
0
 30
0
 70
128
 71
508
 72
509
 73
519
 74
518
 0
VERTEX
 8
TUBO_1
 10
0
 20
0
 30
0
 70
128
 71
509
 72
510
 73
520
 74
519
 0
VERTEX
 8
TUBO_1
 10
0
 20
0
 30
0
 70
128
 71
510
 72
501
 73
511
 74
520
 0
VERTEX
 8
TUBO_1
 10
0
 20
0
 30
0
 70
128
 71
511
 72
512
 73
522
 74
521
 0
VERTEX
 8
TUBO_1
 10
0
 20
0
 30
0
 70
128
 71
512
 72
513
 73
523
 74
522
 0
VERTEX
 8
TUBO_1
 10
0
 20
0
 30
0
 70
128
 71
513
 72
514
 73
524
 74
523
 0
VERTEX
 8
TUBO_1
 10
0
 20
0
 30
0
 70
128
 71
514
 72
515
 73
525
 74
524
 0
VERTEX
 8
TUBO_1
 10
0
 20
0
 30
0
 70
128
 71
515
 72
516
 73
526
 74
525
 0
VERTEX
 8
TUBO_1
 10
0
 20
0
 30
0
 70
128
 71
516
 72
517
 73
527
 74
526
 0
VERTEX
 8
TUBO_1
 10
0
 20
0
 30
0
 70
128
 71
517
 72
518
 73
528
 74
527
 0
VERTEX
 8
TUBO_1
 10
0
 20
0
 30
0
 70
128
 71
518
 72
519
 73
529
 74
528
 0
VERTEX
 8
TUBO_1
 10
0
 20
0
 30
0
 70
128
 71
519
 72
520
 73
530
 74
529
 0
VERTEX
 8
TUBO_1
 10
0
 20
0
 30
0
 70
128
 71
520
 72
511
 73
521
 74
530
 0
VERTEX
 8
TUBO_1
 10
0
 20
0
 30
0
 70
128
 71
521
 72
522
 73
532
 74
531
 0
VERTEX
 8
TUBO_1
 10
0
 20
0
 30
0
 70
128
 71
522
 72
523
 73
533
 74
532
 0
VERTEX
 8
TUBO_1
 10
0
 20
0
 30
0
 70
128
 71
523
 72
524
 73
534
 74
533
 0
VERTEX
 8
TUBO_1
 10
0
 20
0
 30
0
 70
128
 71
524
 72
525
 73
535
 74
534
 0
VERTEX
 8
TUBO_1
 10
0
 20
0
 30
0
 70
128
 71
525
 72
526
 73
536
 74
535
 0
VERTEX
 8
TUBO_1
 10
0
 20
0
 30
0
 70
128
 71
526
 72
527
 73
537
 74
536
 0
VERTEX
 8
TUBO_1
 10
0
 20
0
 30
0
 70
128
 71
527
 72
528
 73
538
 74
537
 0
VERTEX
 8
TUBO_1
 10
0
 20
0
 30
0
 70
128
 71
528
 72
529
 73
539
 74
538
 0
VERTEX
 8
TUBO_1
 10
0
 20
0
 30
0
 70
128
 71
529
 72
530
 73
540
 74
539
 0
VERTEX
 8
TUBO_1
 10
0
 20
0
 30
0
 70
128
 71
530
 72
521
 73
531
 74
540
 0
VERTEX
 8
TUBO_1
 10
0
 20
0
 30
0
 70
128
 71
531
 72
532
 73
542
 74
541
 0
VERTEX
 8
TUBO_1
 10
0
 20
0
 30
0
 70
128
 71
532
 72
533
 73
543
 74
542
 0
VERTEX
 8
TUBO_1
 10
0
 20
0
 30
0
 70
128
 71
533
 72
534
 73
544
 74
543
 0
VERTEX
 8
TUBO_1
 10
0
 20
0
 30
0
 70
128
 71
534
 72
535
 73
545
 74
544
 0
VERTEX
 8
TUBO_1
 10
0
 20
0
 30
0
 70
128
 71
535
 72
536
 73
546
 74
545
 0
VERTEX
 8
TUBO_1
 10
0
 20
0
 30
0
 70
128
 71
536
 72
537
 73
547
 74
546
 0
VERTEX
 8
TUBO_1
 10
0
 20
0
 30
0
 70
128
 71
537
 72
538
 73
548
 74
547
 0
VERTEX
 8
TUBO_1
 10
0
 20
0
 30
0
 70
128
 71
538
 72
539
 73
549
 74
548
 0
VERTEX
 8
TUBO_1
 10
0
 20
0
 30
0
 70
128
 71
539
 72
540
 73
550
 74
549
 0
VERTEX
 8
TUBO_1
 10
0
 20
0
 30
0
 70
128
 71
540
 72
531
 73
541
 74
550
 0
VERTEX
 8
TUBO_1
 10
0
 20
0
 30
0
 70
128
 71
541
 72
542
 73
552
 74
551
 0
VERTEX
 8
TUBO_1
 10
0
 20
0
 30
0
 70
128
 71
542
 72
543
 73
553
 74
552
 0
VERTEX
 8
TUBO_1
 10
0
 20
0
 30
0
 70
128
 71
543
 72
544
 73
554
 74
553
 0
VERTEX
 8
TUBO_1
 10
0
 20
0
 30
0
 70
128
 71
544
 72
545
 73
555
 74
554
 0
VERTEX
 8
TUBO_1
 10
0
 20
0
 30
0
 70
128
 71
545
 72
546
 73
556
 74
555
 0
VERTEX
 8
TUBO_1
 10
0
 20
0
 30
0
 70
128
 71
546
 72
547
 73
557
 74
556
 0
VERTEX
 8
TUBO_1
 10
0
 20
0
 30
0
 70
128
 71
547
 72
548
 73
558
 74
557
 0
VERTEX
 8
TUBO_1
 10
0
 20
0
 30
0
 70
128
 71
548
 72
549
 73
559
 74
558
 0
VERTEX
 8
TUBO_1
 10
0
 20
0
 30
0
 70
128
 71
549
 72
550
 73
560
 74
559
 0
VERTEX
 8
TUBO_1
 10
0
 20
0
 30
0
 70
128
 71
550
 72
541
 73
551
 74
560
 0
VERTEX
 8
TUBO_1
 10
0
 20
0
 30
0
 70
128
 71
551
 72
552
 73
562
 74
561
 0
VERTEX
 8
TUBO_1
 10
0
 20
0
 30
0
 70
128
 71
552
 72
553
 73
563
 74
562
 0
VERTEX
 8
TUBO_1
 10
0
 20
0
 30
0
 70
128
 71
553
 72
554
 73
564
 74
563
 0
VERTEX
 8
TUBO_1
 10
0
 20
0
 30
0
 70
128
 71
554
 72
555
 73
565
 74
564
 0
VERTEX
 8
TUBO_1
 10
0
 20
0
 30
0
 70
128
 71
555
 72
556
 73
566
 74
565
 0
VERTEX
 8
TUBO_1
 10
0
 20
0
 30
0
 70
128
 71
556
 72
557
 73
567
 74
566
 0
VERTEX
 8
TUBO_1
 10
0
 20
0
 30
0
 70
128
 71
557
 72
558
 73
568
 74
567
 0
VERTEX
 8
TUBO_1
 10
0
 20
0
 30
0
 70
128
 71
558
 72
559
 73
569
 74
568
 0
VERTEX
 8
TUBO_1
 10
0
 20
0
 30
0
 70
128
 71
559
 72
560
 73
570
 74
569
 0
VERTEX
 8
TUBO_1
 10
0
 20
0
 30
0
 70
128
 71
560
 72
551
 73
561
 74
570
 0
VERTEX
 8
TUBO_1
 10
0
 20
0
 30
0
 70
128
 71
561
 72
562
 73
572
 74
571
 0
VERTEX
 8
TUBO_1
 10
0
 20
0
 30
0
 70
128
 71
562
 72
563
 73
573
 74
572
 0
VERTEX
 8
TUBO_1
 10
0
 20
0
 30
0
 70
128
 71
563
 72
564
 73
574
 74
573
 0
VERTEX
 8
TUBO_1
 10
0
 20
0
 30
0
 70
128
 71
564
 72
565
 73
575
 74
574
 0
VERTEX
 8
TUBO_1
 10
0
 20
0
 30
0
 70
128
 71
565
 72
566
 73
576
 74
575
 0
VERTEX
 8
TUBO_1
 10
0
 20
0
 30
0
 70
128
 71
566
 72
567
 73
577
 74
576
 0
VERTEX
 8
TUBO_1
 10
0
 20
0
 30
0
 70
128
 71
567
 72
568
 73
578
 74
577
 0
VERTEX
 8
TUBO_1
 10
0
 20
0
 30
0
 70
128
 71
568
 72
569
 73
579
 74
578
 0
VERTEX
 8
TUBO_1
 10
0
 20
0
 30
0
 70
128
 71
569
 72
570
 73
580
 74
579
 0
VERTEX
 8
TUBO_1
 10
0
 20
0
 30
0
 70
128
 71
570
 72
561
 73
571
 74
580
 0
VERTEX
 8
TUBO_1
 10
0
 20
0
 30
0
 70
128
 71
571
 72
572
 73
582
 74
581
 0
VERTEX
 8
TUBO_1
 10
0
 20
0
 30
0
 70
128
 71
572
 72
573
 73
583
 74
582
 0
VERTEX
 8
TUBO_1
 10
0
 20
0
 30
0
 70
128
 71
573
 72
574
 73
584
 74
583
 0
VERTEX
 8
TUBO_1
 10
0
 20
0
 30
0
 70
128
 71
574
 72
575
 73
585
 74
584
 0
VERTEX
 8
TUBO_1
 10
0
 20
0
 30
0
 70
128
 71
575
 72
576
 73
586
 74
585
 0
VERTEX
 8
TUBO_1
 10
0
 20
0
 30
0
 70
128
 71
576
 72
577
 73
587
 74
586
 0
VERTEX
 8
TUBO_1
 10
0
 20
0
 30
0
 70
128
 71
577
 72
578
 73
588
 74
587
 0
VERTEX
 8
TUBO_1
 10
0
 20
0
 30
0
 70
128
 71
578
 72
579
 73
589
 74
588
 0
VERTEX
 8
TUBO_1
 10
0
 20
0
 30
0
 70
128
 71
579
 72
580
 73
590
 74
589
 0
VERTEX
 8
TUBO_1
 10
0
 20
0
 30
0
 70
128
 71
580
 72
571
 73
581
 74
590
 0
VERTEX
 8
TUBO_1
 10
0
 20
0
 30
0
 70
128
 71
581
 72
582
 73
592
 74
591
 0
VERTEX
 8
TUBO_1
 10
0
 20
0
 30
0
 70
128
 71
582
 72
583
 73
593
 74
592
 0
VERTEX
 8
TUBO_1
 10
0
 20
0
 30
0
 70
128
 71
583
 72
584
 73
594
 74
593
 0
VERTEX
 8
TUBO_1
 10
0
 20
0
 30
0
 70
128
 71
584
 72
585
 73
595
 74
594
 0
VERTEX
 8
TUBO_1
 10
0
 20
0
 30
0
 70
128
 71
585
 72
586
 73
596
 74
595
 0
VERTEX
 8
TUBO_1
 10
0
 20
0
 30
0
 70
128
 71
586
 72
587
 73
597
 74
596
 0
VERTEX
 8
TUBO_1
 10
0
 20
0
 30
0
 70
128
 71
587
 72
588
 73
598
 74
597
 0
VERTEX
 8
TUBO_1
 10
0
 20
0
 30
0
 70
128
 71
588
 72
589
 73
599
 74
598
 0
VERTEX
 8
TUBO_1
 10
0
 20
0
 30
0
 70
128
 71
589
 72
590
 73
600
 74
599
 0
VERTEX
 8
TUBO_1
 10
0
 20
0
 30
0
 70
128
 71
590
 72
581
 73
591
 74
600
 0
VERTEX
 8
TUBO_1
 10
0
 20
0
 30
0
 70
128
 71
591
 72
592
 73
602
 74
601
 0
VERTEX
 8
TUBO_1
 10
0
 20
0
 30
0
 70
128
 71
592
 72
593
 73
603
 74
602
 0
VERTEX
 8
TUBO_1
 10
0
 20
0
 30
0
 70
128
 71
593
 72
594
 73
604
 74
603
 0
VERTEX
 8
TUBO_1
 10
0
 20
0
 30
0
 70
128
 71
594
 72
595
 73
605
 74
604
 0
VERTEX
 8
TUBO_1
 10
0
 20
0
 30
0
 70
128
 71
595
 72
596
 73
606
 74
605
 0
VERTEX
 8
TUBO_1
 10
0
 20
0
 30
0
 70
128
 71
596
 72
597
 73
607
 74
606
 0
VERTEX
 8
TUBO_1
 10
0
 20
0
 30
0
 70
128
 71
597
 72
598
 73
608
 74
607
 0
VERTEX
 8
TUBO_1
 10
0
 20
0
 30
0
 70
128
 71
598
 72
599
 73
609
 74
608
 0
VERTEX
 8
TUBO_1
 10
0
 20
0
 30
0
 70
128
 71
599
 72
600
 73
610
 74
609
 0
VERTEX
 8
TUBO_1
 10
0
 20
0
 30
0
 70
128
 71
600
 72
591
 73
601
 74
610
 0
VERTEX
 8
TUBO_1
 10
0
 20
0
 30
0
 70
128
 71
601
 72
602
 73
612
 74
611
 0
VERTEX
 8
TUBO_1
 10
0
 20
0
 30
0
 70
128
 71
602
 72
603
 73
613
 74
612
 0
VERTEX
 8
TUBO_1
 10
0
 20
0
 30
0
 70
128
 71
603
 72
604
 73
614
 74
613
 0
VERTEX
 8
TUBO_1
 10
0
 20
0
 30
0
 70
128
 71
604
 72
605
 73
615
 74
614
 0
VERTEX
 8
TUBO_1
 10
0
 20
0
 30
0
 70
128
 71
605
 72
606
 73
616
 74
615
 0
VERTEX
 8
TUBO_1
 10
0
 20
0
 30
0
 70
128
 71
606
 72
607
 73
617
 74
616
 0
VERTEX
 8
TUBO_1
 10
0
 20
0
 30
0
 70
128
 71
607
 72
608
 73
618
 74
617
 0
VERTEX
 8
TUBO_1
 10
0
 20
0
 30
0
 70
128
 71
608
 72
609
 73
619
 74
618
 0
VERTEX
 8
TUBO_1
 10
0
 20
0
 30
0
 70
128
 71
609
 72
610
 73
620
 74
619
 0
VERTEX
 8
TUBO_1
 10
0
 20
0
 30
0
 70
128
 71
610
 72
601
 73
611
 74
620
 0
VERTEX
 8
TUBO_1
 10
0
 20
0
 30
0
 70
128
 71
611
 72
612
 73
622
 74
621
 0
VERTEX
 8
TUBO_1
 10
0
 20
0
 30
0
 70
128
 71
612
 72
613
 73
623
 74
622
 0
VERTEX
 8
TUBO_1
 10
0
 20
0
 30
0
 70
128
 71
613
 72
614
 73
624
 74
623
 0
VERTEX
 8
TUBO_1
 10
0
 20
0
 30
0
 70
128
 71
614
 72
615
 73
625
 74
624
 0
VERTEX
 8
TUBO_1
 10
0
 20
0
 30
0
 70
128
 71
615
 72
616
 73
626
 74
625
 0
VERTEX
 8
TUBO_1
 10
0
 20
0
 30
0
 70
128
 71
616
 72
617
 73
627
 74
626
 0
VERTEX
 8
TUBO_1
 10
0
 20
0
 30
0
 70
128
 71
617
 72
618
 73
628
 74
627
 0
VERTEX
 8
TUBO_1
 10
0
 20
0
 30
0
 70
128
 71
618
 72
619
 73
629
 74
628
 0
VERTEX
 8
TUBO_1
 10
0
 20
0
 30
0
 70
128
 71
619
 72
620
 73
630
 74
629
 0
VERTEX
 8
TUBO_1
 10
0
 20
0
 30
0
 70
128
 71
620
 72
611
 73
621
 74
630
 0
VERTEX
 8
TUBO_1
 10
0
 20
0
 30
0
 70
128
 71
621
 72
622
 73
632
 74
631
 0
VERTEX
 8
TUBO_1
 10
0
 20
0
 30
0
 70
128
 71
622
 72
623
 73
633
 74
632
 0
VERTEX
 8
TUBO_1
 10
0
 20
0
 30
0
 70
128
 71
623
 72
624
 73
634
 74
633
 0
VERTEX
 8
TUBO_1
 10
0
 20
0
 30
0
 70
128
 71
624
 72
625
 73
635
 74
634
 0
VERTEX
 8
TUBO_1
 10
0
 20
0
 30
0
 70
128
 71
625
 72
626
 73
636
 74
635
 0
VERTEX
 8
TUBO_1
 10
0
 20
0
 30
0
 70
128
 71
626
 72
627
 73
637
 74
636
 0
VERTEX
 8
TUBO_1
 10
0
 20
0
 30
0
 70
128
 71
627
 72
628
 73
638
 74
637
 0
VERTEX
 8
TUBO_1
 10
0
 20
0
 30
0
 70
128
 71
628
 72
629
 73
639
 74
638
 0
VERTEX
 8
TUBO_1
 10
0
 20
0
 30
0
 70
128
 71
629
 72
630
 73
640
 74
639
 0
VERTEX
 8
TUBO_1
 10
0
 20
0
 30
0
 70
128
 71
630
 72
621
 73
631
 74
640
 0
VERTEX
 8
TUBO_1
 10
0
 20
0
 30
0
 70
128
 71
631
 72
632
 73
2
 74
1
 0
VERTEX
 8
TUBO_1
 10
0
 20
0
 30
0
 70
128
 71
632
 72
633
 73
3
 74
2
 0
VERTEX
 8
TUBO_1
 10
0
 20
0
 30
0
 70
128
 71
633
 72
634
 73
4
 74
3
 0
VERTEX
 8
TUBO_1
 10
0
 20
0
 30
0
 70
128
 71
634
 72
635
 73
5
 74
4
 0
VERTEX
 8
TUBO_1
 10
0
 20
0
 30
0
 70
128
 71
635
 72
636
 73
6
 74
5
 0
VERTEX
 8
TUBO_1
 10
0
 20
0
 30
0
 70
128
 71
636
 72
637
 73
7
 74
6
 0
VERTEX
 8
TUBO_1
 10
0
 20
0
 30
0
 70
128
 71
637
 72
638
 73
8
 74
7
 0
VERTEX
 8
TUBO_1
 10
0
 20
0
 30
0
 70
128
 71
638
 72
639
 73
9
 74
8
 0
VERTEX
 8
TUBO_1
 10
0
 20
0
 30
0
 70
128
 71
639
 72
640
 73
10
 74
9
 0
VERTEX
 8
TUBO_1
 10
0
 20
0
 30
0
 70
128
 71
640
 72
631
 73
1
 74
10
 0
SEQEND
 0
POLYLINE
 8
TUBO
 66
1
 10
0.0
 20
0.0
 30
0.0
 70
64
 71
640
 72
640
 0
VERTEX
 8
TUBO
 10
8.8002
 20
4.9657
 30
0.0025
 70
192
 0
VERTEX
 8
TUBO
 10
9.0002
 20
4.9657
 30
0.0025
 70
192
 0
VERTEX
 8
TUBO
 10
9.0002
 20
4.9657
 30
0.0025
 70
192
 0
VERTEX
 8
TUBO
 10
9.0002
 20
4.9657
 30
0.0025
 70
192
 0
VERTEX
 8
TUBO
 10
9.0002
 20
4.9657
 30
0.0025
 70
192
 0
VERTEX
 8
TUBO
 10
9.0002
 20
4.9657
 30
0.0025
 70
192
 0
VERTEX
 8
TUBO
 10
8.8002
 20
4.9657
 30
0.0025
 70
192
 0
VERTEX
 8
TUBO
 10
8.8002
 20
4.9657
 30
0.0025
 70
192
 0
VERTEX
 8
TUBO
 10
8.8002
 20
4.9657
 30
0.0025
 70
192
 0
VERTEX
 8
TUBO
 10
8.8002
 20
4.9657
 30
0.0025
 70
192
 0
VERTEX
 8
TUBO
 10
8.7578
 20
5.8282
 30
0.0025
 70
192
 0
VERTEX
 8
TUBO
 10
8.9568
 20
5.8478
 30
0.0025
 70
192
 0
VERTEX
 8
TUBO
 10
8.9568
 20
5.8478
 30
0.0025
 70
192
 0
VERTEX
 8
TUBO
 10
8.9568
 20
5.8478
 30
0.0025
 70
192
 0
VERTEX
 8
TUBO
 10
8.9568
 20
5.8478
 30
0.0025
 70
192
 0
VERTEX
 8
TUBO
 10
8.9568
 20
5.8478
 30
0.0025
 70
192
 0
VERTEX
 8
TUBO
 10
8.7578
 20
5.8282
 30
0.0025
 70
192
 0
VERTEX
 8
TUBO
 10
8.7578
 20
5.8282
 30
0.0025
 70
192
 0
VERTEX
 8
TUBO
 10
8.7578
 20
5.8282
 30
0.0025
 70
192
 0
VERTEX
 8
TUBO
 10
8.7578
 20
5.8282
 30
0.0025
 70
192
 0
VERTEX
 8
TUBO
 10
8.6311
 20
6.6825
 30
0.0025
 70
192
 0
VERTEX
 8
TUBO
 10
8.8272
 20
6.7215
 30
0.0025
 70
192
 0
VERTEX
 8
TUBO
 10
8.8272
 20
6.7215
 30
0.0025
 70
192
 0
VERTEX
 8
TUBO
 10
8.8272
 20
6.7215
 30
0.0025
 70
192
 0
VERTEX
 8
TUBO
 10
8.8272
 20
6.7215
 30
0.0025
 70
192
 0
VERTEX
 8
TUBO
 10
8.8272
 20
6.7215
 30
0.0025
 70
192
 0
VERTEX
 8
TUBO
 10
8.6311
 20
6.6825
 30
0.0025
 70
192
 0
VERTEX
 8
TUBO
 10
8.6311
 20
6.6825
 30
0.0025
 70
192
 0
VERTEX
 8
TUBO
 10
8.6311
 20
6.6825
 30
0.0025
 70
192
 0
VERTEX
 8
TUBO
 10
8.6311
 20
6.6825
 30
0.0025
 70
192
 0
VERTEX
 8
TUBO
 10
8.4213
 20
7.5202
 30
0.0025
 70
192
 0
VERTEX
 8
TUBO
 10
8.6126
 20
7.5782
 30
0.0025
 70
192
 0
VERTEX
 8
TUBO
 10
8.6126
 20
7.5782
 30
0.0025
 70
192
 0
VERTEX
 8
TUBO
 10
8.6126
 20
7.5782
 30
0.0025
 70
192
 0
VERTEX
 8
TUBO
 10
8.6126
 20
7.5782
 30
0.0025
 70
192
 0
VERTEX
 8
TUBO
 10
8.6126
 20
7.5782
 30
0.0025
 70
192
 0
VERTEX
 8
TUBO
 10
8.4213
 20
7.5202
 30
0.0025
 70
192
 0
VERTEX
 8
TUBO
 10
8.4213
 20
7.5202
 30
0.0025
 70
192
 0
VERTEX
 8
TUBO
 10
8.4213
 20
7.5202
 30
0.0025
 70
192
 0
VERTEX
 8
TUBO
 10
8.4213
 20
7.5202
 30
0.0025
 70
192
 0
VERTEX
 8
TUBO
 10
8.1303
 20
8.3333
 30
0.0025
 70
192
 0
VERTEX
 8
TUBO
 10
8.3151
 20
8.4098
 30
0.0025
 70
192
 0
VERTEX
 8
TUBO
 10
8.3151
 20
8.4098
 30
0.0025
 70
192
 0
VERTEX
 8
TUBO
 10
8.3151
 20
8.4098
 30
0.0025
 70
192
 0
VERTEX
 8
TUBO
 10
8.3151
 20
8.4098
 30
0.0025
 70
192
 0
VERTEX
 8
TUBO
 10
8.3151
 20
8.4098
 30
0.0025
 70
192
 0
VERTEX
 8
TUBO
 10
8.1303
 20
8.3333
 30
0.0025
 70
192
 0
VERTEX
 8
TUBO
 10
8.1303
 20
8.3333
 30
0.0025
 70
192
 0
VERTEX
 8
TUBO
 10
8.1303
 20
8.3333
 30
0.0025
 70
192
 0
VERTEX
 8
TUBO
 10
8.1303
 20
8.3333
 30
0.0025
 70
192
 0
VERTEX
 8
TUBO
 10
7.7611
 20
9.114
 30
0.0025
 70
192
 0
VERTEX
 8
TUBO
 10
7.9375
 20
9.2082
 30
0.0025
 70
192
 0
VERTEX
 8
TUBO
 10
7.9375
 20
9.2082
 30
0.0025
 70
192
 0
VERTEX
 8
TUBO
 10
7.9375
 20
9.2082
 30
0.0025
 70
192
 0
VERTEX
 8
TUBO
 10
7.9375
 20
9.2082
 30
0.0025
 70
192
 0
VERTEX
 8
TUBO
 10
7.9375
 20
9.2082
 30
0.0025
 70
192
 0
VERTEX
 8
TUBO
 10
7.7611
 20
9.114
 30
0.0025
 70
192
 0
VERTEX
 8
TUBO
 10
7.7611
 20
9.114
 30
0.0025
 70
192
 0
VERTEX
 8
TUBO
 10
7.7611
 20
9.114
 30
0.0025
 70
192
 0
VERTEX
 8
TUBO
 10
7.7611
 20
9.114
 30
0.0025
 70
192
 0
VERTEX
 8
TUBO
 10
7.3171
 20
9.8547
 30
0.0025
 70
192
 0
VERTEX
 8
TUBO
 10
7.4834
 20
9.9658
 30
0.0025
 70
192
 0
VERTEX
 8
TUBO
 10
7.4834
 20
9.9658
 30
0.0025
 70
192
 0
VERTEX
 8
TUBO
 10
7.4834
 20
9.9658
 30
0.0025
 70
192
 0
VERTEX
 8
TUBO
 10
7.4834
 20
9.9658
 30
0.0025
 70
192
 0
VERTEX
 8
TUBO
 10
7.4834
 20
9.9658
 30
0.0025
 70
192
 0
VERTEX
 8
TUBO
 10
7.3171
 20
9.8547
 30
0.0025
 70
192
 0
VERTEX
 8
TUBO
 10
7.3171
 20
9.8547
 30
0.0025
 70
192
 0
VERTEX
 8
TUBO
 10
7.3171
 20
9.8547
 30
0.0025
 70
192
 0
VERTEX
 8
TUBO
 10
7.3171
 20
9.8547
 30
0.0025
 70
192
 0
VERTEX
 8
TUBO
 10
6.8027
 20
10.5483
 30
0.0025
 70
192
 0
VERTEX
 8
TUBO
 10
6.9573
 20
10.6752
 30
0.0025
 70
192
 0
VERTEX
 8
TUBO
 10
6.9573
 20
10.6752
 30
0.0025
 70
192
 0
VERTEX
 8
TUBO
 10
6.9573
 20
10.6752
 30
0.0025
 70
192
 0
VERTEX
 8
TUBO
 10
6.9573
 20
10.6752
 30
0.0025
 70
192
 0
VERTEX
 8
TUBO
 10
6.9573
 20
10.6752
 30
0.0025
 70
192
 0
VERTEX
 8
TUBO
 10
6.8027
 20
10.5483
 30
0.0025
 70
192
 0
VERTEX
 8
TUBO
 10
6.8027
 20
10.5483
 30
0.0025
 70
192
 0
VERTEX
 8
TUBO
 10
6.8027
 20
10.5483
 30
0.0025
 70
192
 0
VERTEX
 8
TUBO
 10
6.8027
 20
10.5483
 30
0.0025
 70
192
 0
VERTEX
 8
TUBO
 10
6.2227
 20
11.1882
 30
0.0025
 70
192
 0
VERTEX
 8
TUBO
 10
6.3641
 20
11.3296
 30
0.0025
 70
192
 0
VERTEX
 8
TUBO
 10
6.3641
 20
11.3296
 30
0.0025
 70
192
 0
VERTEX
 8
TUBO
 10
6.3641
 20
11.3296
 30
0.0025
 70
192
 0
VERTEX
 8
TUBO
 10
6.3641
 20
11.3296
 30
0.0025
 70
192
 0
VERTEX
 8
TUBO
 10
6.3641
 20
11.3296
 30
0.0025
 70
192
 0
VERTEX
 8
TUBO
 10
6.2227
 20
11.1882
 30
0.0025
 70
192
 0
VERTEX
 8
TUBO
 10
6.2227
 20
11.1882
 30
0.0025
 70
192
 0
VERTEX
 8
TUBO
 10
6.2227
 20
11.1882
 30
0.0025
 70
192
 0
VERTEX
 8
TUBO
 10
6.2227
 20
11.1882
 30
0.0025
 70
192
 0
VERTEX
 8
TUBO
 10
5.5828
 20
11.7682
 30
0.0025
 70
192
 0
VERTEX
 8
TUBO
 10
5.7097
 20
11.9228
 30
0.0025
 70
192
 0
VERTEX
 8
TUBO
 10
5.7097
 20
11.9228
 30
0.0025
 70
192
 0
VERTEX
 8
TUBO
 10
5.7097
 20
11.9228
 30
0.0025
 70
192
 0
VERTEX
 8
TUBO
 10
5.7097
 20
11.9228
 30
0.0025
 70
192
 0
VERTEX
 8
TUBO
 10
5.7097
 20
11.9228
 30
0.0025
 70
192
 0
VERTEX
 8
TUBO
 10
5.5828
 20
11.7682
 30
0.0025
 70
192
 0
VERTEX
 8
TUBO
 10
5.5828
 20
11.7682
 30
0.0025
 70
192
 0
VERTEX
 8
TUBO
 10
5.5828
 20
11.7682
 30
0.0025
 70
192
 0
VERTEX
 8
TUBO
 10
5.5828
 20
11.7682
 30
0.0025
 70
192
 0
VERTEX
 8
TUBO
 10
4.8892
 20
12.2826
 30
0.0025
 70
192
 0
VERTEX
 8
TUBO
 10
5.0003
 20
12.4489
 30
0.0025
 70
192
 0
VERTEX
 8
TUBO
 10
5.0003
 20
12.4489
 30
0.0025
 70
192
 0
VERTEX
 8
TUBO
 10
5.0003
 20
12.4489
 30
0.0025
 70
192
 0
VERTEX
 8
TUBO
 10
5.0003
 20
12.4489
 30
0.0025
 70
192
 0
VERTEX
 8
TUBO
 10
5.0003
 20
12.4489
 30
0.0025
 70
192
 0
VERTEX
 8
TUBO
 10
4.8892
 20
12.2826
 30
0.0025
 70
192
 0
VERTEX
 8
TUBO
 10
4.8892
 20
12.2826
 30
0.0025
 70
192
 0
VERTEX
 8
TUBO
 10
4.8892
 20
12.2826
 30
0.0025
 70
192
 0
VERTEX
 8
TUBO
 10
4.8892
 20
12.2826
 30
0.0025
 70
192
 0
VERTEX
 8
TUBO
 10
4.1485
 20
12.7266
 30
0.0025
 70
192
 0
VERTEX
 8
TUBO
 10
4.2428
 20
12.903
 30
0.0025
 70
192
 0
VERTEX
 8
TUBO
 10
4.2428
 20
12.903
 30
0.0025
 70
192
 0
VERTEX
 8
TUBO
 10
4.2428
 20
12.903
 30
0.0025
 70
192
 0
VERTEX
 8
TUBO
 10
4.2428
 20
12.903
 30
0.0025
 70
192
 0
VERTEX
 8
TUBO
 10
4.2428
 20
12.903
 30
0.0025
 70
192
 0
VERTEX
 8
TUBO
 10
4.1485
 20
12.7266
 30
0.0025
 70
192
 0
VERTEX
 8
TUBO
 10
4.1485
 20
12.7266
 30
0.0025
 70
192
 0
VERTEX
 8
TUBO
 10
4.1485
 20
12.7266
 30
0.0025
 70
192
 0
VERTEX
 8
TUBO
 10
4.1485
 20
12.7266
 30
0.0025
 70
192
 0
VERTEX
 8
TUBO
 10
3.3678
 20
13.0958
 30
0.0025
 70
192
 0
VERTEX
 8
TUBO
 10
3.4443
 20
13.2806
 30
0.0025
 70
192
 0
VERTEX
 8
TUBO
 10
3.4443
 20
13.2806
 30
0.0025
 70
192
 0
VERTEX
 8
TUBO
 10
3.4443
 20
13.2806
 30
0.0025
 70
192
 0
VERTEX
 8
TUBO
 10
3.4443
 20
13.2806
 30
0.0025
 70
192
 0
VERTEX
 8
TUBO
 10
3.4443
 20
13.2806
 30
0.0025
 70
192
 0
VERTEX
 8
TUBO
 10
3.3678
 20
13.0958
 30
0.0025
 70
192
 0
VERTEX
 8
TUBO
 10
3.3678
 20
13.0958
 30
0.0025
 70
192
 0
VERTEX
 8
TUBO
 10
3.3678
 20
13.0958
 30
0.0025
 70
192
 0
VERTEX
 8
TUBO
 10
3.3678
 20
13.0958
 30
0.0025
 70
192
 0
VERTEX
 8
TUBO
 10
2.5547
 20
13.3867
 30
0.0025
 70
192
 0
VERTEX
 8
TUBO
 10
2.6127
 20
13.5781
 30
0.0025
 70
192
 0
VERTEX
 8
TUBO
 10
2.6127
 20
13.5781
 30
0.0025
 70
192
 0
VERTEX
 8
TUBO
 10
2.6127
 20
13.5781
 30
0.0025
 70
192
 0
VERTEX
 8
TUBO
 10
2.6127
 20
13.5781
 30
0.0025
 70
192
 0
VERTEX
 8
TUBO
 10
2.6127
 20
13.5781
 30
0.0025
 70
192
 0
VERTEX
 8
TUBO
 10
2.5547
 20
13.3867
 30
0.0025
 70
192
 0
VERTEX
 8
TUBO
 10
2.5547
 20
13.3867
 30
0.0025
 70
192
 0
VERTEX
 8
TUBO
 10
2.5547
 20
13.3867
 30
0.0025
 70
192
 0
VERTEX
 8
TUBO
 10
2.5547
 20
13.3867
 30
0.0025
 70
192
 0
VERTEX
 8
TUBO
 10
1.717
 20
13.5966
 30
0.0025
 70
192
 0
VERTEX
 8
TUBO
 10
1.756
 20
13.7927
 30
0.0025
 70
192
 0
VERTEX
 8
TUBO
 10
1.756
 20
13.7927
 30
0.0025
 70
192
 0
VERTEX
 8
TUBO
 10
1.756
 20
13.7927
 30
0.0025
 70
192
 0
VERTEX
 8
TUBO
 10
1.756
 20
13.7927
 30
0.0025
 70
192
 0
VERTEX
 8
TUBO
 10
1.756
 20
13.7927
 30
0.0025
 70
192
 0
VERTEX
 8
TUBO
 10
1.717
 20
13.5966
 30
0.0025
 70
192
 0
VERTEX
 8
TUBO
 10
1.717
 20
13.5966
 30
0.0025
 70
192
 0
VERTEX
 8
TUBO
 10
1.717
 20
13.5966
 30
0.0025
 70
192
 0
VERTEX
 8
TUBO
 10
1.717
 20
13.5966
 30
0.0025
 70
192
 0
VERTEX
 8
TUBO
 10
0.8627
 20
13.7233
 30
0.0025
 70
192
 0
VERTEX
 8
TUBO
 10
0.8823
 20
13.9223
 30
0.0025
 70
192
 0
VERTEX
 8
TUBO
 10
0.8823
 20
13.9223
 30
0.0025
 70
192
 0
VERTEX
 8
TUBO
 10
0.8823
 20
13.9223
 30
0.0025
 70
192
 0
VERTEX
 8
TUBO
 10
0.8823
 20
13.9223
 30
0.0025
 70
192
 0
VERTEX
 8
TUBO
 10
0.8823
 20
13.9223
 30
0.0025
 70
192
 0
VERTEX
 8
TUBO
 10
0.8627
 20
13.7233
 30
0.0025
 70
192
 0
VERTEX
 8
TUBO
 10
0.8627
 20
13.7233
 30
0.0025
 70
192
 0
VERTEX
 8
TUBO
 10
0.8627
 20
13.7233
 30
0.0025
 70
192
 0
VERTEX
 8
TUBO
 10
0.8627
 20
13.7233
 30
0.0025
 70
192
 0
VERTEX
 8
TUBO
 10
0.0002
 20
13.7657
 30
0.0025
 70
192
 0
VERTEX
 8
TUBO
 10
0.0002
 20
13.9657
 30
0.0025
 70
192
 0
VERTEX
 8
TUBO
 10
0.0002
 20
13.9657
 30
0.0025
 70
192
 0
VERTEX
 8
TUBO
 10
0.0002
 20
13.9657
 30
0.0025
 70
192
 0
VERTEX
 8
TUBO
 10
0.0002
 20
13.9657
 30
0.0025
 70
192
 0
VERTEX
 8
TUBO
 10
0.0002
 20
13.9657
 30
0.0025
 70
192
 0
VERTEX
 8
TUBO
 10
0.0002
 20
13.7657
 30
0.0025
 70
192
 0
VERTEX
 8
TUBO
 10
0.0002
 20
13.7657
 30
0.0025
 70
192
 0
VERTEX
 8
TUBO
 10
0.0002
 20
13.7657
 30
0.0025
 70
192
 0
VERTEX
 8
TUBO
 10
0.0002
 20
13.7657
 30
0.0025
 70
192
 0
VERTEX
 8
TUBO
 10
-0.8624
 20
13.7233
 30
0.0025
 70
192
 0
VERTEX
 8
TUBO
 10
-0.882
 20
13.9223
 30
0.0025
 70
192
 0
VERTEX
 8
TUBO
 10
-0.882
 20
13.9223
 30
0.0025
 70
192
 0
VERTEX
 8
TUBO
 10
-0.882
 20
13.9223
 30
0.0025
 70
192
 0
VERTEX
 8
TUBO
 10
-0.882
 20
13.9223
 30
0.0025
 70
192
 0
VERTEX
 8
TUBO
 10
-0.882
 20
13.9223
 30
0.0025
 70
192
 0
VERTEX
 8
TUBO
 10
-0.8624
 20
13.7233
 30
0.0025
 70
192
 0
VERTEX
 8
TUBO
 10
-0.8624
 20
13.7233
 30
0.0025
 70
192
 0
VERTEX
 8
TUBO
 10
-0.8624
 20
13.7233
 30
0.0025
 70
192
 0
VERTEX
 8
TUBO
 10
-0.8624
 20
13.7233
 30
0.0025
 70
192
 0
VERTEX
 8
TUBO
 10
-1.7166
 20
13.5966
 30
0.0025
 70
192
 0
VERTEX
 8
TUBO
 10
-1.7556
 20
13.7927
 30
0.0025
 70
192
 0
VERTEX
 8
TUBO
 10
-1.7556
 20
13.7927
 30
0.0025
 70
192
 0
VERTEX
 8
TUBO
 10
-1.7556
 20
13.7927
 30
0.0025
 70
192
 0
VERTEX
 8
TUBO
 10
-1.7556
 20
13.7927
 30
0.0025
 70
192
 0
VERTEX
 8
TUBO
 10
-1.7556
 20
13.7927
 30
0.0025
 70
192
 0
VERTEX
 8
TUBO
 10
-1.7166
 20
13.5966
 30
0.0025
 70
192
 0
VERTEX
 8
TUBO
 10
-1.7166
 20
13.5966
 30
0.0025
 70
192
 0
VERTEX
 8
TUBO
 10
-1.7166
 20
13.5966
 30
0.0025
 70
192
 0
VERTEX
 8
TUBO
 10
-1.7166
 20
13.5966
 30
0.0025
 70
192
 0
VERTEX
 8
TUBO
 10
-2.5543
 20
13.3867
 30
0.0025
 70
192
 0
VERTEX
 8
TUBO
 10
-2.6124
 20
13.5781
 30
0.0025
 70
192
 0
VERTEX
 8
TUBO
 10
-2.6124
 20
13.5781
 30
0.0025
 70
192
 0
VERTEX
 8
TUBO
 10
-2.6124
 20
13.5781
 30
0.0025
 70
192
 0
VERTEX
 8
TUBO
 10
-2.6124
 20
13.5781
 30
0.0025
 70
192
 0
VERTEX
 8
TUBO
 10
-2.6124
 20
13.5781
 30
0.0025
 70
192
 0
VERTEX
 8
TUBO
 10
-2.5543
 20
13.3867
 30
0.0025
 70
192
 0
VERTEX
 8
TUBO
 10
-2.5543
 20
13.3867
 30
0.0025
 70
192
 0
VERTEX
 8
TUBO
 10
-2.5543
 20
13.3867
 30
0.0025
 70
192
 0
VERTEX
 8
TUBO
 10
-2.5543
 20
13.3867
 30
0.0025
 70
192
 0
VERTEX
 8
TUBO
 10
-3.3674
 20
13.0958
 30
0.0025
 70
192
 0
VERTEX
 8
TUBO
 10
-3.444
 20
13.2806
 30
0.0025
 70
192
 0
VERTEX
 8
TUBO
 10
-3.444
 20
13.2806
 30
0.0025
 70
192
 0
VERTEX
 8
TUBO
 10
-3.444
 20
13.2806
 30
0.0025
 70
192
 0
VERTEX
 8
TUBO
 10
-3.444
 20
13.2806
 30
0.0025
 70
192
 0
VERTEX
 8
TUBO
 10
-3.444
 20
13.2806
 30
0.0025
 70
192
 0
VERTEX
 8
TUBO
 10
-3.3674
 20
13.0958
 30
0.0025
 70
192
 0
VERTEX
 8
TUBO
 10
-3.3674
 20
13.0958
 30
0.0025
 70
192
 0
VERTEX
 8
TUBO
 10
-3.3674
 20
13.0958
 30
0.0025
 70
192
 0
VERTEX
 8
TUBO
 10
-3.3674
 20
13.0958
 30
0.0025
 70
192
 0
VERTEX
 8
TUBO
 10
-4.1481
 20
12.7266
 30
0.0025
 70
192
 0
VERTEX
 8
TUBO
 10
-4.2424
 20
12.903
 30
0.0025
 70
192
 0
VERTEX
 8
TUBO
 10
-4.2424
 20
12.903
 30
0.0025
 70
192
 0
VERTEX
 8
TUBO
 10
-4.2424
 20
12.903
 30
0.0025
 70
192
 0
VERTEX
 8
TUBO
 10
-4.2424
 20
12.903
 30
0.0025
 70
192
 0
VERTEX
 8
TUBO
 10
-4.2424
 20
12.903
 30
0.0025
 70
192
 0
VERTEX
 8
TUBO
 10
-4.1481
 20
12.7266
 30
0.0025
 70
192
 0
VERTEX
 8
TUBO
 10
-4.1481
 20
12.7266
 30
0.0025
 70
192
 0
VERTEX
 8
TUBO
 10
-4.1481
 20
12.7266
 30
0.0025
 70
192
 0
VERTEX
 8
TUBO
 10
-4.1481
 20
12.7266
 30
0.0025
 70
192
 0
VERTEX
 8
TUBO
 10
-4.8888
 20
12.2826
 30
0.0025
 70
192
 0
VERTEX
 8
TUBO
 10
-4.9999
 20
12.4489
 30
0.0025
 70
192
 0
VERTEX
 8
TUBO
 10
-4.9999
 20
12.4489
 30
0.0025
 70
192
 0
VERTEX
 8
TUBO
 10
-4.9999
 20
12.4489
 30
0.0025
 70
192
 0
VERTEX
 8
TUBO
 10
-4.9999
 20
12.4489
 30
0.0025
 70
192
 0
VERTEX
 8
TUBO
 10
-4.9999
 20
12.4489
 30
0.0025
 70
192
 0
VERTEX
 8
TUBO
 10
-4.8888
 20
12.2826
 30
0.0025
 70
192
 0
VERTEX
 8
TUBO
 10
-4.8888
 20
12.2826
 30
0.0025
 70
192
 0
VERTEX
 8
TUBO
 10
-4.8888
 20
12.2826
 30
0.0025
 70
192
 0
VERTEX
 8
TUBO
 10
-4.8888
 20
12.2826
 30
0.0025
 70
192
 0
VERTEX
 8
TUBO
 10
-5.5825
 20
11.7682
 30
0.0025
 70
192
 0
VERTEX
 8
TUBO
 10
-5.7094
 20
11.9228
 30
0.0025
 70
192
 0
VERTEX
 8
TUBO
 10
-5.7094
 20
11.9228
 30
0.0025
 70
192
 0
VERTEX
 8
TUBO
 10
-5.7094
 20
11.9228
 30
0.0025
 70
192
 0
VERTEX
 8
TUBO
 10
-5.7094
 20
11.9228
 30
0.0025
 70
192
 0
VERTEX
 8
TUBO
 10
-5.7094
 20
11.9228
 30
0.0025
 70
192
 0
VERTEX
 8
TUBO
 10
-5.5825
 20
11.7682
 30
0.0025
 70
192
 0
VERTEX
 8
TUBO
 10
-5.5825
 20
11.7682
 30
0.0025
 70
192
 0
VERTEX
 8
TUBO
 10
-5.5825
 20
11.7682
 30
0.0025
 70
192
 0
VERTEX
 8
TUBO
 10
-5.5825
 20
11.7682
 30
0.0025
 70
192
 0
VERTEX
 8
TUBO
 10
-6.2224
 20
11.1882
 30
0.0025
 70
192
 0
VERTEX
 8
TUBO
 10
-6.3638
 20
11.3296
 30
0.0025
 70
192
 0
VERTEX
 8
TUBO
 10
-6.3638
 20
11.3296
 30
0.0025
 70
192
 0
VERTEX
 8
TUBO
 10
-6.3638
 20
11.3296
 30
0.0025
 70
192
 0
VERTEX
 8
TUBO
 10
-6.3638
 20
11.3296
 30
0.0025
 70
192
 0
VERTEX
 8
TUBO
 10
-6.3638
 20
11.3296
 30
0.0025
 70
192
 0
VERTEX
 8
TUBO
 10
-6.2224
 20
11.1882
 30
0.0025
 70
192
 0
VERTEX
 8
TUBO
 10
-6.2224
 20
11.1882
 30
0.0025
 70
192
 0
VERTEX
 8
TUBO
 10
-6.2224
 20
11.1882
 30
0.0025
 70
192
 0
VERTEX
 8
TUBO
 10
-6.2224
 20
11.1882
 30
0.0025
 70
192
 0
VERTEX
 8
TUBO
 10
-6.8023
 20
10.5483
 30
0.0025
 70
192
 0
VERTEX
 8
TUBO
 10
-6.9569
 20
10.6752
 30
0.0025
 70
192
 0
VERTEX
 8
TUBO
 10
-6.9569
 20
10.6752
 30
0.0025
 70
192
 0
VERTEX
 8
TUBO
 10
-6.9569
 20
10.6752
 30
0.0025
 70
192
 0
VERTEX
 8
TUBO
 10
-6.9569
 20
10.6752
 30
0.0025
 70
192
 0
VERTEX
 8
TUBO
 10
-6.9569
 20
10.6752
 30
0.0025
 70
192
 0
VERTEX
 8
TUBO
 10
-6.8023
 20
10.5483
 30
0.0025
 70
192
 0
VERTEX
 8
TUBO
 10
-6.8023
 20
10.5483
 30
0.0025
 70
192
 0
VERTEX
 8
TUBO
 10
-6.8023
 20
10.5483
 30
0.0025
 70
192
 0
VERTEX
 8
TUBO
 10
-6.8023
 20
10.5483
 30
0.0025
 70
192
 0
VERTEX
 8
TUBO
 10
-7.3168
 20
9.8547
 30
0.0025
 70
192
 0
VERTEX
 8
TUBO
 10
-7.483
 20
9.9658
 30
0.0025
 70
192
 0
VERTEX
 8
TUBO
 10
-7.483
 20
9.9658
 30
0.0025
 70
192
 0
VERTEX
 8
TUBO
 10
-7.483
 20
9.9658
 30
0.0025
 70
192
 0
VERTEX
 8
TUBO
 10
-7.483
 20
9.9658
 30
0.0025
 70
192
 0
VERTEX
 8
TUBO
 10
-7.483
 20
9.9658
 30
0.0025
 70
192
 0
VERTEX
 8
TUBO
 10
-7.3168
 20
9.8547
 30
0.0025
 70
192
 0
VERTEX
 8
TUBO
 10
-7.3168
 20
9.8547
 30
0.0025
 70
192
 0
VERTEX
 8
TUBO
 10
-7.3168
 20
9.8547
 30
0.0025
 70
192
 0
VERTEX
 8
TUBO
 10
-7.3168
 20
9.8547
 30
0.0025
 70
192
 0
VERTEX
 8
TUBO
 10
-7.7607
 20
9.114
 30
0.0025
 70
192
 0
VERTEX
 8
TUBO
 10
-7.9371
 20
9.2082
 30
0.0025
 70
192
 0
VERTEX
 8
TUBO
 10
-7.9371
 20
9.2082
 30
0.0025
 70
192
 0
VERTEX
 8
TUBO
 10
-7.9371
 20
9.2082
 30
0.0025
 70
192
 0
VERTEX
 8
TUBO
 10
-7.9371
 20
9.2082
 30
0.0025
 70
192
 0
VERTEX
 8
TUBO
 10
-7.9371
 20
9.2082
 30
0.0025
 70
192
 0
VERTEX
 8
TUBO
 10
-7.7607
 20
9.114
 30
0.0025
 70
192
 0
VERTEX
 8
TUBO
 10
-7.7607
 20
9.114
 30
0.0025
 70
192
 0
VERTEX
 8
TUBO
 10
-7.7607
 20
9.114
 30
0.0025
 70
192
 0
VERTEX
 8
TUBO
 10
-7.7607
 20
9.114
 30
0.0025
 70
192
 0
VERTEX
 8
TUBO
 10
-8.13
 20
8.3333
 30
0.0025
 70
192
 0
VERTEX
 8
TUBO
 10
-8.3147
 20
8.4098
 30
0.0025
 70
192
 0
VERTEX
 8
TUBO
 10
-8.3147
 20
8.4098
 30
0.0025
 70
192
 0
VERTEX
 8
TUBO
 10
-8.3147
 20
8.4098
 30
0.0025
 70
192
 0
VERTEX
 8
TUBO
 10
-8.3147
 20
8.4098
 30
0.0025
 70
192
 0
VERTEX
 8
TUBO
 10
-8.3147
 20
8.4098
 30
0.0025
 70
192
 0
VERTEX
 8
TUBO
 10
-8.13
 20
8.3333
 30
0.0025
 70
192
 0
VERTEX
 8
TUBO
 10
-8.13
 20
8.3333
 30
0.0025
 70
192
 0
VERTEX
 8
TUBO
 10
-8.13
 20
8.3333
 30
0.0025
 70
192
 0
VERTEX
 8
TUBO
 10
-8.13
 20
8.3333
 30
0.0025
 70
192
 0
VERTEX
 8
TUBO
 10
-8.4209
 20
7.5202
 30
0.0025
 70
192
 0
VERTEX
 8
TUBO
 10
-8.6123
 20
7.5782
 30
0.0025
 70
192
 0
VERTEX
 8
TUBO
 10
-8.6123
 20
7.5782
 30
0.0025
 70
192
 0
VERTEX
 8
TUBO
 10
-8.6123
 20
7.5782
 30
0.0025
 70
192
 0
VERTEX
 8
TUBO
 10
-8.6123
 20
7.5782
 30
0.0025
 70
192
 0
VERTEX
 8
TUBO
 10
-8.6123
 20
7.5782
 30
0.0025
 70
192
 0
VERTEX
 8
TUBO
 10
-8.4209
 20
7.5202
 30
0.0025
 70
192
 0
VERTEX
 8
TUBO
 10
-8.4209
 20
7.5202
 30
0.0025
 70
192
 0
VERTEX
 8
TUBO
 10
-8.4209
 20
7.5202
 30
0.0025
 70
192
 0
VERTEX
 8
TUBO
 10
-8.4209
 20
7.5202
 30
0.0025
 70
192
 0
VERTEX
 8
TUBO
 10
-8.6307
 20
6.6825
 30
0.0025
 70
192
 0
VERTEX
 8
TUBO
 10
-8.8269
 20
6.7215
 30
0.0025
 70
192
 0
VERTEX
 8
TUBO
 10
-8.8269
 20
6.7215
 30
0.0025
 70
192
 0
VERTEX
 8
TUBO
 10
-8.8269
 20
6.7215
 30
0.0025
 70
192
 0
VERTEX
 8
TUBO
 10
-8.8269
 20
6.7215
 30
0.0025
 70
192
 0
VERTEX
 8
TUBO
 10
-8.8269
 20
6.7215
 30
0.0025
 70
192
 0
VERTEX
 8
TUBO
 10
-8.6307
 20
6.6825
 30
0.0025
 70
192
 0
VERTEX
 8
TUBO
 10
-8.6307
 20
6.6825
 30
0.0025
 70
192
 0
VERTEX
 8
TUBO
 10
-8.6307
 20
6.6825
 30
0.0025
 70
192
 0
VERTEX
 8
TUBO
 10
-8.6307
 20
6.6825
 30
0.0025
 70
192
 0
VERTEX
 8
TUBO
 10
-8.7574
 20
5.8282
 30
0.0025
 70
192
 0
VERTEX
 8
TUBO
 10
-8.9565
 20
5.8478
 30
0.0025
 70
192
 0
VERTEX
 8
TUBO
 10
-8.9565
 20
5.8478
 30
0.0025
 70
192
 0
VERTEX
 8
TUBO
 10
-8.9565
 20
5.8478
 30
0.0025
 70
192
 0
VERTEX
 8
TUBO
 10
-8.9565
 20
5.8478
 30
0.0025
 70
192
 0
VERTEX
 8
TUBO
 10
-8.9565
 20
5.8478
 30
0.0025
 70
192
 0
VERTEX
 8
TUBO
 10
-8.7574
 20
5.8282
 30
0.0025
 70
192
 0
VERTEX
 8
TUBO
 10
-8.7574
 20
5.8282
 30
0.0025
 70
192
 0
VERTEX
 8
TUBO
 10
-8.7574
 20
5.8282
 30
0.0025
 70
192
 0
VERTEX
 8
TUBO
 10
-8.7574
 20
5.8282
 30
0.0025
 70
192
 0
VERTEX
 8
TUBO
 10
-8.7998
 20
4.9657
 30
0.0025
 70
192
 0
VERTEX
 8
TUBO
 10
-8.9998
 20
4.9657
 30
0.0025
 70
192
 0
VERTEX
 8
TUBO
 10
-8.9998
 20
4.9657
 30
0.0025
 70
192
 0
VERTEX
 8
TUBO
 10
-8.9998
 20
4.9657
 30
0.0025
 70
192
 0
VERTEX
 8
TUBO
 10
-8.9998
 20
4.9657
 30
0.0025
 70
192
 0
VERTEX
 8
TUBO
 10
-8.9998
 20
4.9657
 30
0.0025
 70
192
 0
VERTEX
 8
TUBO
 10
-8.7998
 20
4.9657
 30
0.0025
 70
192
 0
VERTEX
 8
TUBO
 10
-8.7998
 20
4.9657
 30
0.0025
 70
192
 0
VERTEX
 8
TUBO
 10
-8.7998
 20
4.9657
 30
0.0025
 70
192
 0
VERTEX
 8
TUBO
 10
-8.7998
 20
4.9657
 30
0.0025
 70
192
 0
VERTEX
 8
TUBO
 10
-8.7574
 20
4.1031
 30
0.0025
 70
192
 0
VERTEX
 8
TUBO
 10
-8.9565
 20
4.0835
 30
0.0025
 70
192
 0
VERTEX
 8
TUBO
 10
-8.9565
 20
4.0835
 30
0.0025
 70
192
 0
VERTEX
 8
TUBO
 10
-8.9565
 20
4.0835
 30
0.0025
 70
192
 0
VERTEX
 8
TUBO
 10
-8.9565
 20
4.0835
 30
0.0025
 70
192
 0
VERTEX
 8
TUBO
 10
-8.9565
 20
4.0835
 30
0.0025
 70
192
 0
VERTEX
 8
TUBO
 10
-8.7574
 20
4.1031
 30
0.0025
 70
192
 0
VERTEX
 8
TUBO
 10
-8.7574
 20
4.1031
 30
0.0025
 70
192
 0
VERTEX
 8
TUBO
 10
-8.7574
 20
4.1031
 30
0.0025
 70
192
 0
VERTEX
 8
TUBO
 10
-8.7574
 20
4.1031
 30
0.0025
 70
192
 0
VERTEX
 8
TUBO
 10
-8.6307
 20
3.2489
 30
0.0025
 70
192
 0
VERTEX
 8
TUBO
 10
-8.8269
 20
3.2099
 30
0.0025
 70
192
 0
VERTEX
 8
TUBO
 10
-8.8269
 20
3.2099
 30
0.0025
 70
192
 0
VERTEX
 8
TUBO
 10
-8.8269
 20
3.2099
 30
0.0025
 70
192
 0
VERTEX
 8
TUBO
 10
-8.8269
 20
3.2099
 30
0.0025
 70
192
 0
VERTEX
 8
TUBO
 10
-8.8269
 20
3.2099
 30
0.0025
 70
192
 0
VERTEX
 8
TUBO
 10
-8.6307
 20
3.2489
 30
0.0025
 70
192
 0
VERTEX
 8
TUBO
 10
-8.6307
 20
3.2489
 30
0.0025
 70
192
 0
VERTEX
 8
TUBO
 10
-8.6307
 20
3.2489
 30
0.0025
 70
192
 0
VERTEX
 8
TUBO
 10
-8.6307
 20
3.2489
 30
0.0025
 70
192
 0
VERTEX
 8
TUBO
 10
-8.4209
 20
2.4112
 30
0.0025
 70
192
 0
VERTEX
 8
TUBO
 10
-8.6123
 20
2.3531
 30
0.0025
 70
192
 0
VERTEX
 8
TUBO
 10
-8.6123
 20
2.3531
 30
0.0025
 70
192
 0
VERTEX
 8
TUBO
 10
-8.6123
 20
2.3531
 30
0.0025
 70
192
 0
VERTEX
 8
TUBO
 10
-8.6123
 20
2.3531
 30
0.0025
 70
192
 0
VERTEX
 8
TUBO
 10
-8.6123
 20
2.3531
 30
0.0025
 70
192
 0
VERTEX
 8
TUBO
 10
-8.4209
 20
2.4112
 30
0.0025
 70
192
 0
VERTEX
 8
TUBO
 10
-8.4209
 20
2.4112
 30
0.0025
 70
192
 0
VERTEX
 8
TUBO
 10
-8.4209
 20
2.4112
 30
0.0025
 70
192
 0
VERTEX
 8
TUBO
 10
-8.4209
 20
2.4112
 30
0.0025
 70
192
 0
VERTEX
 8
TUBO
 10
-8.13
 20
1.5981
 30
0.0025
 70
192
 0
VERTEX
 8
TUBO
 10
-8.3147
 20
1.5215
 30
0.0025
 70
192
 0
VERTEX
 8
TUBO
 10
-8.3147
 20
1.5215
 30
0.0025
 70
192
 0
VERTEX
 8
TUBO
 10
-8.3147
 20
1.5215
 30
0.0025
 70
192
 0
VERTEX
 8
TUBO
 10
-8.3147
 20
1.5215
 30
0.0025
 70
192
 0
VERTEX
 8
TUBO
 10
-8.3147
 20
1.5215
 30
0.0025
 70
192
 0
VERTEX
 8
TUBO
 10
-8.13
 20
1.5981
 30
0.0025
 70
192
 0
VERTEX
 8
TUBO
 10
-8.13
 20
1.5981
 30
0.0025
 70
192
 0
VERTEX
 8
TUBO
 10
-8.13
 20
1.5981
 30
0.0025
 70
192
 0
VERTEX
 8
TUBO
 10
-8.13
 20
1.5981
 30
0.0025
 70
192
 0
VERTEX
 8
TUBO
 10
-7.7607
 20
0.8174
 30
0.0025
 70
192
 0
VERTEX
 8
TUBO
 10
-7.9371
 20
0.7231
 30
0.0025
 70
192
 0
VERTEX
 8
TUBO
 10
-7.9371
 20
0.7231
 30
0.0025
 70
192
 0
VERTEX
 8
TUBO
 10
-7.9371
 20
0.7231
 30
0.0025
 70
192
 0
VERTEX
 8
TUBO
 10
-7.9371
 20
0.7231
 30
0.0025
 70
192
 0
VERTEX
 8
TUBO
 10
-7.9371
 20
0.7231
 30
0.0025
 70
192
 0
VERTEX
 8
TUBO
 10
-7.7607
 20
0.8174
 30
0.0025
 70
192
 0
VERTEX
 8
TUBO
 10
-7.7607
 20
0.8174
 30
0.0025
 70
192
 0
VERTEX
 8
TUBO
 10
-7.7607
 20
0.8174
 30
0.0025
 70
192
 0
VERTEX
 8
TUBO
 10
-7.7607
 20
0.8174
 30
0.0025
 70
192
 0
VERTEX
 8
TUBO
 10
-7.3168
 20
0.0767
 30
0.0025
 70
192
 0
VERTEX
 8
TUBO
 10
-7.483
 20
-0.0345
 30
0.0025
 70
192
 0
VERTEX
 8
TUBO
 10
-7.483
 20
-0.0345
 30
0.0025
 70
192
 0
VERTEX
 8
TUBO
 10
-7.483
 20
-0.0345
 30
0.0025
 70
192
 0
VERTEX
 8
TUBO
 10
-7.483
 20
-0.0345
 30
0.0025
 70
192
 0
VERTEX
 8
TUBO
 10
-7.483
 20
-0.0345
 30
0.0025
 70
192
 0
VERTEX
 8
TUBO
 10
-7.3168
 20
0.0767
 30
0.0025
 70
192
 0
VERTEX
 8
TUBO
 10
-7.3168
 20
0.0767
 30
0.0025
 70
192
 0
VERTEX
 8
TUBO
 10
-7.3168
 20
0.0767
 30
0.0025
 70
192
 0
VERTEX
 8
TUBO
 10
-7.3168
 20
0.0767
 30
0.0025
 70
192
 0
VERTEX
 8
TUBO
 10
-6.8023
 20
-0.617
 30
0.0025
 70
192
 0
VERTEX
 8
TUBO
 10
-6.9569
 20
-0.7439
 30
0.0025
 70
192
 0
VERTEX
 8
TUBO
 10
-6.9569
 20
-0.7439
 30
0.0025
 70
192
 0
VERTEX
 8
TUBO
 10
-6.9569
 20
-0.7439
 30
0.0025
 70
192
 0
VERTEX
 8
TUBO
 10
-6.9569
 20
-0.7439
 30
0.0025
 70
192
 0
VERTEX
 8
TUBO
 10
-6.9569
 20
-0.7439
 30
0.0025
 70
192
 0
VERTEX
 8
TUBO
 10
-6.8023
 20
-0.617
 30
0.0025
 70
192
 0
VERTEX
 8
TUBO
 10
-6.8023
 20
-0.617
 30
0.0025
 70
192
 0
VERTEX
 8
TUBO
 10
-6.8023
 20
-0.617
 30
0.0025
 70
192
 0
VERTEX
 8
TUBO
 10
-6.8023
 20
-0.617
 30
0.0025
 70
192
 0
VERTEX
 8
TUBO
 10
-6.2224
 20
-1.2569
 30
0.0025
 70
192
 0
VERTEX
 8
TUBO
 10
-6.3638
 20
-1.3983
 30
0.0025
 70
192
 0
VERTEX
 8
TUBO
 10
-6.3638
 20
-1.3983
 30
0.0025
 70
192
 0
VERTEX
 8
TUBO
 10
-6.3638
 20
-1.3983
 30
0.0025
 70
192
 0
VERTEX
 8
TUBO
 10
-6.3638
 20
-1.3983
 30
0.0025
 70
192
 0
VERTEX
 8
TUBO
 10
-6.3638
 20
-1.3983
 30
0.0025
 70
192
 0
VERTEX
 8
TUBO
 10
-6.2224
 20
-1.2569
 30
0.0025
 70
192
 0
VERTEX
 8
TUBO
 10
-6.2224
 20
-1.2569
 30
0.0025
 70
192
 0
VERTEX
 8
TUBO
 10
-6.2224
 20
-1.2569
 30
0.0025
 70
192
 0
VERTEX
 8
TUBO
 10
-6.2224
 20
-1.2569
 30
0.0025
 70
192
 0
VERTEX
 8
TUBO
 10
-5.5825
 20
-1.8368
 30
0.0025
 70
192
 0
VERTEX
 8
TUBO
 10
-5.7094
 20
-1.9914
 30
0.0025
 70
192
 0
VERTEX
 8
TUBO
 10
-5.7094
 20
-1.9914
 30
0.0025
 70
192
 0
VERTEX
 8
TUBO
 10
-5.7094
 20
-1.9914
 30
0.0025
 70
192
 0
VERTEX
 8
TUBO
 10
-5.7094
 20
-1.9914
 30
0.0025
 70
192
 0
VERTEX
 8
TUBO
 10
-5.7094
 20
-1.9914
 30
0.0025
 70
192
 0
VERTEX
 8
TUBO
 10
-5.5825
 20
-1.8368
 30
0.0025
 70
192
 0
VERTEX
 8
TUBO
 10
-5.5825
 20
-1.8368
 30
0.0025
 70
192
 0
VERTEX
 8
TUBO
 10
-5.5825
 20
-1.8368
 30
0.0025
 70
192
 0
VERTEX
 8
TUBO
 10
-5.5825
 20
-1.8368
 30
0.0025
 70
192
 0
VERTEX
 8
TUBO
 10
-4.8888
 20
-2.3513
 30
0.0025
 70
192
 0
VERTEX
 8
TUBO
 10
-4.9999
 20
-2.5176
 30
0.0025
 70
192
 0
VERTEX
 8
TUBO
 10
-4.9999
 20
-2.5176
 30
0.0025
 70
192
 0
VERTEX
 8
TUBO
 10
-4.9999
 20
-2.5176
 30
0.0025
 70
192
 0
VERTEX
 8
TUBO
 10
-4.9999
 20
-2.5176
 30
0.0025
 70
192
 0
VERTEX
 8
TUBO
 10
-4.9999
 20
-2.5176
 30
0.0025
 70
192
 0
VERTEX
 8
TUBO
 10
-4.8888
 20
-2.3513
 30
0.0025
 70
192
 0
VERTEX
 8
TUBO
 10
-4.8888
 20
-2.3513
 30
0.0025
 70
192
 0
VERTEX
 8
TUBO
 10
-4.8888
 20
-2.3513
 30
0.0025
 70
192
 0
VERTEX
 8
TUBO
 10
-4.8888
 20
-2.3513
 30
0.0025
 70
192
 0
VERTEX
 8
TUBO
 10
-4.1481
 20
-2.7952
 30
0.0025
 70
192
 0
VERTEX
 8
TUBO
 10
-4.2424
 20
-2.9716
 30
0.0025
 70
192
 0
VERTEX
 8
TUBO
 10
-4.2424
 20
-2.9716
 30
0.0025
 70
192
 0
VERTEX
 8
TUBO
 10
-4.2424
 20
-2.9716
 30
0.0025
 70
192
 0
VERTEX
 8
TUBO
 10
-4.2424
 20
-2.9716
 30
0.0025
 70
192
 0
VERTEX
 8
TUBO
 10
-4.2424
 20
-2.9716
 30
0.0025
 70
192
 0
VERTEX
 8
TUBO
 10
-4.1481
 20
-2.7952
 30
0.0025
 70
192
 0
VERTEX
 8
TUBO
 10
-4.1481
 20
-2.7952
 30
0.0025
 70
192
 0
VERTEX
 8
TUBO
 10
-4.1481
 20
-2.7952
 30
0.0025
 70
192
 0
VERTEX
 8
TUBO
 10
-4.1481
 20
-2.7952
 30
0.0025
 70
192
 0
VERTEX
 8
TUBO
 10
-3.3674
 20
-3.1645
 30
0.0025
 70
192
 0
VERTEX
 8
TUBO
 10
-3.444
 20
-3.3492
 30
0.0025
 70
192
 0
VERTEX
 8
TUBO
 10
-3.444
 20
-3.3492
 30
0.0025
 70
192
 0
VERTEX
 8
TUBO
 10
-3.444
 20
-3.3492
 30
0.0025
 70
192
 0
VERTEX
 8
TUBO
 10
-3.444
 20
-3.3492
 30
0.0025
 70
192
 0
VERTEX
 8
TUBO
 10
-3.444
 20
-3.3492
 30
0.0025
 70
192
 0
VERTEX
 8
TUBO
 10
-3.3674
 20
-3.1645
 30
0.0025
 70
192
 0
VERTEX
 8
TUBO
 10
-3.3674
 20
-3.1645
 30
0.0025
 70
192
 0
VERTEX
 8
TUBO
 10
-3.3674
 20
-3.1645
 30
0.0025
 70
192
 0
VERTEX
 8
TUBO
 10
-3.3674
 20
-3.1645
 30
0.0025
 70
192
 0
VERTEX
 8
TUBO
 10
-2.5543
 20
-3.4554
 30
0.0025
 70
192
 0
VERTEX
 8
TUBO
 10
-2.6124
 20
-3.6468
 30
0.0025
 70
192
 0
VERTEX
 8
TUBO
 10
-2.6124
 20
-3.6468
 30
0.0025
 70
192
 0
VERTEX
 8
TUBO
 10
-2.6124
 20
-3.6468
 30
0.0025
 70
192
 0
VERTEX
 8
TUBO
 10
-2.6124
 20
-3.6468
 30
0.0025
 70
192
 0
VERTEX
 8
TUBO
 10
-2.6124
 20
-3.6468
 30
0.0025
 70
192
 0
VERTEX
 8
TUBO
 10
-2.5543
 20
-3.4554
 30
0.0025
 70
192
 0
VERTEX
 8
TUBO
 10
-2.5543
 20
-3.4554
 30
0.0025
 70
192
 0
VERTEX
 8
TUBO
 10
-2.5543
 20
-3.4554
 30
0.0025
 70
192
 0
VERTEX
 8
TUBO
 10
-2.5543
 20
-3.4554
 30
0.0025
 70
192
 0
VERTEX
 8
TUBO
 10
-1.7166
 20
-3.6652
 30
0.0025
 70
192
 0
VERTEX
 8
TUBO
 10
-1.7556
 20
-3.8614
 30
0.0025
 70
192
 0
VERTEX
 8
TUBO
 10
-1.7556
 20
-3.8614
 30
0.0025
 70
192
 0
VERTEX
 8
TUBO
 10
-1.7556
 20
-3.8614
 30
0.0025
 70
192
 0
VERTEX
 8
TUBO
 10
-1.7556
 20
-3.8614
 30
0.0025
 70
192
 0
VERTEX
 8
TUBO
 10
-1.7556
 20
-3.8614
 30
0.0025
 70
192
 0
VERTEX
 8
TUBO
 10
-1.7166
 20
-3.6652
 30
0.0025
 70
192
 0
VERTEX
 8
TUBO
 10
-1.7166
 20
-3.6652
 30
0.0025
 70
192
 0
VERTEX
 8
TUBO
 10
-1.7166
 20
-3.6652
 30
0.0025
 70
192
 0
VERTEX
 8
TUBO
 10
-1.7166
 20
-3.6652
 30
0.0025
 70
192
 0
VERTEX
 8
TUBO
 10
-0.8624
 20
-3.792
 30
0.0025
 70
192
 0
VERTEX
 8
TUBO
 10
-0.882
 20
-3.991
 30
0.0025
 70
192
 0
VERTEX
 8
TUBO
 10
-0.882
 20
-3.991
 30
0.0025
 70
192
 0
VERTEX
 8
TUBO
 10
-0.882
 20
-3.991
 30
0.0025
 70
192
 0
VERTEX
 8
TUBO
 10
-0.882
 20
-3.991
 30
0.0025
 70
192
 0
VERTEX
 8
TUBO
 10
-0.882
 20
-3.991
 30
0.0025
 70
192
 0
VERTEX
 8
TUBO
 10
-0.8624
 20
-3.792
 30
0.0025
 70
192
 0
VERTEX
 8
TUBO
 10
-0.8624
 20
-3.792
 30
0.0025
 70
192
 0
VERTEX
 8
TUBO
 10
-0.8624
 20
-3.792
 30
0.0025
 70
192
 0
VERTEX
 8
TUBO
 10
-0.8624
 20
-3.792
 30
0.0025
 70
192
 0
VERTEX
 8
TUBO
 10
0.0002
 20
-3.8343
 30
0.0025
 70
192
 0
VERTEX
 8
TUBO
 10
0.0002
 20
-4.0343
 30
0.0025
 70
192
 0
VERTEX
 8
TUBO
 10
0.0002
 20
-4.0343
 30
0.0025
 70
192
 0
VERTEX
 8
TUBO
 10
0.0002
 20
-4.0343
 30
0.0025
 70
192
 0
VERTEX
 8
TUBO
 10
0.0002
 20
-4.0343
 30
0.0025
 70
192
 0
VERTEX
 8
TUBO
 10
0.0002
 20
-4.0343
 30
0.0025
 70
192
 0
VERTEX
 8
TUBO
 10
0.0002
 20
-3.8343
 30
0.0025
 70
192
 0
VERTEX
 8
TUBO
 10
0.0002
 20
-3.8343
 30
0.0025
 70
192
 0
VERTEX
 8
TUBO
 10
0.0002
 20
-3.8343
 30
0.0025
 70
192
 0
VERTEX
 8
TUBO
 10
0.0002
 20
-3.8343
 30
0.0025
 70
192
 0
VERTEX
 8
TUBO
 10
0.8627
 20
-3.792
 30
0.0025
 70
192
 0
VERTEX
 8
TUBO
 10
0.8823
 20
-3.991
 30
0.0025
 70
192
 0
VERTEX
 8
TUBO
 10
0.8823
 20
-3.991
 30
0.0025
 70
192
 0
VERTEX
 8
TUBO
 10
0.8823
 20
-3.991
 30
0.0025
 70
192
 0
VERTEX
 8
TUBO
 10
0.8823
 20
-3.991
 30
0.0025
 70
192
 0
VERTEX
 8
TUBO
 10
0.8823
 20
-3.991
 30
0.0025
 70
192
 0
VERTEX
 8
TUBO
 10
0.8627
 20
-3.792
 30
0.0025
 70
192
 0
VERTEX
 8
TUBO
 10
0.8627
 20
-3.792
 30
0.0025
 70
192
 0
VERTEX
 8
TUBO
 10
0.8627
 20
-3.792
 30
0.0025
 70
192
 0
VERTEX
 8
TUBO
 10
0.8627
 20
-3.792
 30
0.0025
 70
192
 0
VERTEX
 8
TUBO
 10
1.717
 20
-3.6652
 30
0.0025
 70
192
 0
VERTEX
 8
TUBO
 10
1.756
 20
-3.8614
 30
0.0025
 70
192
 0
VERTEX
 8
TUBO
 10
1.756
 20
-3.8614
 30
0.0025
 70
192
 0
VERTEX
 8
TUBO
 10
1.756
 20
-3.8614
 30
0.0025
 70
192
 0
VERTEX
 8
TUBO
 10
1.756
 20
-3.8614
 30
0.0025
 70
192
 0
VERTEX
 8
TUBO
 10
1.756
 20
-3.8614
 30
0.0025
 70
192
 0
VERTEX
 8
TUBO
 10
1.717
 20
-3.6652
 30
0.0025
 70
192
 0
VERTEX
 8
TUBO
 10
1.717
 20
-3.6652
 30
0.0025
 70
192
 0
VERTEX
 8
TUBO
 10
1.717
 20
-3.6652
 30
0.0025
 70
192
 0
VERTEX
 8
TUBO
 10
1.717
 20
-3.6652
 30
0.0025
 70
192
 0
VERTEX
 8
TUBO
 10
2.5547
 20
-3.4554
 30
0.0025
 70
192
 0
VERTEX
 8
TUBO
 10
2.6127
 20
-3.6468
 30
0.0025
 70
192
 0
VERTEX
 8
TUBO
 10
2.6127
 20
-3.6468
 30
0.0025
 70
192
 0
VERTEX
 8
TUBO
 10
2.6127
 20
-3.6468
 30
0.0025
 70
192
 0
VERTEX
 8
TUBO
 10
2.6127
 20
-3.6468
 30
0.0025
 70
192
 0
VERTEX
 8
TUBO
 10
2.6127
 20
-3.6468
 30
0.0025
 70
192
 0
VERTEX
 8
TUBO
 10
2.5547
 20
-3.4554
 30
0.0025
 70
192
 0
VERTEX
 8
TUBO
 10
2.5547
 20
-3.4554
 30
0.0025
 70
192
 0
VERTEX
 8
TUBO
 10
2.5547
 20
-3.4554
 30
0.0025
 70
192
 0
VERTEX
 8
TUBO
 10
2.5547
 20
-3.4554
 30
0.0025
 70
192
 0
VERTEX
 8
TUBO
 10
3.3678
 20
-3.1645
 30
0.0025
 70
192
 0
VERTEX
 8
TUBO
 10
3.4443
 20
-3.3492
 30
0.0025
 70
192
 0
VERTEX
 8
TUBO
 10
3.4443
 20
-3.3492
 30
0.0025
 70
192
 0
VERTEX
 8
TUBO
 10
3.4443
 20
-3.3492
 30
0.0025
 70
192
 0
VERTEX
 8
TUBO
 10
3.4443
 20
-3.3492
 30
0.0025
 70
192
 0
VERTEX
 8
TUBO
 10
3.4443
 20
-3.3492
 30
0.0025
 70
192
 0
VERTEX
 8
TUBO
 10
3.3678
 20
-3.1645
 30
0.0025
 70
192
 0
VERTEX
 8
TUBO
 10
3.3678
 20
-3.1645
 30
0.0025
 70
192
 0
VERTEX
 8
TUBO
 10
3.3678
 20
-3.1645
 30
0.0025
 70
192
 0
VERTEX
 8
TUBO
 10
3.3678
 20
-3.1645
 30
0.0025
 70
192
 0
VERTEX
 8
TUBO
 10
4.1485
 20
-2.7952
 30
0.0025
 70
192
 0
VERTEX
 8
TUBO
 10
4.2428
 20
-2.9716
 30
0.0025
 70
192
 0
VERTEX
 8
TUBO
 10
4.2428
 20
-2.9716
 30
0.0025
 70
192
 0
VERTEX
 8
TUBO
 10
4.2428
 20
-2.9716
 30
0.0025
 70
192
 0
VERTEX
 8
TUBO
 10
4.2428
 20
-2.9716
 30
0.0025
 70
192
 0
VERTEX
 8
TUBO
 10
4.2428
 20
-2.9716
 30
0.0025
 70
192
 0
VERTEX
 8
TUBO
 10
4.1485
 20
-2.7952
 30
0.0025
 70
192
 0
VERTEX
 8
TUBO
 10
4.1485
 20
-2.7952
 30
0.0025
 70
192
 0
VERTEX
 8
TUBO
 10
4.1485
 20
-2.7952
 30
0.0025
 70
192
 0
VERTEX
 8
TUBO
 10
4.1485
 20
-2.7952
 30
0.0025
 70
192
 0
VERTEX
 8
TUBO
 10
4.8892
 20
-2.3513
 30
0.0025
 70
192
 0
VERTEX
 8
TUBO
 10
5.0003
 20
-2.5176
 30
0.0025
 70
192
 0
VERTEX
 8
TUBO
 10
5.0003
 20
-2.5176
 30
0.0025
 70
192
 0
VERTEX
 8
TUBO
 10
5.0003
 20
-2.5176
 30
0.0025
 70
192
 0
VERTEX
 8
TUBO
 10
5.0003
 20
-2.5176
 30
0.0025
 70
192
 0
VERTEX
 8
TUBO
 10
5.0003
 20
-2.5176
 30
0.0025
 70
192
 0
VERTEX
 8
TUBO
 10
4.8892
 20
-2.3513
 30
0.0025
 70
192
 0
VERTEX
 8
TUBO
 10
4.8892
 20
-2.3513
 30
0.0025
 70
192
 0
VERTEX
 8
TUBO
 10
4.8892
 20
-2.3513
 30
0.0025
 70
192
 0
VERTEX
 8
TUBO
 10
4.8892
 20
-2.3513
 30
0.0025
 70
192
 0
VERTEX
 8
TUBO
 10
5.5828
 20
-1.8368
 30
0.0025
 70
192
 0
VERTEX
 8
TUBO
 10
5.7097
 20
-1.9914
 30
0.0025
 70
192
 0
VERTEX
 8
TUBO
 10
5.7097
 20
-1.9914
 30
0.0025
 70
192
 0
VERTEX
 8
TUBO
 10
5.7097
 20
-1.9914
 30
0.0025
 70
192
 0
VERTEX
 8
TUBO
 10
5.7097
 20
-1.9914
 30
0.0025
 70
192
 0
VERTEX
 8
TUBO
 10
5.7097
 20
-1.9914
 30
0.0025
 70
192
 0
VERTEX
 8
TUBO
 10
5.5828
 20
-1.8368
 30
0.0025
 70
192
 0
VERTEX
 8
TUBO
 10
5.5828
 20
-1.8368
 30
0.0025
 70
192
 0
VERTEX
 8
TUBO
 10
5.5828
 20
-1.8368
 30
0.0025
 70
192
 0
VERTEX
 8
TUBO
 10
5.5828
 20
-1.8368
 30
0.0025
 70
192
 0
VERTEX
 8
TUBO
 10
6.2227
 20
-1.2569
 30
0.0025
 70
192
 0
VERTEX
 8
TUBO
 10
6.3641
 20
-1.3983
 30
0.0025
 70
192
 0
VERTEX
 8
TUBO
 10
6.3641
 20
-1.3983
 30
0.0025
 70
192
 0
VERTEX
 8
TUBO
 10
6.3641
 20
-1.3983
 30
0.0025
 70
192
 0
VERTEX
 8
TUBO
 10
6.3641
 20
-1.3983
 30
0.0025
 70
192
 0
VERTEX
 8
TUBO
 10
6.3641
 20
-1.3983
 30
0.0025
 70
192
 0
VERTEX
 8
TUBO
 10
6.2227
 20
-1.2569
 30
0.0025
 70
192
 0
VERTEX
 8
TUBO
 10
6.2227
 20
-1.2569
 30
0.0025
 70
192
 0
VERTEX
 8
TUBO
 10
6.2227
 20
-1.2569
 30
0.0025
 70
192
 0
VERTEX
 8
TUBO
 10
6.2227
 20
-1.2569
 30
0.0025
 70
192
 0
VERTEX
 8
TUBO
 10
6.8027
 20
-0.617
 30
0.0025
 70
192
 0
VERTEX
 8
TUBO
 10
6.9573
 20
-0.7439
 30
0.0025
 70
192
 0
VERTEX
 8
TUBO
 10
6.9573
 20
-0.7439
 30
0.0025
 70
192
 0
VERTEX
 8
TUBO
 10
6.9573
 20
-0.7439
 30
0.0025
 70
192
 0
VERTEX
 8
TUBO
 10
6.9573
 20
-0.7439
 30
0.0025
 70
192
 0
VERTEX
 8
TUBO
 10
6.9573
 20
-0.7439
 30
0.0025
 70
192
 0
VERTEX
 8
TUBO
 10
6.8027
 20
-0.617
 30
0.0025
 70
192
 0
VERTEX
 8
TUBO
 10
6.8027
 20
-0.617
 30
0.0025
 70
192
 0
VERTEX
 8
TUBO
 10
6.8027
 20
-0.617
 30
0.0025
 70
192
 0
VERTEX
 8
TUBO
 10
6.8027
 20
-0.617
 30
0.0025
 70
192
 0
VERTEX
 8
TUBO
 10
7.3171
 20
0.0767
 30
0.0025
 70
192
 0
VERTEX
 8
TUBO
 10
7.4834
 20
-0.0345
 30
0.0025
 70
192
 0
VERTEX
 8
TUBO
 10
7.4834
 20
-0.0345
 30
0.0025
 70
192
 0
VERTEX
 8
TUBO
 10
7.4834
 20
-0.0345
 30
0.0025
 70
192
 0
VERTEX
 8
TUBO
 10
7.4834
 20
-0.0345
 30
0.0025
 70
192
 0
VERTEX
 8
TUBO
 10
7.4834
 20
-0.0345
 30
0.0025
 70
192
 0
VERTEX
 8
TUBO
 10
7.3171
 20
0.0767
 30
0.0025
 70
192
 0
VERTEX
 8
TUBO
 10
7.3171
 20
0.0767
 30
0.0025
 70
192
 0
VERTEX
 8
TUBO
 10
7.3171
 20
0.0767
 30
0.0025
 70
192
 0
VERTEX
 8
TUBO
 10
7.3171
 20
0.0767
 30
0.0025
 70
192
 0
VERTEX
 8
TUBO
 10
7.7611
 20
0.8174
 30
0.0025
 70
192
 0
VERTEX
 8
TUBO
 10
7.9375
 20
0.7231
 30
0.0025
 70
192
 0
VERTEX
 8
TUBO
 10
7.9375
 20
0.7231
 30
0.0025
 70
192
 0
VERTEX
 8
TUBO
 10
7.9375
 20
0.7231
 30
0.0025
 70
192
 0
VERTEX
 8
TUBO
 10
7.9375
 20
0.7231
 30
0.0025
 70
192
 0
VERTEX
 8
TUBO
 10
7.9375
 20
0.7231
 30
0.0025
 70
192
 0
VERTEX
 8
TUBO
 10
7.7611
 20
0.8174
 30
0.0025
 70
192
 0
VERTEX
 8
TUBO
 10
7.7611
 20
0.8174
 30
0.0025
 70
192
 0
VERTEX
 8
TUBO
 10
7.7611
 20
0.8174
 30
0.0025
 70
192
 0
VERTEX
 8
TUBO
 10
7.7611
 20
0.8174
 30
0.0025
 70
192
 0
VERTEX
 8
TUBO
 10
8.1303
 20
1.5981
 30
0.0025
 70
192
 0
VERTEX
 8
TUBO
 10
8.3151
 20
1.5215
 30
0.0025
 70
192
 0
VERTEX
 8
TUBO
 10
8.3151
 20
1.5215
 30
0.0025
 70
192
 0
VERTEX
 8
TUBO
 10
8.3151
 20
1.5215
 30
0.0025
 70
192
 0
VERTEX
 8
TUBO
 10
8.3151
 20
1.5215
 30
0.0025
 70
192
 0
VERTEX
 8
TUBO
 10
8.3151
 20
1.5215
 30
0.0025
 70
192
 0
VERTEX
 8
TUBO
 10
8.1303
 20
1.5981
 30
0.0025
 70
192
 0
VERTEX
 8
TUBO
 10
8.1303
 20
1.5981
 30
0.0025
 70
192
 0
VERTEX
 8
TUBO
 10
8.1303
 20
1.5981
 30
0.0025
 70
192
 0
VERTEX
 8
TUBO
 10
8.1303
 20
1.5981
 30
0.0025
 70
192
 0
VERTEX
 8
TUBO
 10
8.4213
 20
2.4112
 30
0.0025
 70
192
 0
VERTEX
 8
TUBO
 10
8.6126
 20
2.3531
 30
0.0025
 70
192
 0
VERTEX
 8
TUBO
 10
8.6126
 20
2.3531
 30
0.0025
 70
192
 0
VERTEX
 8
TUBO
 10
8.6126
 20
2.3531
 30
0.0025
 70
192
 0
VERTEX
 8
TUBO
 10
8.6126
 20
2.3531
 30
0.0025
 70
192
 0
VERTEX
 8
TUBO
 10
8.6126
 20
2.3531
 30
0.0025
 70
192
 0
VERTEX
 8
TUBO
 10
8.4213
 20
2.4112
 30
0.0025
 70
192
 0
VERTEX
 8
TUBO
 10
8.4213
 20
2.4112
 30
0.0025
 70
192
 0
VERTEX
 8
TUBO
 10
8.4213
 20
2.4112
 30
0.0025
 70
192
 0
VERTEX
 8
TUBO
 10
8.4213
 20
2.4112
 30
0.0025
 70
192
 0
VERTEX
 8
TUBO
 10
8.6311
 20
3.2489
 30
0.0025
 70
192
 0
VERTEX
 8
TUBO
 10
8.8272
 20
3.2099
 30
0.0025
 70
192
 0
VERTEX
 8
TUBO
 10
8.8272
 20
3.2099
 30
0.0025
 70
192
 0
VERTEX
 8
TUBO
 10
8.8272
 20
3.2099
 30
0.0025
 70
192
 0
VERTEX
 8
TUBO
 10
8.8272
 20
3.2099
 30
0.0025
 70
192
 0
VERTEX
 8
TUBO
 10
8.8272
 20
3.2099
 30
0.0025
 70
192
 0
VERTEX
 8
TUBO
 10
8.6311
 20
3.2489
 30
0.0025
 70
192
 0
VERTEX
 8
TUBO
 10
8.6311
 20
3.2489
 30
0.0025
 70
192
 0
VERTEX
 8
TUBO
 10
8.6311
 20
3.2489
 30
0.0025
 70
192
 0
VERTEX
 8
TUBO
 10
8.6311
 20
3.2489
 30
0.0025
 70
192
 0
VERTEX
 8
TUBO
 10
8.7578
 20
4.1031
 30
0.0025
 70
192
 0
VERTEX
 8
TUBO
 10
8.9568
 20
4.0835
 30
0.0025
 70
192
 0
VERTEX
 8
TUBO
 10
8.9568
 20
4.0835
 30
0.0025
 70
192
 0
VERTEX
 8
TUBO
 10
8.9568
 20
4.0835
 30
0.0025
 70
192
 0
VERTEX
 8
TUBO
 10
8.9568
 20
4.0835
 30
0.0025
 70
192
 0
VERTEX
 8
TUBO
 10
8.9568
 20
4.0835
 30
0.0025
 70
192
 0
VERTEX
 8
TUBO
 10
8.7578
 20
4.1031
 30
0.0025
 70
192
 0
VERTEX
 8
TUBO
 10
8.7578
 20
4.1031
 30
0.0025
 70
192
 0
VERTEX
 8
TUBO
 10
8.7578
 20
4.1031
 30
0.0025
 70
192
 0
VERTEX
 8
TUBO
 10
8.7578
 20
4.1031
 30
0.0025
 70
192
 0
VERTEX
 8
TUBO
 10
0
 20
0
 30
0
 70
128
 71
1
 72
2
 73
12
 74
11
 0
VERTEX
 8
TUBO
 10
0
 20
0
 30
0
 70
128
 71
2
 72
3
 73
13
 74
12
 0
VERTEX
 8
TUBO
 10
0
 20
0
 30
0
 70
128
 71
3
 72
4
 73
14
 74
13
 0
VERTEX
 8
TUBO
 10
0
 20
0
 30
0
 70
128
 71
4
 72
5
 73
15
 74
14
 0
VERTEX
 8
TUBO
 10
0
 20
0
 30
0
 70
128
 71
5
 72
6
 73
16
 74
15
 0
VERTEX
 8
TUBO
 10
0
 20
0
 30
0
 70
128
 71
6
 72
7
 73
17
 74
16
 0
VERTEX
 8
TUBO
 10
0
 20
0
 30
0
 70
128
 71
7
 72
8
 73
18
 74
17
 0
VERTEX
 8
TUBO
 10
0
 20
0
 30
0
 70
128
 71
8
 72
9
 73
19
 74
18
 0
VERTEX
 8
TUBO
 10
0
 20
0
 30
0
 70
128
 71
9
 72
10
 73
20
 74
19
 0
VERTEX
 8
TUBO
 10
0
 20
0
 30
0
 70
128
 71
10
 72
1
 73
11
 74
20
 0
VERTEX
 8
TUBO
 10
0
 20
0
 30
0
 70
128
 71
11
 72
12
 73
22
 74
21
 0
VERTEX
 8
TUBO
 10
0
 20
0
 30
0
 70
128
 71
12
 72
13
 73
23
 74
22
 0
VERTEX
 8
TUBO
 10
0
 20
0
 30
0
 70
128
 71
13
 72
14
 73
24
 74
23
 0
VERTEX
 8
TUBO
 10
0
 20
0
 30
0
 70
128
 71
14
 72
15
 73
25
 74
24
 0
VERTEX
 8
TUBO
 10
0
 20
0
 30
0
 70
128
 71
15
 72
16
 73
26
 74
25
 0
VERTEX
 8
TUBO
 10
0
 20
0
 30
0
 70
128
 71
16
 72
17
 73
27
 74
26
 0
VERTEX
 8
TUBO
 10
0
 20
0
 30
0
 70
128
 71
17
 72
18
 73
28
 74
27
 0
VERTEX
 8
TUBO
 10
0
 20
0
 30
0
 70
128
 71
18
 72
19
 73
29
 74
28
 0
VERTEX
 8
TUBO
 10
0
 20
0
 30
0
 70
128
 71
19
 72
20
 73
30
 74
29
 0
VERTEX
 8
TUBO
 10
0
 20
0
 30
0
 70
128
 71
20
 72
11
 73
21
 74
30
 0
VERTEX
 8
TUBO
 10
0
 20
0
 30
0
 70
128
 71
21
 72
22
 73
32
 74
31
 0
VERTEX
 8
TUBO
 10
0
 20
0
 30
0
 70
128
 71
22
 72
23
 73
33
 74
32
 0
VERTEX
 8
TUBO
 10
0
 20
0
 30
0
 70
128
 71
23
 72
24
 73
34
 74
33
 0
VERTEX
 8
TUBO
 10
0
 20
0
 30
0
 70
128
 71
24
 72
25
 73
35
 74
34
 0
VERTEX
 8
TUBO
 10
0
 20
0
 30
0
 70
128
 71
25
 72
26
 73
36
 74
35
 0
VERTEX
 8
TUBO
 10
0
 20
0
 30
0
 70
128
 71
26
 72
27
 73
37
 74
36
 0
VERTEX
 8
TUBO
 10
0
 20
0
 30
0
 70
128
 71
27
 72
28
 73
38
 74
37
 0
VERTEX
 8
TUBO
 10
0
 20
0
 30
0
 70
128
 71
28
 72
29
 73
39
 74
38
 0
VERTEX
 8
TUBO
 10
0
 20
0
 30
0
 70
128
 71
29
 72
30
 73
40
 74
39
 0
VERTEX
 8
TUBO
 10
0
 20
0
 30
0
 70
128
 71
30
 72
21
 73
31
 74
40
 0
VERTEX
 8
TUBO
 10
0
 20
0
 30
0
 70
128
 71
31
 72
32
 73
42
 74
41
 0
VERTEX
 8
TUBO
 10
0
 20
0
 30
0
 70
128
 71
32
 72
33
 73
43
 74
42
 0
VERTEX
 8
TUBO
 10
0
 20
0
 30
0
 70
128
 71
33
 72
34
 73
44
 74
43
 0
VERTEX
 8
TUBO
 10
0
 20
0
 30
0
 70
128
 71
34
 72
35
 73
45
 74
44
 0
VERTEX
 8
TUBO
 10
0
 20
0
 30
0
 70
128
 71
35
 72
36
 73
46
 74
45
 0
VERTEX
 8
TUBO
 10
0
 20
0
 30
0
 70
128
 71
36
 72
37
 73
47
 74
46
 0
VERTEX
 8
TUBO
 10
0
 20
0
 30
0
 70
128
 71
37
 72
38
 73
48
 74
47
 0
VERTEX
 8
TUBO
 10
0
 20
0
 30
0
 70
128
 71
38
 72
39
 73
49
 74
48
 0
VERTEX
 8
TUBO
 10
0
 20
0
 30
0
 70
128
 71
39
 72
40
 73
50
 74
49
 0
VERTEX
 8
TUBO
 10
0
 20
0
 30
0
 70
128
 71
40
 72
31
 73
41
 74
50
 0
VERTEX
 8
TUBO
 10
0
 20
0
 30
0
 70
128
 71
41
 72
42
 73
52
 74
51
 0
VERTEX
 8
TUBO
 10
0
 20
0
 30
0
 70
128
 71
42
 72
43
 73
53
 74
52
 0
VERTEX
 8
TUBO
 10
0
 20
0
 30
0
 70
128
 71
43
 72
44
 73
54
 74
53
 0
VERTEX
 8
TUBO
 10
0
 20
0
 30
0
 70
128
 71
44
 72
45
 73
55
 74
54
 0
VERTEX
 8
TUBO
 10
0
 20
0
 30
0
 70
128
 71
45
 72
46
 73
56
 74
55
 0
VERTEX
 8
TUBO
 10
0
 20
0
 30
0
 70
128
 71
46
 72
47
 73
57
 74
56
 0
VERTEX
 8
TUBO
 10
0
 20
0
 30
0
 70
128
 71
47
 72
48
 73
58
 74
57
 0
VERTEX
 8
TUBO
 10
0
 20
0
 30
0
 70
128
 71
48
 72
49
 73
59
 74
58
 0
VERTEX
 8
TUBO
 10
0
 20
0
 30
0
 70
128
 71
49
 72
50
 73
60
 74
59
 0
VERTEX
 8
TUBO
 10
0
 20
0
 30
0
 70
128
 71
50
 72
41
 73
51
 74
60
 0
VERTEX
 8
TUBO
 10
0
 20
0
 30
0
 70
128
 71
51
 72
52
 73
62
 74
61
 0
VERTEX
 8
TUBO
 10
0
 20
0
 30
0
 70
128
 71
52
 72
53
 73
63
 74
62
 0
VERTEX
 8
TUBO
 10
0
 20
0
 30
0
 70
128
 71
53
 72
54
 73
64
 74
63
 0
VERTEX
 8
TUBO
 10
0
 20
0
 30
0
 70
128
 71
54
 72
55
 73
65
 74
64
 0
VERTEX
 8
TUBO
 10
0
 20
0
 30
0
 70
128
 71
55
 72
56
 73
66
 74
65
 0
VERTEX
 8
TUBO
 10
0
 20
0
 30
0
 70
128
 71
56
 72
57
 73
67
 74
66
 0
VERTEX
 8
TUBO
 10
0
 20
0
 30
0
 70
128
 71
57
 72
58
 73
68
 74
67
 0
VERTEX
 8
TUBO
 10
0
 20
0
 30
0
 70
128
 71
58
 72
59
 73
69
 74
68
 0
VERTEX
 8
TUBO
 10
0
 20
0
 30
0
 70
128
 71
59
 72
60
 73
70
 74
69
 0
VERTEX
 8
TUBO
 10
0
 20
0
 30
0
 70
128
 71
60
 72
51
 73
61
 74
70
 0
VERTEX
 8
TUBO
 10
0
 20
0
 30
0
 70
128
 71
61
 72
62
 73
72
 74
71
 0
VERTEX
 8
TUBO
 10
0
 20
0
 30
0
 70
128
 71
62
 72
63
 73
73
 74
72
 0
VERTEX
 8
TUBO
 10
0
 20
0
 30
0
 70
128
 71
63
 72
64
 73
74
 74
73
 0
VERTEX
 8
TUBO
 10
0
 20
0
 30
0
 70
128
 71
64
 72
65
 73
75
 74
74
 0
VERTEX
 8
TUBO
 10
0
 20
0
 30
0
 70
128
 71
65
 72
66
 73
76
 74
75
 0
VERTEX
 8
TUBO
 10
0
 20
0
 30
0
 70
128
 71
66
 72
67
 73
77
 74
76
 0
VERTEX
 8
TUBO
 10
0
 20
0
 30
0
 70
128
 71
67
 72
68
 73
78
 74
77
 0
VERTEX
 8
TUBO
 10
0
 20
0
 30
0
 70
128
 71
68
 72
69
 73
79
 74
78
 0
VERTEX
 8
TUBO
 10
0
 20
0
 30
0
 70
128
 71
69
 72
70
 73
80
 74
79
 0
VERTEX
 8
TUBO
 10
0
 20
0
 30
0
 70
128
 71
70
 72
61
 73
71
 74
80
 0
VERTEX
 8
TUBO
 10
0
 20
0
 30
0
 70
128
 71
71
 72
72
 73
82
 74
81
 0
VERTEX
 8
TUBO
 10
0
 20
0
 30
0
 70
128
 71
72
 72
73
 73
83
 74
82
 0
VERTEX
 8
TUBO
 10
0
 20
0
 30
0
 70
128
 71
73
 72
74
 73
84
 74
83
 0
VERTEX
 8
TUBO
 10
0
 20
0
 30
0
 70
128
 71
74
 72
75
 73
85
 74
84
 0
VERTEX
 8
TUBO
 10
0
 20
0
 30
0
 70
128
 71
75
 72
76
 73
86
 74
85
 0
VERTEX
 8
TUBO
 10
0
 20
0
 30
0
 70
128
 71
76
 72
77
 73
87
 74
86
 0
VERTEX
 8
TUBO
 10
0
 20
0
 30
0
 70
128
 71
77
 72
78
 73
88
 74
87
 0
VERTEX
 8
TUBO
 10
0
 20
0
 30
0
 70
128
 71
78
 72
79
 73
89
 74
88
 0
VERTEX
 8
TUBO
 10
0
 20
0
 30
0
 70
128
 71
79
 72
80
 73
90
 74
89
 0
VERTEX
 8
TUBO
 10
0
 20
0
 30
0
 70
128
 71
80
 72
71
 73
81
 74
90
 0
VERTEX
 8
TUBO
 10
0
 20
0
 30
0
 70
128
 71
81
 72
82
 73
92
 74
91
 0
VERTEX
 8
TUBO
 10
0
 20
0
 30
0
 70
128
 71
82
 72
83
 73
93
 74
92
 0
VERTEX
 8
TUBO
 10
0
 20
0
 30
0
 70
128
 71
83
 72
84
 73
94
 74
93
 0
VERTEX
 8
TUBO
 10
0
 20
0
 30
0
 70
128
 71
84
 72
85
 73
95
 74
94
 0
VERTEX
 8
TUBO
 10
0
 20
0
 30
0
 70
128
 71
85
 72
86
 73
96
 74
95
 0
VERTEX
 8
TUBO
 10
0
 20
0
 30
0
 70
128
 71
86
 72
87
 73
97
 74
96
 0
VERTEX
 8
TUBO
 10
0
 20
0
 30
0
 70
128
 71
87
 72
88
 73
98
 74
97
 0
VERTEX
 8
TUBO
 10
0
 20
0
 30
0
 70
128
 71
88
 72
89
 73
99
 74
98
 0
VERTEX
 8
TUBO
 10
0
 20
0
 30
0
 70
128
 71
89
 72
90
 73
100
 74
99
 0
VERTEX
 8
TUBO
 10
0
 20
0
 30
0
 70
128
 71
90
 72
81
 73
91
 74
100
 0
VERTEX
 8
TUBO
 10
0
 20
0
 30
0
 70
128
 71
91
 72
92
 73
102
 74
101
 0
VERTEX
 8
TUBO
 10
0
 20
0
 30
0
 70
128
 71
92
 72
93
 73
103
 74
102
 0
VERTEX
 8
TUBO
 10
0
 20
0
 30
0
 70
128
 71
93
 72
94
 73
104
 74
103
 0
VERTEX
 8
TUBO
 10
0
 20
0
 30
0
 70
128
 71
94
 72
95
 73
105
 74
104
 0
VERTEX
 8
TUBO
 10
0
 20
0
 30
0
 70
128
 71
95
 72
96
 73
106
 74
105
 0
VERTEX
 8
TUBO
 10
0
 20
0
 30
0
 70
128
 71
96
 72
97
 73
107
 74
106
 0
VERTEX
 8
TUBO
 10
0
 20
0
 30
0
 70
128
 71
97
 72
98
 73
108
 74
107
 0
VERTEX
 8
TUBO
 10
0
 20
0
 30
0
 70
128
 71
98
 72
99
 73
109
 74
108
 0
VERTEX
 8
TUBO
 10
0
 20
0
 30
0
 70
128
 71
99
 72
100
 73
110
 74
109
 0
VERTEX
 8
TUBO
 10
0
 20
0
 30
0
 70
128
 71
100
 72
91
 73
101
 74
110
 0
VERTEX
 8
TUBO
 10
0
 20
0
 30
0
 70
128
 71
101
 72
102
 73
112
 74
111
 0
VERTEX
 8
TUBO
 10
0
 20
0
 30
0
 70
128
 71
102
 72
103
 73
113
 74
112
 0
VERTEX
 8
TUBO
 10
0
 20
0
 30
0
 70
128
 71
103
 72
104
 73
114
 74
113
 0
VERTEX
 8
TUBO
 10
0
 20
0
 30
0
 70
128
 71
104
 72
105
 73
115
 74
114
 0
VERTEX
 8
TUBO
 10
0
 20
0
 30
0
 70
128
 71
105
 72
106
 73
116
 74
115
 0
VERTEX
 8
TUBO
 10
0
 20
0
 30
0
 70
128
 71
106
 72
107
 73
117
 74
116
 0
VERTEX
 8
TUBO
 10
0
 20
0
 30
0
 70
128
 71
107
 72
108
 73
118
 74
117
 0
VERTEX
 8
TUBO
 10
0
 20
0
 30
0
 70
128
 71
108
 72
109
 73
119
 74
118
 0
VERTEX
 8
TUBO
 10
0
 20
0
 30
0
 70
128
 71
109
 72
110
 73
120
 74
119
 0
VERTEX
 8
TUBO
 10
0
 20
0
 30
0
 70
128
 71
110
 72
101
 73
111
 74
120
 0
VERTEX
 8
TUBO
 10
0
 20
0
 30
0
 70
128
 71
111
 72
112
 73
122
 74
121
 0
VERTEX
 8
TUBO
 10
0
 20
0
 30
0
 70
128
 71
112
 72
113
 73
123
 74
122
 0
VERTEX
 8
TUBO
 10
0
 20
0
 30
0
 70
128
 71
113
 72
114
 73
124
 74
123
 0
VERTEX
 8
TUBO
 10
0
 20
0
 30
0
 70
128
 71
114
 72
115
 73
125
 74
124
 0
VERTEX
 8
TUBO
 10
0
 20
0
 30
0
 70
128
 71
115
 72
116
 73
126
 74
125
 0
VERTEX
 8
TUBO
 10
0
 20
0
 30
0
 70
128
 71
116
 72
117
 73
127
 74
126
 0
VERTEX
 8
TUBO
 10
0
 20
0
 30
0
 70
128
 71
117
 72
118
 73
128
 74
127
 0
VERTEX
 8
TUBO
 10
0
 20
0
 30
0
 70
128
 71
118
 72
119
 73
129
 74
128
 0
VERTEX
 8
TUBO
 10
0
 20
0
 30
0
 70
128
 71
119
 72
120
 73
130
 74
129
 0
VERTEX
 8
TUBO
 10
0
 20
0
 30
0
 70
128
 71
120
 72
111
 73
121
 74
130
 0
VERTEX
 8
TUBO
 10
0
 20
0
 30
0
 70
128
 71
121
 72
122
 73
132
 74
131
 0
VERTEX
 8
TUBO
 10
0
 20
0
 30
0
 70
128
 71
122
 72
123
 73
133
 74
132
 0
VERTEX
 8
TUBO
 10
0
 20
0
 30
0
 70
128
 71
123
 72
124
 73
134
 74
133
 0
VERTEX
 8
TUBO
 10
0
 20
0
 30
0
 70
128
 71
124
 72
125
 73
135
 74
134
 0
VERTEX
 8
TUBO
 10
0
 20
0
 30
0
 70
128
 71
125
 72
126
 73
136
 74
135
 0
VERTEX
 8
TUBO
 10
0
 20
0
 30
0
 70
128
 71
126
 72
127
 73
137
 74
136
 0
VERTEX
 8
TUBO
 10
0
 20
0
 30
0
 70
128
 71
127
 72
128
 73
138
 74
137
 0
VERTEX
 8
TUBO
 10
0
 20
0
 30
0
 70
128
 71
128
 72
129
 73
139
 74
138
 0
VERTEX
 8
TUBO
 10
0
 20
0
 30
0
 70
128
 71
129
 72
130
 73
140
 74
139
 0
VERTEX
 8
TUBO
 10
0
 20
0
 30
0
 70
128
 71
130
 72
121
 73
131
 74
140
 0
VERTEX
 8
TUBO
 10
0
 20
0
 30
0
 70
128
 71
131
 72
132
 73
142
 74
141
 0
VERTEX
 8
TUBO
 10
0
 20
0
 30
0
 70
128
 71
132
 72
133
 73
143
 74
142
 0
VERTEX
 8
TUBO
 10
0
 20
0
 30
0
 70
128
 71
133
 72
134
 73
144
 74
143
 0
VERTEX
 8
TUBO
 10
0
 20
0
 30
0
 70
128
 71
134
 72
135
 73
145
 74
144
 0
VERTEX
 8
TUBO
 10
0
 20
0
 30
0
 70
128
 71
135
 72
136
 73
146
 74
145
 0
VERTEX
 8
TUBO
 10
0
 20
0
 30
0
 70
128
 71
136
 72
137
 73
147
 74
146
 0
VERTEX
 8
TUBO
 10
0
 20
0
 30
0
 70
128
 71
137
 72
138
 73
148
 74
147
 0
VERTEX
 8
TUBO
 10
0
 20
0
 30
0
 70
128
 71
138
 72
139
 73
149
 74
148
 0
VERTEX
 8
TUBO
 10
0
 20
0
 30
0
 70
128
 71
139
 72
140
 73
150
 74
149
 0
VERTEX
 8
TUBO
 10
0
 20
0
 30
0
 70
128
 71
140
 72
131
 73
141
 74
150
 0
VERTEX
 8
TUBO
 10
0
 20
0
 30
0
 70
128
 71
141
 72
142
 73
152
 74
151
 0
VERTEX
 8
TUBO
 10
0
 20
0
 30
0
 70
128
 71
142
 72
143
 73
153
 74
152
 0
VERTEX
 8
TUBO
 10
0
 20
0
 30
0
 70
128
 71
143
 72
144
 73
154
 74
153
 0
VERTEX
 8
TUBO
 10
0
 20
0
 30
0
 70
128
 71
144
 72
145
 73
155
 74
154
 0
VERTEX
 8
TUBO
 10
0
 20
0
 30
0
 70
128
 71
145
 72
146
 73
156
 74
155
 0
VERTEX
 8
TUBO
 10
0
 20
0
 30
0
 70
128
 71
146
 72
147
 73
157
 74
156
 0
VERTEX
 8
TUBO
 10
0
 20
0
 30
0
 70
128
 71
147
 72
148
 73
158
 74
157
 0
VERTEX
 8
TUBO
 10
0
 20
0
 30
0
 70
128
 71
148
 72
149
 73
159
 74
158
 0
VERTEX
 8
TUBO
 10
0
 20
0
 30
0
 70
128
 71
149
 72
150
 73
160
 74
159
 0
VERTEX
 8
TUBO
 10
0
 20
0
 30
0
 70
128
 71
150
 72
141
 73
151
 74
160
 0
VERTEX
 8
TUBO
 10
0
 20
0
 30
0
 70
128
 71
151
 72
152
 73
162
 74
161
 0
VERTEX
 8
TUBO
 10
0
 20
0
 30
0
 70
128
 71
152
 72
153
 73
163
 74
162
 0
VERTEX
 8
TUBO
 10
0
 20
0
 30
0
 70
128
 71
153
 72
154
 73
164
 74
163
 0
VERTEX
 8
TUBO
 10
0
 20
0
 30
0
 70
128
 71
154
 72
155
 73
165
 74
164
 0
VERTEX
 8
TUBO
 10
0
 20
0
 30
0
 70
128
 71
155
 72
156
 73
166
 74
165
 0
VERTEX
 8
TUBO
 10
0
 20
0
 30
0
 70
128
 71
156
 72
157
 73
167
 74
166
 0
VERTEX
 8
TUBO
 10
0
 20
0
 30
0
 70
128
 71
157
 72
158
 73
168
 74
167
 0
VERTEX
 8
TUBO
 10
0
 20
0
 30
0
 70
128
 71
158
 72
159
 73
169
 74
168
 0
VERTEX
 8
TUBO
 10
0
 20
0
 30
0
 70
128
 71
159
 72
160
 73
170
 74
169
 0
VERTEX
 8
TUBO
 10
0
 20
0
 30
0
 70
128
 71
160
 72
151
 73
161
 74
170
 0
VERTEX
 8
TUBO
 10
0
 20
0
 30
0
 70
128
 71
161
 72
162
 73
172
 74
171
 0
VERTEX
 8
TUBO
 10
0
 20
0
 30
0
 70
128
 71
162
 72
163
 73
173
 74
172
 0
VERTEX
 8
TUBO
 10
0
 20
0
 30
0
 70
128
 71
163
 72
164
 73
174
 74
173
 0
VERTEX
 8
TUBO
 10
0
 20
0
 30
0
 70
128
 71
164
 72
165
 73
175
 74
174
 0
VERTEX
 8
TUBO
 10
0
 20
0
 30
0
 70
128
 71
165
 72
166
 73
176
 74
175
 0
VERTEX
 8
TUBO
 10
0
 20
0
 30
0
 70
128
 71
166
 72
167
 73
177
 74
176
 0
VERTEX
 8
TUBO
 10
0
 20
0
 30
0
 70
128
 71
167
 72
168
 73
178
 74
177
 0
VERTEX
 8
TUBO
 10
0
 20
0
 30
0
 70
128
 71
168
 72
169
 73
179
 74
178
 0
VERTEX
 8
TUBO
 10
0
 20
0
 30
0
 70
128
 71
169
 72
170
 73
180
 74
179
 0
VERTEX
 8
TUBO
 10
0
 20
0
 30
0
 70
128
 71
170
 72
161
 73
171
 74
180
 0
VERTEX
 8
TUBO
 10
0
 20
0
 30
0
 70
128
 71
171
 72
172
 73
182
 74
181
 0
VERTEX
 8
TUBO
 10
0
 20
0
 30
0
 70
128
 71
172
 72
173
 73
183
 74
182
 0
VERTEX
 8
TUBO
 10
0
 20
0
 30
0
 70
128
 71
173
 72
174
 73
184
 74
183
 0
VERTEX
 8
TUBO
 10
0
 20
0
 30
0
 70
128
 71
174
 72
175
 73
185
 74
184
 0
VERTEX
 8
TUBO
 10
0
 20
0
 30
0
 70
128
 71
175
 72
176
 73
186
 74
185
 0
VERTEX
 8
TUBO
 10
0
 20
0
 30
0
 70
128
 71
176
 72
177
 73
187
 74
186
 0
VERTEX
 8
TUBO
 10
0
 20
0
 30
0
 70
128
 71
177
 72
178
 73
188
 74
187
 0
VERTEX
 8
TUBO
 10
0
 20
0
 30
0
 70
128
 71
178
 72
179
 73
189
 74
188
 0
VERTEX
 8
TUBO
 10
0
 20
0
 30
0
 70
128
 71
179
 72
180
 73
190
 74
189
 0
VERTEX
 8
TUBO
 10
0
 20
0
 30
0
 70
128
 71
180
 72
171
 73
181
 74
190
 0
VERTEX
 8
TUBO
 10
0
 20
0
 30
0
 70
128
 71
181
 72
182
 73
192
 74
191
 0
VERTEX
 8
TUBO
 10
0
 20
0
 30
0
 70
128
 71
182
 72
183
 73
193
 74
192
 0
VERTEX
 8
TUBO
 10
0
 20
0
 30
0
 70
128
 71
183
 72
184
 73
194
 74
193
 0
VERTEX
 8
TUBO
 10
0
 20
0
 30
0
 70
128
 71
184
 72
185
 73
195
 74
194
 0
VERTEX
 8
TUBO
 10
0
 20
0
 30
0
 70
128
 71
185
 72
186
 73
196
 74
195
 0
VERTEX
 8
TUBO
 10
0
 20
0
 30
0
 70
128
 71
186
 72
187
 73
197
 74
196
 0
VERTEX
 8
TUBO
 10
0
 20
0
 30
0
 70
128
 71
187
 72
188
 73
198
 74
197
 0
VERTEX
 8
TUBO
 10
0
 20
0
 30
0
 70
128
 71
188
 72
189
 73
199
 74
198
 0
VERTEX
 8
TUBO
 10
0
 20
0
 30
0
 70
128
 71
189
 72
190
 73
200
 74
199
 0
VERTEX
 8
TUBO
 10
0
 20
0
 30
0
 70
128
 71
190
 72
181
 73
191
 74
200
 0
VERTEX
 8
TUBO
 10
0
 20
0
 30
0
 70
128
 71
191
 72
192
 73
202
 74
201
 0
VERTEX
 8
TUBO
 10
0
 20
0
 30
0
 70
128
 71
192
 72
193
 73
203
 74
202
 0
VERTEX
 8
TUBO
 10
0
 20
0
 30
0
 70
128
 71
193
 72
194
 73
204
 74
203
 0
VERTEX
 8
TUBO
 10
0
 20
0
 30
0
 70
128
 71
194
 72
195
 73
205
 74
204
 0
VERTEX
 8
TUBO
 10
0
 20
0
 30
0
 70
128
 71
195
 72
196
 73
206
 74
205
 0
VERTEX
 8
TUBO
 10
0
 20
0
 30
0
 70
128
 71
196
 72
197
 73
207
 74
206
 0
VERTEX
 8
TUBO
 10
0
 20
0
 30
0
 70
128
 71
197
 72
198
 73
208
 74
207
 0
VERTEX
 8
TUBO
 10
0
 20
0
 30
0
 70
128
 71
198
 72
199
 73
209
 74
208
 0
VERTEX
 8
TUBO
 10
0
 20
0
 30
0
 70
128
 71
199
 72
200
 73
210
 74
209
 0
VERTEX
 8
TUBO
 10
0
 20
0
 30
0
 70
128
 71
200
 72
191
 73
201
 74
210
 0
VERTEX
 8
TUBO
 10
0
 20
0
 30
0
 70
128
 71
201
 72
202
 73
212
 74
211
 0
VERTEX
 8
TUBO
 10
0
 20
0
 30
0
 70
128
 71
202
 72
203
 73
213
 74
212
 0
VERTEX
 8
TUBO
 10
0
 20
0
 30
0
 70
128
 71
203
 72
204
 73
214
 74
213
 0
VERTEX
 8
TUBO
 10
0
 20
0
 30
0
 70
128
 71
204
 72
205
 73
215
 74
214
 0
VERTEX
 8
TUBO
 10
0
 20
0
 30
0
 70
128
 71
205
 72
206
 73
216
 74
215
 0
VERTEX
 8
TUBO
 10
0
 20
0
 30
0
 70
128
 71
206
 72
207
 73
217
 74
216
 0
VERTEX
 8
TUBO
 10
0
 20
0
 30
0
 70
128
 71
207
 72
208
 73
218
 74
217
 0
VERTEX
 8
TUBO
 10
0
 20
0
 30
0
 70
128
 71
208
 72
209
 73
219
 74
218
 0
VERTEX
 8
TUBO
 10
0
 20
0
 30
0
 70
128
 71
209
 72
210
 73
220
 74
219
 0
VERTEX
 8
TUBO
 10
0
 20
0
 30
0
 70
128
 71
210
 72
201
 73
211
 74
220
 0
VERTEX
 8
TUBO
 10
0
 20
0
 30
0
 70
128
 71
211
 72
212
 73
222
 74
221
 0
VERTEX
 8
TUBO
 10
0
 20
0
 30
0
 70
128
 71
212
 72
213
 73
223
 74
222
 0
VERTEX
 8
TUBO
 10
0
 20
0
 30
0
 70
128
 71
213
 72
214
 73
224
 74
223
 0
VERTEX
 8
TUBO
 10
0
 20
0
 30
0
 70
128
 71
214
 72
215
 73
225
 74
224
 0
VERTEX
 8
TUBO
 10
0
 20
0
 30
0
 70
128
 71
215
 72
216
 73
226
 74
225
 0
VERTEX
 8
TUBO
 10
0
 20
0
 30
0
 70
128
 71
216
 72
217
 73
227
 74
226
 0
VERTEX
 8
TUBO
 10
0
 20
0
 30
0
 70
128
 71
217
 72
218
 73
228
 74
227
 0
VERTEX
 8
TUBO
 10
0
 20
0
 30
0
 70
128
 71
218
 72
219
 73
229
 74
228
 0
VERTEX
 8
TUBO
 10
0
 20
0
 30
0
 70
128
 71
219
 72
220
 73
230
 74
229
 0
VERTEX
 8
TUBO
 10
0
 20
0
 30
0
 70
128
 71
220
 72
211
 73
221
 74
230
 0
VERTEX
 8
TUBO
 10
0
 20
0
 30
0
 70
128
 71
221
 72
222
 73
232
 74
231
 0
VERTEX
 8
TUBO
 10
0
 20
0
 30
0
 70
128
 71
222
 72
223
 73
233
 74
232
 0
VERTEX
 8
TUBO
 10
0
 20
0
 30
0
 70
128
 71
223
 72
224
 73
234
 74
233
 0
VERTEX
 8
TUBO
 10
0
 20
0
 30
0
 70
128
 71
224
 72
225
 73
235
 74
234
 0
VERTEX
 8
TUBO
 10
0
 20
0
 30
0
 70
128
 71
225
 72
226
 73
236
 74
235
 0
VERTEX
 8
TUBO
 10
0
 20
0
 30
0
 70
128
 71
226
 72
227
 73
237
 74
236
 0
VERTEX
 8
TUBO
 10
0
 20
0
 30
0
 70
128
 71
227
 72
228
 73
238
 74
237
 0
VERTEX
 8
TUBO
 10
0
 20
0
 30
0
 70
128
 71
228
 72
229
 73
239
 74
238
 0
VERTEX
 8
TUBO
 10
0
 20
0
 30
0
 70
128
 71
229
 72
230
 73
240
 74
239
 0
VERTEX
 8
TUBO
 10
0
 20
0
 30
0
 70
128
 71
230
 72
221
 73
231
 74
240
 0
VERTEX
 8
TUBO
 10
0
 20
0
 30
0
 70
128
 71
231
 72
232
 73
242
 74
241
 0
VERTEX
 8
TUBO
 10
0
 20
0
 30
0
 70
128
 71
232
 72
233
 73
243
 74
242
 0
VERTEX
 8
TUBO
 10
0
 20
0
 30
0
 70
128
 71
233
 72
234
 73
244
 74
243
 0
VERTEX
 8
TUBO
 10
0
 20
0
 30
0
 70
128
 71
234
 72
235
 73
245
 74
244
 0
VERTEX
 8
TUBO
 10
0
 20
0
 30
0
 70
128
 71
235
 72
236
 73
246
 74
245
 0
VERTEX
 8
TUBO
 10
0
 20
0
 30
0
 70
128
 71
236
 72
237
 73
247
 74
246
 0
VERTEX
 8
TUBO
 10
0
 20
0
 30
0
 70
128
 71
237
 72
238
 73
248
 74
247
 0
VERTEX
 8
TUBO
 10
0
 20
0
 30
0
 70
128
 71
238
 72
239
 73
249
 74
248
 0
VERTEX
 8
TUBO
 10
0
 20
0
 30
0
 70
128
 71
239
 72
240
 73
250
 74
249
 0
VERTEX
 8
TUBO
 10
0
 20
0
 30
0
 70
128
 71
240
 72
231
 73
241
 74
250
 0
VERTEX
 8
TUBO
 10
0
 20
0
 30
0
 70
128
 71
241
 72
242
 73
252
 74
251
 0
VERTEX
 8
TUBO
 10
0
 20
0
 30
0
 70
128
 71
242
 72
243
 73
253
 74
252
 0
VERTEX
 8
TUBO
 10
0
 20
0
 30
0
 70
128
 71
243
 72
244
 73
254
 74
253
 0
VERTEX
 8
TUBO
 10
0
 20
0
 30
0
 70
128
 71
244
 72
245
 73
255
 74
254
 0
VERTEX
 8
TUBO
 10
0
 20
0
 30
0
 70
128
 71
245
 72
246
 73
256
 74
255
 0
VERTEX
 8
TUBO
 10
0
 20
0
 30
0
 70
128
 71
246
 72
247
 73
257
 74
256
 0
VERTEX
 8
TUBO
 10
0
 20
0
 30
0
 70
128
 71
247
 72
248
 73
258
 74
257
 0
VERTEX
 8
TUBO
 10
0
 20
0
 30
0
 70
128
 71
248
 72
249
 73
259
 74
258
 0
VERTEX
 8
TUBO
 10
0
 20
0
 30
0
 70
128
 71
249
 72
250
 73
260
 74
259
 0
VERTEX
 8
TUBO
 10
0
 20
0
 30
0
 70
128
 71
250
 72
241
 73
251
 74
260
 0
VERTEX
 8
TUBO
 10
0
 20
0
 30
0
 70
128
 71
251
 72
252
 73
262
 74
261
 0
VERTEX
 8
TUBO
 10
0
 20
0
 30
0
 70
128
 71
252
 72
253
 73
263
 74
262
 0
VERTEX
 8
TUBO
 10
0
 20
0
 30
0
 70
128
 71
253
 72
254
 73
264
 74
263
 0
VERTEX
 8
TUBO
 10
0
 20
0
 30
0
 70
128
 71
254
 72
255
 73
265
 74
264
 0
VERTEX
 8
TUBO
 10
0
 20
0
 30
0
 70
128
 71
255
 72
256
 73
266
 74
265
 0
VERTEX
 8
TUBO
 10
0
 20
0
 30
0
 70
128
 71
256
 72
257
 73
267
 74
266
 0
VERTEX
 8
TUBO
 10
0
 20
0
 30
0
 70
128
 71
257
 72
258
 73
268
 74
267
 0
VERTEX
 8
TUBO
 10
0
 20
0
 30
0
 70
128
 71
258
 72
259
 73
269
 74
268
 0
VERTEX
 8
TUBO
 10
0
 20
0
 30
0
 70
128
 71
259
 72
260
 73
270
 74
269
 0
VERTEX
 8
TUBO
 10
0
 20
0
 30
0
 70
128
 71
260
 72
251
 73
261
 74
270
 0
VERTEX
 8
TUBO
 10
0
 20
0
 30
0
 70
128
 71
261
 72
262
 73
272
 74
271
 0
VERTEX
 8
TUBO
 10
0
 20
0
 30
0
 70
128
 71
262
 72
263
 73
273
 74
272
 0
VERTEX
 8
TUBO
 10
0
 20
0
 30
0
 70
128
 71
263
 72
264
 73
274
 74
273
 0
VERTEX
 8
TUBO
 10
0
 20
0
 30
0
 70
128
 71
264
 72
265
 73
275
 74
274
 0
VERTEX
 8
TUBO
 10
0
 20
0
 30
0
 70
128
 71
265
 72
266
 73
276
 74
275
 0
VERTEX
 8
TUBO
 10
0
 20
0
 30
0
 70
128
 71
266
 72
267
 73
277
 74
276
 0
VERTEX
 8
TUBO
 10
0
 20
0
 30
0
 70
128
 71
267
 72
268
 73
278
 74
277
 0
VERTEX
 8
TUBO
 10
0
 20
0
 30
0
 70
128
 71
268
 72
269
 73
279
 74
278
 0
VERTEX
 8
TUBO
 10
0
 20
0
 30
0
 70
128
 71
269
 72
270
 73
280
 74
279
 0
VERTEX
 8
TUBO
 10
0
 20
0
 30
0
 70
128
 71
270
 72
261
 73
271
 74
280
 0
VERTEX
 8
TUBO
 10
0
 20
0
 30
0
 70
128
 71
271
 72
272
 73
282
 74
281
 0
VERTEX
 8
TUBO
 10
0
 20
0
 30
0
 70
128
 71
272
 72
273
 73
283
 74
282
 0
VERTEX
 8
TUBO
 10
0
 20
0
 30
0
 70
128
 71
273
 72
274
 73
284
 74
283
 0
VERTEX
 8
TUBO
 10
0
 20
0
 30
0
 70
128
 71
274
 72
275
 73
285
 74
284
 0
VERTEX
 8
TUBO
 10
0
 20
0
 30
0
 70
128
 71
275
 72
276
 73
286
 74
285
 0
VERTEX
 8
TUBO
 10
0
 20
0
 30
0
 70
128
 71
276
 72
277
 73
287
 74
286
 0
VERTEX
 8
TUBO
 10
0
 20
0
 30
0
 70
128
 71
277
 72
278
 73
288
 74
287
 0
VERTEX
 8
TUBO
 10
0
 20
0
 30
0
 70
128
 71
278
 72
279
 73
289
 74
288
 0
VERTEX
 8
TUBO
 10
0
 20
0
 30
0
 70
128
 71
279
 72
280
 73
290
 74
289
 0
VERTEX
 8
TUBO
 10
0
 20
0
 30
0
 70
128
 71
280
 72
271
 73
281
 74
290
 0
VERTEX
 8
TUBO
 10
0
 20
0
 30
0
 70
128
 71
281
 72
282
 73
292
 74
291
 0
VERTEX
 8
TUBO
 10
0
 20
0
 30
0
 70
128
 71
282
 72
283
 73
293
 74
292
 0
VERTEX
 8
TUBO
 10
0
 20
0
 30
0
 70
128
 71
283
 72
284
 73
294
 74
293
 0
VERTEX
 8
TUBO
 10
0
 20
0
 30
0
 70
128
 71
284
 72
285
 73
295
 74
294
 0
VERTEX
 8
TUBO
 10
0
 20
0
 30
0
 70
128
 71
285
 72
286
 73
296
 74
295
 0
VERTEX
 8
TUBO
 10
0
 20
0
 30
0
 70
128
 71
286
 72
287
 73
297
 74
296
 0
VERTEX
 8
TUBO
 10
0
 20
0
 30
0
 70
128
 71
287
 72
288
 73
298
 74
297
 0
VERTEX
 8
TUBO
 10
0
 20
0
 30
0
 70
128
 71
288
 72
289
 73
299
 74
298
 0
VERTEX
 8
TUBO
 10
0
 20
0
 30
0
 70
128
 71
289
 72
290
 73
300
 74
299
 0
VERTEX
 8
TUBO
 10
0
 20
0
 30
0
 70
128
 71
290
 72
281
 73
291
 74
300
 0
VERTEX
 8
TUBO
 10
0
 20
0
 30
0
 70
128
 71
291
 72
292
 73
302
 74
301
 0
VERTEX
 8
TUBO
 10
0
 20
0
 30
0
 70
128
 71
292
 72
293
 73
303
 74
302
 0
VERTEX
 8
TUBO
 10
0
 20
0
 30
0
 70
128
 71
293
 72
294
 73
304
 74
303
 0
VERTEX
 8
TUBO
 10
0
 20
0
 30
0
 70
128
 71
294
 72
295
 73
305
 74
304
 0
VERTEX
 8
TUBO
 10
0
 20
0
 30
0
 70
128
 71
295
 72
296
 73
306
 74
305
 0
VERTEX
 8
TUBO
 10
0
 20
0
 30
0
 70
128
 71
296
 72
297
 73
307
 74
306
 0
VERTEX
 8
TUBO
 10
0
 20
0
 30
0
 70
128
 71
297
 72
298
 73
308
 74
307
 0
VERTEX
 8
TUBO
 10
0
 20
0
 30
0
 70
128
 71
298
 72
299
 73
309
 74
308
 0
VERTEX
 8
TUBO
 10
0
 20
0
 30
0
 70
128
 71
299
 72
300
 73
310
 74
309
 0
VERTEX
 8
TUBO
 10
0
 20
0
 30
0
 70
128
 71
300
 72
291
 73
301
 74
310
 0
VERTEX
 8
TUBO
 10
0
 20
0
 30
0
 70
128
 71
301
 72
302
 73
312
 74
311
 0
VERTEX
 8
TUBO
 10
0
 20
0
 30
0
 70
128
 71
302
 72
303
 73
313
 74
312
 0
VERTEX
 8
TUBO
 10
0
 20
0
 30
0
 70
128
 71
303
 72
304
 73
314
 74
313
 0
VERTEX
 8
TUBO
 10
0
 20
0
 30
0
 70
128
 71
304
 72
305
 73
315
 74
314
 0
VERTEX
 8
TUBO
 10
0
 20
0
 30
0
 70
128
 71
305
 72
306
 73
316
 74
315
 0
VERTEX
 8
TUBO
 10
0
 20
0
 30
0
 70
128
 71
306
 72
307
 73
317
 74
316
 0
VERTEX
 8
TUBO
 10
0
 20
0
 30
0
 70
128
 71
307
 72
308
 73
318
 74
317
 0
VERTEX
 8
TUBO
 10
0
 20
0
 30
0
 70
128
 71
308
 72
309
 73
319
 74
318
 0
VERTEX
 8
TUBO
 10
0
 20
0
 30
0
 70
128
 71
309
 72
310
 73
320
 74
319
 0
VERTEX
 8
TUBO
 10
0
 20
0
 30
0
 70
128
 71
310
 72
301
 73
311
 74
320
 0
VERTEX
 8
TUBO
 10
0
 20
0
 30
0
 70
128
 71
311
 72
312
 73
322
 74
321
 0
VERTEX
 8
TUBO
 10
0
 20
0
 30
0
 70
128
 71
312
 72
313
 73
323
 74
322
 0
VERTEX
 8
TUBO
 10
0
 20
0
 30
0
 70
128
 71
313
 72
314
 73
324
 74
323
 0
VERTEX
 8
TUBO
 10
0
 20
0
 30
0
 70
128
 71
314
 72
315
 73
325
 74
324
 0
VERTEX
 8
TUBO
 10
0
 20
0
 30
0
 70
128
 71
315
 72
316
 73
326
 74
325
 0
VERTEX
 8
TUBO
 10
0
 20
0
 30
0
 70
128
 71
316
 72
317
 73
327
 74
326
 0
VERTEX
 8
TUBO
 10
0
 20
0
 30
0
 70
128
 71
317
 72
318
 73
328
 74
327
 0
VERTEX
 8
TUBO
 10
0
 20
0
 30
0
 70
128
 71
318
 72
319
 73
329
 74
328
 0
VERTEX
 8
TUBO
 10
0
 20
0
 30
0
 70
128
 71
319
 72
320
 73
330
 74
329
 0
VERTEX
 8
TUBO
 10
0
 20
0
 30
0
 70
128
 71
320
 72
311
 73
321
 74
330
 0
VERTEX
 8
TUBO
 10
0
 20
0
 30
0
 70
128
 71
321
 72
322
 73
332
 74
331
 0
VERTEX
 8
TUBO
 10
0
 20
0
 30
0
 70
128
 71
322
 72
323
 73
333
 74
332
 0
VERTEX
 8
TUBO
 10
0
 20
0
 30
0
 70
128
 71
323
 72
324
 73
334
 74
333
 0
VERTEX
 8
TUBO
 10
0
 20
0
 30
0
 70
128
 71
324
 72
325
 73
335
 74
334
 0
VERTEX
 8
TUBO
 10
0
 20
0
 30
0
 70
128
 71
325
 72
326
 73
336
 74
335
 0
VERTEX
 8
TUBO
 10
0
 20
0
 30
0
 70
128
 71
326
 72
327
 73
337
 74
336
 0
VERTEX
 8
TUBO
 10
0
 20
0
 30
0
 70
128
 71
327
 72
328
 73
338
 74
337
 0
VERTEX
 8
TUBO
 10
0
 20
0
 30
0
 70
128
 71
328
 72
329
 73
339
 74
338
 0
VERTEX
 8
TUBO
 10
0
 20
0
 30
0
 70
128
 71
329
 72
330
 73
340
 74
339
 0
VERTEX
 8
TUBO
 10
0
 20
0
 30
0
 70
128
 71
330
 72
321
 73
331
 74
340
 0
VERTEX
 8
TUBO
 10
0
 20
0
 30
0
 70
128
 71
331
 72
332
 73
342
 74
341
 0
VERTEX
 8
TUBO
 10
0
 20
0
 30
0
 70
128
 71
332
 72
333
 73
343
 74
342
 0
VERTEX
 8
TUBO
 10
0
 20
0
 30
0
 70
128
 71
333
 72
334
 73
344
 74
343
 0
VERTEX
 8
TUBO
 10
0
 20
0
 30
0
 70
128
 71
334
 72
335
 73
345
 74
344
 0
VERTEX
 8
TUBO
 10
0
 20
0
 30
0
 70
128
 71
335
 72
336
 73
346
 74
345
 0
VERTEX
 8
TUBO
 10
0
 20
0
 30
0
 70
128
 71
336
 72
337
 73
347
 74
346
 0
VERTEX
 8
TUBO
 10
0
 20
0
 30
0
 70
128
 71
337
 72
338
 73
348
 74
347
 0
VERTEX
 8
TUBO
 10
0
 20
0
 30
0
 70
128
 71
338
 72
339
 73
349
 74
348
 0
VERTEX
 8
TUBO
 10
0
 20
0
 30
0
 70
128
 71
339
 72
340
 73
350
 74
349
 0
VERTEX
 8
TUBO
 10
0
 20
0
 30
0
 70
128
 71
340
 72
331
 73
341
 74
350
 0
VERTEX
 8
TUBO
 10
0
 20
0
 30
0
 70
128
 71
341
 72
342
 73
352
 74
351
 0
VERTEX
 8
TUBO
 10
0
 20
0
 30
0
 70
128
 71
342
 72
343
 73
353
 74
352
 0
VERTEX
 8
TUBO
 10
0
 20
0
 30
0
 70
128
 71
343
 72
344
 73
354
 74
353
 0
VERTEX
 8
TUBO
 10
0
 20
0
 30
0
 70
128
 71
344
 72
345
 73
355
 74
354
 0
VERTEX
 8
TUBO
 10
0
 20
0
 30
0
 70
128
 71
345
 72
346
 73
356
 74
355
 0
VERTEX
 8
TUBO
 10
0
 20
0
 30
0
 70
128
 71
346
 72
347
 73
357
 74
356
 0
VERTEX
 8
TUBO
 10
0
 20
0
 30
0
 70
128
 71
347
 72
348
 73
358
 74
357
 0
VERTEX
 8
TUBO
 10
0
 20
0
 30
0
 70
128
 71
348
 72
349
 73
359
 74
358
 0
VERTEX
 8
TUBO
 10
0
 20
0
 30
0
 70
128
 71
349
 72
350
 73
360
 74
359
 0
VERTEX
 8
TUBO
 10
0
 20
0
 30
0
 70
128
 71
350
 72
341
 73
351
 74
360
 0
VERTEX
 8
TUBO
 10
0
 20
0
 30
0
 70
128
 71
351
 72
352
 73
362
 74
361
 0
VERTEX
 8
TUBO
 10
0
 20
0
 30
0
 70
128
 71
352
 72
353
 73
363
 74
362
 0
VERTEX
 8
TUBO
 10
0
 20
0
 30
0
 70
128
 71
353
 72
354
 73
364
 74
363
 0
VERTEX
 8
TUBO
 10
0
 20
0
 30
0
 70
128
 71
354
 72
355
 73
365
 74
364
 0
VERTEX
 8
TUBO
 10
0
 20
0
 30
0
 70
128
 71
355
 72
356
 73
366
 74
365
 0
VERTEX
 8
TUBO
 10
0
 20
0
 30
0
 70
128
 71
356
 72
357
 73
367
 74
366
 0
VERTEX
 8
TUBO
 10
0
 20
0
 30
0
 70
128
 71
357
 72
358
 73
368
 74
367
 0
VERTEX
 8
TUBO
 10
0
 20
0
 30
0
 70
128
 71
358
 72
359
 73
369
 74
368
 0
VERTEX
 8
TUBO
 10
0
 20
0
 30
0
 70
128
 71
359
 72
360
 73
370
 74
369
 0
VERTEX
 8
TUBO
 10
0
 20
0
 30
0
 70
128
 71
360
 72
351
 73
361
 74
370
 0
VERTEX
 8
TUBO
 10
0
 20
0
 30
0
 70
128
 71
361
 72
362
 73
372
 74
371
 0
VERTEX
 8
TUBO
 10
0
 20
0
 30
0
 70
128
 71
362
 72
363
 73
373
 74
372
 0
VERTEX
 8
TUBO
 10
0
 20
0
 30
0
 70
128
 71
363
 72
364
 73
374
 74
373
 0
VERTEX
 8
TUBO
 10
0
 20
0
 30
0
 70
128
 71
364
 72
365
 73
375
 74
374
 0
VERTEX
 8
TUBO
 10
0
 20
0
 30
0
 70
128
 71
365
 72
366
 73
376
 74
375
 0
VERTEX
 8
TUBO
 10
0
 20
0
 30
0
 70
128
 71
366
 72
367
 73
377
 74
376
 0
VERTEX
 8
TUBO
 10
0
 20
0
 30
0
 70
128
 71
367
 72
368
 73
378
 74
377
 0
VERTEX
 8
TUBO
 10
0
 20
0
 30
0
 70
128
 71
368
 72
369
 73
379
 74
378
 0
VERTEX
 8
TUBO
 10
0
 20
0
 30
0
 70
128
 71
369
 72
370
 73
380
 74
379
 0
VERTEX
 8
TUBO
 10
0
 20
0
 30
0
 70
128
 71
370
 72
361
 73
371
 74
380
 0
VERTEX
 8
TUBO
 10
0
 20
0
 30
0
 70
128
 71
371
 72
372
 73
382
 74
381
 0
VERTEX
 8
TUBO
 10
0
 20
0
 30
0
 70
128
 71
372
 72
373
 73
383
 74
382
 0
VERTEX
 8
TUBO
 10
0
 20
0
 30
0
 70
128
 71
373
 72
374
 73
384
 74
383
 0
VERTEX
 8
TUBO
 10
0
 20
0
 30
0
 70
128
 71
374
 72
375
 73
385
 74
384
 0
VERTEX
 8
TUBO
 10
0
 20
0
 30
0
 70
128
 71
375
 72
376
 73
386
 74
385
 0
VERTEX
 8
TUBO
 10
0
 20
0
 30
0
 70
128
 71
376
 72
377
 73
387
 74
386
 0
VERTEX
 8
TUBO
 10
0
 20
0
 30
0
 70
128
 71
377
 72
378
 73
388
 74
387
 0
VERTEX
 8
TUBO
 10
0
 20
0
 30
0
 70
128
 71
378
 72
379
 73
389
 74
388
 0
VERTEX
 8
TUBO
 10
0
 20
0
 30
0
 70
128
 71
379
 72
380
 73
390
 74
389
 0
VERTEX
 8
TUBO
 10
0
 20
0
 30
0
 70
128
 71
380
 72
371
 73
381
 74
390
 0
VERTEX
 8
TUBO
 10
0
 20
0
 30
0
 70
128
 71
381
 72
382
 73
392
 74
391
 0
VERTEX
 8
TUBO
 10
0
 20
0
 30
0
 70
128
 71
382
 72
383
 73
393
 74
392
 0
VERTEX
 8
TUBO
 10
0
 20
0
 30
0
 70
128
 71
383
 72
384
 73
394
 74
393
 0
VERTEX
 8
TUBO
 10
0
 20
0
 30
0
 70
128
 71
384
 72
385
 73
395
 74
394
 0
VERTEX
 8
TUBO
 10
0
 20
0
 30
0
 70
128
 71
385
 72
386
 73
396
 74
395
 0
VERTEX
 8
TUBO
 10
0
 20
0
 30
0
 70
128
 71
386
 72
387
 73
397
 74
396
 0
VERTEX
 8
TUBO
 10
0
 20
0
 30
0
 70
128
 71
387
 72
388
 73
398
 74
397
 0
VERTEX
 8
TUBO
 10
0
 20
0
 30
0
 70
128
 71
388
 72
389
 73
399
 74
398
 0
VERTEX
 8
TUBO
 10
0
 20
0
 30
0
 70
128
 71
389
 72
390
 73
400
 74
399
 0
VERTEX
 8
TUBO
 10
0
 20
0
 30
0
 70
128
 71
390
 72
381
 73
391
 74
400
 0
VERTEX
 8
TUBO
 10
0
 20
0
 30
0
 70
128
 71
391
 72
392
 73
402
 74
401
 0
VERTEX
 8
TUBO
 10
0
 20
0
 30
0
 70
128
 71
392
 72
393
 73
403
 74
402
 0
VERTEX
 8
TUBO
 10
0
 20
0
 30
0
 70
128
 71
393
 72
394
 73
404
 74
403
 0
VERTEX
 8
TUBO
 10
0
 20
0
 30
0
 70
128
 71
394
 72
395
 73
405
 74
404
 0
VERTEX
 8
TUBO
 10
0
 20
0
 30
0
 70
128
 71
395
 72
396
 73
406
 74
405
 0
VERTEX
 8
TUBO
 10
0
 20
0
 30
0
 70
128
 71
396
 72
397
 73
407
 74
406
 0
VERTEX
 8
TUBO
 10
0
 20
0
 30
0
 70
128
 71
397
 72
398
 73
408
 74
407
 0
VERTEX
 8
TUBO
 10
0
 20
0
 30
0
 70
128
 71
398
 72
399
 73
409
 74
408
 0
VERTEX
 8
TUBO
 10
0
 20
0
 30
0
 70
128
 71
399
 72
400
 73
410
 74
409
 0
VERTEX
 8
TUBO
 10
0
 20
0
 30
0
 70
128
 71
400
 72
391
 73
401
 74
410
 0
VERTEX
 8
TUBO
 10
0
 20
0
 30
0
 70
128
 71
401
 72
402
 73
412
 74
411
 0
VERTEX
 8
TUBO
 10
0
 20
0
 30
0
 70
128
 71
402
 72
403
 73
413
 74
412
 0
VERTEX
 8
TUBO
 10
0
 20
0
 30
0
 70
128
 71
403
 72
404
 73
414
 74
413
 0
VERTEX
 8
TUBO
 10
0
 20
0
 30
0
 70
128
 71
404
 72
405
 73
415
 74
414
 0
VERTEX
 8
TUBO
 10
0
 20
0
 30
0
 70
128
 71
405
 72
406
 73
416
 74
415
 0
VERTEX
 8
TUBO
 10
0
 20
0
 30
0
 70
128
 71
406
 72
407
 73
417
 74
416
 0
VERTEX
 8
TUBO
 10
0
 20
0
 30
0
 70
128
 71
407
 72
408
 73
418
 74
417
 0
VERTEX
 8
TUBO
 10
0
 20
0
 30
0
 70
128
 71
408
 72
409
 73
419
 74
418
 0
VERTEX
 8
TUBO
 10
0
 20
0
 30
0
 70
128
 71
409
 72
410
 73
420
 74
419
 0
VERTEX
 8
TUBO
 10
0
 20
0
 30
0
 70
128
 71
410
 72
401
 73
411
 74
420
 0
VERTEX
 8
TUBO
 10
0
 20
0
 30
0
 70
128
 71
411
 72
412
 73
422
 74
421
 0
VERTEX
 8
TUBO
 10
0
 20
0
 30
0
 70
128
 71
412
 72
413
 73
423
 74
422
 0
VERTEX
 8
TUBO
 10
0
 20
0
 30
0
 70
128
 71
413
 72
414
 73
424
 74
423
 0
VERTEX
 8
TUBO
 10
0
 20
0
 30
0
 70
128
 71
414
 72
415
 73
425
 74
424
 0
VERTEX
 8
TUBO
 10
0
 20
0
 30
0
 70
128
 71
415
 72
416
 73
426
 74
425
 0
VERTEX
 8
TUBO
 10
0
 20
0
 30
0
 70
128
 71
416
 72
417
 73
427
 74
426
 0
VERTEX
 8
TUBO
 10
0
 20
0
 30
0
 70
128
 71
417
 72
418
 73
428
 74
427
 0
VERTEX
 8
TUBO
 10
0
 20
0
 30
0
 70
128
 71
418
 72
419
 73
429
 74
428
 0
VERTEX
 8
TUBO
 10
0
 20
0
 30
0
 70
128
 71
419
 72
420
 73
430
 74
429
 0
VERTEX
 8
TUBO
 10
0
 20
0
 30
0
 70
128
 71
420
 72
411
 73
421
 74
430
 0
VERTEX
 8
TUBO
 10
0
 20
0
 30
0
 70
128
 71
421
 72
422
 73
432
 74
431
 0
VERTEX
 8
TUBO
 10
0
 20
0
 30
0
 70
128
 71
422
 72
423
 73
433
 74
432
 0
VERTEX
 8
TUBO
 10
0
 20
0
 30
0
 70
128
 71
423
 72
424
 73
434
 74
433
 0
VERTEX
 8
TUBO
 10
0
 20
0
 30
0
 70
128
 71
424
 72
425
 73
435
 74
434
 0
VERTEX
 8
TUBO
 10
0
 20
0
 30
0
 70
128
 71
425
 72
426
 73
436
 74
435
 0
VERTEX
 8
TUBO
 10
0
 20
0
 30
0
 70
128
 71
426
 72
427
 73
437
 74
436
 0
VERTEX
 8
TUBO
 10
0
 20
0
 30
0
 70
128
 71
427
 72
428
 73
438
 74
437
 0
VERTEX
 8
TUBO
 10
0
 20
0
 30
0
 70
128
 71
428
 72
429
 73
439
 74
438
 0
VERTEX
 8
TUBO
 10
0
 20
0
 30
0
 70
128
 71
429
 72
430
 73
440
 74
439
 0
VERTEX
 8
TUBO
 10
0
 20
0
 30
0
 70
128
 71
430
 72
421
 73
431
 74
440
 0
VERTEX
 8
TUBO
 10
0
 20
0
 30
0
 70
128
 71
431
 72
432
 73
442
 74
441
 0
VERTEX
 8
TUBO
 10
0
 20
0
 30
0
 70
128
 71
432
 72
433
 73
443
 74
442
 0
VERTEX
 8
TUBO
 10
0
 20
0
 30
0
 70
128
 71
433
 72
434
 73
444
 74
443
 0
VERTEX
 8
TUBO
 10
0
 20
0
 30
0
 70
128
 71
434
 72
435
 73
445
 74
444
 0
VERTEX
 8
TUBO
 10
0
 20
0
 30
0
 70
128
 71
435
 72
436
 73
446
 74
445
 0
VERTEX
 8
TUBO
 10
0
 20
0
 30
0
 70
128
 71
436
 72
437
 73
447
 74
446
 0
VERTEX
 8
TUBO
 10
0
 20
0
 30
0
 70
128
 71
437
 72
438
 73
448
 74
447
 0
VERTEX
 8
TUBO
 10
0
 20
0
 30
0
 70
128
 71
438
 72
439
 73
449
 74
448
 0
VERTEX
 8
TUBO
 10
0
 20
0
 30
0
 70
128
 71
439
 72
440
 73
450
 74
449
 0
VERTEX
 8
TUBO
 10
0
 20
0
 30
0
 70
128
 71
440
 72
431
 73
441
 74
450
 0
VERTEX
 8
TUBO
 10
0
 20
0
 30
0
 70
128
 71
441
 72
442
 73
452
 74
451
 0
VERTEX
 8
TUBO
 10
0
 20
0
 30
0
 70
128
 71
442
 72
443
 73
453
 74
452
 0
VERTEX
 8
TUBO
 10
0
 20
0
 30
0
 70
128
 71
443
 72
444
 73
454
 74
453
 0
VERTEX
 8
TUBO
 10
0
 20
0
 30
0
 70
128
 71
444
 72
445
 73
455
 74
454
 0
VERTEX
 8
TUBO
 10
0
 20
0
 30
0
 70
128
 71
445
 72
446
 73
456
 74
455
 0
VERTEX
 8
TUBO
 10
0
 20
0
 30
0
 70
128
 71
446
 72
447
 73
457
 74
456
 0
VERTEX
 8
TUBO
 10
0
 20
0
 30
0
 70
128
 71
447
 72
448
 73
458
 74
457
 0
VERTEX
 8
TUBO
 10
0
 20
0
 30
0
 70
128
 71
448
 72
449
 73
459
 74
458
 0
VERTEX
 8
TUBO
 10
0
 20
0
 30
0
 70
128
 71
449
 72
450
 73
460
 74
459
 0
VERTEX
 8
TUBO
 10
0
 20
0
 30
0
 70
128
 71
450
 72
441
 73
451
 74
460
 0
VERTEX
 8
TUBO
 10
0
 20
0
 30
0
 70
128
 71
451
 72
452
 73
462
 74
461
 0
VERTEX
 8
TUBO
 10
0
 20
0
 30
0
 70
128
 71
452
 72
453
 73
463
 74
462
 0
VERTEX
 8
TUBO
 10
0
 20
0
 30
0
 70
128
 71
453
 72
454
 73
464
 74
463
 0
VERTEX
 8
TUBO
 10
0
 20
0
 30
0
 70
128
 71
454
 72
455
 73
465
 74
464
 0
VERTEX
 8
TUBO
 10
0
 20
0
 30
0
 70
128
 71
455
 72
456
 73
466
 74
465
 0
VERTEX
 8
TUBO
 10
0
 20
0
 30
0
 70
128
 71
456
 72
457
 73
467
 74
466
 0
VERTEX
 8
TUBO
 10
0
 20
0
 30
0
 70
128
 71
457
 72
458
 73
468
 74
467
 0
VERTEX
 8
TUBO
 10
0
 20
0
 30
0
 70
128
 71
458
 72
459
 73
469
 74
468
 0
VERTEX
 8
TUBO
 10
0
 20
0
 30
0
 70
128
 71
459
 72
460
 73
470
 74
469
 0
VERTEX
 8
TUBO
 10
0
 20
0
 30
0
 70
128
 71
460
 72
451
 73
461
 74
470
 0
VERTEX
 8
TUBO
 10
0
 20
0
 30
0
 70
128
 71
461
 72
462
 73
472
 74
471
 0
VERTEX
 8
TUBO
 10
0
 20
0
 30
0
 70
128
 71
462
 72
463
 73
473
 74
472
 0
VERTEX
 8
TUBO
 10
0
 20
0
 30
0
 70
128
 71
463
 72
464
 73
474
 74
473
 0
VERTEX
 8
TUBO
 10
0
 20
0
 30
0
 70
128
 71
464
 72
465
 73
475
 74
474
 0
VERTEX
 8
TUBO
 10
0
 20
0
 30
0
 70
128
 71
465
 72
466
 73
476
 74
475
 0
VERTEX
 8
TUBO
 10
0
 20
0
 30
0
 70
128
 71
466
 72
467
 73
477
 74
476
 0
VERTEX
 8
TUBO
 10
0
 20
0
 30
0
 70
128
 71
467
 72
468
 73
478
 74
477
 0
VERTEX
 8
TUBO
 10
0
 20
0
 30
0
 70
128
 71
468
 72
469
 73
479
 74
478
 0
VERTEX
 8
TUBO
 10
0
 20
0
 30
0
 70
128
 71
469
 72
470
 73
480
 74
479
 0
VERTEX
 8
TUBO
 10
0
 20
0
 30
0
 70
128
 71
470
 72
461
 73
471
 74
480
 0
VERTEX
 8
TUBO
 10
0
 20
0
 30
0
 70
128
 71
471
 72
472
 73
482
 74
481
 0
VERTEX
 8
TUBO
 10
0
 20
0
 30
0
 70
128
 71
472
 72
473
 73
483
 74
482
 0
VERTEX
 8
TUBO
 10
0
 20
0
 30
0
 70
128
 71
473
 72
474
 73
484
 74
483
 0
VERTEX
 8
TUBO
 10
0
 20
0
 30
0
 70
128
 71
474
 72
475
 73
485
 74
484
 0
VERTEX
 8
TUBO
 10
0
 20
0
 30
0
 70
128
 71
475
 72
476
 73
486
 74
485
 0
VERTEX
 8
TUBO
 10
0
 20
0
 30
0
 70
128
 71
476
 72
477
 73
487
 74
486
 0
VERTEX
 8
TUBO
 10
0
 20
0
 30
0
 70
128
 71
477
 72
478
 73
488
 74
487
 0
VERTEX
 8
TUBO
 10
0
 20
0
 30
0
 70
128
 71
478
 72
479
 73
489
 74
488
 0
VERTEX
 8
TUBO
 10
0
 20
0
 30
0
 70
128
 71
479
 72
480
 73
490
 74
489
 0
VERTEX
 8
TUBO
 10
0
 20
0
 30
0
 70
128
 71
480
 72
471
 73
481
 74
490
 0
VERTEX
 8
TUBO
 10
0
 20
0
 30
0
 70
128
 71
481
 72
482
 73
492
 74
491
 0
VERTEX
 8
TUBO
 10
0
 20
0
 30
0
 70
128
 71
482
 72
483
 73
493
 74
492
 0
VERTEX
 8
TUBO
 10
0
 20
0
 30
0
 70
128
 71
483
 72
484
 73
494
 74
493
 0
VERTEX
 8
TUBO
 10
0
 20
0
 30
0
 70
128
 71
484
 72
485
 73
495
 74
494
 0
VERTEX
 8
TUBO
 10
0
 20
0
 30
0
 70
128
 71
485
 72
486
 73
496
 74
495
 0
VERTEX
 8
TUBO
 10
0
 20
0
 30
0
 70
128
 71
486
 72
487
 73
497
 74
496
 0
VERTEX
 8
TUBO
 10
0
 20
0
 30
0
 70
128
 71
487
 72
488
 73
498
 74
497
 0
VERTEX
 8
TUBO
 10
0
 20
0
 30
0
 70
128
 71
488
 72
489
 73
499
 74
498
 0
VERTEX
 8
TUBO
 10
0
 20
0
 30
0
 70
128
 71
489
 72
490
 73
500
 74
499
 0
VERTEX
 8
TUBO
 10
0
 20
0
 30
0
 70
128
 71
490
 72
481
 73
491
 74
500
 0
VERTEX
 8
TUBO
 10
0
 20
0
 30
0
 70
128
 71
491
 72
492
 73
502
 74
501
 0
VERTEX
 8
TUBO
 10
0
 20
0
 30
0
 70
128
 71
492
 72
493
 73
503
 74
502
 0
VERTEX
 8
TUBO
 10
0
 20
0
 30
0
 70
128
 71
493
 72
494
 73
504
 74
503
 0
VERTEX
 8
TUBO
 10
0
 20
0
 30
0
 70
128
 71
494
 72
495
 73
505
 74
504
 0
VERTEX
 8
TUBO
 10
0
 20
0
 30
0
 70
128
 71
495
 72
496
 73
506
 74
505
 0
VERTEX
 8
TUBO
 10
0
 20
0
 30
0
 70
128
 71
496
 72
497
 73
507
 74
506
 0
VERTEX
 8
TUBO
 10
0
 20
0
 30
0
 70
128
 71
497
 72
498
 73
508
 74
507
 0
VERTEX
 8
TUBO
 10
0
 20
0
 30
0
 70
128
 71
498
 72
499
 73
509
 74
508
 0
VERTEX
 8
TUBO
 10
0
 20
0
 30
0
 70
128
 71
499
 72
500
 73
510
 74
509
 0
VERTEX
 8
TUBO
 10
0
 20
0
 30
0
 70
128
 71
500
 72
491
 73
501
 74
510
 0
VERTEX
 8
TUBO
 10
0
 20
0
 30
0
 70
128
 71
501
 72
502
 73
512
 74
511
 0
VERTEX
 8
TUBO
 10
0
 20
0
 30
0
 70
128
 71
502
 72
503
 73
513
 74
512
 0
VERTEX
 8
TUBO
 10
0
 20
0
 30
0
 70
128
 71
503
 72
504
 73
514
 74
513
 0
VERTEX
 8
TUBO
 10
0
 20
0
 30
0
 70
128
 71
504
 72
505
 73
515
 74
514
 0
VERTEX
 8
TUBO
 10
0
 20
0
 30
0
 70
128
 71
505
 72
506
 73
516
 74
515
 0
VERTEX
 8
TUBO
 10
0
 20
0
 30
0
 70
128
 71
506
 72
507
 73
517
 74
516
 0
VERTEX
 8
TUBO
 10
0
 20
0
 30
0
 70
128
 71
507
 72
508
 73
518
 74
517
 0
VERTEX
 8
TUBO
 10
0
 20
0
 30
0
 70
128
 71
508
 72
509
 73
519
 74
518
 0
VERTEX
 8
TUBO
 10
0
 20
0
 30
0
 70
128
 71
509
 72
510
 73
520
 74
519
 0
VERTEX
 8
TUBO
 10
0
 20
0
 30
0
 70
128
 71
510
 72
501
 73
511
 74
520
 0
VERTEX
 8
TUBO
 10
0
 20
0
 30
0
 70
128
 71
511
 72
512
 73
522
 74
521
 0
VERTEX
 8
TUBO
 10
0
 20
0
 30
0
 70
128
 71
512
 72
513
 73
523
 74
522
 0
VERTEX
 8
TUBO
 10
0
 20
0
 30
0
 70
128
 71
513
 72
514
 73
524
 74
523
 0
VERTEX
 8
TUBO
 10
0
 20
0
 30
0
 70
128
 71
514
 72
515
 73
525
 74
524
 0
VERTEX
 8
TUBO
 10
0
 20
0
 30
0
 70
128
 71
515
 72
516
 73
526
 74
525
 0
VERTEX
 8
TUBO
 10
0
 20
0
 30
0
 70
128
 71
516
 72
517
 73
527
 74
526
 0
VERTEX
 8
TUBO
 10
0
 20
0
 30
0
 70
128
 71
517
 72
518
 73
528
 74
527
 0
VERTEX
 8
TUBO
 10
0
 20
0
 30
0
 70
128
 71
518
 72
519
 73
529
 74
528
 0
VERTEX
 8
TUBO
 10
0
 20
0
 30
0
 70
128
 71
519
 72
520
 73
530
 74
529
 0
VERTEX
 8
TUBO
 10
0
 20
0
 30
0
 70
128
 71
520
 72
511
 73
521
 74
530
 0
VERTEX
 8
TUBO
 10
0
 20
0
 30
0
 70
128
 71
521
 72
522
 73
532
 74
531
 0
VERTEX
 8
TUBO
 10
0
 20
0
 30
0
 70
128
 71
522
 72
523
 73
533
 74
532
 0
VERTEX
 8
TUBO
 10
0
 20
0
 30
0
 70
128
 71
523
 72
524
 73
534
 74
533
 0
VERTEX
 8
TUBO
 10
0
 20
0
 30
0
 70
128
 71
524
 72
525
 73
535
 74
534
 0
VERTEX
 8
TUBO
 10
0
 20
0
 30
0
 70
128
 71
525
 72
526
 73
536
 74
535
 0
VERTEX
 8
TUBO
 10
0
 20
0
 30
0
 70
128
 71
526
 72
527
 73
537
 74
536
 0
VERTEX
 8
TUBO
 10
0
 20
0
 30
0
 70
128
 71
527
 72
528
 73
538
 74
537
 0
VERTEX
 8
TUBO
 10
0
 20
0
 30
0
 70
128
 71
528
 72
529
 73
539
 74
538
 0
VERTEX
 8
TUBO
 10
0
 20
0
 30
0
 70
128
 71
529
 72
530
 73
540
 74
539
 0
VERTEX
 8
TUBO
 10
0
 20
0
 30
0
 70
128
 71
530
 72
521
 73
531
 74
540
 0
VERTEX
 8
TUBO
 10
0
 20
0
 30
0
 70
128
 71
531
 72
532
 73
542
 74
541
 0
VERTEX
 8
TUBO
 10
0
 20
0
 30
0
 70
128
 71
532
 72
533
 73
543
 74
542
 0
VERTEX
 8
TUBO
 10
0
 20
0
 30
0
 70
128
 71
533
 72
534
 73
544
 74
543
 0
VERTEX
 8
TUBO
 10
0
 20
0
 30
0
 70
128
 71
534
 72
535
 73
545
 74
544
 0
VERTEX
 8
TUBO
 10
0
 20
0
 30
0
 70
128
 71
535
 72
536
 73
546
 74
545
 0
VERTEX
 8
TUBO
 10
0
 20
0
 30
0
 70
128
 71
536
 72
537
 73
547
 74
546
 0
VERTEX
 8
TUBO
 10
0
 20
0
 30
0
 70
128
 71
537
 72
538
 73
548
 74
547
 0
VERTEX
 8
TUBO
 10
0
 20
0
 30
0
 70
128
 71
538
 72
539
 73
549
 74
548
 0
VERTEX
 8
TUBO
 10
0
 20
0
 30
0
 70
128
 71
539
 72
540
 73
550
 74
549
 0
VERTEX
 8
TUBO
 10
0
 20
0
 30
0
 70
128
 71
540
 72
531
 73
541
 74
550
 0
VERTEX
 8
TUBO
 10
0
 20
0
 30
0
 70
128
 71
541
 72
542
 73
552
 74
551
 0
VERTEX
 8
TUBO
 10
0
 20
0
 30
0
 70
128
 71
542
 72
543
 73
553
 74
552
 0
VERTEX
 8
TUBO
 10
0
 20
0
 30
0
 70
128
 71
543
 72
544
 73
554
 74
553
 0
VERTEX
 8
TUBO
 10
0
 20
0
 30
0
 70
128
 71
544
 72
545
 73
555
 74
554
 0
VERTEX
 8
TUBO
 10
0
 20
0
 30
0
 70
128
 71
545
 72
546
 73
556
 74
555
 0
VERTEX
 8
TUBO
 10
0
 20
0
 30
0
 70
128
 71
546
 72
547
 73
557
 74
556
 0
VERTEX
 8
TUBO
 10
0
 20
0
 30
0
 70
128
 71
547
 72
548
 73
558
 74
557
 0
VERTEX
 8
TUBO
 10
0
 20
0
 30
0
 70
128
 71
548
 72
549
 73
559
 74
558
 0
VERTEX
 8
TUBO
 10
0
 20
0
 30
0
 70
128
 71
549
 72
550
 73
560
 74
559
 0
VERTEX
 8
TUBO
 10
0
 20
0
 30
0
 70
128
 71
550
 72
541
 73
551
 74
560
 0
VERTEX
 8
TUBO
 10
0
 20
0
 30
0
 70
128
 71
551
 72
552
 73
562
 74
561
 0
VERTEX
 8
TUBO
 10
0
 20
0
 30
0
 70
128
 71
552
 72
553
 73
563
 74
562
 0
VERTEX
 8
TUBO
 10
0
 20
0
 30
0
 70
128
 71
553
 72
554
 73
564
 74
563
 0
VERTEX
 8
TUBO
 10
0
 20
0
 30
0
 70
128
 71
554
 72
555
 73
565
 74
564
 0
VERTEX
 8
TUBO
 10
0
 20
0
 30
0
 70
128
 71
555
 72
556
 73
566
 74
565
 0
VERTEX
 8
TUBO
 10
0
 20
0
 30
0
 70
128
 71
556
 72
557
 73
567
 74
566
 0
VERTEX
 8
TUBO
 10
0
 20
0
 30
0
 70
128
 71
557
 72
558
 73
568
 74
567
 0
VERTEX
 8
TUBO
 10
0
 20
0
 30
0
 70
128
 71
558
 72
559
 73
569
 74
568
 0
VERTEX
 8
TUBO
 10
0
 20
0
 30
0
 70
128
 71
559
 72
560
 73
570
 74
569
 0
VERTEX
 8
TUBO
 10
0
 20
0
 30
0
 70
128
 71
560
 72
551
 73
561
 74
570
 0
VERTEX
 8
TUBO
 10
0
 20
0
 30
0
 70
128
 71
561
 72
562
 73
572
 74
571
 0
VERTEX
 8
TUBO
 10
0
 20
0
 30
0
 70
128
 71
562
 72
563
 73
573
 74
572
 0
VERTEX
 8
TUBO
 10
0
 20
0
 30
0
 70
128
 71
563
 72
564
 73
574
 74
573
 0
VERTEX
 8
TUBO
 10
0
 20
0
 30
0
 70
128
 71
564
 72
565
 73
575
 74
574
 0
VERTEX
 8
TUBO
 10
0
 20
0
 30
0
 70
128
 71
565
 72
566
 73
576
 74
575
 0
VERTEX
 8
TUBO
 10
0
 20
0
 30
0
 70
128
 71
566
 72
567
 73
577
 74
576
 0
VERTEX
 8
TUBO
 10
0
 20
0
 30
0
 70
128
 71
567
 72
568
 73
578
 74
577
 0
VERTEX
 8
TUBO
 10
0
 20
0
 30
0
 70
128
 71
568
 72
569
 73
579
 74
578
 0
VERTEX
 8
TUBO
 10
0
 20
0
 30
0
 70
128
 71
569
 72
570
 73
580
 74
579
 0
VERTEX
 8
TUBO
 10
0
 20
0
 30
0
 70
128
 71
570
 72
561
 73
571
 74
580
 0
VERTEX
 8
TUBO
 10
0
 20
0
 30
0
 70
128
 71
571
 72
572
 73
582
 74
581
 0
VERTEX
 8
TUBO
 10
0
 20
0
 30
0
 70
128
 71
572
 72
573
 73
583
 74
582
 0
VERTEX
 8
TUBO
 10
0
 20
0
 30
0
 70
128
 71
573
 72
574
 73
584
 74
583
 0
VERTEX
 8
TUBO
 10
0
 20
0
 30
0
 70
128
 71
574
 72
575
 73
585
 74
584
 0
VERTEX
 8
TUBO
 10
0
 20
0
 30
0
 70
128
 71
575
 72
576
 73
586
 74
585
 0
VERTEX
 8
TUBO
 10
0
 20
0
 30
0
 70
128
 71
576
 72
577
 73
587
 74
586
 0
VERTEX
 8
TUBO
 10
0
 20
0
 30
0
 70
128
 71
577
 72
578
 73
588
 74
587
 0
VERTEX
 8
TUBO
 10
0
 20
0
 30
0
 70
128
 71
578
 72
579
 73
589
 74
588
 0
VERTEX
 8
TUBO
 10
0
 20
0
 30
0
 70
128
 71
579
 72
580
 73
590
 74
589
 0
VERTEX
 8
TUBO
 10
0
 20
0
 30
0
 70
128
 71
580
 72
571
 73
581
 74
590
 0
VERTEX
 8
TUBO
 10
0
 20
0
 30
0
 70
128
 71
581
 72
582
 73
592
 74
591
 0
VERTEX
 8
TUBO
 10
0
 20
0
 30
0
 70
128
 71
582
 72
583
 73
593
 74
592
 0
VERTEX
 8
TUBO
 10
0
 20
0
 30
0
 70
128
 71
583
 72
584
 73
594
 74
593
 0
VERTEX
 8
TUBO
 10
0
 20
0
 30
0
 70
128
 71
584
 72
585
 73
595
 74
594
 0
VERTEX
 8
TUBO
 10
0
 20
0
 30
0
 70
128
 71
585
 72
586
 73
596
 74
595
 0
VERTEX
 8
TUBO
 10
0
 20
0
 30
0
 70
128
 71
586
 72
587
 73
597
 74
596
 0
VERTEX
 8
TUBO
 10
0
 20
0
 30
0
 70
128
 71
587
 72
588
 73
598
 74
597
 0
VERTEX
 8
TUBO
 10
0
 20
0
 30
0
 70
128
 71
588
 72
589
 73
599
 74
598
 0
VERTEX
 8
TUBO
 10
0
 20
0
 30
0
 70
128
 71
589
 72
590
 73
600
 74
599
 0
VERTEX
 8
TUBO
 10
0
 20
0
 30
0
 70
128
 71
590
 72
581
 73
591
 74
600
 0
VERTEX
 8
TUBO
 10
0
 20
0
 30
0
 70
128
 71
591
 72
592
 73
602
 74
601
 0
VERTEX
 8
TUBO
 10
0
 20
0
 30
0
 70
128
 71
592
 72
593
 73
603
 74
602
 0
VERTEX
 8
TUBO
 10
0
 20
0
 30
0
 70
128
 71
593
 72
594
 73
604
 74
603
 0
VERTEX
 8
TUBO
 10
0
 20
0
 30
0
 70
128
 71
594
 72
595
 73
605
 74
604
 0
VERTEX
 8
TUBO
 10
0
 20
0
 30
0
 70
128
 71
595
 72
596
 73
606
 74
605
 0
VERTEX
 8
TUBO
 10
0
 20
0
 30
0
 70
128
 71
596
 72
597
 73
607
 74
606
 0
VERTEX
 8
TUBO
 10
0
 20
0
 30
0
 70
128
 71
597
 72
598
 73
608
 74
607
 0
VERTEX
 8
TUBO
 10
0
 20
0
 30
0
 70
128
 71
598
 72
599
 73
609
 74
608
 0
VERTEX
 8
TUBO
 10
0
 20
0
 30
0
 70
128
 71
599
 72
600
 73
610
 74
609
 0
VERTEX
 8
TUBO
 10
0
 20
0
 30
0
 70
128
 71
600
 72
591
 73
601
 74
610
 0
VERTEX
 8
TUBO
 10
0
 20
0
 30
0
 70
128
 71
601
 72
602
 73
612
 74
611
 0
VERTEX
 8
TUBO
 10
0
 20
0
 30
0
 70
128
 71
602
 72
603
 73
613
 74
612
 0
VERTEX
 8
TUBO
 10
0
 20
0
 30
0
 70
128
 71
603
 72
604
 73
614
 74
613
 0
VERTEX
 8
TUBO
 10
0
 20
0
 30
0
 70
128
 71
604
 72
605
 73
615
 74
614
 0
VERTEX
 8
TUBO
 10
0
 20
0
 30
0
 70
128
 71
605
 72
606
 73
616
 74
615
 0
VERTEX
 8
TUBO
 10
0
 20
0
 30
0
 70
128
 71
606
 72
607
 73
617
 74
616
 0
VERTEX
 8
TUBO
 10
0
 20
0
 30
0
 70
128
 71
607
 72
608
 73
618
 74
617
 0
VERTEX
 8
TUBO
 10
0
 20
0
 30
0
 70
128
 71
608
 72
609
 73
619
 74
618
 0
VERTEX
 8
TUBO
 10
0
 20
0
 30
0
 70
128
 71
609
 72
610
 73
620
 74
619
 0
VERTEX
 8
TUBO
 10
0
 20
0
 30
0
 70
128
 71
610
 72
601
 73
611
 74
620
 0
VERTEX
 8
TUBO
 10
0
 20
0
 30
0
 70
128
 71
611
 72
612
 73
622
 74
621
 0
VERTEX
 8
TUBO
 10
0
 20
0
 30
0
 70
128
 71
612
 72
613
 73
623
 74
622
 0
VERTEX
 8
TUBO
 10
0
 20
0
 30
0
 70
128
 71
613
 72
614
 73
624
 74
623
 0
VERTEX
 8
TUBO
 10
0
 20
0
 30
0
 70
128
 71
614
 72
615
 73
625
 74
624
 0
VERTEX
 8
TUBO
 10
0
 20
0
 30
0
 70
128
 71
615
 72
616
 73
626
 74
625
 0
VERTEX
 8
TUBO
 10
0
 20
0
 30
0
 70
128
 71
616
 72
617
 73
627
 74
626
 0
VERTEX
 8
TUBO
 10
0
 20
0
 30
0
 70
128
 71
617
 72
618
 73
628
 74
627
 0
VERTEX
 8
TUBO
 10
0
 20
0
 30
0
 70
128
 71
618
 72
619
 73
629
 74
628
 0
VERTEX
 8
TUBO
 10
0
 20
0
 30
0
 70
128
 71
619
 72
620
 73
630
 74
629
 0
VERTEX
 8
TUBO
 10
0
 20
0
 30
0
 70
128
 71
620
 72
611
 73
621
 74
630
 0
VERTEX
 8
TUBO
 10
0
 20
0
 30
0
 70
128
 71
621
 72
622
 73
632
 74
631
 0
VERTEX
 8
TUBO
 10
0
 20
0
 30
0
 70
128
 71
622
 72
623
 73
633
 74
632
 0
VERTEX
 8
TUBO
 10
0
 20
0
 30
0
 70
128
 71
623
 72
624
 73
634
 74
633
 0
VERTEX
 8
TUBO
 10
0
 20
0
 30
0
 70
128
 71
624
 72
625
 73
635
 74
634
 0
VERTEX
 8
TUBO
 10
0
 20
0
 30
0
 70
128
 71
625
 72
626
 73
636
 74
635
 0
VERTEX
 8
TUBO
 10
0
 20
0
 30
0
 70
128
 71
626
 72
627
 73
637
 74
636
 0
VERTEX
 8
TUBO
 10
0
 20
0
 30
0
 70
128
 71
627
 72
628
 73
638
 74
637
 0
VERTEX
 8
TUBO
 10
0
 20
0
 30
0
 70
128
 71
628
 72
629
 73
639
 74
638
 0
VERTEX
 8
TUBO
 10
0
 20
0
 30
0
 70
128
 71
629
 72
630
 73
640
 74
639
 0
VERTEX
 8
TUBO
 10
0
 20
0
 30
0
 70
128
 71
630
 72
621
 73
631
 74
640
 0
VERTEX
 8
TUBO
 10
0
 20
0
 30
0
 70
128
 71
631
 72
632
 73
2
 74
1
 0
VERTEX
 8
TUBO
 10
0
 20
0
 30
0
 70
128
 71
632
 72
633
 73
3
 74
2
 0
VERTEX
 8
TUBO
 10
0
 20
0
 30
0
 70
128
 71
633
 72
634
 73
4
 74
3
 0
VERTEX
 8
TUBO
 10
0
 20
0
 30
0
 70
128
 71
634
 72
635
 73
5
 74
4
 0
VERTEX
 8
TUBO
 10
0
 20
0
 30
0
 70
128
 71
635
 72
636
 73
6
 74
5
 0
VERTEX
 8
TUBO
 10
0
 20
0
 30
0
 70
128
 71
636
 72
637
 73
7
 74
6
 0
VERTEX
 8
TUBO
 10
0
 20
0
 30
0
 70
128
 71
637
 72
638
 73
8
 74
7
 0
VERTEX
 8
TUBO
 10
0
 20
0
 30
0
 70
128
 71
638
 72
639
 73
9
 74
8
 0
VERTEX
 8
TUBO
 10
0
 20
0
 30
0
 70
128
 71
639
 72
640
 73
10
 74
9
 0
VERTEX
 8
TUBO
 10
0
 20
0
 30
0
 70
128
 71
640
 72
631
 73
1
 74
10
 0
SEQEND
 0
POLYLINE
 8
FULGOR
 66
1
 10
0.0
 20
0.0
 30
0.0
 70
64
 71
363
 72
183
 0
VERTEX
 8
FULGOR
 10
0.2341
 20
-13.4532
 30
0.0025
 70
192
 0
VERTEX
 8
FULGOR
 10
-2.2107
 20
-13.5455
 30
0.0025
 70
192
 0
VERTEX
 8
FULGOR
 10
1.2418
 20
-13.5221
 30
0.0025
 70
192
 0
VERTEX
 8
FULGOR
 10
-2.0716
 20
-13.2786
 30
0.0025
 70
192
 0
VERTEX
 8
FULGOR
 10
-2.0716
 20
-13.1946
 30
0.0025
 70
192
 0
VERTEX
 8
FULGOR
 10
-1.7302
 20
-13.1946
 30
0.0025
 70
192
 0
VERTEX
 8
FULGOR
 10
-1.7302
 20
-13.095
 30
0.0025
 70
192
 0
VERTEX
 8
FULGOR
 10
-2.2107
 20
-13.095
 30
0.0025
 70
192
 0
VERTEX
 8
FULGOR
 10
-1.5889
 20
-13.3497
 30
0.0025
 70
192
 0
VERTEX
 8
FULGOR
 10
-1.5878
 20
-13.3708
 30
0.0025
 70
192
 0
VERTEX
 8
FULGOR
 10
-1.5846
 20
-13.3902
 30
0.0025
 70
192
 0
VERTEX
 8
FULGOR
 10
-2.0716
 20
-13.5455
 30
0.0025
 70
192
 0
VERTEX
 8
FULGOR
 10
-2.0716
 20
-13.3588
 30
0.0025
 70
192
 0
VERTEX
 8
FULGOR
 10
-1.7302
 20
-13.3588
 30
0.0025
 70
192
 0
VERTEX
 8
FULGOR
 10
-1.7302
 20
-13.2786
 30
0.0025
 70
192
 0
VERTEX
 8
FULGOR
 10
-1.5889
 20
-13.095
 30
0.0025
 70
192
 0
VERTEX
 8
FULGOR
 10
-1.5795
 20
-13.4081
 30
0.0025
 70
192
 0
VERTEX
 8
FULGOR
 10
-1.5725
 20
-13.4246
 30
0.0025
 70
192
 0
VERTEX
 8
FULGOR
 10
-1.5639
 20
-13.4396
 30
0.0025
 70
192
 0
VERTEX
 8
FULGOR
 10
-1.5536
 20
-13.4533
 30
0.0025
 70
192
 0
VERTEX
 8
FULGOR
 10
-1.4301
 20
-13.5221
 30
0.0025
 70
192
 0
VERTEX
 8
FULGOR
 10
-1.3824
 20
-13.532
 30
0.0025
 70
192
 0
VERTEX
 8
FULGOR
 10
-1.3049
 20
-13.5402
 30
0.0025
 70
192
 0
VERTEX
 8
FULGOR
 10
-1.2245
 20
-13.5427
 30
0.0025
 70
192
 0
VERTEX
 8
FULGOR
 10
-1.1347
 20
-13.5395
 30
0.0025
 70
192
 0
VERTEX
 8
FULGOR
 10
-1.0669
 20
-13.5305
 30
0.0025
 70
192
 0
VERTEX
 8
FULGOR
 10
-1.542
 20
-13.4657
 30
0.0025
 70
192
 0
VERTEX
 8
FULGOR
 10
-0.9833
 20
-13.5077
 30
0.0025
 70
192
 0
VERTEX
 8
FULGOR
 10
-1.529
 20
-13.4769
 30
0.0025
 70
192
 0
VERTEX
 8
FULGOR
 10
-1.5148
 20
-13.4869
 30
0.0025
 70
192
 0
VERTEX
 8
FULGOR
 10
-1.4915
 20
-13.5
 30
0.0025
 70
192
 0
VERTEX
 8
FULGOR
 10
-1.4662
 20
-13.5108
 30
0.0025
 70
192
 0
VERTEX
 8
FULGOR
 10
-0.891
 20
-13.4454
 30
0.0025
 70
192
 0
VERTEX
 8
FULGOR
 10
-1.0193
 20
-13.5196
 30
0.0025
 70
192
 0
VERTEX
 8
FULGOR
 10
-0.9581
 20
-13.4967
 30
0.0025
 70
192
 0
VERTEX
 8
FULGOR
 10
-0.9349
 20
-13.4838
 30
0.0025
 70
192
 0
VERTEX
 8
FULGOR
 10
-0.9142
 20
-13.4688
 30
0.0025
 70
192
 0
VERTEX
 8
FULGOR
 10
-0.8623
 20
-13.3768
 30
0.0025
 70
192
 0
VERTEX
 8
FULGOR
 10
-0.8612
 20
-13.3583
 30
0.0025
 70
192
 0
VERTEX
 8
FULGOR
 10
-0.861
 20
-13.095
 30
0.0025
 70
192
 0
VERTEX
 8
FULGOR
 10
-0.9019
 20
-13.4576
 30
0.0025
 70
192
 0
VERTEX
 8
FULGOR
 10
-0.8816
 20
-13.4322
 30
0.0025
 70
192
 0
VERTEX
 8
FULGOR
 10
-1.0002
 20
-13.357
 30
0.0025
 70
192
 0
VERTEX
 8
FULGOR
 10
-1.001
 20
-13.3633
 30
0.0025
 70
192
 0
VERTEX
 8
FULGOR
 10
-1.0024
 20
-13.3696
 30
0.0025
 70
192
 0
VERTEX
 8
FULGOR
 10
-1.0045
 20
-13.3758
 30
0.0025
 70
192
 0
VERTEX
 8
FULGOR
 10
-1.0072
 20
-13.382
 30
0.0025
 70
192
 0
VERTEX
 8
FULGOR
 10
-1.0106
 20
-13.388
 30
0.0025
 70
192
 0
VERTEX
 8
FULGOR
 10
-1.0148
 20
-13.3939
 30
0.0025
 70
192
 0
VERTEX
 8
FULGOR
 10
-1.0223
 20
-13.4025
 30
0.0025
 70
192
 0
VERTEX
 8
FULGOR
 10
-1.0315
 20
-13.4107
 30
0.0025
 70
192
 0
VERTEX
 8
FULGOR
 10
-1.0424
 20
-13.4185
 30
0.0025
 70
192
 0
VERTEX
 8
FULGOR
 10
-1.055
 20
-13.4257
 30
0.0025
 70
192
 0
VERTEX
 8
FULGOR
 10
-0.8738
 20
-13.4178
 30
0.0025
 70
192
 0
VERTEX
 8
FULGOR
 10
-0.8678
 20
-13.4023
 30
0.0025
 70
192
 0
VERTEX
 8
FULGOR
 10
-0.8637
 20
-13.3856
 30
0.0025
 70
192
 0
VERTEX
 8
FULGOR
 10
-1
 20
-13.095
 30
0.0025
 70
192
 0
VERTEX
 8
FULGOR
 10
-1
 20
-13.3506
 30
0.0025
 70
192
 0
VERTEX
 8
FULGOR
 10
-1.3037
 20
-13.4522
 30
0.0025
 70
192
 0
VERTEX
 8
FULGOR
 10
-1.0747
 20
-13.4344
 30
0.0025
 70
192
 0
VERTEX
 8
FULGOR
 10
-1.3696
 20
-13.4399
 30
0.0025
 70
192
 0
VERTEX
 8
FULGOR
 10
-1.3899
 20
-13.4326
 30
0.0025
 70
192
 0
VERTEX
 8
FULGOR
 10
-1.0976
 20
-13.4418
 30
0.0025
 70
192
 0
VERTEX
 8
FULGOR
 10
-1.1312
 20
-13.4491
 30
0.0025
 70
192
 0
VERTEX
 8
FULGOR
 10
-1.1703
 20
-13.4539
 30
0.0025
 70
192
 0
VERTEX
 8
FULGOR
 10
-1.4298
 20
-13.4053
 30
0.0025
 70
192
 0
VERTEX
 8
FULGOR
 10
-1.4347
 20
-13.3993
 30
0.0025
 70
192
 0
VERTEX
 8
FULGOR
 10
-1.4388
 20
-13.3929
 30
0.0025
 70
192
 0
VERTEX
 8
FULGOR
 10
-1.4423
 20
-13.3861
 30
0.0025
 70
192
 0
VERTEX
 8
FULGOR
 10
-1.4451
 20
-13.379
 30
0.0025
 70
192
 0
VERTEX
 8
FULGOR
 10
-1.225
 20
-13.456
 30
0.0025
 70
192
 0
VERTEX
 8
FULGOR
 10
-1.4493
 20
-13.3598
 30
0.0025
 70
192
 0
VERTEX
 8
FULGOR
 10
-1.4499
 20
-13.3472
 30
0.0025
 70
192
 0
VERTEX
 8
FULGOR
 10
-1.4499
 20
-13.095
 30
0.0025
 70
192
 0
VERTEX
 8
FULGOR
 10
-1.3459
 20
-13.4458
 30
0.0025
 70
192
 0
VERTEX
 8
FULGOR
 10
-1.4031
 20
-13.4262
 30
0.0025
 70
192
 0
VERTEX
 8
FULGOR
 10
-1.4145
 20
-13.419
 30
0.0025
 70
192
 0
VERTEX
 8
FULGOR
 10
-1.4243
 20
-13.4111
 30
0.0025
 70
192
 0
VERTEX
 8
FULGOR
 10
-0.5811
 20
-13.446
 30
0.0025
 70
192
 0
VERTEX
 8
FULGOR
 10
-0.5811
 20
-13.095
 30
0.0025
 70
192
 0
VERTEX
 8
FULGOR
 10
0.5237
 20
-13.1365
 30
0.0025
 70
192
 0
VERTEX
 8
FULGOR
 10
-1.4472
 20
-13.3716
 30
0.0025
 70
192
 0
VERTEX
 8
FULGOR
 10
-0.7203
 20
-13.095
 30
0.0025
 70
192
 0
VERTEX
 8
FULGOR
 10
0.2486
 20
-13.0954
 30
0.0025
 70
192
 0
VERTEX
 8
FULGOR
 10
-0.7203
 20
-13.5455
 30
0.0025
 70
192
 0
VERTEX
 8
FULGOR
 10
-0.2398
 20
-13.5455
 30
0.0025
 70
192
 0
VERTEX
 8
FULGOR
 10
-0.2398
 20
-13.446
 30
0.0025
 70
192
 0
VERTEX
 8
FULGOR
 10
0.4452
 20
-13.1188
 30
0.0025
 70
192
 0
VERTEX
 8
FULGOR
 10
0.3619
 20
-13.1055
 30
0.0025
 70
192
 0
VERTEX
 8
FULGOR
 10
0.1853
 20
-13.0955
 30
0.0025
 70
192
 0
VERTEX
 8
FULGOR
 10
-0.0587
 20
-13.1637
 30
0.0025
 70
192
 0
VERTEX
 8
FULGOR
 10
-0.0824
 20
-13.1792
 30
0.0025
 70
192
 0
VERTEX
 8
FULGOR
 10
-0.1024
 20
-13.1952
 30
0.0025
 70
192
 0
VERTEX
 8
FULGOR
 10
-0.1194
 20
-13.2117
 30
0.0025
 70
192
 0
VERTEX
 8
FULGOR
 10
0.128
 20
-13.1013
 30
0.0025
 70
192
 0
VERTEX
 8
FULGOR
 10
0.077
 20
-13.1111
 30
0.0025
 70
192
 0
VERTEX
 8
FULGOR
 10
0.0269
 20
-13.1255
 30
0.0025
 70
192
 0
VERTEX
 8
FULGOR
 10
-0.1575
 20
-13.2727
 30
0.0025
 70
192
 0
VERTEX
 8
FULGOR
 10
-0.1616
 20
-13.2857
 30
0.0025
 70
192
 0
VERTEX
 8
FULGOR
 10
-0.0182
 20
-13.1431
 30
0.0025
 70
192
 0
VERTEX
 8
FULGOR
 10
-0.0414
 20
-13.1542
 30
0.0025
 70
192
 0
VERTEX
 8
FULGOR
 10
-0.1327
 20
-13.2275
 30
0.0025
 70
192
 0
VERTEX
 8
FULGOR
 10
-0.1655
 20
-13.3384
 30
0.0025
 70
192
 0
VERTEX
 8
FULGOR
 10
-0.1423
 20
-13.2414
 30
0.0025
 70
192
 0
VERTEX
 8
FULGOR
 10
-0.1507
 20
-13.2565
 30
0.0025
 70
192
 0
VERTEX
 8
FULGOR
 10
-0.1644
 20
-13.2993
 30
0.0025
 70
192
 0
VERTEX
 8
FULGOR
 10
-0.1657
 20
-13.3088
 30
0.0025
 70
192
 0
VERTEX
 8
FULGOR
 10
-0.1664
 20
-13.3235
 30
0.0025
 70
192
 0
VERTEX
 8
FULGOR
 10
-0.1629
 20
-13.353
 30
0.0025
 70
192
 0
VERTEX
 8
FULGOR
 10
-0.1044
 20
-13.4431
 30
0.0025
 70
192
 0
VERTEX
 8
FULGOR
 10
-0.0823
 20
-13.4609
 30
0.0025
 70
192
 0
VERTEX
 8
FULGOR
 10
-0.1586
 20
-13.3672
 30
0.0025
 70
192
 0
VERTEX
 8
FULGOR
 10
-0.0212
 20
-13.4968
 30
0.0025
 70
192
 0
VERTEX
 8
FULGOR
 10
0.0122
 20
-13.5107
 30
0.0025
 70
192
 0
VERTEX
 8
FULGOR
 10
-0.1528
 20
-13.381
 30
0.0025
 70
192
 0
VERTEX
 8
FULGOR
 10
-0.1456
 20
-13.3943
 30
0.0025
 70
192
 0
VERTEX
 8
FULGOR
 10
0.1695
 20
-13.5432
 30
0.0025
 70
192
 0
VERTEX
 8
FULGOR
 10
0.213
 20
-13.5453
 30
0.0025
 70
192
 0
VERTEX
 8
FULGOR
 10
0.2486
 20
-13.5451
 30
0.0025
 70
192
 0
VERTEX
 8
FULGOR
 10
0.305
 20
-13.5419
 30
0.0025
 70
192
 0
VERTEX
 8
FULGOR
 10
-0.134
 20
-13.4115
 30
0.0025
 70
192
 0
VERTEX
 8
FULGOR
 10
-0.1201
 20
-13.4277
 30
0.0025
 70
192
 0
VERTEX
 8
FULGOR
 10
-0.053
 20
-13.4801
 30
0.0025
 70
192
 0
VERTEX
 8
FULGOR
 10
0.3639
 20
-13.3116
 30
0.0025
 70
192
 0
VERTEX
 8
FULGOR
 10
0.0577
 20
-13.5249
 30
0.0025
 70
192
 0
VERTEX
 8
FULGOR
 10
0.1079
 20
-13.5357
 30
0.0025
 70
192
 0
VERTEX
 8
FULGOR
 10
0.3751
 20
-13.5327
 30
0.0025
 70
192
 0
VERTEX
 8
FULGOR
 10
0.5237
 20
-13.5041
 30
0.0025
 70
192
 0
VERTEX
 8
FULGOR
 10
0.2079
 20
-13.4529
 30
0.0025
 70
192
 0
VERTEX
 8
FULGOR
 10
0.1774
 20
-13.4505
 30
0.0025
 70
192
 0
VERTEX
 8
FULGOR
 10
0.5237
 20
-13.3116
 30
0.0025
 70
192
 0
VERTEX
 8
FULGOR
 10
0.1202
 20
-13.4377
 30
0.0025
 70
192
 0
VERTEX
 8
FULGOR
 10
0.0994
 20
-13.4296
 30
0.0025
 70
192
 0
VERTEX
 8
FULGOR
 10
0.3638
 20
-13.4435
 30
0.0025
 70
192
 0
VERTEX
 8
FULGOR
 10
0.3456
 20
-13.4469
 30
0.0025
 70
192
 0
VERTEX
 8
FULGOR
 10
0.0514
 20
-13.3991
 30
0.0025
 70
192
 0
VERTEX
 8
FULGOR
 10
0.2956
 20
-13.452
 30
0.0025
 70
192
 0
VERTEX
 8
FULGOR
 10
0.2587
 20
-13.4534
 30
0.0025
 70
192
 0
VERTEX
 8
FULGOR
 10
0.148
 20
-13.4454
 30
0.0025
 70
192
 0
VERTEX
 8
FULGOR
 10
0.0803
 20
-13.4199
 30
0.0025
 70
192
 0
VERTEX
 8
FULGOR
 10
0.0162
 20
-13.3432
 30
0.0025
 70
192
 0
VERTEX
 8
FULGOR
 10
0.014
 20
-13.3336
 30
0.0025
 70
192
 0
VERTEX
 8
FULGOR
 10
0.0127
 20
-13.3238
 30
0.0025
 70
192
 0
VERTEX
 8
FULGOR
 10
0.0123
 20
-13.3135
 30
0.0025
 70
192
 0
VERTEX
 8
FULGOR
 10
0.0129
 20
-13.3033
 30
0.0025
 70
192
 0
VERTEX
 8
FULGOR
 10
0.063
 20
-13.4086
 30
0.0025
 70
192
 0
VERTEX
 8
FULGOR
 10
0.0411
 20
-13.3887
 30
0.0025
 70
192
 0
VERTEX
 8
FULGOR
 10
0.0322
 20
-13.3774
 30
0.0025
 70
192
 0
VERTEX
 8
FULGOR
 10
0.0255
 20
-13.2671
 30
0.0025
 70
192
 0
VERTEX
 8
FULGOR
 10
0.031
 20
-13.2591
 30
0.0025
 70
192
 0
VERTEX
 8
FULGOR
 10
0.0372
 20
-13.2517
 30
0.0025
 70
192
 0
VERTEX
 8
FULGOR
 10
0.0249
 20
-13.3653
 30
0.0025
 70
192
 0
VERTEX
 8
FULGOR
 10
0.0598
 20
-13.2318
 30
0.0025
 70
192
 0
VERTEX
 8
FULGOR
 10
0.073
 20
-13.2233
 30
0.0025
 70
192
 0
VERTEX
 8
FULGOR
 10
0.0191
 20
-13.3523
 30
0.0025
 70
192
 0
VERTEX
 8
FULGOR
 10
0.1173
 20
-13.2036
 30
0.0025
 70
192
 0
VERTEX
 8
FULGOR
 10
0.1434
 20
-13.1961
 30
0.0025
 70
192
 0
VERTEX
 8
FULGOR
 10
0.0145
 20
-13.2936
 30
0.0025
 70
192
 0
VERTEX
 8
FULGOR
 10
0.1893
 20
-13.1889
 30
0.0025
 70
192
 0
VERTEX
 8
FULGOR
 10
0.0173
 20
-13.2843
 30
0.0025
 70
192
 0
VERTEX
 8
FULGOR
 10
0.3012
 20
-13.1926
 30
0.0025
 70
192
 0
VERTEX
 8
FULGOR
 10
0.0209
 20
-13.2755
 30
0.0025
 70
192
 0
VERTEX
 8
FULGOR
 10
0.5237
 20
-13.2327
 30
0.0025
 70
192
 0
VERTEX
 8
FULGOR
 10
0.6649
 20
-13.3203
 30
0.0025
 70
192
 0
VERTEX
 8
FULGOR
 10
0.6661
 20
-13.3403
 30
0.0025
 70
192
 0
VERTEX
 8
FULGOR
 10
0.0478
 20
-13.2413
 30
0.0025
 70
192
 0
VERTEX
 8
FULGOR
 10
0.092
 20
-13.2135
 30
0.0025
 70
192
 0
VERTEX
 8
FULGOR
 10
0.6826
 20
-13.3938
 30
0.0025
 70
192
 0
VERTEX
 8
FULGOR
 10
0.692
 20
-13.4095
 30
0.0025
 70
192
 0
VERTEX
 8
FULGOR
 10
0.7031
 20
-13.4242
 30
0.0025
 70
192
 0
VERTEX
 8
FULGOR
 10
0.7158
 20
-13.4379
 30
0.0025
 70
192
 0
VERTEX
 8
FULGOR
 10
0.7376
 20
-13.4567
 30
0.0025
 70
192
 0
VERTEX
 8
FULGOR
 10
0.1744
 20
-13.1905
 30
0.0025
 70
192
 0
VERTEX
 8
FULGOR
 10
0.2079
 20
-13.1882
 30
0.0025
 70
192
 0
VERTEX
 8
FULGOR
 10
0.388
 20
-13.205
 30
0.0025
 70
192
 0
VERTEX
 8
FULGOR
 10
0.6696
 20
-13.3592
 30
0.0025
 70
192
 0
VERTEX
 8
FULGOR
 10
0.6751
 20
-13.3771
 30
0.0025
 70
192
 0
VERTEX
 8
FULGOR
 10
1.0068
 20
-13.5419
 30
0.0025
 70
192
 0
VERTEX
 8
FULGOR
 10
1.065
 20
-13.5442
 30
0.0025
 70
192
 0
VERTEX
 8
FULGOR
 10
0.7621
 20
-13.4733
 30
0.0025
 70
192
 0
VERTEX
 8
FULGOR
 10
1.2076
 20
-13.5305
 30
0.0025
 70
192
 0
VERTEX
 8
FULGOR
 10
0.7891
 20
-13.488
 30
0.0025
 70
192
 0
VERTEX
 8
FULGOR
 10
0.8279
 20
-13.5045
 30
0.0025
 70
192
 0
VERTEX
 8
FULGOR
 10
0.8797
 20
-13.5208
 30
0.0025
 70
192
 0
VERTEX
 8
FULGOR
 10
0.9439
 20
-13.5343
 30
0.0025
 70
192
 0
VERTEX
 8
FULGOR
 10
1.1335
 20
-13.541
 30
0.0025
 70
192
 0
VERTEX
 8
FULGOR
 10
1.4207
 20
-13.4312
 30
0.0025
 70
192
 0
VERTEX
 8
FULGOR
 10
1.2713
 20
-13.5148
 30
0.0025
 70
192
 0
VERTEX
 8
FULGOR
 10
1.3219
 20
-13.4966
 30
0.0025
 70
192
 0
VERTEX
 8
FULGOR
 10
1.3591
 20
-13.4784
 30
0.0025
 70
192
 0
VERTEX
 8
FULGOR
 10
1.3845
 20
-13.4624
 30
0.0025
 70
192
 0
VERTEX
 8
FULGOR
 10
1.4072
 20
-13.4444
 30
0.0025
 70
192
 0
VERTEX
 8
FULGOR
 10
1.4639
 20
-13.3404
 30
0.0025
 70
192
 0
VERTEX
 8
FULGOR
 10
1.4651
 20
-13.3204
 30
0.0025
 70
192
 0
VERTEX
 8
FULGOR
 10
1.4639
 20
-13.3004
 30
0.0025
 70
192
 0
VERTEX
 8
FULGOR
 10
1.4605
 20
-13.2815
 30
0.0025
 70
192
 0
VERTEX
 8
FULGOR
 10
1.4326
 20
-13.417
 30
0.0025
 70
192
 0
VERTEX
 8
FULGOR
 10
1.4428
 20
-13.4018
 30
0.0025
 70
192
 0
VERTEX
 8
FULGOR
 10
1.4513
 20
-13.3856
 30
0.0025
 70
192
 0
VERTEX
 8
FULGOR
 10
1.427
 20
-13.2166
 30
0.0025
 70
192
 0
VERTEX
 8
FULGOR
 10
1.4144
 20
-13.2029
 30
0.0025
 70
192
 0
VERTEX
 8
FULGOR
 10
1.3926
 20
-13.1842
 30
0.0025
 70
192
 0
VERTEX
 8
FULGOR
 10
1.3681
 20
-13.1675
 30
0.0025
 70
192
 0
VERTEX
 8
FULGOR
 10
1.3411
 20
-13.1528
 30
0.0025
 70
192
 0
VERTEX
 8
FULGOR
 10
1.3023
 20
-13.1362
 30
0.0025
 70
192
 0
VERTEX
 8
FULGOR
 10
1.4579
 20
-13.3684
 30
0.0025
 70
192
 0
VERTEX
 8
FULGOR
 10
1.4624
 20
-13.35
 30
0.0025
 70
192
 0
VERTEX
 8
FULGOR
 10
1.455
 20
-13.2637
 30
0.0025
 70
192
 0
VERTEX
 8
FULGOR
 10
1.4475
 20
-13.247
 30
0.0025
 70
192
 0
VERTEX
 8
FULGOR
 10
0.9966
 20
-13.0996
 30
0.0025
 70
192
 0
VERTEX
 8
FULGOR
 10
1.4381
 20
-13.2313
 30
0.0025
 70
192
 0
VERTEX
 8
FULGOR
 10
1.2504
 20
-13.1199
 30
0.0025
 70
192
 0
VERTEX
 8
FULGOR
 10
1.1862
 20
-13.1064
 30
0.0025
 70
192
 0
VERTEX
 8
FULGOR
 10
1.1232
 20
-13.0987
 30
0.0025
 70
192
 0
VERTEX
 8
FULGOR
 10
0.7453
 20
-13.1781
 30
0.0025
 70
192
 0
VERTEX
 8
FULGOR
 10
0.7226
 20
-13.1962
 30
0.0025
 70
192
 0
VERTEX
 8
FULGOR
 10
0.7092
 20
-13.2094
 30
0.0025
 70
192
 0
VERTEX
 8
FULGOR
 10
0.6973
 20
-13.2236
 30
0.0025
 70
192
 0
VERTEX
 8
FULGOR
 10
0.687
 20
-13.2388
 30
0.0025
 70
192
 0
VERTEX
 8
FULGOR
 10
0.6785
 20
-13.255
 30
0.0025
 70
192
 0
VERTEX
 8
FULGOR
 10
0.672
 20
-13.2723
 30
0.0025
 70
192
 0
VERTEX
 8
FULGOR
 10
1.065
 20
-13.0963
 30
0.0025
 70
192
 0
VERTEX
 8
FULGOR
 10
0.6661
 20
-13.3002
 30
0.0025
 70
192
 0
VERTEX
 8
FULGOR
 10
0.8447
 20
-13.3204
 30
0.0025
 70
192
 0
VERTEX
 8
FULGOR
 10
0.8452
 20
-13.3313
 30
0.0025
 70
192
 0
VERTEX
 8
FULGOR
 10
0.9224
 20
-13.1101
 30
0.0025
 70
192
 0
VERTEX
 8
FULGOR
 10
0.8586
 20
-13.1257
 30
0.0025
 70
192
 0
VERTEX
 8
FULGOR
 10
0.808
 20
-13.1439
 30
0.0025
 70
192
 0
VERTEX
 8
FULGOR
 10
0.7707
 20
-13.1622
 30
0.0025
 70
192
 0
VERTEX
 8
FULGOR
 10
0.6675
 20
-13.2907
 30
0.0025
 70
192
 0
VERTEX
 8
FULGOR
 10
0.8667
 20
-13.386
 30
0.0025
 70
192
 0
VERTEX
 8
FULGOR
 10
0.8731
 20
-13.3935
 30
0.0025
 70
192
 0
VERTEX
 8
FULGOR
 10
0.8466
 20
-13.3416
 30
0.0025
 70
192
 0
VERTEX
 8
FULGOR
 10
0.8489
 20
-13.3515
 30
0.0025
 70
192
 0
VERTEX
 8
FULGOR
 10
0.8521
 20
-13.3609
 30
0.0025
 70
192
 0
VERTEX
 8
FULGOR
 10
0.8562
 20
-13.3697
 30
0.0025
 70
192
 0
VERTEX
 8
FULGOR
 10
0.9532
 20
-13.4385
 30
0.0025
 70
192
 0
VERTEX
 8
FULGOR
 10
0.9837
 20
-13.4457
 30
0.0025
 70
192
 0
VERTEX
 8
FULGOR
 10
0.8611
 20
-13.3781
 30
0.0025
 70
192
 0
VERTEX
 8
FULGOR
 10
1.065
 20
-13.4528
 30
0.0025
 70
192
 0
VERTEX
 8
FULGOR
 10
1.1137
 20
-13.4504
 30
0.0025
 70
192
 0
VERTEX
 8
FULGOR
 10
0.8841
 20
-13.4038
 30
0.0025
 70
192
 0
VERTEX
 8
FULGOR
 10
1.1827
 20
-13.4367
 30
0.0025
 70
192
 0
VERTEX
 8
FULGOR
 10
1.2047
 20
-13.4285
 30
0.0025
 70
192
 0
VERTEX
 8
FULGOR
 10
1.2246
 20
-13.4186
 30
0.0025
 70
192
 0
VERTEX
 8
FULGOR
 10
0.8965
 20
-13.4131
 30
0.0025
 70
192
 0
VERTEX
 8
FULGOR
 10
1.2499
 20
-13.4004
 30
0.0025
 70
192
 0
VERTEX
 8
FULGOR
 10
0.9103
 20
-13.4213
 30
0.0025
 70
192
 0
VERTEX
 8
FULGOR
 10
0.9308
 20
-13.4308
 30
0.0025
 70
192
 0
VERTEX
 8
FULGOR
 10
1.2716
 20
-13.3739
 30
0.0025
 70
192
 0
VERTEX
 8
FULGOR
 10
1.0232
 20
-13.451
 30
0.0025
 70
192
 0
VERTEX
 8
FULGOR
 10
1.1527
 20
-13.4444
 30
0.0025
 70
192
 0
VERTEX
 8
FULGOR
 10
1.2379
 20
-13.41
 30
0.0025
 70
192
 0
VERTEX
 8
FULGOR
 10
1.2844
 20
-13.3365
 30
0.0025
 70
192
 0
VERTEX
 8
FULGOR
 10
1.285
 20
-13.3313
 30
0.0025
 70
192
 0
VERTEX
 8
FULGOR
 10
1.2855
 20
-13.3204
 30
0.0025
 70
192
 0
VERTEX
 8
FULGOR
 10
1.285
 20
-13.3096
 30
0.0025
 70
192
 0
VERTEX
 8
FULGOR
 10
1.2603
 20
-13.3898
 30
0.0025
 70
192
 0
VERTEX
 8
FULGOR
 10
1.2664
 20
-13.3821
 30
0.0025
 70
192
 0
VERTEX
 8
FULGOR
 10
1.278
 20
-13.2801
 30
0.0025
 70
192
 0
VERTEX
 8
FULGOR
 10
1.274
 20
-13.2712
 30
0.0025
 70
192
 0
VERTEX
 8
FULGOR
 10
1.2761
 20
-13.3653
 30
0.0025
 70
192
 0
VERTEX
 8
FULGOR
 10
1.2798
 20
-13.3562
 30
0.0025
 70
192
 0
VERTEX
 8
FULGOR
 10
1.257
 20
-13.2475
 30
0.0025
 70
192
 0
VERTEX
 8
FULGOR
 10
1.2825
 20
-13.3466
 30
0.0025
 70
192
 0
VERTEX
 8
FULGOR
 10
1.2836
 20
-13.2993
 30
0.0025
 70
192
 0
VERTEX
 8
FULGOR
 10
1.2197
 20
-13.2198
 30
0.0025
 70
192
 0
VERTEX
 8
FULGOR
 10
1.1993
 20
-13.2104
 30
0.0025
 70
192
 0
VERTEX
 8
FULGOR
 10
1.2812
 20
-13.2894
 30
0.0025
 70
192
 0
VERTEX
 8
FULGOR
 10
1.2691
 20
-13.2629
 30
0.0025
 70
192
 0
VERTEX
 8
FULGOR
 10
1.2634
 20
-13.255
 30
0.0025
 70
192
 0
VERTEX
 8
FULGOR
 10
1.246
 20
-13.2373
 30
0.0025
 70
192
 0
VERTEX
 8
FULGOR
 10
1.0165
 20
-13.1908
 30
0.0025
 70
192
 0
VERTEX
 8
FULGOR
 10
0.9775
 20
-13.1967
 30
0.0025
 70
192
 0
VERTEX
 8
FULGOR
 10
0.9475
 20
-13.2044
 30
0.0025
 70
192
 0
VERTEX
 8
FULGOR
 10
1.2336
 20
-13.228
 30
0.0025
 70
192
 0
VERTEX
 8
FULGOR
 10
1.1768
 20
-13.2027
 30
0.0025
 70
192
 0
VERTEX
 8
FULGOR
 10
1.1463
 20
-13.1955
 30
0.0025
 70
192
 0
VERTEX
 8
FULGOR
 10
1.1069
 20
-13.1902
 30
0.0025
 70
192
 0
VERTEX
 8
FULGOR
 10
1.065
 20
-13.1885
 30
0.0025
 70
192
 0
VERTEX
 8
FULGOR
 10
0.9255
 20
-13.2125
 30
0.0025
 70
192
 0
VERTEX
 8
FULGOR
 10
0.9056
 20
-13.2224
 30
0.0025
 70
192
 0
VERTEX
 8
FULGOR
 10
0.8923
 20
-13.2309
 30
0.0025
 70
192
 0
VERTEX
 8
FULGOR
 10
0.8803
 20
-13.2405
 30
0.0025
 70
192
 0
VERTEX
 8
FULGOR
 10
0.8699
 20
-13.2511
 30
0.0025
 70
192
 0
VERTEX
 8
FULGOR
 10
0.8638
 20
-13.2588
 30
0.0025
 70
192
 0
VERTEX
 8
FULGOR
 10
0.8586
 20
-13.2669
 30
0.0025
 70
192
 0
VERTEX
 8
FULGOR
 10
0.8541
 20
-13.2755
 30
0.0025
 70
192
 0
VERTEX
 8
FULGOR
 10
0.8504
 20
-13.2846
 30
0.0025
 70
192
 0
VERTEX
 8
FULGOR
 10
0.8476
 20
-13.2942
 30
0.0025
 70
192
 0
VERTEX
 8
FULGOR
 10
1.8301
 20
-13.3551
 30
0.0025
 70
192
 0
VERTEX
 8
FULGOR
 10
0.8458
 20
-13.3043
 30
0.0025
 70
192
 0
VERTEX
 8
FULGOR
 10
0.8452
 20
-13.3096
 30
0.0025
 70
192
 0
VERTEX
 8
FULGOR
 10
1.6063
 20
-13.5455
 30
0.0025
 70
192
 0
VERTEX
 8
FULGOR
 10
1.7454
 20
-13.5455
 30
0.0025
 70
192
 0
VERTEX
 8
FULGOR
 10
1.7454
 20
-13.3551
 30
0.0025
 70
192
 0
VERTEX
 8
FULGOR
 10
1.9282
 20
-13.4002
 30
0.0025
 70
192
 0
VERTEX
 8
FULGOR
 10
1.939
 20
-13.4117
 30
0.0025
 70
192
 0
VERTEX
 8
FULGOR
 10
2.0367
 20
-13.5455
 30
0.0025
 70
192
 0
VERTEX
 8
FULGOR
 10
2.2849
 20
-13.5455
 30
0.0025
 70
192
 0
VERTEX
 8
FULGOR
 10
2.2516
 20
-13.5281
 30
0.0025
 70
192
 0
VERTEX
 8
FULGOR
 10
1.876
 20
-13.3644
 30
0.0025
 70
192
 0
VERTEX
 8
FULGOR
 10
1.8875
 20
-13.3698
 30
0.0025
 70
192
 0
VERTEX
 8
FULGOR
 10
2.2032
 20
-13.4948
 30
0.0025
 70
192
 0
VERTEX
 8
FULGOR
 10
2.167
 20
-13.461
 30
0.0025
 70
192
 0
VERTEX
 8
FULGOR
 10
1.6063
 20
-13.2751
 30
0.0025
 70
192
 0
VERTEX
 8
FULGOR
 10
2.1209
 20
-13.3989
 30
0.0025
 70
192
 0
VERTEX
 8
FULGOR
 10
2.0985
 20
-13.3736
 30
0.0025
 70
192
 0
VERTEX
 8
FULGOR
 10
2.0773
 20
-13.3555
 30
0.0025
 70
192
 0
VERTEX
 8
FULGOR
 10
1.9145
 20
-13.3879
 30
0.0025
 70
192
 0
VERTEX
 8
FULGOR
 10
1.1716
 20
-13.5356
 30
0.0025
 70
192
 0
VERTEX
 8
FULGOR
 10
2.0263
 20
-13.328
 30
0.0025
 70
192
 0
VERTEX
 8
FULGOR
 10
2.2236
 20
-13.5106
 30
0.0025
 70
192
 0
VERTEX
 8
FULGOR
 10
2.0937
 20
-13.2997
 30
0.0025
 70
192
 0
VERTEX
 8
FULGOR
 10
2.0568
 20
-13.342
 30
0.0025
 70
192
 0
VERTEX
 8
FULGOR
 10
2.1174
 20
-13.2802
 30
0.0025
 70
192
 0
VERTEX
 8
FULGOR
 10
2.0411
 20
-13.3337
 30
0.0025
 70
192
 0
VERTEX
 8
FULGOR
 10
2.1398
 20
-13.2456
 30
0.0025
 70
192
 0
VERTEX
 8
FULGOR
 10
2.1447
 20
-13.2264
 30
0.0025
 70
192
 0
VERTEX
 8
FULGOR
 10
2.0586
 20
-13.3178
 30
0.0025
 70
192
 0
VERTEX
 8
FULGOR
 10
2.1427
 20
-13.1893
 30
0.0025
 70
192
 0
VERTEX
 8
FULGOR
 10
2.1344
 20
-13.1708
 30
0.0025
 70
192
 0
VERTEX
 8
FULGOR
 10
2.1217
 20
-13.1548
 30
0.0025
 70
192
 0
VERTEX
 8
FULGOR
 10
2.1006
 20
-13.138
 30
0.0025
 70
192
 0
VERTEX
 8
FULGOR
 10
2.1315
 20
-13.2624
 30
0.0025
 70
192
 0
VERTEX
 8
FULGOR
 10
1.9986
 20
-13.1025
 30
0.0025
 70
192
 0
VERTEX
 8
FULGOR
 10
1.9578
 20
-13.097
 30
0.0025
 70
192
 0
VERTEX
 8
FULGOR
 10
2.1458
 20
-13.2103
 30
0.0025
 70
192
 0
VERTEX
 8
FULGOR
 10
1.7454
 20
-13.1752
 30
0.0025
 70
192
 0
VERTEX
 8
FULGOR
 10
2.0641
 20
-13.1199
 30
0.0025
 70
192
 0
VERTEX
 8
FULGOR
 10
1.9179
 20
-13.095
 30
0.0025
 70
192
 0
VERTEX
 8
FULGOR
 10
1.6063
 20
-13.095
 30
0.0025
 70
192
 0
VERTEX
 8
FULGOR
 10
1.7454
 20
-13.2749
 30
0.0025
 70
192
 0
VERTEX
 8
FULGOR
 10
1.8723
 20
-13.2751
 30
0.0025
 70
192
 0
VERTEX
 8
FULGOR
 10
1.9083
 20
-13.2721
 30
0.0025
 70
192
 0
VERTEX
 8
FULGOR
 10
1.9491
 20
-13.2574
 30
0.0025
 70
192
 0
VERTEX
 8
FULGOR
 10
1.9581
 20
-13.2501
 30
0.0025
 70
192
 0
VERTEX
 8
FULGOR
 10
1.9636
 20
-13.2432
 30
0.0025
 70
192
 0
VERTEX
 8
FULGOR
 10
1.9686
 20
-13.2186
 30
0.0025
 70
192
 0
VERTEX
 8
FULGOR
 10
1.9663
 20
-13.2098
 30
0.0025
 70
192
 0
VERTEX
 8
FULGOR
 10
1.9009
 20
-13.1768
 30
0.0025
 70
192
 0
VERTEX
 8
FULGOR
 10
1.9462
 20
-13.1893
 30
0.0025
 70
192
 0
VERTEX
 8
FULGOR
 10
1.8851
 20
-13.1755
 30
0.0025
 70
192
 0
VERTEX
 8
FULGOR
 10
1.9299
 20
-13.1826
 30
0.0025
 70
192
 0
VERTEX
 8
FULGOR
 10
1.917
 20
-13.1793
 30
0.0025
 70
192
 0
VERTEX
 8
FULGOR
 10
0.9113
 20
-13.5274
 30
0.0025
 70
192
 0
VERTEX
 8
FULGOR
 10
0.8565
 20
-13.5135
 30
0.0025
 70
192
 0
VERTEX
 8
FULGOR
 10
1.868
 20
-13.1752
 30
0.0025
 70
192
 0
VERTEX
 8
FULGOR
 10
1.8652
 20
-13.095
 30
0.0025
 70
192
 0
VERTEX
 8
FULGOR
 10
1.9616
 20
-13.2022
 30
0.0025
 70
192
 0
VERTEX
 8
FULGOR
 10
1.9555
 20
-13.1959
 30
0.0025
 70
192
 0
VERTEX
 8
FULGOR
 10
1.9689
 20
-13.2271
 30
0.0025
 70
192
 0
VERTEX
 8
FULGOR
 10
1.9673
 20
-13.2353
 30
0.0025
 70
192
 0
VERTEX
 8
FULGOR
 10
1.8299
 20
-13.275
 30
0.0025
 70
192
 0
VERTEX
 8
FULGOR
 10
2.0316
 20
-13.5385
 30
0.0025
 70
192
 0
VERTEX
 8
FULGOR
 10
2.0245
 20
-13.5287
 30
0.0025
 70
192
 0
VERTEX
 8
FULGOR
 10
0.1623
 20
-13.4479
 30
0.0025
 70
192
 0
VERTEX
 8
FULGOR
 10
2.0117
 20
-13.511
 30
0.0025
 70
192
 0
VERTEX
 8
FULGOR
 10
1.9998
 20
-13.4946
 30
0.0025
 70
192
 0
VERTEX
 8
FULGOR
 10
0.1921
 20
-13.4517
 30
0.0025
 70
192
 0
VERTEX
 8
FULGOR
 10
1.6063
 20
-13.3552
 30
0.0025
 70
192
 0
VERTEX
 8
FULGOR
 10
1.9679
 20
-13.4505
 30
0.0025
 70
192
 0
VERTEX
 8
FULGOR
 10
1.956
 20
-13.434
 30
0.0025
 70
192
 0
VERTEX
 8
FULGOR
 10
0
 20
0
 30
0
 70
128
 71
244
 72
245
 73
188
 74
3
 0
VERTEX
 8
FULGOR
 10
0
 20
0
 30
0
 70
128
 71
137
 72
135
 73
127
 74
120
 0
VERTEX
 8
FULGOR
 10
0
 20
0
 30
0
 70
128
 71
287
 72
288
 73
220
 74
219
 0
VERTEX
 8
FULGOR
 10
0
 20
0
 30
0
 70
128
 71
135
 72
134
 73
128
 74
127
 0
VERTEX
 8
FULGOR
 10
0
 20
0
 30
0
 70
128
 71
145
 72
144
 73
106
 74
99
 0
VERTEX
 8
FULGOR
 10
0
 20
0
 30
0
 70
128
 71
152
 72
148
 73
115
 74
112
 0
VERTEX
 8
FULGOR
 10
0
 20
0
 30
0
 70
128
 71
288
 72
289
 73
221
 74
220
 0
VERTEX
 8
FULGOR
 10
0
 20
0
 30
0
 70
128
 71
155
 72
152
 73
112
 74
109
 0
VERTEX
 8
FULGOR
 10
0
 20
0
 30
0
 70
128
 71
141
 72
155
 73
109
 74
103
 0
VERTEX
 8
FULGOR
 10
0
 20
0
 30
0
 70
128
 71
289
 72
290
 73
230
 74
221
 0
VERTEX
 8
FULGOR
 10
0
 20
0
 30
0
 70
128
 71
290
 72
292
 73
223
 74
230
 0
VERTEX
 8
FULGOR
 10
0
 20
0
 30
0
 70
128
 71
142
 72
141
 73
103
 74
108
 0
VERTEX
 8
FULGOR
 10
0
 20
0
 30
0
 70
128
 71
143
 72
142
 73
108
 74
107
 0
VERTEX
 8
FULGOR
 10
0
 20
0
 30
0
 70
128
 71
144
 72
143
 73
107
 74
106
 0
VERTEX
 8
FULGOR
 10
0
 20
0
 30
0
 70
128
 71
254
 72
255
 73
207
 74
206
 0
VERTEX
 8
FULGOR
 10
0
 20
0
 30
0
 70
128
 71
265
 72
254
 73
206
 74
199
 0
VERTEX
 8
FULGOR
 10
0
 20
0
 30
0
 70
128
 71
263
 72
265
 73
199
 74
198
 0
VERTEX
 8
FULGOR
 10
0
 20
0
 30
0
 70
128
 71
251
 72
240
 73
179
 74
178
 0
VERTEX
 8
FULGOR
 10
0
 20
0
 30
0
 70
128
 71
5
 72
8
 73
7
 74
6
 0
VERTEX
 8
FULGOR
 10
0
 20
0
 30
0
 70
128
 71
8
 72
5
 73
4
 74
4
 0
VERTEX
 8
FULGOR
 10
0
 20
0
 30
0
 70
128
 71
8
 72
4
 73
13
 74
2
 0
VERTEX
 8
FULGOR
 10
0
 20
0
 30
0
 70
128
 71
237
 72
238
 73
185
 74
346
 0
VERTEX
 8
FULGOR
 10
0
 20
0
 30
0
 70
128
 71
339
 72
340
 73
321
 74
328
 0
VERTEX
 8
FULGOR
 10
0
 20
0
 30
0
 70
128
 71
161
 72
174
 73
84
 74
89
 0
VERTEX
 8
FULGOR
 10
0
 20
0
 30
0
 70
128
 71
174
 72
159
 73
90
 74
84
 0
VERTEX
 8
FULGOR
 10
0
 20
0
 30
0
 70
128
 71
249
 72
237
 73
346
 74
184
 0
VERTEX
 8
FULGOR
 10
0
 20
0
 30
0
 70
128
 71
248
 72
249
 73
184
 74
347
 0
VERTEX
 8
FULGOR
 10
0
 20
0
 30
0
 70
128
 71
159
 72
173
 73
95
 74
90
 0
VERTEX
 8
FULGOR
 10
0
 20
0
 30
0
 70
128
 71
173
 72
157
 73
96
 74
95
 0
VERTEX
 8
FULGOR
 10
0
 20
0
 30
0
 70
128
 71
246
 72
248
 73
347
 74
183
 0
VERTEX
 8
FULGOR
 10
0
 20
0
 30
0
 70
128
 71
362
 72
307
 73
305
 74
359
 0
VERTEX
 8
FULGOR
 10
0
 20
0
 30
0
 70
128
 71
151
 72
150
 73
94
 74
93
 0
VERTEX
 8
FULGOR
 10
0
 20
0
 30
0
 70
128
 71
353
 72
352
 73
319
 74
318
 0
VERTEX
 8
FULGOR
 10
0
 20
0
 30
0
 70
128
 71
175
 72
161
 73
89
 74
88
 0
VERTEX
 8
FULGOR
 10
0
 20
0
 30
0
 70
128
 71
253
 72
247
 73
190
 74
189
 0
VERTEX
 8
FULGOR
 10
0
 20
0
 30
0
 70
128
 71
153
 72
166
 73
92
 74
91
 0
VERTEX
 8
FULGOR
 10
0
 20
0
 30
0
 70
128
 71
166
 72
151
 73
93
 74
92
 0
VERTEX
 8
FULGOR
 10
0
 20
0
 30
0
 70
128
 71
273
 72
274
 73
226
 74
210
 0
VERTEX
 8
FULGOR
 10
0
 20
0
 30
0
 70
128
 71
163
 72
175
 73
88
 74
81
 0
VERTEX
 8
FULGOR
 10
0
 20
0
 30
0
 70
128
 71
167
 72
154
 73
101
 74
100
 0
VERTEX
 8
FULGOR
 10
0
 20
0
 30
0
 70
128
 71
154
 72
153
 73
91
 74
101
 0
VERTEX
 8
FULGOR
 10
0
 20
0
 30
0
 70
128
 71
274
 72
275
 73
227
 74
226
 0
VERTEX
 8
FULGOR
 10
0
 20
0
 30
0
 70
128
 71
13
 72
12
 73
2
 74
2
 0
VERTEX
 8
FULGOR
 10
0
 20
0
 30
0
 70
128
 71
13
 72
4
 73
15
 74
14
 0
VERTEX
 8
FULGOR
 10
0
 20
0
 30
0
 70
128
 71
16
 72
74
 73
73
 74
9
 0
VERTEX
 8
FULGOR
 10
0
 20
0
 30
0
 70
128
 71
73
 72
72
 73
10
 74
9
 0
VERTEX
 8
FULGOR
 10
0
 20
0
 30
0
 70
128
 71
72
 72
82
 73
11
 74
10
 0
VERTEX
 8
FULGOR
 10
0
 20
0
 30
0
 70
128
 71
82
 72
70
 73
18
 74
17
 0
VERTEX
 8
FULGOR
 10
0
 20
0
 30
0
 70
128
 71
58
 72
57
 73
40
 74
39
 0
VERTEX
 8
FULGOR
 10
0
 20
0
 30
0
 70
128
 71
82
 72
17
 73
11
 74
11
 0
VERTEX
 8
FULGOR
 10
0
 20
0
 30
0
 70
128
 71
43
 72
58
 73
39
 74
38
 0
VERTEX
 8
FULGOR
 10
0
 20
0
 30
0
 70
128
 71
70
 72
69
 73
20
 74
19
 0
VERTEX
 8
FULGOR
 10
0
 20
0
 30
0
 70
128
 71
70
 72
19
 73
18
 74
18
 0
VERTEX
 8
FULGOR
 10
0
 20
0
 30
0
 70
128
 71
69
 72
68
 73
27
 74
20
 0
VERTEX
 8
FULGOR
 10
0
 20
0
 30
0
 70
128
 71
68
 72
67
 73
29
 74
27
 0
VERTEX
 8
FULGOR
 10
0
 20
0
 30
0
 70
128
 71
67
 72
66
 73
30
 74
29
 0
VERTEX
 8
FULGOR
 10
0
 20
0
 30
0
 70
128
 71
66
 72
78
 73
31
 74
30
 0
VERTEX
 8
FULGOR
 10
0
 20
0
 30
0
 70
128
 71
78
 72
77
 73
32
 74
31
 0
VERTEX
 8
FULGOR
 10
0
 20
0
 30
0
 70
128
 71
32
 72
77
 73
76
 74
21
 0
VERTEX
 8
FULGOR
 10
0
 20
0
 30
0
 70
128
 71
76
 72
62
 73
21
 74
21
 0
VERTEX
 8
FULGOR
 10
0
 20
0
 30
0
 70
128
 71
62
 72
61
 73
22
 74
21
 0
VERTEX
 8
FULGOR
 10
0
 20
0
 30
0
 70
128
 71
61
 72
75
 73
22
 74
22
 0
VERTEX
 8
FULGOR
 10
0
 20
0
 30
0
 70
128
 71
75
 72
59
 73
23
 74
22
 0
VERTEX
 8
FULGOR
 10
0
 20
0
 30
0
 70
128
 71
23
 72
59
 73
71
 74
24
 0
VERTEX
 8
FULGOR
 10
0
 20
0
 30
0
 70
128
 71
275
 72
281
 73
228
 74
227
 0
VERTEX
 8
FULGOR
 10
0
 20
0
 30
0
 70
128
 71
157
 72
156
 73
97
 74
96
 0
VERTEX
 8
FULGOR
 10
0
 20
0
 30
0
 70
128
 71
291
 72
296
 73
333
 74
354
 0
VERTEX
 8
FULGOR
 10
0
 20
0
 30
0
 70
128
 71
281
 72
282
 73
229
 74
228
 0
VERTEX
 8
FULGOR
 10
0
 20
0
 30
0
 70
128
 71
282
 72
283
 73
215
 74
229
 0
VERTEX
 8
FULGOR
 10
0
 20
0
 30
0
 70
128
 71
283
 72
284
 73
216
 74
215
 0
VERTEX
 8
FULGOR
 10
0
 20
0
 30
0
 70
128
 71
129
 72
1
 73
118
 74
117
 0
VERTEX
 8
FULGOR
 10
0
 20
0
 30
0
 70
128
 71
238
 72
251
 73
178
 74
185
 0
VERTEX
 8
FULGOR
 10
0
 20
0
 30
0
 70
128
 71
245
 72
253
 73
189
 74
188
 0
VERTEX
 8
FULGOR
 10
0
 20
0
 30
0
 70
128
 71
337
 72
338
 73
325
 74
316
 0
VERTEX
 8
FULGOR
 10
0
 20
0
 30
0
 70
128
 71
336
 72
337
 73
316
 74
314
 0
VERTEX
 8
FULGOR
 10
0
 20
0
 30
0
 70
128
 71
241
 72
252
 73
311
 74
186
 0
VERTEX
 8
FULGOR
 10
0
 20
0
 30
0
 70
128
 71
24
 72
71
 73
65
 74
25
 0
VERTEX
 8
FULGOR
 10
0
 20
0
 30
0
 70
128
 71
65
 72
64
 73
25
 74
25
 0
VERTEX
 8
FULGOR
 10
0
 20
0
 30
0
 70
128
 71
156
 72
167
 73
100
 74
97
 0
VERTEX
 8
FULGOR
 10
0
 20
0
 30
0
 70
128
 71
149
 72
162
 73
104
 74
102
 0
VERTEX
 8
FULGOR
 10
0
 20
0
 30
0
 70
128
 71
64
 72
63
 73
26
 74
25
 0
VERTEX
 8
FULGOR
 10
0
 20
0
 30
0
 70
128
 71
162
 72
160
 73
105
 74
104
 0
VERTEX
 8
FULGOR
 10
0
 20
0
 30
0
 70
128
 71
63
 72
60
 73
26
 74
26
 0
VERTEX
 8
FULGOR
 10
0
 20
0
 30
0
 70
128
 71
266
 72
269
 73
196
 74
195
 0
VERTEX
 8
FULGOR
 10
0
 20
0
 30
0
 70
128
 71
360
 72
129
 73
117
 74
126
 0
VERTEX
 8
FULGOR
 10
0
 20
0
 30
0
 70
128
 71
60
 72
53
 73
34
 74
26
 0
VERTEX
 8
FULGOR
 10
0
 20
0
 30
0
 70
128
 71
53
 72
52
 73
34
 74
34
 0
VERTEX
 8
FULGOR
 10
0
 20
0
 30
0
 70
128
 71
52
 72
51
 73
28
 74
34
 0
VERTEX
 8
FULGOR
 10
0
 20
0
 30
0
 70
128
 71
51
 72
50
 73
35
 74
28
 0
VERTEX
 8
FULGOR
 10
0
 20
0
 30
0
 70
128
 71
50
 72
49
 73
36
 74
35
 0
VERTEX
 8
FULGOR
 10
0
 20
0
 30
0
 70
128
 71
36
 72
49
 73
48
 74
37
 0
VERTEX
 8
FULGOR
 10
0
 20
0
 30
0
 70
128
 71
44
 72
43
 73
38
 74
56
 0
VERTEX
 8
FULGOR
 10
0
 20
0
 30
0
 70
128
 71
37
 72
48
 73
47
 74
41
 0
VERTEX
 8
FULGOR
 10
0
 20
0
 30
0
 70
128
 71
33
 72
47
 73
46
 74
42
 0
VERTEX
 8
FULGOR
 10
0
 20
0
 30
0
 70
128
 71
45
 72
55
 73
54
 74
54
 0
VERTEX
 8
FULGOR
 10
0
 20
0
 30
0
 70
128
 71
47
 72
33
 73
41
 74
41
 0
VERTEX
 8
FULGOR
 10
0
 20
0
 30
0
 70
128
 71
42
 72
46
 73
45
 74
54
 0
VERTEX
 8
FULGOR
 10
0
 20
0
 30
0
 70
128
 71
55
 72
45
 73
44
 74
56
 0
VERTEX
 8
FULGOR
 10
0
 20
0
 30
0
 70
128
 71
83
 72
80
 73
79
 74
85
 0
VERTEX
 8
FULGOR
 10
0
 20
0
 30
0
 70
128
 71
79
 72
87
 73
86
 74
85
 0
VERTEX
 8
FULGOR
 10
0
 20
0
 30
0
 70
128
 71
134
 72
124
 73
131
 74
128
 0
VERTEX
 8
FULGOR
 10
0
 20
0
 30
0
 70
128
 71
334
 72
335
 73
320
 74
312
 0
VERTEX
 8
FULGOR
 10
0
 20
0
 30
0
 70
128
 71
308
 72
307
 73
362
 74
363
 0
VERTEX
 8
FULGOR
 10
0
 20
0
 30
0
 70
128
 71
139
 72
357
 73
114
 74
113
 0
VERTEX
 8
FULGOR
 10
0
 20
0
 30
0
 70
128
 71
305
 72
304
 73
358
 74
359
 0
VERTEX
 8
FULGOR
 10
0
 20
0
 30
0
 70
128
 71
335
 72
336
 73
314
 74
320
 0
VERTEX
 8
FULGOR
 10
0
 20
0
 30
0
 70
128
 71
355
 72
356
 73
313
 74
301
 0
VERTEX
 8
FULGOR
 10
0
 20
0
 30
0
 70
128
 71
301
 72
300
 73
299
 74
355
 0
VERTEX
 8
FULGOR
 10
0
 20
0
 30
0
 70
128
 71
352
 72
339
 73
328
 74
319
 0
VERTEX
 8
FULGOR
 10
0
 20
0
 30
0
 70
128
 71
343
 72
348
 73
349
 74
331
 0
VERTEX
 8
FULGOR
 10
0
 20
0
 30
0
 70
128
 71
342
 72
344
 73
330
 74
324
 0
VERTEX
 8
FULGOR
 10
0
 20
0
 30
0
 70
128
 71
262
 72
263
 73
198
 74
197
 0
VERTEX
 8
FULGOR
 10
0
 20
0
 30
0
 70
128
 71
303
 72
312
 73
317
 74
310
 0
VERTEX
 8
FULGOR
 10
0
 20
0
 30
0
 70
128
 71
250
 72
262
 73
197
 74
187
 0
VERTEX
 8
FULGOR
 10
0
 20
0
 30
0
 70
128
 71
291
 72
354
 73
334
 74
302
 0
VERTEX
 8
FULGOR
 10
0
 20
0
 30
0
 70
128
 71
341
 72
343
 73
331
 74
327
 0
VERTEX
 8
FULGOR
 10
0
 20
0
 30
0
 70
128
 71
150
 72
149
 73
102
 74
94
 0
VERTEX
 8
FULGOR
 10
0
 20
0
 30
0
 70
128
 71
1
 72
138
 73
119
 74
118
 0
VERTEX
 8
FULGOR
 10
0
 20
0
 30
0
 70
128
 71
338
 72
353
 73
318
 74
325
 0
VERTEX
 8
FULGOR
 10
0
 20
0
 30
0
 70
128
 71
280
 72
273
 73
210
 74
222
 0
VERTEX
 8
FULGOR
 10
0
 20
0
 30
0
 70
128
 71
285
 72
286
 73
218
 74
217
 0
VERTEX
 8
FULGOR
 10
0
 20
0
 30
0
 70
128
 71
160
 72
158
 73
98
 74
105
 0
VERTEX
 8
FULGOR
 10
0
 20
0
 30
0
 70
128
 71
138
 72
137
 73
120
 74
119
 0
VERTEX
 8
FULGOR
 10
0
 20
0
 30
0
 70
128
 71
286
 72
287
 73
219
 74
218
 0
VERTEX
 8
FULGOR
 10
0
 20
0
 30
0
 70
128
 71
261
 72
270
 73
211
 74
209
 0
VERTEX
 8
FULGOR
 10
0
 20
0
 30
0
 70
128
 71
348
 72
329
 73
332
 74
349
 0
VERTEX
 8
FULGOR
 10
0
 20
0
 30
0
 70
128
 71
329
 72
333
 73
306
 74
332
 0
VERTEX
 8
FULGOR
 10
0
 20
0
 30
0
 70
128
 71
333
 72
296
 73
361
 74
306
 0
VERTEX
 8
FULGOR
 10
0
 20
0
 30
0
 70
128
 71
296
 72
295
 73
294
 74
361
 0
VERTEX
 8
FULGOR
 10
0
 20
0
 30
0
 70
128
 71
358
 72
304
 73
313
 74
356
 0
VERTEX
 8
FULGOR
 10
0
 20
0
 30
0
 70
128
 71
148
 72
147
 73
116
 74
115
 0
VERTEX
 8
FULGOR
 10
0
 20
0
 30
0
 70
128
 71
158
 72
145
 73
99
 74
98
 0
VERTEX
 8
FULGOR
 10
0
 20
0
 30
0
 70
128
 71
260
 72
261
 73
209
 74
208
 0
VERTEX
 8
FULGOR
 10
0
 20
0
 30
0
 70
128
 71
269
 72
260
 73
208
 74
196
 0
VERTEX
 8
FULGOR
 10
0
 20
0
 30
0
 70
128
 71
276
 72
267
 73
204
 74
203
 0
VERTEX
 8
FULGOR
 10
0
 20
0
 30
0
 70
128
 71
232
 72
242
 73
182
 74
180
 0
VERTEX
 8
FULGOR
 10
0
 20
0
 30
0
 70
128
 71
242
 72
246
 73
183
 74
182
 0
VERTEX
 8
FULGOR
 10
0
 20
0
 30
0
 70
128
 71
272
 72
276
 73
203
 74
202
 0
VERTEX
 8
FULGOR
 10
0
 20
0
 30
0
 70
128
 71
264
 72
272
 73
202
 74
201
 0
VERTEX
 8
FULGOR
 10
0
 20
0
 30
0
 70
128
 71
240
 72
241
 73
186
 74
179
 0
VERTEX
 8
FULGOR
 10
0
 20
0
 30
0
 70
128
 71
147
 72
136
 73
121
 74
116
 0
VERTEX
 8
FULGOR
 10
0
 20
0
 30
0
 70
128
 71
340
 72
350
 73
322
 74
321
 0
VERTEX
 8
FULGOR
 10
0
 20
0
 30
0
 70
128
 71
303
 72
302
 73
334
 74
312
 0
VERTEX
 8
FULGOR
 10
0
 20
0
 30
0
 70
128
 71
345
 72
341
 73
327
 74
326
 0
VERTEX
 8
FULGOR
 10
0
 20
0
 30
0
 70
128
 71
252
 72
243
 73
181
 74
311
 0
VERTEX
 8
FULGOR
 10
0
 20
0
 30
0
 70
128
 71
344
 72
345
 73
326
 74
330
 0
VERTEX
 8
FULGOR
 10
0
 20
0
 30
0
 70
128
 71
231
 72
232
 73
180
 74
172
 0
VERTEX
 8
FULGOR
 10
0
 20
0
 30
0
 70
128
 71
257
 72
266
 73
195
 74
194
 0
VERTEX
 8
FULGOR
 10
0
 20
0
 30
0
 70
128
 71
256
 72
257
 73
194
 74
193
 0
VERTEX
 8
FULGOR
 10
0
 20
0
 30
0
 70
128
 71
297
 72
310
 73
317
 74
315
 0
VERTEX
 8
FULGOR
 10
0
 20
0
 30
0
 70
128
 71
357
 72
130
 73
125
 74
114
 0
VERTEX
 8
FULGOR
 10
0
 20
0
 30
0
 70
128
 71
255
 72
256
 73
193
 74
207
 0
VERTEX
 8
FULGOR
 10
0
 20
0
 30
0
 70
128
 71
298
 72
297
 73
315
 74
309
 0
VERTEX
 8
FULGOR
 10
0
 20
0
 30
0
 70
128
 71
298
 72
309
 73
308
 74
363
 0
VERTEX
 8
FULGOR
 10
0
 20
0
 30
0
 70
128
 71
243
 72
244
 73
3
 74
181
 0
VERTEX
 8
FULGOR
 10
0
 20
0
 30
0
 70
128
 71
259
 72
250
 73
187
 74
192
 0
VERTEX
 8
FULGOR
 10
0
 20
0
 30
0
 70
128
 71
279
 72
280
 73
222
 74
214
 0
VERTEX
 8
FULGOR
 10
0
 20
0
 30
0
 70
128
 71
278
 72
279
 73
214
 74
213
 0
VERTEX
 8
FULGOR
 10
0
 20
0
 30
0
 70
128
 71
258
 72
259
 73
192
 74
191
 0
VERTEX
 8
FULGOR
 10
0
 20
0
 30
0
 70
128
 71
247
 72
258
 73
191
 74
190
 0
VERTEX
 8
FULGOR
 10
0
 20
0
 30
0
 70
128
 71
351
 72
342
 73
324
 74
323
 0
VERTEX
 8
FULGOR
 10
0
 20
0
 30
0
 70
128
 71
350
 72
351
 73
323
 74
322
 0
VERTEX
 8
FULGOR
 10
0
 20
0
 30
0
 70
128
 71
284
 72
285
 73
217
 74
216
 0
VERTEX
 8
FULGOR
 10
0
 20
0
 30
0
 70
128
 71
136
 72
146
 73
122
 74
121
 0
VERTEX
 8
FULGOR
 10
0
 20
0
 30
0
 70
128
 71
146
 72
140
 73
110
 74
122
 0
VERTEX
 8
FULGOR
 10
0
 20
0
 30
0
 70
128
 71
130
 72
360
 73
126
 74
125
 0
VERTEX
 8
FULGOR
 10
0
 20
0
 30
0
 70
128
 71
140
 72
133
 73
111
 74
110
 0
VERTEX
 8
FULGOR
 10
0
 20
0
 30
0
 70
128
 71
133
 72
132
 73
123
 74
111
 0
VERTEX
 8
FULGOR
 10
0
 20
0
 30
0
 70
128
 71
132
 72
139
 73
113
 74
123
 0
VERTEX
 8
FULGOR
 10
0
 20
0
 30
0
 70
128
 71
292
 72
293
 73
164
 74
223
 0
VERTEX
 8
FULGOR
 10
0
 20
0
 30
0
 70
128
 71
293
 72
224
 73
165
 74
164
 0
VERTEX
 8
FULGOR
 10
0
 20
0
 30
0
 70
128
 71
224
 72
225
 73
176
 74
165
 0
VERTEX
 8
FULGOR
 10
0
 20
0
 30
0
 70
128
 71
225
 72
233
 73
177
 74
176
 0
VERTEX
 8
FULGOR
 10
0
 20
0
 30
0
 70
128
 71
233
 72
234
 73
168
 74
177
 0
VERTEX
 8
FULGOR
 10
0
 20
0
 30
0
 70
128
 71
234
 72
235
 73
169
 74
168
 0
VERTEX
 8
FULGOR
 10
0
 20
0
 30
0
 70
128
 71
235
 72
236
 73
170
 74
169
 0
VERTEX
 8
FULGOR
 10
0
 20
0
 30
0
 70
128
 71
236
 72
239
 73
171
 74
170
 0
VERTEX
 8
FULGOR
 10
0
 20
0
 30
0
 70
128
 71
239
 72
231
 73
172
 74
171
 0
VERTEX
 8
FULGOR
 10
0
 20
0
 30
0
 70
128
 71
213
 72
212
 73
277
 74
278
 0
VERTEX
 8
FULGOR
 10
0
 20
0
 30
0
 70
128
 71
212
 72
205
 73
268
 74
277
 0
VERTEX
 8
FULGOR
 10
0
 20
0
 30
0
 70
128
 71
267
 72
268
 73
205
 74
204
 0
VERTEX
 8
FULGOR
 10
0
 20
0
 30
0
 70
128
 71
270
 72
271
 73
200
 74
211
 0
VERTEX
 8
FULGOR
 10
0
 20
0
 30
0
 70
128
 71
271
 72
264
 73
201
 74
200
 0
SEQEND
 0
POLYLINE
 8
MILANO
 66
1
 10
0.0
 20
0.0
 30
0.0
 70
64
 71
93
 72
47
 0
VERTEX
 8
MILANO
 10
0.2591
 20
-13.8515
 30
0.0026
 70
192
 0
VERTEX
 8
MILANO
 10
0.6474
 20
-14.0039
 30
0.0026
 70
192
 0
VERTEX
 8
MILANO
 10
0.6515
 20
-14.0389
 30
0.0026
 70
192
 0
VERTEX
 8
MILANO
 10
0.6663
 20
-14.0708
 30
0.0026
 70
192
 0
VERTEX
 8
MILANO
 10
0.691
 20
-14.0957
 30
0.0026
 70
192
 0
VERTEX
 8
MILANO
 10
0.7217
 20
-14.1127
 30
0.0026
 70
192
 0
VERTEX
 8
MILANO
 10
0.7554
 20
-14.1225
 30
0.0026
 70
192
 0
VERTEX
 8
MILANO
 10
0.7903
 20
-14.1264
 30
0.0026
 70
192
 0
VERTEX
 8
MILANO
 10
0.5009
 20
-14.0797
 30
0.0026
 70
192
 0
VERTEX
 8
MILANO
 10
0.8253
 20
-14.1237
 30
0.0026
 70
192
 0
VERTEX
 8
MILANO
 10
0.8592
 20
-14.1143
 30
0.0026
 70
192
 0
VERTEX
 8
MILANO
 10
0.8898
 20
-14.0971
 30
0.0026
 70
192
 0
VERTEX
 8
MILANO
 10
0.1121
 20
-14.0596
 30
0.0026
 70
192
 0
VERTEX
 8
MILANO
 10
0.1673
 20
-14.1589
 30
0.0026
 70
192
 0
VERTEX
 8
MILANO
 10
0.2127
 20
-14.1589
 30
0.0026
 70
192
 0
VERTEX
 8
MILANO
 10
0.9137
 20
-14.0715
 30
0.0026
 70
192
 0
VERTEX
 8
MILANO
 10
0.9291
 20
-14.0399
 30
0.0026
 70
192
 0
VERTEX
 8
MILANO
 10
-0.1381
 20
-14.1589
 30
0.0026
 70
192
 0
VERTEX
 8
MILANO
 10
-0.0167
 20
-14.0254
 30
0.0026
 70
192
 0
VERTEX
 8
MILANO
 10
0.0935
 20
-14.0254
 30
0.0026
 70
192
 0
VERTEX
 8
MILANO
 10
0.9341
 20
-14.0051
 30
0.0026
 70
192
 0
VERTEX
 8
MILANO
 10
0.9296
 20
-13.9701
 30
0.0026
 70
192
 0
VERTEX
 8
MILANO
 10
0.9148
 20
-13.9383
 30
0.0026
 70
192
 0
VERTEX
 8
MILANO
 10
-0.2894
 20
-13.8515
 30
0.0026
 70
192
 0
VERTEX
 8
MILANO
 10
-0.2894
 20
-14.1254
 30
0.0026
 70
192
 0
VERTEX
 8
MILANO
 10
0.8907
 20
-13.9128
 30
0.0026
 70
192
 0
VERTEX
 8
MILANO
 10
0.8601
 20
-13.8956
 30
0.0026
 70
192
 0
VERTEX
 8
MILANO
 10
0.8262
 20
-13.8862
 30
0.0026
 70
192
 0
VERTEX
 8
MILANO
 10
-0.4435
 20
-13.8515
 30
0.0026
 70
192
 0
VERTEX
 8
MILANO
 10
-0.4053
 20
-13.8515
 30
0.0026
 70
192
 0
VERTEX
 8
MILANO
 10
-0.4053
 20
-14.1589
 30
0.0026
 70
192
 0
VERTEX
 8
MILANO
 10
-0.4435
 20
-14.1589
 30
0.0026
 70
192
 0
VERTEX
 8
MILANO
 10
-0.9036
 20
-14.1589
 30
0.0026
 70
192
 0
VERTEX
 8
MILANO
 10
-0.856
 20
-13.8496
 30
0.0026
 70
192
 0
VERTEX
 8
MILANO
 10
-0.5659
 20
-13.8496
 30
0.0026
 70
192
 0
VERTEX
 8
MILANO
 10
-0.5517
 20
-13.8496
 30
0.0026
 70
192
 0
VERTEX
 8
MILANO
 10
-0.5014
 20
-14.1589
 30
0.0026
 70
192
 0
VERTEX
 8
MILANO
 10
-0.543
 20
-14.1589
 30
0.0026
 70
192
 0
VERTEX
 8
MILANO
 10
-0.7112
 20
-14.1589
 30
0.0026
 70
192
 0
VERTEX
 8
MILANO
 10
-0.8325
 20
-13.9514
 30
0.0026
 70
192
 0
VERTEX
 8
MILANO
 10
-0.1534
 20
-14.1254
 30
0.0026
 70
192
 0
VERTEX
 8
MILANO
 10
-0.1534
 20
-14.1589
 30
0.0026
 70
192
 0
VERTEX
 8
MILANO
 10
-0.3271
 20
-14.1589
 30
0.0026
 70
192
 0
VERTEX
 8
MILANO
 10
-0.8467
 20
-13.8496
 30
0.0026
 70
192
 0
VERTEX
 8
MILANO
 10
-0.7036
 20
-14.0958
 30
0.0026
 70
192
 0
VERTEX
 8
MILANO
 10
-0.5763
 20
-13.9514
 30
0.0026
 70
192
 0
VERTEX
 8
MILANO
 10
-0.6927
 20
-14.1589
 30
0.0026
 70
192
 0
VERTEX
 8
MILANO
 10
-0.8626
 20
-14.1589
 30
0.0026
 70
192
 0
VERTEX
 8
MILANO
 10
0.7914
 20
-13.8463
 30
0.0026
 70
192
 0
VERTEX
 8
MILANO
 10
0.7455
 20
-13.8488
 30
0.0026
 70
192
 0
VERTEX
 8
MILANO
 10
0.701
 20
-13.86
 30
0.0026
 70
192
 0
VERTEX
 8
MILANO
 10
0.6617
 20
-13.8835
 30
0.0026
 70
192
 0
VERTEX
 8
MILANO
 10
0.6302
 20
-13.917
 30
0.0026
 70
192
 0
VERTEX
 8
MILANO
 10
0.6097
 20
-13.958
 30
0.0026
 70
192
 0
VERTEX
 8
MILANO
 10
0.6033
 20
-14.0036
 30
0.0026
 70
192
 0
VERTEX
 8
MILANO
 10
0.6087
 20
-14.0494
 30
0.0026
 70
192
 0
VERTEX
 8
MILANO
 10
0.628
 20
-14.091
 30
0.0026
 70
192
 0
VERTEX
 8
MILANO
 10
0.6603
 20
-14.1236
 30
0.0026
 70
192
 0
VERTEX
 8
MILANO
 10
0.7005
 20
-14.1458
 30
0.0026
 70
192
 0
VERTEX
 8
MILANO
 10
0.7445
 20
-14.1587
 30
0.0026
 70
192
 0
VERTEX
 8
MILANO
 10
0.7902
 20
-14.1637
 30
0.0026
 70
192
 0
VERTEX
 8
MILANO
 10
0.836
 20
-14.1602
 30
0.0026
 70
192
 0
VERTEX
 8
MILANO
 10
0.8802
 20
-14.1479
 30
0.0026
 70
192
 0
VERTEX
 8
MILANO
 10
0.9202
 20
-14.1255
 30
0.0026
 70
192
 0
VERTEX
 8
MILANO
 10
0.9515
 20
-14.0919
 30
0.0026
 70
192
 0
VERTEX
 8
MILANO
 10
0.9717
 20
-14.0506
 30
0.0026
 70
192
 0
VERTEX
 8
MILANO
 10
0.9782
 20
-14.0051
 30
0.0026
 70
192
 0
VERTEX
 8
MILANO
 10
0.9724
 20
-13.9594
 30
0.0026
 70
192
 0
VERTEX
 8
MILANO
 10
0.9529
 20
-13.9178
 30
0.0026
 70
192
 0
VERTEX
 8
MILANO
 10
0.9214
 20
-13.8844
 30
0.0026
 70
192
 0
VERTEX
 8
MILANO
 10
0.2591
 20
-14.1589
 30
0.0026
 70
192
 0
VERTEX
 8
MILANO
 10
0.2993
 20
-14.1589
 30
0.0026
 70
192
 0
VERTEX
 8
MILANO
 10
0.2993
 20
-13.9348
 30
0.0026
 70
192
 0
VERTEX
 8
MILANO
 10
0.5275
 20
-14.1589
 30
0.0026
 70
192
 0
VERTEX
 8
MILANO
 10
0.5406
 20
-14.1589
 30
0.0026
 70
192
 0
VERTEX
 8
MILANO
 10
0.5406
 20
-13.8515
 30
0.0026
 70
192
 0
VERTEX
 8
MILANO
 10
0.5004
 20
-13.8515
 30
0.0026
 70
192
 0
VERTEX
 8
MILANO
 10
0.8814
 20
-13.8619
 30
0.0026
 70
192
 0
VERTEX
 8
MILANO
 10
0.274
 20
-13.8515
 30
0.0026
 70
192
 0
VERTEX
 8
MILANO
 10
-0.0877
 20
-14.1589
 30
0.0026
 70
192
 0
VERTEX
 8
MILANO
 10
-0.0365
 20
-14.0596
 30
0.0026
 70
192
 0
VERTEX
 8
MILANO
 10
0.8372
 20
-13.8497
 30
0.0026
 70
192
 0
VERTEX
 8
MILANO
 10
0.7912
 20
-13.8837
 30
0.0026
 70
192
 0
VERTEX
 8
MILANO
 10
0.7562
 20
-13.8856
 30
0.0026
 70
192
 0
VERTEX
 8
MILANO
 10
0.0446
 20
-13.8515
 30
0.0026
 70
192
 0
VERTEX
 8
MILANO
 10
0.0316
 20
-13.8515
 30
0.0026
 70
192
 0
VERTEX
 8
MILANO
 10
0.7221
 20
-13.8941
 30
0.0026
 70
192
 0
VERTEX
 8
MILANO
 10
0.6921
 20
-13.9121
 30
0.0026
 70
192
 0
VERTEX
 8
MILANO
 10
0.668
 20
-13.9377
 30
0.0026
 70
192
 0
VERTEX
 8
MILANO
 10
0.0423
 20
-13.927
 30
0.0026
 70
192
 0
VERTEX
 8
MILANO
 10
0.0333
 20
-13.927
 30
0.0026
 70
192
 0
VERTEX
 8
MILANO
 10
-0.3304
 20
-13.8515
 30
0.0026
 70
192
 0
VERTEX
 8
MILANO
 10
0.6523
 20
-13.9691
 30
0.0026
 70
192
 0
VERTEX
 8
MILANO
 10
0
 20
0
 30
0
 70
128
 71
71
 72
1
 73
73
 74
72
 0
VERTEX
 8
MILANO
 10
0
 20
0
 30
0
 70
128
 71
1
 72
79
 73
73
 74
73
 0
VERTEX
 8
MILANO
 10
0
 20
0
 30
0
 70
128
 71
73
 72
79
 73
9
 74
74
 0
VERTEX
 8
MILANO
 10
0
 20
0
 30
0
 70
128
 71
76
 72
75
 73
9
 74
77
 0
VERTEX
 8
MILANO
 10
0
 20
0
 30
0
 70
128
 71
9
 72
75
 73
74
 74
74
 0
VERTEX
 8
MILANO
 10
0
 20
0
 30
0
 70
128
 71
18
 72
86
 73
19
 74
81
 0
VERTEX
 8
MILANO
 10
0
 20
0
 30
0
 70
128
 71
80
 72
18
 73
81
 74
81
 0
VERTEX
 8
MILANO
 10
0
 20
0
 30
0
 70
128
 71
86
 72
85
 73
90
 74
91
 0
VERTEX
 8
MILANO
 10
0
 20
0
 30
0
 70
128
 71
15
 72
13
 73
20
 74
20
 0
VERTEX
 8
MILANO
 10
0
 20
0
 30
0
 70
128
 71
86
 72
91
 73
19
 74
19
 0
VERTEX
 8
MILANO
 10
0
 20
0
 30
0
 70
128
 71
85
 72
15
 73
20
 74
90
 0
VERTEX
 8
MILANO
 10
0
 20
0
 30
0
 70
128
 71
13
 72
81
 73
19
 74
20
 0
VERTEX
 8
MILANO
 10
0
 20
0
 30
0
 70
128
 71
15
 72
14
 73
13
 74
13
 0
VERTEX
 8
MILANO
 10
0
 20
0
 30
0
 70
128
 71
92
 72
24
 73
25
 74
43
 0
VERTEX
 8
MILANO
 10
0
 20
0
 30
0
 70
128
 71
25
 72
41
 73
42
 74
43
 0
VERTEX
 8
MILANO
 10
0
 20
0
 30
0
 70
128
 71
29
 72
30
 73
31
 74
32
 0
VERTEX
 8
MILANO
 10
0
 20
0
 30
0
 70
128
 71
33
 72
34
 73
40
 74
48
 0
VERTEX
 8
MILANO
 10
0
 20
0
 30
0
 70
128
 71
34
 72
44
 73
40
 74
40
 0
VERTEX
 8
MILANO
 10
0
 20
0
 30
0
 70
128
 71
40
 72
44
 73
45
 74
39
 0
VERTEX
 8
MILANO
 10
0
 20
0
 30
0
 70
128
 71
45
 72
35
 73
46
 74
47
 0
VERTEX
 8
MILANO
 10
0
 20
0
 30
0
 70
128
 71
46
 72
36
 73
37
 74
38
 0
VERTEX
 8
MILANO
 10
0
 20
0
 30
0
 70
128
 71
45
 72
47
 73
39
 74
39
 0
VERTEX
 8
MILANO
 10
0
 20
0
 30
0
 70
128
 71
35
 72
36
 73
46
 74
46
 0
VERTEX
 8
MILANO
 10
0
 20
0
 30
0
 70
128
 71
50
 72
49
 73
83
 74
84
 0
VERTEX
 8
MILANO
 10
0
 20
0
 30
0
 70
128
 71
51
 72
50
 73
84
 74
87
 0
VERTEX
 8
MILANO
 10
0
 20
0
 30
0
 70
128
 71
5
 72
6
 73
59
 74
58
 0
VERTEX
 8
MILANO
 10
0
 20
0
 30
0
 70
128
 71
28
 72
83
 73
49
 74
82
 0
VERTEX
 8
MILANO
 10
0
 20
0
 30
0
 70
128
 71
27
 72
28
 73
82
 74
78
 0
VERTEX
 8
MILANO
 10
0
 20
0
 30
0
 70
128
 71
26
 72
27
 73
78
 74
70
 0
VERTEX
 8
MILANO
 10
0
 20
0
 30
0
 70
128
 71
23
 72
26
 73
70
 74
69
 0
VERTEX
 8
MILANO
 10
0
 20
0
 30
0
 70
128
 71
6
 72
7
 73
60
 74
59
 0
VERTEX
 8
MILANO
 10
0
 20
0
 30
0
 70
128
 71
7
 72
8
 73
61
 74
60
 0
VERTEX
 8
MILANO
 10
0
 20
0
 30
0
 70
128
 71
22
 72
23
 73
69
 74
68
 0
VERTEX
 8
MILANO
 10
0
 20
0
 30
0
 70
128
 71
21
 72
22
 73
68
 74
67
 0
VERTEX
 8
MILANO
 10
0
 20
0
 30
0
 70
128
 71
17
 72
21
 73
67
 74
66
 0
VERTEX
 8
MILANO
 10
0
 20
0
 30
0
 70
128
 71
16
 72
17
 73
66
 74
65
 0
VERTEX
 8
MILANO
 10
0
 20
0
 30
0
 70
128
 71
12
 72
16
 73
65
 74
64
 0
VERTEX
 8
MILANO
 10
0
 20
0
 30
0
 70
128
 71
11
 72
12
 73
64
 74
63
 0
VERTEX
 8
MILANO
 10
0
 20
0
 30
0
 70
128
 71
10
 72
11
 73
63
 74
62
 0
VERTEX
 8
MILANO
 10
0
 20
0
 30
0
 70
128
 71
4
 72
5
 73
58
 74
57
 0
VERTEX
 8
MILANO
 10
0
 20
0
 30
0
 70
128
 71
57
 72
56
 73
3
 74
4
 0
VERTEX
 8
MILANO
 10
0
 20
0
 30
0
 70
128
 71
56
 72
55
 73
2
 74
3
 0
VERTEX
 8
MILANO
 10
0
 20
0
 30
0
 70
128
 71
55
 72
54
 73
93
 74
2
 0
VERTEX
 8
MILANO
 10
0
 20
0
 30
0
 70
128
 71
54
 72
53
 73
89
 74
93
 0
VERTEX
 8
MILANO
 10
0
 20
0
 30
0
 70
128
 71
53
 72
52
 73
88
 74
89
 0
VERTEX
 8
MILANO
 10
0
 20
0
 30
0
 70
128
 71
52
 72
51
 73
87
 74
88
 0
VERTEX
 8
MILANO
 10
0
 20
0
 30
0
 70
128
 71
8
 72
10
 73
62
 74
61
 0
SEQEND
 0
ENDSEC
 0
EOF
