 0
SECTION
 2
HEADER
 9
$ACADVER
 1
AC1009
 0
ENDSEC
 0
SECTION
 2
TABLES
 0
TABLE
 2
LTYPE
 70
1
 0
LTYPE
 2
CONTINUOUS
 70
64
 3
solid line
 72
65
 73
0
 40
0.0
 0
ENDTAB
 0
TABLE
 2
LAYER
 70
6
 0
LAYER
 2
0
 70
0
 62
7
 6
CONTINUOUS
 0
LAYER
 2
F4SP30S1_-_OVEN_400_SERIES_30
 70
64
 62
7
 6
CONTINUOUS
 0
LAYER
 2
BASE3_1
 70
64
 62
39
 6
CONTINUOUS
 0
LAYER
 2
MANOPOLA3_1
 70
64
 62
253
 6
CONTINUOUS
 0
LAYER
 2
BASE3
 70
64
 62
39
 6
CONTINUOUS
 0
LAYER
 2
MANOPOLA3
 70
64
 62
253
 6
CONTINUOUS
 0
LAYER
 2
DIETRO
 70
64
 62
253
 6
CONTINUOUS
 0
LAYER
 2
FONDO
 70
64
 62
39
 6
CONTINUOUS
 0
LAYER
 2
CUBO
 70
64
 62
39
 6
CONTINUOUS
 0
LAYER
 2
ANTA
 70
64
 62
253
 6
CONTINUOUS
 0
LAYER
 2
CRUSCOTTO
 70
64
 62
253
 6
CONTINUOUS
 0
LAYER
 2
MANIGLIA
 70
64
 62
253
 6
CONTINUOUS
 0
LAYER
 2
ANTA_CORNICE
 70
64
 62
39
 6
CONTINUOUS
 0
LAYER
 2
ANTA_FINESTRA
 70
64
 62
37
 6
CONTINUOUS
 0
ENDTAB
 0
ENDSEC
 0
SECTION
 2
BLOCKS
 0
ENDSEC
 0
SECTION
 2
ENTITIES
 0
POLYLINE
 8
BASE3_1
 66
1
 10
0.0
 20
0.0
 30
0.0
 70
64
 71
207
 72
251
 0
VERTEX
 8
BASE3_1
 10
-16.7019
 20
-2.4014
 30
64.0758
 70
192
 0
VERTEX
 8
BASE3_1
 10
-16.38
 20
-2.8015
 30
64.0758
 70
192
 0
VERTEX
 8
BASE3_1
 10
-14.8481
 20
-2.4014
 30
64.0758
 70
192
 0
VERTEX
 8
BASE3_1
 10
-18.3073
 20
-2.4014
 30
63.149
 70
192
 0
VERTEX
 8
BASE3_1
 10
-14.8763
 20
-2.4014
 30
64.3977
 70
192
 0
VERTEX
 8
BASE3_1
 10
-18.1219
 20
-2.4014
 30
62.8843
 70
192
 0
VERTEX
 8
BASE3_1
 10
-14.9599
 20
-2.4014
 30
64.7098
 70
192
 0
VERTEX
 8
BASE3_1
 10
-17.8934
 20
-2.4014
 30
62.6558
 70
192
 0
VERTEX
 8
BASE3_1
 10
-15.0965
 20
-2.4014
 30
65.0027
 70
192
 0
VERTEX
 8
BASE3_1
 10
-17.6288
 20
-2.4014
 30
62.4704
 70
192
 0
VERTEX
 8
BASE3_1
 10
-15.2818
 20
-2.4014
 30
65.2674
 70
192
 0
VERTEX
 8
BASE3_1
 10
-17.3359
 20
-2.4014
 30
62.3339
 70
192
 0
VERTEX
 8
BASE3_1
 10
-15.5103
 20
-2.4014
 30
65.4959
 70
192
 0
VERTEX
 8
BASE3_1
 10
-17.0238
 20
-2.4014
 30
62.2502
 70
192
 0
VERTEX
 8
BASE3_1
 10
-16.7019
 20
-2.4014
 30
62.2221
 70
192
 0
VERTEX
 8
BASE3_1
 10
-15.775
 20
-2.4014
 30
65.6812
 70
192
 0
VERTEX
 8
BASE3_1
 10
-16.38
 20
-2.4014
 30
62.2502
 70
192
 0
VERTEX
 8
BASE3_1
 10
-16.0679
 20
-2.4014
 30
62.3339
 70
192
 0
VERTEX
 8
BASE3_1
 10
-16.0679
 20
-2.4014
 30
65.8178
 70
192
 0
VERTEX
 8
BASE3_1
 10
-15.775
 20
-2.4014
 30
62.4704
 70
192
 0
VERTEX
 8
BASE3_1
 10
-16.38
 20
-2.4014
 30
65.9014
 70
192
 0
VERTEX
 8
BASE3_1
 10
-17.3359
 20
-3.1027
 30
64.0758
 70
192
 0
VERTEX
 8
BASE3_1
 10
-16.0679
 20
-3.1027
 30
64.0758
 70
192
 0
VERTEX
 8
BASE3_1
 10
-16.7019
 20
-2.4014
 30
65.9296
 70
192
 0
VERTEX
 8
BASE3_1
 10
-17.0238
 20
-2.8015
 30
64.0758
 70
192
 0
VERTEX
 8
BASE3_1
 10
-16.7019
 20
-2.8015
 30
64.0758
 70
192
 0
VERTEX
 8
BASE3_1
 10
-15.5103
 20
-2.4014
 30
62.6558
 70
192
 0
VERTEX
 8
BASE3_1
 10
-17.0238
 20
-2.4014
 30
65.9014
 70
192
 0
VERTEX
 8
BASE3_1
 10
-17.3359
 20
-2.8015
 30
64.0758
 70
192
 0
VERTEX
 8
BASE3_1
 10
-16.0679
 20
-2.8015
 30
64.0758
 70
192
 0
VERTEX
 8
BASE3_1
 10
-17.3359
 20
-2.4014
 30
65.8178
 70
192
 0
VERTEX
 8
BASE3_1
 10
-15.2818
 20
-2.4014
 30
62.8843
 70
192
 0
VERTEX
 8
BASE3_1
 10
-17.6288
 20
-2.4014
 30
65.6812
 70
192
 0
VERTEX
 8
BASE3_1
 10
-15.0965
 20
-2.4014
 30
63.149
 70
192
 0
VERTEX
 8
BASE3_1
 10
-17.8934
 20
-2.4014
 30
65.4959
 70
192
 0
VERTEX
 8
BASE3_1
 10
-14.9599
 20
-2.4014
 30
63.4418
 70
192
 0
VERTEX
 8
BASE3_1
 10
-18.1219
 20
-2.4014
 30
65.2674
 70
192
 0
VERTEX
 8
BASE3_1
 10
-14.8763
 20
-2.4014
 30
63.7539
 70
192
 0
VERTEX
 8
BASE3_1
 10
-18.3073
 20
-2.4014
 30
65.0027
 70
192
 0
VERTEX
 8
BASE3_1
 10
-16.0679
 20
-2.8015
 30
62.3339
 70
192
 0
VERTEX
 8
BASE3_1
 10
-18.4438
 20
-2.4014
 30
64.7098
 70
192
 0
VERTEX
 8
BASE3_1
 10
-17.3359
 20
-2.8015
 30
65.8178
 70
192
 0
VERTEX
 8
BASE3_1
 10
-16.7019
 20
-2.8015
 30
65.9296
 70
192
 0
VERTEX
 8
BASE3_1
 10
-18.5275
 20
-2.4014
 30
64.3977
 70
192
 0
VERTEX
 8
BASE3_1
 10
-17.0238
 20
-2.8015
 30
65.9014
 70
192
 0
VERTEX
 8
BASE3_1
 10
-17.3359
 20
-2.8015
 30
62.3339
 70
192
 0
VERTEX
 8
BASE3_1
 10
-18.5556
 20
-2.4014
 30
64.0758
 70
192
 0
VERTEX
 8
BASE3_1
 10
-17.0238
 20
-2.8015
 30
62.2502
 70
192
 0
VERTEX
 8
BASE3_1
 10
-16.7019
 20
-2.8015
 30
62.2221
 70
192
 0
VERTEX
 8
BASE3_1
 10
-18.5275
 20
-2.4014
 30
63.7539
 70
192
 0
VERTEX
 8
BASE3_1
 10
-16.0679
 20
-2.8015
 30
65.8178
 70
192
 0
VERTEX
 8
BASE3_1
 10
-16.38
 20
-2.8015
 30
65.9014
 70
192
 0
VERTEX
 8
BASE3_1
 10
-16.38
 20
-2.8015
 30
62.2502
 70
192
 0
VERTEX
 8
BASE3_1
 10
-18.4438
 20
-2.4014
 30
63.4418
 70
192
 0
VERTEX
 8
BASE3_1
 10
-14.8763
 20
-3.0527
 30
64.3977
 70
192
 0
VERTEX
 8
BASE3_1
 10
-17.6288
 20
-3.0527
 30
62.4704
 70
192
 0
VERTEX
 8
BASE3_1
 10
-14.8481
 20
-3.0527
 30
64.0758
 70
192
 0
VERTEX
 8
BASE3_1
 10
-14.9599
 20
-3.0527
 30
64.7098
 70
192
 0
VERTEX
 8
BASE3_1
 10
-18.1219
 20
-3.0527
 30
62.8843
 70
192
 0
VERTEX
 8
BASE3_1
 10
-15.0965
 20
-3.0527
 30
65.0027
 70
192
 0
VERTEX
 8
BASE3_1
 10
-17.8934
 20
-3.0527
 30
62.6558
 70
192
 0
VERTEX
 8
BASE3_1
 10
-14.925
 20
-3.1027
 30
63.7671
 70
192
 0
VERTEX
 8
BASE3_1
 10
-15.2818
 20
-3.0527
 30
65.2674
 70
192
 0
VERTEX
 8
BASE3_1
 10
-17.3359
 20
-3.1027
 30
65.7626
 70
192
 0
VERTEX
 8
BASE3_1
 10
-16.0679
 20
-3.1027
 30
62.389
 70
192
 0
VERTEX
 8
BASE3_1
 10
-15.5103
 20
-3.0527
 30
65.4959
 70
192
 0
VERTEX
 8
BASE3_1
 10
-15.3107
 20
-3.1027
 30
62.928
 70
192
 0
VERTEX
 8
BASE3_1
 10
-18.0931
 20
-3.1027
 30
62.928
 70
192
 0
VERTEX
 8
BASE3_1
 10
-15.775
 20
-3.0527
 30
65.6812
 70
192
 0
VERTEX
 8
BASE3_1
 10
-18.2699
 20
-3.1027
 30
63.1846
 70
192
 0
VERTEX
 8
BASE3_1
 10
-15.5297
 20
-3.1027
 30
62.7051
 70
192
 0
VERTEX
 8
BASE3_1
 10
-18.4788
 20
-3.1027
 30
63.7671
 70
192
 0
VERTEX
 8
BASE3_1
 10
-15.5297
 20
-3.1027
 30
65.4466
 70
192
 0
VERTEX
 8
BASE3_1
 10
-15.3107
 20
-3.1027
 30
65.2236
 70
192
 0
VERTEX
 8
BASE3_1
 10
-14.925
 20
-3.1027
 30
64.3846
 70
192
 0
VERTEX
 8
BASE3_1
 10
-16.0679
 20
-3.1027
 30
65.7626
 70
192
 0
VERTEX
 8
BASE3_1
 10
-15.7846
 20
-3.1027
 30
65.6287
 70
192
 0
VERTEX
 8
BASE3_1
 10
-17.8741
 20
-3.1027
 30
62.7051
 70
192
 0
VERTEX
 8
BASE3_1
 10
-17.3359
 20
-3.1027
 30
62.389
 70
192
 0
VERTEX
 8
BASE3_1
 10
-17.6192
 20
-3.1027
 30
62.5229
 70
192
 0
VERTEX
 8
BASE3_1
 10
-15.5103
 20
-3.0527
 30
62.6558
 70
192
 0
VERTEX
 8
BASE3_1
 10
-18.3996
 20
-3.1027
 30
63.4671
 70
192
 0
VERTEX
 8
BASE3_1
 10
-15.2818
 20
-3.0527
 30
62.8843
 70
192
 0
VERTEX
 8
BASE3_1
 10
-17.3359
 20
-3.0527
 30
62.3339
 70
192
 0
VERTEX
 8
BASE3_1
 10
-17.3359
 20
-3.0527
 30
65.8178
 70
192
 0
VERTEX
 8
BASE3_1
 10
-17.6288
 20
-3.0527
 30
65.6812
 70
192
 0
VERTEX
 8
BASE3_1
 10
-16.0679
 20
-3.0527
 30
62.3339
 70
192
 0
VERTEX
 8
BASE3_1
 10
-15.775
 20
-3.0527
 30
62.4704
 70
192
 0
VERTEX
 8
BASE3_1
 10
-16.0679
 20
-3.0527
 30
65.8178
 70
192
 0
VERTEX
 8
BASE3_1
 10
-15.7846
 20
-3.1027
 30
62.5229
 70
192
 0
VERTEX
 8
BASE3_1
 10
-14.8983
 20
-3.1027
 30
64.0758
 70
192
 0
VERTEX
 8
BASE3_1
 10
-15.0965
 20
-3.0527
 30
63.149
 70
192
 0
VERTEX
 8
BASE3_1
 10
-15.0041
 20
-3.1027
 30
64.6845
 70
192
 0
VERTEX
 8
BASE3_1
 10
-15.1339
 20
-3.1027
 30
64.967
 70
192
 0
VERTEX
 8
BASE3_1
 10
-18.4438
 20
-3.0527
 30
63.4418
 70
192
 0
VERTEX
 8
BASE3_1
 10
-18.3073
 20
-3.0527
 30
63.149
 70
192
 0
VERTEX
 8
BASE3_1
 10
-17.6192
 20
-3.1027
 30
65.6287
 70
192
 0
VERTEX
 8
BASE3_1
 10
-17.8934
 20
-3.0527
 30
65.4959
 70
192
 0
VERTEX
 8
BASE3_1
 10
-15.1339
 20
-3.1027
 30
63.1846
 70
192
 0
VERTEX
 8
BASE3_1
 10
-14.9599
 20
-3.0527
 30
63.4418
 70
192
 0
VERTEX
 8
BASE3_1
 10
-17.8741
 20
-3.1027
 30
65.4466
 70
192
 0
VERTEX
 8
BASE3_1
 10
-18.1219
 20
-3.0527
 30
65.2674
 70
192
 0
VERTEX
 8
BASE3_1
 10
-15.0041
 20
-3.1027
 30
63.4671
 70
192
 0
VERTEX
 8
BASE3_1
 10
-14.8763
 20
-3.0527
 30
63.7539
 70
192
 0
VERTEX
 8
BASE3_1
 10
-18.0931
 20
-3.1027
 30
65.2236
 70
192
 0
VERTEX
 8
BASE3_1
 10
-18.3073
 20
-3.0527
 30
65.0027
 70
192
 0
VERTEX
 8
BASE3_1
 10
-18.2699
 20
-3.1027
 30
64.967
 70
192
 0
VERTEX
 8
BASE3_1
 10
-18.4438
 20
-3.0527
 30
64.7098
 70
192
 0
VERTEX
 8
BASE3_1
 10
-18.3996
 20
-3.1027
 30
64.6845
 70
192
 0
VERTEX
 8
BASE3_1
 10
-18.5275
 20
-3.0527
 30
64.3977
 70
192
 0
VERTEX
 8
BASE3_1
 10
-18.4788
 20
-3.1027
 30
64.3846
 70
192
 0
VERTEX
 8
BASE3_1
 10
-18.5556
 20
-3.0527
 30
64.0758
 70
192
 0
VERTEX
 8
BASE3_1
 10
-18.5054
 20
-3.1027
 30
64.0758
 70
192
 0
VERTEX
 8
BASE3_1
 10
-18.5275
 20
-3.0527
 30
63.7539
 70
192
 0
VERTEX
 8
BASE3_1
 10
-14.8517
 20
-3.0711
 30
64.0758
 70
192
 0
VERTEX
 8
BASE3_1
 10
-14.8628
 20
-3.0881
 30
64.0758
 70
192
 0
VERTEX
 8
BASE3_1
 10
-14.8799
 20
-3.0992
 30
64.0758
 70
192
 0
VERTEX
 8
BASE3_1
 10
-14.8797
 20
-3.0711
 30
64.3968
 70
192
 0
VERTEX
 8
BASE3_1
 10
-14.8906
 20
-3.0881
 30
64.3939
 70
192
 0
VERTEX
 8
BASE3_1
 10
-14.907
 20
-3.0992
 30
64.3894
 70
192
 0
VERTEX
 8
BASE3_1
 10
-17.8921
 20
-3.0711
 30
62.6592
 70
192
 0
VERTEX
 8
BASE3_1
 10
-17.8878
 20
-3.0881
 30
62.6702
 70
192
 0
VERTEX
 8
BASE3_1
 10
-17.8812
 20
-3.0992
 30
62.6869
 70
192
 0
VERTEX
 8
BASE3_1
 10
-17.6281
 20
-3.0711
 30
62.4741
 70
192
 0
VERTEX
 8
BASE3_1
 10
-17.6259
 20
-3.0881
 30
62.4858
 70
192
 0
VERTEX
 8
BASE3_1
 10
-17.6227
 20
-3.0992
 30
62.5036
 70
192
 0
VERTEX
 8
BASE3_1
 10
-14.8797
 20
-3.0711
 30
63.7549
 70
192
 0
VERTEX
 8
BASE3_1
 10
-14.8906
 20
-3.0881
 30
63.7578
 70
192
 0
VERTEX
 8
BASE3_1
 10
-14.907
 20
-3.0992
 30
63.7622
 70
192
 0
VERTEX
 8
BASE3_1
 10
-14.963
 20
-3.0711
 30
64.7081
 70
192
 0
VERTEX
 8
BASE3_1
 10
-14.9729
 20
-3.0881
 30
64.7024
 70
192
 0
VERTEX
 8
BASE3_1
 10
-14.9879
 20
-3.0992
 30
64.6939
 70
192
 0
VERTEX
 8
BASE3_1
 10
-18.3046
 20
-3.0711
 30
63.1515
 70
192
 0
VERTEX
 8
BASE3_1
 10
-18.2963
 20
-3.0881
 30
63.1594
 70
192
 0
VERTEX
 8
BASE3_1
 10
-18.2836
 20
-3.0992
 30
63.1715
 70
192
 0
VERTEX
 8
BASE3_1
 10
-18.1199
 20
-3.0711
 30
62.8873
 70
192
 0
VERTEX
 8
BASE3_1
 10
-18.1135
 20
-3.0881
 30
62.8971
 70
192
 0
VERTEX
 8
BASE3_1
 10
-18.1037
 20
-3.0992
 30
62.9119
 70
192
 0
VERTEX
 8
BASE3_1
 10
-15.0991
 20
-3.0711
 30
65.0002
 70
192
 0
VERTEX
 8
BASE3_1
 10
-15.1074
 20
-3.0881
 30
64.9923
 70
192
 0
VERTEX
 8
BASE3_1
 10
-15.1201
 20
-3.0992
 30
64.9802
 70
192
 0
VERTEX
 8
BASE3_1
 10
-15.2839
 20
-3.0711
 30
65.2643
 70
192
 0
VERTEX
 8
BASE3_1
 10
-15.2903
 20
-3.0881
 30
65.2546
 70
192
 0
VERTEX
 8
BASE3_1
 10
-15.3001
 20
-3.0992
 30
65.2397
 70
192
 0
VERTEX
 8
BASE3_1
 10
-17.6227
 20
-3.0992
 30
65.6481
 70
192
 0
VERTEX
 8
BASE3_1
 10
-17.6259
 20
-3.0881
 30
65.6658
 70
192
 0
VERTEX
 8
BASE3_1
 10
-17.6281
 20
-3.0711
 30
65.6775
 70
192
 0
VERTEX
 8
BASE3_1
 10
-17.3359
 20
-3.0992
 30
65.7829
 70
192
 0
VERTEX
 8
BASE3_1
 10
-17.3359
 20
-3.0881
 30
65.8016
 70
192
 0
VERTEX
 8
BASE3_1
 10
-17.3359
 20
-3.0711
 30
65.8139
 70
192
 0
VERTEX
 8
BASE3_1
 10
-15.7811
 20
-3.0992
 30
62.5036
 70
192
 0
VERTEX
 8
BASE3_1
 10
-15.7778
 20
-3.0881
 30
62.4858
 70
192
 0
VERTEX
 8
BASE3_1
 10
-15.7757
 20
-3.0711
 30
62.4741
 70
192
 0
VERTEX
 8
BASE3_1
 10
-16.0679
 20
-3.0992
 30
62.3687
 70
192
 0
VERTEX
 8
BASE3_1
 10
-16.0679
 20
-3.0881
 30
62.35
 70
192
 0
VERTEX
 8
BASE3_1
 10
-16.0679
 20
-3.0711
 30
62.3378
 70
192
 0
VERTEX
 8
BASE3_1
 10
-15.5117
 20
-3.0711
 30
65.4924
 70
192
 0
VERTEX
 8
BASE3_1
 10
-15.516
 20
-3.0881
 30
65.4814
 70
192
 0
VERTEX
 8
BASE3_1
 10
-15.5226
 20
-3.0992
 30
65.4647
 70
192
 0
VERTEX
 8
BASE3_1
 10
-15.1201
 20
-3.0992
 30
63.1715
 70
192
 0
VERTEX
 8
BASE3_1
 10
-15.1074
 20
-3.0881
 30
63.1594
 70
192
 0
VERTEX
 8
BASE3_1
 10
-15.0991
 20
-3.0711
 30
63.1515
 70
192
 0
VERTEX
 8
BASE3_1
 10
-15.3001
 20
-3.0992
 30
62.9119
 70
192
 0
VERTEX
 8
BASE3_1
 10
-15.2903
 20
-3.0881
 30
62.8971
 70
192
 0
VERTEX
 8
BASE3_1
 10
-15.2839
 20
-3.0711
 30
62.8873
 70
192
 0
VERTEX
 8
BASE3_1
 10
-15.7757
 20
-3.0711
 30
65.6775
 70
192
 0
VERTEX
 8
BASE3_1
 10
-15.7778
 20
-3.0881
 30
65.6658
 70
192
 0
VERTEX
 8
BASE3_1
 10
-15.7811
 20
-3.0992
 30
65.6481
 70
192
 0
VERTEX
 8
BASE3_1
 10
-15.5226
 20
-3.0992
 30
62.6869
 70
192
 0
VERTEX
 8
BASE3_1
 10
-15.516
 20
-3.0881
 30
62.6702
 70
192
 0
VERTEX
 8
BASE3_1
 10
-15.5117
 20
-3.0711
 30
62.6592
 70
192
 0
VERTEX
 8
BASE3_1
 10
-18.4159
 20
-3.0992
 30
63.4578
 70
192
 0
VERTEX
 8
BASE3_1
 10
-18.4309
 20
-3.0881
 30
63.4492
 70
192
 0
VERTEX
 8
BASE3_1
 10
-18.4407
 20
-3.0711
 30
63.4436
 70
192
 0
VERTEX
 8
BASE3_1
 10
-18.4967
 20
-3.0992
 30
63.7622
 70
192
 0
VERTEX
 8
BASE3_1
 10
-18.5132
 20
-3.0881
 30
63.7578
 70
192
 0
VERTEX
 8
BASE3_1
 10
-18.524
 20
-3.0711
 30
63.7549
 70
192
 0
VERTEX
 8
BASE3_1
 10
-16.0679
 20
-3.0992
 30
65.7829
 70
192
 0
VERTEX
 8
BASE3_1
 10
-16.0679
 20
-3.0881
 30
65.8016
 70
192
 0
VERTEX
 8
BASE3_1
 10
-16.0679
 20
-3.0711
 30
65.8139
 70
192
 0
VERTEX
 8
BASE3_1
 10
-17.3359
 20
-3.0992
 30
62.3687
 70
192
 0
VERTEX
 8
BASE3_1
 10
-17.3359
 20
-3.0881
 30
62.35
 70
192
 0
VERTEX
 8
BASE3_1
 10
-17.3359
 20
-3.0711
 30
62.3378
 70
192
 0
VERTEX
 8
BASE3_1
 10
-17.8812
 20
-3.0992
 30
65.4647
 70
192
 0
VERTEX
 8
BASE3_1
 10
-17.8878
 20
-3.0881
 30
65.4814
 70
192
 0
VERTEX
 8
BASE3_1
 10
-17.8921
 20
-3.0711
 30
65.4924
 70
192
 0
VERTEX
 8
BASE3_1
 10
-14.9879
 20
-3.0992
 30
63.4578
 70
192
 0
VERTEX
 8
BASE3_1
 10
-14.9729
 20
-3.0881
 30
63.4492
 70
192
 0
VERTEX
 8
BASE3_1
 10
-14.963
 20
-3.0711
 30
63.4436
 70
192
 0
VERTEX
 8
BASE3_1
 10
-18.1037
 20
-3.0992
 30
65.2397
 70
192
 0
VERTEX
 8
BASE3_1
 10
-18.1135
 20
-3.0881
 30
65.2546
 70
192
 0
VERTEX
 8
BASE3_1
 10
-18.1199
 20
-3.0711
 30
65.2643
 70
192
 0
VERTEX
 8
BASE3_1
 10
-18.2836
 20
-3.0992
 30
64.9802
 70
192
 0
VERTEX
 8
BASE3_1
 10
-18.2963
 20
-3.0881
 30
64.9923
 70
192
 0
VERTEX
 8
BASE3_1
 10
-18.3046
 20
-3.0711
 30
65.0002
 70
192
 0
VERTEX
 8
BASE3_1
 10
-18.4159
 20
-3.0992
 30
64.6939
 70
192
 0
VERTEX
 8
BASE3_1
 10
-18.4309
 20
-3.0881
 30
64.7024
 70
192
 0
VERTEX
 8
BASE3_1
 10
-18.4407
 20
-3.0711
 30
64.7081
 70
192
 0
VERTEX
 8
BASE3_1
 10
-18.4967
 20
-3.0992
 30
64.3894
 70
192
 0
VERTEX
 8
BASE3_1
 10
-18.5132
 20
-3.0881
 30
64.3939
 70
192
 0
VERTEX
 8
BASE3_1
 10
-18.524
 20
-3.0711
 30
64.3968
 70
192
 0
VERTEX
 8
BASE3_1
 10
-18.5239
 20
-3.0992
 30
64.0758
 70
192
 0
VERTEX
 8
BASE3_1
 10
-18.5409
 20
-3.0881
 30
64.0758
 70
192
 0
VERTEX
 8
BASE3_1
 10
-18.5521
 20
-3.0711
 30
64.0758
 70
192
 0
VERTEX
 8
BASE3_1
 10
-16.0673
 20
-3.0527
 30
65.8175
 70
192
 0
VERTEX
 8
BASE3_1
 10
-16.0679
 20
-3.0525
 30
65.8178
 70
192
 0
VERTEX
 8
BASE3_1
 10
-16.0679
 20
-3.0525
 30
65.816
 70
192
 0
VERTEX
 8
BASE3_1
 10
0
 20
0
 30
0
 70
128
 71
1
 72
3
 73
5
 74
5
 0
VERTEX
 8
BASE3_1
 10
0
 20
0
 30
0
 70
128
 71
3
 72
57
 73
55
 74
5
 0
VERTEX
 8
BASE3_1
 10
0
 20
0
 30
0
 70
128
 71
1
 72
10
 73
12
 74
12
 0
VERTEX
 8
BASE3_1
 10
0
 20
0
 30
0
 70
128
 71
1
 72
5
 73
7
 74
7
 0
VERTEX
 8
BASE3_1
 10
0
 20
0
 30
0
 70
128
 71
5
 72
55
 73
58
 74
7
 0
VERTEX
 8
BASE3_1
 10
0
 20
0
 30
0
 70
128
 71
10
 72
46
 73
12
 74
12
 0
VERTEX
 8
BASE3_1
 10
0
 20
0
 30
0
 70
128
 71
1
 72
7
 73
9
 74
9
 0
VERTEX
 8
BASE3_1
 10
0
 20
0
 30
0
 70
128
 71
7
 72
58
 73
60
 74
9
 0
VERTEX
 8
BASE3_1
 10
0
 20
0
 30
0
 70
128
 71
1
 72
12
 73
14
 74
14
 0
VERTEX
 8
BASE3_1
 10
0
 20
0
 30
0
 70
128
 71
1
 72
9
 73
11
 74
11
 0
VERTEX
 8
BASE3_1
 10
0
 20
0
 30
0
 70
128
 71
9
 72
60
 73
63
 74
11
 0
VERTEX
 8
BASE3_1
 10
0
 20
0
 30
0
 70
128
 71
12
 72
46
 73
48
 74
14
 0
VERTEX
 8
BASE3_1
 10
0
 20
0
 30
0
 70
128
 71
1
 72
11
 73
13
 74
13
 0
VERTEX
 8
BASE3_1
 10
0
 20
0
 30
0
 70
128
 71
11
 72
63
 73
66
 74
13
 0
VERTEX
 8
BASE3_1
 10
0
 20
0
 30
0
 70
128
 71
1
 72
14
 73
15
 74
15
 0
VERTEX
 8
BASE3_1
 10
0
 20
0
 30
0
 70
128
 71
1
 72
13
 73
16
 74
16
 0
VERTEX
 8
BASE3_1
 10
0
 20
0
 30
0
 70
128
 71
13
 72
66
 73
69
 74
16
 0
VERTEX
 8
BASE3_1
 10
0
 20
0
 30
0
 70
128
 71
14
 72
48
 73
49
 74
15
 0
VERTEX
 8
BASE3_1
 10
0
 20
0
 30
0
 70
128
 71
1
 72
16
 73
19
 74
19
 0
VERTEX
 8
BASE3_1
 10
0
 20
0
 30
0
 70
128
 71
205
 72
206
 73
51
 74
51
 0
VERTEX
 8
BASE3_1
 10
0
 20
0
 30
0
 70
128
 71
1
 72
15
 73
17
 74
17
 0
VERTEX
 8
BASE3_1
 10
0
 20
0
 30
0
 70
128
 71
1
 72
19
 73
21
 74
21
 0
VERTEX
 8
BASE3_1
 10
0
 20
0
 30
0
 70
128
 71
19
 72
51
 73
52
 74
21
 0
VERTEX
 8
BASE3_1
 10
0
 20
0
 30
0
 70
128
 71
15
 72
49
 73
53
 74
17
 0
VERTEX
 8
BASE3_1
 10
0
 20
0
 30
0
 70
128
 71
1
 72
21
 73
24
 74
24
 0
VERTEX
 8
BASE3_1
 10
0
 20
0
 30
0
 70
128
 71
21
 72
52
 73
43
 74
24
 0
VERTEX
 8
BASE3_1
 10
0
 20
0
 30
0
 70
128
 71
1
 72
17
 73
18
 74
18
 0
VERTEX
 8
BASE3_1
 10
0
 20
0
 30
0
 70
128
 71
1
 72
24
 73
28
 74
28
 0
VERTEX
 8
BASE3_1
 10
0
 20
0
 30
0
 70
128
 71
24
 72
43
 73
45
 74
28
 0
VERTEX
 8
BASE3_1
 10
0
 20
0
 30
0
 70
128
 71
17
 72
53
 73
40
 74
18
 0
VERTEX
 8
BASE3_1
 10
0
 20
0
 30
0
 70
128
 71
1
 72
28
 73
31
 74
31
 0
VERTEX
 8
BASE3_1
 10
0
 20
0
 30
0
 70
128
 71
28
 72
45
 73
42
 74
31
 0
VERTEX
 8
BASE3_1
 10
0
 20
0
 30
0
 70
128
 71
1
 72
18
 73
20
 74
20
 0
VERTEX
 8
BASE3_1
 10
0
 20
0
 30
0
 70
128
 71
1
 72
31
 73
33
 74
33
 0
VERTEX
 8
BASE3_1
 10
0
 20
0
 30
0
 70
128
 71
31
 72
42
 73
33
 74
33
 0
VERTEX
 8
BASE3_1
 10
0
 20
0
 30
0
 70
128
 71
18
 72
40
 73
20
 74
20
 0
VERTEX
 8
BASE3_1
 10
0
 20
0
 30
0
 70
128
 71
1
 72
33
 73
35
 74
35
 0
VERTEX
 8
BASE3_1
 10
0
 20
0
 30
0
 70
128
 71
33
 72
86
 73
98
 74
35
 0
VERTEX
 8
BASE3_1
 10
0
 20
0
 30
0
 70
128
 71
1
 72
20
 73
27
 74
27
 0
VERTEX
 8
BASE3_1
 10
0
 20
0
 30
0
 70
128
 71
1
 72
35
 73
37
 74
37
 0
VERTEX
 8
BASE3_1
 10
0
 20
0
 30
0
 70
128
 71
35
 72
98
 73
102
 74
37
 0
VERTEX
 8
BASE3_1
 10
0
 20
0
 30
0
 70
128
 71
20
 72
88
 73
81
 74
27
 0
VERTEX
 8
BASE3_1
 10
0
 20
0
 30
0
 70
128
 71
1
 72
37
 73
39
 74
39
 0
VERTEX
 8
BASE3_1
 10
0
 20
0
 30
0
 70
128
 71
37
 72
102
 73
106
 74
39
 0
VERTEX
 8
BASE3_1
 10
0
 20
0
 30
0
 70
128
 71
1
 72
27
 73
32
 74
32
 0
VERTEX
 8
BASE3_1
 10
0
 20
0
 30
0
 70
128
 71
1
 72
39
 73
41
 74
41
 0
VERTEX
 8
BASE3_1
 10
0
 20
0
 30
0
 70
128
 71
39
 72
106
 73
108
 74
41
 0
VERTEX
 8
BASE3_1
 10
0
 20
0
 30
0
 70
128
 71
27
 72
81
 73
83
 74
32
 0
VERTEX
 8
BASE3_1
 10
0
 20
0
 30
0
 70
128
 71
1
 72
41
 73
44
 74
44
 0
VERTEX
 8
BASE3_1
 10
0
 20
0
 30
0
 70
128
 71
41
 72
108
 73
110
 74
44
 0
VERTEX
 8
BASE3_1
 10
0
 20
0
 30
0
 70
128
 71
1
 72
32
 73
34
 74
34
 0
VERTEX
 8
BASE3_1
 10
0
 20
0
 30
0
 70
128
 71
1
 72
44
 73
47
 74
47
 0
VERTEX
 8
BASE3_1
 10
0
 20
0
 30
0
 70
128
 71
44
 72
110
 73
112
 74
47
 0
VERTEX
 8
BASE3_1
 10
0
 20
0
 30
0
 70
128
 71
32
 72
83
 73
92
 74
34
 0
VERTEX
 8
BASE3_1
 10
0
 20
0
 30
0
 70
128
 71
1
 72
47
 73
50
 74
50
 0
VERTEX
 8
BASE3_1
 10
0
 20
0
 30
0
 70
128
 71
71
 72
90
 73
23
 74
23
 0
VERTEX
 8
BASE3_1
 10
0
 20
0
 30
0
 70
128
 71
1
 72
34
 73
36
 74
36
 0
VERTEX
 8
BASE3_1
 10
0
 20
0
 30
0
 70
128
 71
1
 72
50
 73
54
 74
54
 0
VERTEX
 8
BASE3_1
 10
0
 20
0
 30
0
 70
128
 71
50
 72
114
 73
95
 74
54
 0
VERTEX
 8
BASE3_1
 10
0
 20
0
 30
0
 70
128
 71
34
 72
92
 73
100
 74
36
 0
VERTEX
 8
BASE3_1
 10
0
 20
0
 30
0
 70
128
 71
1
 72
54
 73
4
 74
4
 0
VERTEX
 8
BASE3_1
 10
0
 20
0
 30
0
 70
128
 71
54
 72
95
 73
96
 74
4
 0
VERTEX
 8
BASE3_1
 10
0
 20
0
 30
0
 70
128
 71
1
 72
36
 73
38
 74
38
 0
VERTEX
 8
BASE3_1
 10
0
 20
0
 30
0
 70
128
 71
1
 72
4
 73
6
 74
6
 0
VERTEX
 8
BASE3_1
 10
0
 20
0
 30
0
 70
128
 71
4
 72
96
 73
59
 74
6
 0
VERTEX
 8
BASE3_1
 10
0
 20
0
 30
0
 70
128
 71
36
 72
100
 73
104
 74
38
 0
VERTEX
 8
BASE3_1
 10
0
 20
0
 30
0
 70
128
 71
1
 72
6
 73
8
 74
8
 0
VERTEX
 8
BASE3_1
 10
0
 20
0
 30
0
 70
128
 71
6
 72
59
 73
61
 74
8
 0
VERTEX
 8
BASE3_1
 10
0
 20
0
 30
0
 70
128
 71
1
 72
38
 73
3
 74
3
 0
VERTEX
 8
BASE3_1
 10
0
 20
0
 30
0
 70
128
 71
1
 72
8
 73
10
 74
10
 0
VERTEX
 8
BASE3_1
 10
0
 20
0
 30
0
 70
128
 71
8
 72
61
 73
56
 74
10
 0
VERTEX
 8
BASE3_1
 10
0
 20
0
 30
0
 70
128
 71
38
 72
104
 73
57
 74
3
 0
VERTEX
 8
BASE3_1
 10
0
 20
0
 30
0
 70
128
 71
112
 72
114
 73
50
 74
47
 0
VERTEX
 8
BASE3_1
 10
0
 20
0
 30
0
 70
128
 71
90
 72
65
 73
23
 74
23
 0
VERTEX
 8
BASE3_1
 10
0
 20
0
 30
0
 70
128
 71
42
 72
85
 73
86
 74
33
 0
VERTEX
 8
BASE3_1
 10
0
 20
0
 30
0
 70
128
 71
99
 72
67
 73
23
 74
23
 0
VERTEX
 8
BASE3_1
 10
0
 20
0
 30
0
 70
128
 71
91
 72
62
 73
23
 74
23
 0
VERTEX
 8
BASE3_1
 10
0
 20
0
 30
0
 70
128
 71
111
 72
109
 73
22
 74
22
 0
VERTEX
 8
BASE3_1
 10
0
 20
0
 30
0
 70
128
 71
113
 72
111
 73
22
 74
22
 0
VERTEX
 8
BASE3_1
 10
0
 20
0
 30
0
 70
128
 71
97
 72
64
 73
22
 74
22
 0
VERTEX
 8
BASE3_1
 10
0
 20
0
 30
0
 70
128
 71
22
 72
82
 73
72
 74
72
 0
VERTEX
 8
BASE3_1
 10
0
 20
0
 30
0
 70
128
 71
22
 72
72
 73
113
 74
113
 0
VERTEX
 8
BASE3_1
 10
0
 20
0
 30
0
 70
128
 71
109
 72
107
 73
22
 74
22
 0
VERTEX
 8
BASE3_1
 10
0
 20
0
 30
0
 70
128
 71
107
 72
105
 73
22
 74
22
 0
VERTEX
 8
BASE3_1
 10
0
 20
0
 30
0
 70
128
 71
22
 72
68
 73
70
 74
70
 0
VERTEX
 8
BASE3_1
 10
0
 20
0
 30
0
 70
128
 71
22
 72
78
 73
68
 74
68
 0
VERTEX
 8
BASE3_1
 10
0
 20
0
 30
0
 70
128
 71
67
 72
71
 73
23
 74
23
 0
VERTEX
 8
BASE3_1
 10
0
 20
0
 30
0
 70
128
 71
40
 72
87
 73
88
 74
20
 0
VERTEX
 8
BASE3_1
 10
0
 20
0
 30
0
 70
128
 71
10
 72
56
 73
84
 74
46
 0
VERTEX
 8
BASE3_1
 10
0
 20
0
 30
0
 70
128
 71
62
 72
103
 73
23
 74
23
 0
VERTEX
 8
BASE3_1
 10
0
 20
0
 30
0
 70
128
 71
77
 72
73
 73
23
 74
23
 0
VERTEX
 8
BASE3_1
 10
0
 20
0
 30
0
 70
128
 71
205
 72
89
 73
206
 74
206
 0
VERTEX
 8
BASE3_1
 10
0
 20
0
 30
0
 70
128
 71
42
 72
45
 73
25
 74
29
 0
VERTEX
 8
BASE3_1
 10
0
 20
0
 30
0
 70
128
 71
45
 72
43
 73
26
 74
25
 0
VERTEX
 8
BASE3_1
 10
0
 20
0
 30
0
 70
128
 71
53
 72
49
 73
26
 74
2
 0
VERTEX
 8
BASE3_1
 10
0
 20
0
 30
0
 70
128
 71
52
 72
51
 73
30
 74
2
 0
VERTEX
 8
BASE3_1
 10
0
 20
0
 30
0
 70
128
 71
89
 72
207
 73
206
 74
206
 0
VERTEX
 8
BASE3_1
 10
0
 20
0
 30
0
 70
128
 71
84
 72
29
 73
46
 74
46
 0
VERTEX
 8
BASE3_1
 10
0
 20
0
 30
0
 70
128
 71
93
 72
75
 73
23
 74
23
 0
VERTEX
 8
BASE3_1
 10
0
 20
0
 30
0
 70
128
 71
51
 72
16
 73
69
 74
205
 0
VERTEX
 8
BASE3_1
 10
0
 20
0
 30
0
 70
128
 71
73
 72
74
 73
23
 74
23
 0
VERTEX
 8
BASE3_1
 10
0
 20
0
 30
0
 70
128
 71
25
 72
48
 73
46
 74
29
 0
VERTEX
 8
BASE3_1
 10
0
 20
0
 30
0
 70
128
 71
26
 72
49
 73
48
 74
25
 0
VERTEX
 8
BASE3_1
 10
0
 20
0
 30
0
 70
128
 71
26
 72
43
 73
52
 74
2
 0
VERTEX
 8
BASE3_1
 10
0
 20
0
 30
0
 70
128
 71
30
 72
40
 73
53
 74
2
 0
VERTEX
 8
BASE3_1
 10
0
 20
0
 30
0
 70
128
 71
65
 72
154
 73
30
 74
30
 0
VERTEX
 8
BASE3_1
 10
0
 20
0
 30
0
 70
128
 71
64
 72
148
 73
29
 74
29
 0
VERTEX
 8
BASE3_1
 10
0
 20
0
 30
0
 70
128
 71
105
 72
101
 73
22
 74
22
 0
VERTEX
 8
BASE3_1
 10
0
 20
0
 30
0
 70
128
 71
101
 72
97
 73
22
 74
22
 0
VERTEX
 8
BASE3_1
 10
0
 20
0
 30
0
 70
128
 71
22
 72
70
 73
82
 74
82
 0
VERTEX
 8
BASE3_1
 10
0
 20
0
 30
0
 70
128
 71
22
 72
80
 73
78
 74
78
 0
VERTEX
 8
BASE3_1
 10
0
 20
0
 30
0
 70
128
 71
22
 72
79
 73
80
 74
80
 0
VERTEX
 8
BASE3_1
 10
0
 20
0
 30
0
 70
128
 71
74
 72
94
 73
23
 74
23
 0
VERTEX
 8
BASE3_1
 10
0
 20
0
 30
0
 70
128
 71
94
 72
93
 73
23
 74
23
 0
VERTEX
 8
BASE3_1
 10
0
 20
0
 30
0
 70
128
 71
75
 72
91
 73
23
 74
23
 0
VERTEX
 8
BASE3_1
 10
0
 20
0
 30
0
 70
128
 71
103
 72
99
 73
23
 74
23
 0
VERTEX
 8
BASE3_1
 10
0
 20
0
 30
0
 70
128
 71
180
 72
179
 73
30
 74
30
 0
VERTEX
 8
BASE3_1
 10
0
 20
0
 30
0
 70
128
 71
179
 72
178
 73
30
 74
30
 0
VERTEX
 8
BASE3_1
 10
0
 20
0
 30
0
 70
128
 71
183
 72
182
 73
29
 74
29
 0
VERTEX
 8
BASE3_1
 10
0
 20
0
 30
0
 70
128
 71
182
 72
181
 73
29
 74
29
 0
VERTEX
 8
BASE3_1
 10
0
 20
0
 30
0
 70
128
 71
154
 72
155
 73
30
 74
30
 0
VERTEX
 8
BASE3_1
 10
0
 20
0
 30
0
 70
128
 71
23
 72
65
 73
30
 74
30
 0
VERTEX
 8
BASE3_1
 10
0
 20
0
 30
0
 70
128
 71
148
 72
149
 73
29
 74
29
 0
VERTEX
 8
BASE3_1
 10
0
 20
0
 30
0
 70
128
 71
22
 72
64
 73
29
 74
29
 0
VERTEX
 8
BASE3_1
 10
0
 20
0
 30
0
 70
128
 71
57
 72
115
 73
118
 74
55
 0
VERTEX
 8
BASE3_1
 10
0
 20
0
 30
0
 70
128
 71
55
 72
118
 73
130
 74
58
 0
VERTEX
 8
BASE3_1
 10
0
 20
0
 30
0
 70
128
 71
56
 72
124
 73
183
 74
84
 0
VERTEX
 8
BASE3_1
 10
0
 20
0
 30
0
 70
128
 71
58
 72
130
 73
139
 74
60
 0
VERTEX
 8
BASE3_1
 10
0
 20
0
 30
0
 70
128
 71
60
 72
139
 73
142
 74
63
 0
VERTEX
 8
BASE3_1
 10
0
 20
0
 30
0
 70
128
 71
63
 72
142
 73
157
 74
66
 0
VERTEX
 8
BASE3_1
 10
0
 20
0
 30
0
 70
128
 71
66
 72
157
 73
166
 74
69
 0
VERTEX
 8
BASE3_1
 10
0
 20
0
 30
0
 70
128
 71
150
 72
85
 73
29
 74
29
 0
VERTEX
 8
BASE3_1
 10
0
 20
0
 30
0
 70
128
 71
86
 72
147
 73
186
 74
98
 0
VERTEX
 8
BASE3_1
 10
0
 20
0
 30
0
 70
128
 71
98
 72
186
 73
192
 74
102
 0
VERTEX
 8
BASE3_1
 10
0
 20
0
 30
0
 70
128
 71
88
 72
153
 73
171
 74
81
 0
VERTEX
 8
BASE3_1
 10
0
 20
0
 30
0
 70
128
 71
102
 72
192
 73
195
 74
106
 0
VERTEX
 8
BASE3_1
 10
0
 20
0
 30
0
 70
128
 71
106
 72
195
 73
198
 74
108
 0
VERTEX
 8
BASE3_1
 10
0
 20
0
 30
0
 70
128
 71
81
 72
171
 73
165
 74
83
 0
VERTEX
 8
BASE3_1
 10
0
 20
0
 30
0
 70
128
 71
108
 72
198
 73
201
 74
110
 0
VERTEX
 8
BASE3_1
 10
0
 20
0
 30
0
 70
128
 71
110
 72
201
 73
204
 74
112
 0
VERTEX
 8
BASE3_1
 10
0
 20
0
 30
0
 70
128
 71
83
 72
165
 73
162
 74
92
 0
VERTEX
 8
BASE3_1
 10
0
 20
0
 30
0
 70
128
 71
114
 72
177
 73
174
 74
95
 0
VERTEX
 8
BASE3_1
 10
0
 20
0
 30
0
 70
128
 71
92
 72
162
 73
189
 74
100
 0
VERTEX
 8
BASE3_1
 10
0
 20
0
 30
0
 70
128
 71
95
 72
174
 73
133
 74
96
 0
VERTEX
 8
BASE3_1
 10
0
 20
0
 30
0
 70
128
 71
96
 72
133
 73
136
 74
59
 0
VERTEX
 8
BASE3_1
 10
0
 20
0
 30
0
 70
128
 71
100
 72
189
 73
127
 74
104
 0
VERTEX
 8
BASE3_1
 10
0
 20
0
 30
0
 70
128
 71
59
 72
136
 73
121
 74
61
 0
VERTEX
 8
BASE3_1
 10
0
 20
0
 30
0
 70
128
 71
61
 72
121
 73
124
 74
56
 0
VERTEX
 8
BASE3_1
 10
0
 20
0
 30
0
 70
128
 71
104
 72
127
 73
115
 74
57
 0
VERTEX
 8
BASE3_1
 10
0
 20
0
 30
0
 70
128
 71
112
 72
204
 73
177
 74
114
 0
VERTEX
 8
BASE3_1
 10
0
 20
0
 30
0
 70
128
 71
87
 72
156
 73
153
 74
88
 0
VERTEX
 8
BASE3_1
 10
0
 20
0
 30
0
 70
128
 71
85
 72
150
 73
147
 74
86
 0
VERTEX
 8
BASE3_1
 10
0
 20
0
 30
0
 70
128
 71
115
 72
116
 73
119
 74
118
 0
VERTEX
 8
BASE3_1
 10
0
 20
0
 30
0
 70
128
 71
116
 72
117
 73
120
 74
119
 0
VERTEX
 8
BASE3_1
 10
0
 20
0
 30
0
 70
128
 71
117
 72
91
 73
75
 74
120
 0
VERTEX
 8
BASE3_1
 10
0
 20
0
 30
0
 70
128
 71
118
 72
119
 73
131
 74
130
 0
VERTEX
 8
BASE3_1
 10
0
 20
0
 30
0
 70
128
 71
119
 72
120
 73
132
 74
131
 0
VERTEX
 8
BASE3_1
 10
0
 20
0
 30
0
 70
128
 71
120
 72
75
 73
93
 74
132
 0
VERTEX
 8
BASE3_1
 10
0
 20
0
 30
0
 70
128
 71
124
 72
125
 73
182
 74
183
 0
VERTEX
 8
BASE3_1
 10
0
 20
0
 30
0
 70
128
 71
125
 72
126
 73
181
 74
182
 0
VERTEX
 8
BASE3_1
 10
0
 20
0
 30
0
 70
128
 71
126
 72
80
 73
79
 74
181
 0
VERTEX
 8
BASE3_1
 10
0
 20
0
 30
0
 70
128
 71
130
 72
131
 73
140
 74
139
 0
VERTEX
 8
BASE3_1
 10
0
 20
0
 30
0
 70
128
 71
131
 72
132
 73
141
 74
140
 0
VERTEX
 8
BASE3_1
 10
0
 20
0
 30
0
 70
128
 71
132
 72
93
 73
94
 74
141
 0
VERTEX
 8
BASE3_1
 10
0
 20
0
 30
0
 70
128
 71
139
 72
140
 73
143
 74
142
 0
VERTEX
 8
BASE3_1
 10
0
 20
0
 30
0
 70
128
 71
140
 72
141
 73
144
 74
143
 0
VERTEX
 8
BASE3_1
 10
0
 20
0
 30
0
 70
128
 71
141
 72
94
 73
74
 74
144
 0
VERTEX
 8
BASE3_1
 10
0
 20
0
 30
0
 70
128
 71
142
 72
143
 73
158
 74
157
 0
VERTEX
 8
BASE3_1
 10
0
 20
0
 30
0
 70
128
 71
143
 72
144
 73
159
 74
158
 0
VERTEX
 8
BASE3_1
 10
0
 20
0
 30
0
 70
128
 71
144
 72
74
 73
73
 74
159
 0
VERTEX
 8
BASE3_1
 10
0
 20
0
 30
0
 70
128
 71
157
 72
158
 73
167
 74
166
 0
VERTEX
 8
BASE3_1
 10
0
 20
0
 30
0
 70
128
 71
158
 72
159
 73
168
 74
167
 0
VERTEX
 8
BASE3_1
 10
0
 20
0
 30
0
 70
128
 71
159
 72
73
 73
77
 74
168
 0
VERTEX
 8
BASE3_1
 10
0
 20
0
 30
0
 70
128
 71
51
 72
19
 73
16
 74
16
 0
VERTEX
 8
BASE3_1
 10
0
 20
0
 30
0
 70
128
 71
207
 72
30
 73
51
 74
206
 0
VERTEX
 8
BASE3_1
 10
0
 20
0
 30
0
 70
128
 71
85
 72
42
 73
29
 74
29
 0
VERTEX
 8
BASE3_1
 10
0
 20
0
 30
0
 70
128
 71
147
 72
146
 73
185
 74
186
 0
VERTEX
 8
BASE3_1
 10
0
 20
0
 30
0
 70
128
 71
146
 72
145
 73
184
 74
185
 0
VERTEX
 8
BASE3_1
 10
0
 20
0
 30
0
 70
128
 71
145
 72
97
 73
101
 74
184
 0
VERTEX
 8
BASE3_1
 10
0
 20
0
 30
0
 70
128
 71
186
 72
185
 73
191
 74
192
 0
VERTEX
 8
BASE3_1
 10
0
 20
0
 30
0
 70
128
 71
185
 72
184
 73
190
 74
191
 0
VERTEX
 8
BASE3_1
 10
0
 20
0
 30
0
 70
128
 71
184
 72
101
 73
105
 74
190
 0
VERTEX
 8
BASE3_1
 10
0
 20
0
 30
0
 70
128
 71
153
 72
152
 73
170
 74
171
 0
VERTEX
 8
BASE3_1
 10
0
 20
0
 30
0
 70
128
 71
152
 72
151
 73
169
 74
170
 0
VERTEX
 8
BASE3_1
 10
0
 20
0
 30
0
 70
128
 71
151
 72
90
 73
71
 74
169
 0
VERTEX
 8
BASE3_1
 10
0
 20
0
 30
0
 70
128
 71
192
 72
191
 73
194
 74
195
 0
VERTEX
 8
BASE3_1
 10
0
 20
0
 30
0
 70
128
 71
191
 72
190
 73
193
 74
194
 0
VERTEX
 8
BASE3_1
 10
0
 20
0
 30
0
 70
128
 71
190
 72
105
 73
107
 74
193
 0
VERTEX
 8
BASE3_1
 10
0
 20
0
 30
0
 70
128
 71
195
 72
194
 73
197
 74
198
 0
VERTEX
 8
BASE3_1
 10
0
 20
0
 30
0
 70
128
 71
194
 72
193
 73
196
 74
197
 0
VERTEX
 8
BASE3_1
 10
0
 20
0
 30
0
 70
128
 71
193
 72
107
 73
109
 74
196
 0
VERTEX
 8
BASE3_1
 10
0
 20
0
 30
0
 70
128
 71
171
 72
170
 73
164
 74
165
 0
VERTEX
 8
BASE3_1
 10
0
 20
0
 30
0
 70
128
 71
170
 72
169
 73
163
 74
164
 0
VERTEX
 8
BASE3_1
 10
0
 20
0
 30
0
 70
128
 71
169
 72
71
 73
67
 74
163
 0
VERTEX
 8
BASE3_1
 10
0
 20
0
 30
0
 70
128
 71
198
 72
197
 73
200
 74
201
 0
VERTEX
 8
BASE3_1
 10
0
 20
0
 30
0
 70
128
 71
197
 72
196
 73
199
 74
200
 0
VERTEX
 8
BASE3_1
 10
0
 20
0
 30
0
 70
128
 71
196
 72
109
 73
111
 74
199
 0
VERTEX
 8
BASE3_1
 10
0
 20
0
 30
0
 70
128
 71
201
 72
200
 73
203
 74
204
 0
VERTEX
 8
BASE3_1
 10
0
 20
0
 30
0
 70
128
 71
200
 72
199
 73
202
 74
203
 0
VERTEX
 8
BASE3_1
 10
0
 20
0
 30
0
 70
128
 71
199
 72
111
 73
113
 74
202
 0
VERTEX
 8
BASE3_1
 10
0
 20
0
 30
0
 70
128
 71
165
 72
164
 73
161
 74
162
 0
VERTEX
 8
BASE3_1
 10
0
 20
0
 30
0
 70
128
 71
164
 72
163
 73
160
 74
161
 0
VERTEX
 8
BASE3_1
 10
0
 20
0
 30
0
 70
128
 71
163
 72
67
 73
99
 74
160
 0
VERTEX
 8
BASE3_1
 10
0
 20
0
 30
0
 70
128
 71
177
 72
176
 73
173
 74
174
 0
VERTEX
 8
BASE3_1
 10
0
 20
0
 30
0
 70
128
 71
176
 72
175
 73
172
 74
173
 0
VERTEX
 8
BASE3_1
 10
0
 20
0
 30
0
 70
128
 71
175
 72
72
 73
82
 74
172
 0
VERTEX
 8
BASE3_1
 10
0
 20
0
 30
0
 70
128
 71
162
 72
161
 73
188
 74
189
 0
VERTEX
 8
BASE3_1
 10
0
 20
0
 30
0
 70
128
 71
161
 72
160
 73
187
 74
188
 0
VERTEX
 8
BASE3_1
 10
0
 20
0
 30
0
 70
128
 71
160
 72
99
 73
103
 74
187
 0
VERTEX
 8
BASE3_1
 10
0
 20
0
 30
0
 70
128
 71
174
 72
173
 73
134
 74
133
 0
VERTEX
 8
BASE3_1
 10
0
 20
0
 30
0
 70
128
 71
173
 72
172
 73
135
 74
134
 0
VERTEX
 8
BASE3_1
 10
0
 20
0
 30
0
 70
128
 71
172
 72
82
 73
70
 74
135
 0
VERTEX
 8
BASE3_1
 10
0
 20
0
 30
0
 70
128
 71
133
 72
134
 73
137
 74
136
 0
VERTEX
 8
BASE3_1
 10
0
 20
0
 30
0
 70
128
 71
134
 72
135
 73
138
 74
137
 0
VERTEX
 8
BASE3_1
 10
0
 20
0
 30
0
 70
128
 71
135
 72
70
 73
68
 74
138
 0
VERTEX
 8
BASE3_1
 10
0
 20
0
 30
0
 70
128
 71
189
 72
188
 73
128
 74
127
 0
VERTEX
 8
BASE3_1
 10
0
 20
0
 30
0
 70
128
 71
188
 72
187
 73
129
 74
128
 0
VERTEX
 8
BASE3_1
 10
0
 20
0
 30
0
 70
128
 71
187
 72
103
 73
62
 74
129
 0
VERTEX
 8
BASE3_1
 10
0
 20
0
 30
0
 70
128
 71
136
 72
137
 73
122
 74
121
 0
VERTEX
 8
BASE3_1
 10
0
 20
0
 30
0
 70
128
 71
137
 72
138
 73
123
 74
122
 0
VERTEX
 8
BASE3_1
 10
0
 20
0
 30
0
 70
128
 71
138
 72
68
 73
78
 74
123
 0
VERTEX
 8
BASE3_1
 10
0
 20
0
 30
0
 70
128
 71
121
 72
122
 73
125
 74
124
 0
VERTEX
 8
BASE3_1
 10
0
 20
0
 30
0
 70
128
 71
122
 72
123
 73
126
 74
125
 0
VERTEX
 8
BASE3_1
 10
0
 20
0
 30
0
 70
128
 71
123
 72
78
 73
80
 74
126
 0
VERTEX
 8
BASE3_1
 10
0
 20
0
 30
0
 70
128
 71
127
 72
128
 73
116
 74
115
 0
VERTEX
 8
BASE3_1
 10
0
 20
0
 30
0
 70
128
 71
128
 72
129
 73
117
 74
116
 0
VERTEX
 8
BASE3_1
 10
0
 20
0
 30
0
 70
128
 71
129
 72
62
 73
91
 74
117
 0
VERTEX
 8
BASE3_1
 10
0
 20
0
 30
0
 70
128
 71
204
 72
203
 73
176
 74
177
 0
VERTEX
 8
BASE3_1
 10
0
 20
0
 30
0
 70
128
 71
203
 72
202
 73
175
 74
176
 0
VERTEX
 8
BASE3_1
 10
0
 20
0
 30
0
 70
128
 71
202
 72
113
 73
72
 74
175
 0
VERTEX
 8
BASE3_1
 10
0
 20
0
 30
0
 70
128
 71
156
 72
155
 73
152
 74
153
 0
VERTEX
 8
BASE3_1
 10
0
 20
0
 30
0
 70
128
 71
155
 72
154
 73
151
 74
152
 0
VERTEX
 8
BASE3_1
 10
0
 20
0
 30
0
 70
128
 71
154
 72
65
 73
90
 74
151
 0
VERTEX
 8
BASE3_1
 10
0
 20
0
 30
0
 70
128
 71
150
 72
149
 73
146
 74
147
 0
VERTEX
 8
BASE3_1
 10
0
 20
0
 30
0
 70
128
 71
149
 72
148
 73
145
 74
146
 0
VERTEX
 8
BASE3_1
 10
0
 20
0
 30
0
 70
128
 71
148
 72
64
 73
97
 74
145
 0
VERTEX
 8
BASE3_1
 10
0
 20
0
 30
0
 70
128
 71
180
 72
30
 73
207
 74
89
 0
VERTEX
 8
BASE3_1
 10
0
 20
0
 30
0
 70
128
 71
178
 72
76
 73
30
 74
30
 0
VERTEX
 8
BASE3_1
 10
0
 20
0
 30
0
 70
128
 71
76
 72
23
 73
30
 74
30
 0
VERTEX
 8
BASE3_1
 10
0
 20
0
 30
0
 70
128
 71
155
 72
156
 73
30
 74
30
 0
VERTEX
 8
BASE3_1
 10
0
 20
0
 30
0
 70
128
 71
156
 72
87
 73
30
 74
30
 0
VERTEX
 8
BASE3_1
 10
0
 20
0
 30
0
 70
128
 71
87
 72
40
 73
30
 74
30
 0
VERTEX
 8
BASE3_1
 10
0
 20
0
 30
0
 70
128
 71
84
 72
183
 73
29
 74
29
 0
VERTEX
 8
BASE3_1
 10
0
 20
0
 30
0
 70
128
 71
181
 72
79
 73
29
 74
29
 0
VERTEX
 8
BASE3_1
 10
0
 20
0
 30
0
 70
128
 71
79
 72
22
 73
29
 74
29
 0
VERTEX
 8
BASE3_1
 10
0
 20
0
 30
0
 70
128
 71
149
 72
150
 73
29
 74
29
 0
VERTEX
 8
BASE3_1
 10
0
 20
0
 30
0
 70
128
 71
77
 72
23
 73
76
 74
76
 0
VERTEX
 8
BASE3_1
 10
0
 20
0
 30
0
 70
128
 71
69
 72
166
 73
180
 74
89
 0
VERTEX
 8
BASE3_1
 10
0
 20
0
 30
0
 70
128
 71
179
 72
180
 73
166
 74
167
 0
VERTEX
 8
BASE3_1
 10
0
 20
0
 30
0
 70
128
 71
167
 72
168
 73
178
 74
179
 0
VERTEX
 8
BASE3_1
 10
0
 20
0
 30
0
 70
128
 71
77
 72
76
 73
178
 74
168
 0
SEQEND
 0
POLYLINE
 8
MANOPOLA3_1
 66
1
 10
0.0
 20
0.0
 30
0.0
 70
64
 71
160
 72
166
 0
VERTEX
 8
MANOPOLA3_1
 10
-16.0663
 20
-2.8021
 30
65.8166
 70
192
 0
VERTEX
 8
MANOPOLA3_1
 10
-17.0215
 20
-2.8021
 30
61.6204
 70
192
 0
VERTEX
 8
MANOPOLA3_1
 10
-17.3334
 20
-2.8021
 30
61.754
 70
192
 0
VERTEX
 8
MANOPOLA3_1
 10
-17.0215
 20
-2.8021
 30
65.9002
 70
192
 0
VERTEX
 8
MANOPOLA3_1
 10
-17.3334
 20
-2.8021
 30
64.0759
 70
192
 0
VERTEX
 8
MANOPOLA3_1
 10
-17.0215
 20
-2.8021
 30
64.0759
 70
192
 0
VERTEX
 8
MANOPOLA3_1
 10
-16.6998
 20
-2.8021
 30
61.5923
 70
192
 0
VERTEX
 8
MANOPOLA3_1
 10
-16.3782
 20
-2.8021
 30
61.6204
 70
192
 0
VERTEX
 8
MANOPOLA3_1
 10
-16.8012
 20
-4.4021
 30
65.2987
 70
192
 0
VERTEX
 8
MANOPOLA3_1
 10
-16.8012
 20
-4.3321
 30
65.2987
 70
192
 0
VERTEX
 8
MANOPOLA3_1
 10
-16.7945
 20
-4.4021
 30
65.2483
 70
192
 0
VERTEX
 8
MANOPOLA3_1
 10
-16.7945
 20
-4.3321
 30
65.2483
 70
192
 0
VERTEX
 8
MANOPOLA3_1
 10
-16.6998
 20
-4.4021
 30
65.2225
 70
192
 0
VERTEX
 8
MANOPOLA3_1
 10
-16.6999
 20
-4.3321
 30
65.2224
 70
192
 0
VERTEX
 8
MANOPOLA3_1
 10
-16.6053
 20
-4.4021
 30
65.2483
 70
192
 0
VERTEX
 8
MANOPOLA3_1
 10
-16.6053
 20
-4.3321
 30
65.2483
 70
192
 0
VERTEX
 8
MANOPOLA3_1
 10
-16.6001
 20
-4.4021
 30
65.6496
 70
192
 0
VERTEX
 8
MANOPOLA3_1
 10
-16.6002
 20
-4.3321
 30
65.6495
 70
192
 0
VERTEX
 8
MANOPOLA3_1
 10
-16.6053
 20
-4.4021
 30
65.7
 70
192
 0
VERTEX
 8
MANOPOLA3_1
 10
-16.6053
 20
-4.3321
 30
65.6999
 70
192
 0
VERTEX
 8
MANOPOLA3_1
 10
-16.6998
 20
-4.4021
 30
65.7258
 70
192
 0
VERTEX
 8
MANOPOLA3_1
 10
-16.6999
 20
-4.3321
 30
65.7258
 70
192
 0
VERTEX
 8
MANOPOLA3_1
 10
-16.7945
 20
-4.4021
 30
65.7
 70
192
 0
VERTEX
 8
MANOPOLA3_1
 10
-16.7945
 20
-4.3321
 30
65.6999
 70
192
 0
VERTEX
 8
MANOPOLA3_1
 10
-16.8012
 20
-4.4021
 30
65.6496
 70
192
 0
VERTEX
 8
MANOPOLA3_1
 10
-16.8012
 20
-4.3321
 30
65.6495
 70
192
 0
VERTEX
 8
MANOPOLA3_1
 10
-16.6001
 20
-4.4021
 30
65.2987
 70
192
 0
VERTEX
 8
MANOPOLA3_1
 10
-16.6002
 20
-4.3321
 30
65.2987
 70
192
 0
VERTEX
 8
MANOPOLA3_1
 10
-17.3334
 20
-4.3521
 30
61.754
 70
192
 0
VERTEX
 8
MANOPOLA3_1
 10
-16.9909
 20
-4.3986
 30
65.8732
 70
192
 0
VERTEX
 8
MANOPOLA3_1
 10
-17.2851
 20
-4.3521
 30
61.6911
 70
192
 0
VERTEX
 8
MANOPOLA3_1
 10
-17.0213
 20
-4.3522
 30
61.6215
 70
192
 0
VERTEX
 8
MANOPOLA3_1
 10
-16.6998
 20
-4.3522
 30
61.5937
 70
192
 0
VERTEX
 8
MANOPOLA3_1
 10
-16.3784
 20
-4.3522
 30
61.6215
 70
192
 0
VERTEX
 8
MANOPOLA3_1
 10
-16.1146
 20
-4.3521
 30
61.6911
 70
192
 0
VERTEX
 8
MANOPOLA3_1
 10
-16.1146
 20
-2.8021
 30
61.6911
 70
192
 0
VERTEX
 8
MANOPOLA3_1
 10
-17.2851
 20
-2.8021
 30
61.6911
 70
192
 0
VERTEX
 8
MANOPOLA3_1
 10
-16.3782
 20
-4.3521
 30
65.9002
 70
192
 0
VERTEX
 8
MANOPOLA3_1
 10
-16.0663
 20
-4.3521
 30
61.754
 70
192
 0
VERTEX
 8
MANOPOLA3_1
 10
-16.0663
 20
-4.3521
 30
65.8166
 70
192
 0
VERTEX
 8
MANOPOLA3_1
 10
-16.3782
 20
-2.8021
 30
65.9002
 70
192
 0
VERTEX
 8
MANOPOLA3_1
 10
-16.6998
 20
-4.4021
 30
65.8781
 70
192
 0
VERTEX
 8
MANOPOLA3_1
 10
-16.4266
 20
-4.4021
 30
65.8575
 70
192
 0
VERTEX
 8
MANOPOLA3_1
 10
-16.0663
 20
-3.0522
 30
65.8166
 70
192
 0
VERTEX
 8
MANOPOLA3_1
 10
-16.6998
 20
-4.3521
 30
65.9283
 70
192
 0
VERTEX
 8
MANOPOLA3_1
 10
-17.3334
 20
-4.3521
 30
65.8166
 70
192
 0
VERTEX
 8
MANOPOLA3_1
 10
-17.3334
 20
-2.8021
 30
65.8166
 70
192
 0
VERTEX
 8
MANOPOLA3_1
 10
-16.1163
 20
-4.4021
 30
61.7424
 70
192
 0
VERTEX
 8
MANOPOLA3_1
 10
-16.3869
 20
-4.4021
 30
61.6699
 70
192
 0
VERTEX
 8
MANOPOLA3_1
 10
-16.6998
 20
-4.4021
 30
61.6425
 70
192
 0
VERTEX
 8
MANOPOLA3_1
 10
-17.0128
 20
-4.4021
 30
61.6699
 70
192
 0
VERTEX
 8
MANOPOLA3_1
 10
-17.2834
 20
-4.4021
 30
61.7424
 70
192
 0
VERTEX
 8
MANOPOLA3_1
 10
-17.2639
 20
-4.4021
 30
65.7948
 70
192
 0
VERTEX
 8
MANOPOLA3_1
 10
-17.3334
 20
-3.1022
 30
61.754
 70
192
 0
VERTEX
 8
MANOPOLA3_1
 10
-16.0663
 20
-2.8021
 30
61.754
 70
192
 0
VERTEX
 8
MANOPOLA3_1
 10
-17.0215
 20
-4.3521
 30
65.9002
 70
192
 0
VERTEX
 8
MANOPOLA3_1
 10
-17.3334
 20
-3.0522
 30
65.8166
 70
192
 0
VERTEX
 8
MANOPOLA3_1
 10
-16.9731
 20
-4.4021
 30
65.8575
 70
192
 0
VERTEX
 8
MANOPOLA3_1
 10
-16.1358
 20
-4.4021
 30
65.7949
 70
192
 0
VERTEX
 8
MANOPOLA3_1
 10
-17.3139
 20
-4.3821
 30
61.719
 70
192
 0
VERTEX
 8
MANOPOLA3_1
 10
-16.0858
 20
-4.3821
 30
61.719
 70
192
 0
VERTEX
 8
MANOPOLA3_1
 10
-16.6998
 20
-4.3986
 30
65.8966
 70
192
 0
VERTEX
 8
MANOPOLA3_1
 10
-16.6998
 20
-4.3875
 30
65.9136
 70
192
 0
VERTEX
 8
MANOPOLA3_1
 10
-16.6998
 20
-4.3706
 30
65.9248
 70
192
 0
VERTEX
 8
MANOPOLA3_1
 10
-17.3188
 20
-4.3875
 30
61.7506
 70
192
 0
VERTEX
 8
MANOPOLA3_1
 10
-17.2846
 20
-4.3875
 30
61.7061
 70
192
 0
VERTEX
 8
MANOPOLA3_1
 10
-17.3199
 20
-4.3521
 30
61.7143
 70
192
 0
VERTEX
 8
MANOPOLA3_1
 10
-17.3175
 20
-4.3861
 30
61.733
 70
192
 0
VERTEX
 8
MANOPOLA3_1
 10
-17.3025
 20
-4.3983
 30
61.7468
 70
192
 0
VERTEX
 8
MANOPOLA3_1
 10
-17.284
 20
-4.3983
 30
61.7227
 70
192
 0
VERTEX
 8
MANOPOLA3_1
 10
-17.3013
 20
-4.3861
 30
61.7118
 70
192
 0
VERTEX
 8
MANOPOLA3_1
 10
-17.285
 20
-4.3713
 30
61.695
 70
192
 0
VERTEX
 8
MANOPOLA3_1
 10
-17.3044
 20
-4.3521
 30
61.6998
 70
192
 0
VERTEX
 8
MANOPOLA3_1
 10
-17.3184
 20
-4.3687
 30
61.7155
 70
192
 0
VERTEX
 8
MANOPOLA3_1
 10
-17.3299
 20
-4.3521
 30
61.7331
 70
192
 0
VERTEX
 8
MANOPOLA3_1
 10
-17.3296
 20
-4.3713
 30
61.7531
 70
192
 0
VERTEX
 8
MANOPOLA3_1
 10
-17.3025
 20
-4.3947
 30
61.7277
 70
192
 0
VERTEX
 8
MANOPOLA3_1
 10
-17.3037
 20
-4.3707
 30
61.7035
 70
192
 0
VERTEX
 8
MANOPOLA3_1
 10
-17.3262
 20
-4.3707
 30
61.7329
 70
192
 0
VERTEX
 8
MANOPOLA3_1
 10
-16.0712
 20
-4.3706
 30
65.8151
 70
192
 0
VERTEX
 8
MANOPOLA3_1
 10
-16.0867
 20
-4.3875
 30
65.8102
 70
192
 0
VERTEX
 8
MANOPOLA3_1
 10
-16.1102
 20
-4.3986
 30
65.8029
 70
192
 0
VERTEX
 8
MANOPOLA3_1
 10
-16.3816
 20
-4.3706
 30
65.8972
 70
192
 0
VERTEX
 8
MANOPOLA3_1
 10
-16.3924
 20
-4.3875
 30
65.8877
 70
192
 0
VERTEX
 8
MANOPOLA3_1
 10
-16.4088
 20
-4.3986
 30
65.8732
 70
192
 0
VERTEX
 8
MANOPOLA3_1
 10
-17.0073
 20
-4.3875
 30
65.8877
 70
192
 0
VERTEX
 8
MANOPOLA3_1
 10
-17.0181
 20
-4.3706
 30
65.8972
 70
192
 0
VERTEX
 8
MANOPOLA3_1
 10
-16.6999
 20
-4.3321
 30
65.6999
 70
192
 0
VERTEX
 8
MANOPOLA3_1
 10
-16.3789
 20
-4.3705
 30
61.6246
 70
192
 0
VERTEX
 8
MANOPOLA3_1
 10
-16.3808
 20
-4.3874
 30
61.6353
 70
192
 0
VERTEX
 8
MANOPOLA3_1
 10
-16.3837
 20
-4.3986
 30
61.6518
 70
192
 0
VERTEX
 8
MANOPOLA3_1
 10
-17.3039
 20
-2.8021
 30
61.6995
 70
192
 0
VERTEX
 8
MANOPOLA3_1
 10
-17.3199
 20
-2.8021
 30
61.7143
 70
192
 0
VERTEX
 8
MANOPOLA3_1
 10
-17.3301
 20
-2.8021
 30
61.7336
 70
192
 0
VERTEX
 8
MANOPOLA3_1
 10
-17.0208
 20
-4.3705
 30
61.6246
 70
192
 0
VERTEX
 8
MANOPOLA3_1
 10
-17.0189
 20
-4.3874
 30
61.6353
 70
192
 0
VERTEX
 8
MANOPOLA3_1
 10
-17.016
 20
-4.3986
 30
61.6518
 70
192
 0
VERTEX
 8
MANOPOLA3_1
 10
-16.6998
 20
-4.3704
 30
61.5967
 70
192
 0
VERTEX
 8
MANOPOLA3_1
 10
-16.6998
 20
-4.3874
 30
61.6075
 70
192
 0
VERTEX
 8
MANOPOLA3_1
 10
-16.6998
 20
-4.3986
 30
61.6242
 70
192
 0
VERTEX
 8
MANOPOLA3_1
 10
-17.3285
 20
-4.3706
 30
65.8151
 70
192
 0
VERTEX
 8
MANOPOLA3_1
 10
-17.313
 20
-4.3875
 30
65.8102
 70
192
 0
VERTEX
 8
MANOPOLA3_1
 10
-17.2895
 20
-4.3986
 30
65.8028
 70
192
 0
VERTEX
 8
MANOPOLA3_1
 10
-16.1151
 20
-4.3875
 30
61.7061
 70
192
 0
VERTEX
 8
MANOPOLA3_1
 10
-16.0809
 20
-4.3875
 30
61.7506
 70
192
 0
VERTEX
 8
MANOPOLA3_1
 10
-16.0798
 20
-4.3521
 30
61.7143
 70
192
 0
VERTEX
 8
MANOPOLA3_1
 10
-16.0984
 20
-4.3861
 30
61.7118
 70
192
 0
VERTEX
 8
MANOPOLA3_1
 10
-16.1156
 20
-4.3983
 30
61.7227
 70
192
 0
VERTEX
 8
MANOPOLA3_1
 10
-16.0972
 20
-4.3983
 30
61.7468
 70
192
 0
VERTEX
 8
MANOPOLA3_1
 10
-16.0822
 20
-4.3861
 30
61.733
 70
192
 0
VERTEX
 8
MANOPOLA3_1
 10
-16.0701
 20
-4.3713
 30
61.7531
 70
192
 0
VERTEX
 8
MANOPOLA3_1
 10
-16.0697
 20
-4.3521
 30
61.7331
 70
192
 0
VERTEX
 8
MANOPOLA3_1
 10
-16.0813
 20
-4.3687
 30
61.7155
 70
192
 0
VERTEX
 8
MANOPOLA3_1
 10
-16.0952
 20
-4.3521
 30
61.6998
 70
192
 0
VERTEX
 8
MANOPOLA3_1
 10
-16.1147
 20
-4.3713
 30
61.695
 70
192
 0
VERTEX
 8
MANOPOLA3_1
 10
-16.0972
 20
-4.3947
 30
61.7277
 70
192
 0
VERTEX
 8
MANOPOLA3_1
 10
-16.0735
 20
-4.3707
 30
61.7329
 70
192
 0
VERTEX
 8
MANOPOLA3_1
 10
-16.096
 20
-4.3707
 30
61.7035
 70
192
 0
VERTEX
 8
MANOPOLA3_1
 10
-16.0957
 20
-2.8021
 30
61.6995
 70
192
 0
VERTEX
 8
MANOPOLA3_1
 10
-16.0798
 20
-2.8021
 30
61.7143
 70
192
 0
VERTEX
 8
MANOPOLA3_1
 10
-16.0696
 20
-2.8021
 30
61.7336
 70
192
 0
VERTEX
 8
MANOPOLA3_1
 10
-16.0663
 20
-3.1022
 30
61.754
 70
192
 0
VERTEX
 8
MANOPOLA3_1
 10
-16.0696
 20
-3.1022
 30
61.7335
 70
192
 0
VERTEX
 8
MANOPOLA3_1
 10
-16.0798
 20
-3.1022
 30
61.7143
 70
192
 0
VERTEX
 8
MANOPOLA3_1
 10
-16.1146
 20
-3.1022
 30
61.6911
 70
192
 0
VERTEX
 8
MANOPOLA3_1
 10
-16.0956
 20
-3.1022
 30
61.6996
 70
192
 0
VERTEX
 8
MANOPOLA3_1
 10
-16.3782
 20
-3.1022
 30
61.6206
 70
192
 0
VERTEX
 8
MANOPOLA3_1
 10
-16.6998
 20
-3.1022
 30
61.5926
 70
192
 0
VERTEX
 8
MANOPOLA3_1
 10
-17.3334
 20
-3.0737
 30
64.0759
 70
192
 0
VERTEX
 8
MANOPOLA3_1
 10
-17.2851
 20
-3.1022
 30
61.6911
 70
192
 0
VERTEX
 8
MANOPOLA3_1
 10
-17.0215
 20
-3.1022
 30
61.6206
 70
192
 0
VERTEX
 8
MANOPOLA3_1
 10
-17.3301
 20
-3.1022
 30
61.7335
 70
192
 0
VERTEX
 8
MANOPOLA3_1
 10
-16.6999
 20
-4.3321
 30
65.2987
 70
192
 0
VERTEX
 8
MANOPOLA3_1
 10
-17.3199
 20
-3.1022
 30
61.7143
 70
192
 0
VERTEX
 8
MANOPOLA3_1
 10
-17.304
 20
-3.1022
 30
61.6996
 70
192
 0
VERTEX
 8
MANOPOLA3_1
 10
-16.5337
 20
-4.4021
 30
64.0759
 70
192
 0
VERTEX
 8
MANOPOLA3_1
 10
-16.6998
 20
-4.4021
 30
64.0759
 70
192
 0
VERTEX
 8
MANOPOLA3_1
 10
-16.1276
 20
-4.4021
 30
64.0759
 70
192
 0
VERTEX
 8
MANOPOLA3_1
 10
-16.4338
 20
-4.4021
 30
64.0759
 70
192
 0
VERTEX
 8
MANOPOLA3_1
 10
-16.866
 20
-4.4021
 30
64.0759
 70
192
 0
VERTEX
 8
MANOPOLA3_1
 10
-16.967
 20
-4.4021
 30
64.0759
 70
192
 0
VERTEX
 8
MANOPOLA3_1
 10
-17.2722
 20
-4.4021
 30
64.0759
 70
192
 0
VERTEX
 8
MANOPOLA3_1
 10
-16.1047
 20
-4.3985
 30
64.0759
 70
192
 0
VERTEX
 8
MANOPOLA3_1
 10
-17.295
 20
-4.3985
 30
64.0759
 70
192
 0
VERTEX
 8
MANOPOLA3_1
 10
-16.0842
 20
-4.3875
 30
64.0759
 70
192
 0
VERTEX
 8
MANOPOLA3_1
 10
-16.0707
 20
-4.3709
 30
64.0759
 70
192
 0
VERTEX
 8
MANOPOLA3_1
 10
-16.0663
 20
-4.3521
 30
64.0759
 70
192
 0
VERTEX
 8
MANOPOLA3_1
 10
-17.3155
 20
-4.3875
 30
64.0759
 70
192
 0
VERTEX
 8
MANOPOLA3_1
 10
-17.329
 20
-4.3709
 30
64.0759
 70
192
 0
VERTEX
 8
MANOPOLA3_1
 10
-17.3334
 20
-4.3521
 30
64.0759
 70
192
 0
VERTEX
 8
MANOPOLA3_1
 10
-16.6998
 20
-3.0522
 30
65.9283
 70
192
 0
VERTEX
 8
MANOPOLA3_1
 10
-16.3782
 20
-3.0522
 30
65.9002
 70
192
 0
VERTEX
 8
MANOPOLA3_1
 10
-17.0215
 20
-3.0522
 30
65.9002
 70
192
 0
VERTEX
 8
MANOPOLA3_1
 10
-16.6998
 20
-2.8021
 30
65.9283
 70
192
 0
VERTEX
 8
MANOPOLA3_1
 10
-16.6998
 20
-2.8021
 30
64.0759
 70
192
 0
VERTEX
 8
MANOPOLA3_1
 10
-16.3782
 20
-2.8021
 30
64.0759
 70
192
 0
VERTEX
 8
MANOPOLA3_1
 10
-16.0663
 20
-2.8021
 30
64.0759
 70
192
 0
VERTEX
 8
MANOPOLA3_1
 10
-16.6999
 20
-4.3321
 30
65.6495
 70
192
 0
VERTEX
 8
MANOPOLA3_1
 10
-16.0663
 20
-3.0737
 30
64.0759
 70
192
 0
VERTEX
 8
MANOPOLA3_1
 10
-16.6999
 20
-4.3321
 30
65.2483
 70
192
 0
VERTEX
 8
MANOPOLA3_1
 10
0
 20
0
 30
0
 70
128
 71
61
 72
107
 73
116
 74
110
 0
VERTEX
 8
MANOPOLA3_1
 10
0
 20
0
 30
0
 70
128
 71
60
 72
71
 73
78
 74
74
 0
VERTEX
 8
MANOPOLA3_1
 10
0
 20
0
 30
0
 70
128
 71
122
 72
39
 73
147
 74
159
 0
VERTEX
 8
MANOPOLA3_1
 10
0
 20
0
 30
0
 70
128
 71
60
 72
74
 73
79
 74
68
 0
VERTEX
 8
MANOPOLA3_1
 10
0
 20
0
 30
0
 70
128
 71
68
 72
65
 73
69
 74
77
 0
VERTEX
 8
MANOPOLA3_1
 10
0
 20
0
 30
0
 70
128
 71
53
 72
103
 73
30
 74
58
 0
VERTEX
 8
MANOPOLA3_1
 10
0
 20
0
 30
0
 70
128
 71
77
 72
70
 73
66
 74
71
 0
VERTEX
 8
MANOPOLA3_1
 10
0
 20
0
 30
0
 70
128
 71
69
 72
52
 73
70
 74
77
 0
VERTEX
 8
MANOPOLA3_1
 10
0
 20
0
 30
0
 70
128
 71
157
 72
55
 73
122
 74
159
 0
VERTEX
 8
MANOPOLA3_1
 10
0
 20
0
 30
0
 70
128
 71
71
 72
66
 73
72
 74
78
 0
VERTEX
 8
MANOPOLA3_1
 10
0
 20
0
 30
0
 70
128
 71
78
 72
73
 73
67
 74
74
 0
VERTEX
 8
MANOPOLA3_1
 10
0
 20
0
 30
0
 70
128
 71
33
 72
34
 73
127
 74
128
 0
VERTEX
 8
MANOPOLA3_1
 10
0
 20
0
 30
0
 70
128
 71
72
 72
31
 73
73
 74
78
 0
VERTEX
 8
MANOPOLA3_1
 10
0
 20
0
 30
0
 70
128
 71
74
 72
67
 73
75
 74
79
 0
VERTEX
 8
MANOPOLA3_1
 10
0
 20
0
 30
0
 70
128
 71
79
 72
76
 73
65
 74
68
 0
VERTEX
 8
MANOPOLA3_1
 10
0
 20
0
 30
0
 70
128
 71
75
 72
29
 73
76
 74
79
 0
VERTEX
 8
MANOPOLA3_1
 10
0
 20
0
 30
0
 70
128
 71
61
 72
110
 73
117
 74
113
 0
VERTEX
 8
MANOPOLA3_1
 10
0
 20
0
 30
0
 70
128
 71
135
 72
92
 73
93
 74
134
 0
VERTEX
 8
MANOPOLA3_1
 10
0
 20
0
 30
0
 70
128
 71
33
 72
98
 73
89
 74
34
 0
VERTEX
 8
MANOPOLA3_1
 10
0
 20
0
 30
0
 70
128
 71
61
 72
113
 73
118
 74
107
 0
VERTEX
 8
MANOPOLA3_1
 10
0
 20
0
 30
0
 70
128
 71
62
 72
63
 73
84
 74
85
 0
VERTEX
 8
MANOPOLA3_1
 10
0
 20
0
 30
0
 70
128
 71
60
 72
68
 73
77
 74
71
 0
VERTEX
 8
MANOPOLA3_1
 10
0
 20
0
 30
0
 70
128
 71
151
 72
154
 73
41
 74
152
 0
VERTEX
 8
MANOPOLA3_1
 10
0
 20
0
 30
0
 70
128
 71
155
 72
154
 73
4
 74
6
 0
VERTEX
 8
MANOPOLA3_1
 10
0
 20
0
 30
0
 70
128
 71
107
 72
104
 73
108
 74
116
 0
VERTEX
 8
MANOPOLA3_1
 10
0
 20
0
 30
0
 70
128
 71
38
 72
45
 73
151
 74
152
 0
VERTEX
 8
MANOPOLA3_1
 10
0
 20
0
 30
0
 70
128
 71
63
 72
64
 73
83
 74
84
 0
VERTEX
 8
MANOPOLA3_1
 10
0
 20
0
 30
0
 70
128
 71
116
 72
109
 73
105
 74
110
 0
VERTEX
 8
MANOPOLA3_1
 10
0
 20
0
 30
0
 70
128
 71
149
 72
101
 73
102
 74
148
 0
VERTEX
 8
MANOPOLA3_1
 10
0
 20
0
 30
0
 70
128
 71
64
 72
45
 73
38
 74
83
 0
VERTEX
 8
MANOPOLA3_1
 10
0
 20
0
 30
0
 70
128
 71
43
 72
85
 73
82
 74
59
 0
VERTEX
 8
MANOPOLA3_1
 10
0
 20
0
 30
0
 70
128
 71
57
 72
47
 73
4
 74
153
 0
VERTEX
 8
MANOPOLA3_1
 10
0
 20
0
 30
0
 70
128
 71
34
 72
35
 73
125
 74
127
 0
VERTEX
 8
MANOPOLA3_1
 10
0
 20
0
 30
0
 70
128
 71
86
 72
87
 73
64
 74
63
 0
VERTEX
 8
MANOPOLA3_1
 10
0
 20
0
 30
0
 70
128
 71
147
 72
40
 73
44
 74
159
 0
VERTEX
 8
MANOPOLA3_1
 10
0
 20
0
 30
0
 70
128
 71
58
 72
30
 73
62
 74
42
 0
VERTEX
 8
MANOPOLA3_1
 10
0
 20
0
 30
0
 70
128
 71
1
 72
41
 73
156
 74
157
 0
VERTEX
 8
MANOPOLA3_1
 10
0
 20
0
 30
0
 70
128
 71
114
 72
106
 73
124
 74
126
 0
VERTEX
 8
MANOPOLA3_1
 10
0
 20
0
 30
0
 70
128
 71
130
 72
37
 73
92
 74
135
 0
VERTEX
 8
MANOPOLA3_1
 10
0
 20
0
 30
0
 70
128
 71
119
 72
36
 73
125
 74
126
 0
VERTEX
 8
MANOPOLA3_1
 10
0
 20
0
 30
0
 70
128
 71
140
 72
51
 73
52
 74
141
 0
VERTEX
 8
MANOPOLA3_1
 10
0
 20
0
 30
0
 70
128
 71
142
 72
9
 73
141
 74
141
 0
VERTEX
 8
MANOPOLA3_1
 10
0
 20
0
 30
0
 70
128
 71
142
 72
53
 73
25
 74
9
 0
VERTEX
 8
MANOPOLA3_1
 10
0
 20
0
 30
0
 70
128
 71
30
 72
86
 73
63
 74
62
 0
VERTEX
 8
MANOPOLA3_1
 10
0
 20
0
 30
0
 70
128
 71
129
 72
150
 73
29
 74
54
 0
VERTEX
 8
MANOPOLA3_1
 10
0
 20
0
 30
0
 70
128
 71
82
 72
81
 73
145
 74
143
 0
VERTEX
 8
MANOPOLA3_1
 10
0
 20
0
 30
0
 70
128
 71
108
 72
48
 73
109
 74
116
 0
VERTEX
 8
MANOPOLA3_1
 10
0
 20
0
 30
0
 70
128
 71
156
 72
41
 73
154
 74
155
 0
VERTEX
 8
MANOPOLA3_1
 10
0
 20
0
 30
0
 70
128
 71
81
 72
80
 73
146
 74
145
 0
VERTEX
 8
MANOPOLA3_1
 10
0
 20
0
 30
0
 70
128
 71
80
 72
40
 73
147
 74
146
 0
VERTEX
 8
MANOPOLA3_1
 10
0
 20
0
 30
0
 70
128
 71
4
 72
47
 73
5
 74
6
 0
VERTEX
 8
MANOPOLA3_1
 10
0
 20
0
 30
0
 70
128
 71
69
 72
65
 73
148
 74
144
 0
VERTEX
 8
MANOPOLA3_1
 10
0
 20
0
 30
0
 70
128
 71
110
 72
105
 73
111
 74
117
 0
VERTEX
 8
MANOPOLA3_1
 10
0
 20
0
 30
0
 70
128
 71
65
 72
76
 73
149
 74
148
 0
VERTEX
 8
MANOPOLA3_1
 10
0
 20
0
 30
0
 70
128
 71
76
 72
29
 73
150
 74
149
 0
VERTEX
 8
MANOPOLA3_1
 10
0
 20
0
 30
0
 70
128
 71
72
 72
66
 73
96
 74
95
 0
VERTEX
 8
MANOPOLA3_1
 10
0
 20
0
 30
0
 70
128
 71
155
 72
7
 73
8
 74
156
 0
VERTEX
 8
MANOPOLA3_1
 10
0
 20
0
 30
0
 70
128
 71
66
 72
70
 73
97
 74
96
 0
VERTEX
 8
MANOPOLA3_1
 10
0
 20
0
 30
0
 70
128
 71
117
 72
112
 73
106
 74
113
 0
VERTEX
 8
MANOPOLA3_1
 10
0
 20
0
 30
0
 70
128
 71
150
 72
46
 73
101
 74
149
 0
VERTEX
 8
MANOPOLA3_1
 10
0
 20
0
 30
0
 70
128
 71
70
 72
52
 73
51
 74
97
 0
VERTEX
 8
MANOPOLA3_1
 10
0
 20
0
 30
0
 70
128
 71
95
 72
96
 73
99
 74
98
 0
VERTEX
 8
MANOPOLA3_1
 10
0
 20
0
 30
0
 70
128
 71
96
 72
97
 73
100
 74
99
 0
VERTEX
 8
MANOPOLA3_1
 10
0
 20
0
 30
0
 70
128
 71
97
 72
51
 73
50
 74
100
 0
VERTEX
 8
MANOPOLA3_1
 10
0
 20
0
 30
0
 70
128
 71
111
 72
39
 73
112
 74
117
 0
VERTEX
 8
MANOPOLA3_1
 10
0
 20
0
 30
0
 70
128
 71
44
 72
40
 73
38
 74
152
 0
VERTEX
 8
MANOPOLA3_1
 10
0
 20
0
 30
0
 70
128
 71
89
 72
90
 73
104
 74
115
 0
VERTEX
 8
MANOPOLA3_1
 10
0
 20
0
 30
0
 70
128
 71
90
 72
91
 73
108
 74
104
 0
VERTEX
 8
MANOPOLA3_1
 10
0
 20
0
 30
0
 70
128
 71
59
 72
82
 73
143
 74
138
 0
VERTEX
 8
MANOPOLA3_1
 10
0
 20
0
 30
0
 70
128
 71
91
 72
49
 73
48
 74
108
 0
VERTEX
 8
MANOPOLA3_1
 10
0
 20
0
 30
0
 70
128
 71
113
 72
106
 73
114
 74
118
 0
VERTEX
 8
MANOPOLA3_1
 10
0
 20
0
 30
0
 70
128
 71
87
 72
56
 73
45
 74
64
 0
VERTEX
 8
MANOPOLA3_1
 10
0
 20
0
 30
0
 70
128
 71
2
 72
3
 73
94
 74
94
 0
VERTEX
 8
MANOPOLA3_1
 10
0
 20
0
 30
0
 70
128
 71
153
 72
4
 73
154
 74
151
 0
VERTEX
 8
MANOPOLA3_1
 10
0
 20
0
 30
0
 70
128
 71
16
 72
14
 73
160
 74
160
 0
VERTEX
 8
MANOPOLA3_1
 10
0
 20
0
 30
0
 70
128
 71
32
 72
33
 73
128
 74
131
 0
VERTEX
 8
MANOPOLA3_1
 10
0
 20
0
 30
0
 70
128
 71
143
 72
109
 73
48
 74
138
 0
VERTEX
 8
MANOPOLA3_1
 10
0
 20
0
 30
0
 70
128
 71
85
 72
84
 73
81
 74
82
 0
VERTEX
 8
MANOPOLA3_1
 10
0
 20
0
 30
0
 70
128
 71
84
 72
83
 73
80
 74
81
 0
VERTEX
 8
MANOPOLA3_1
 10
0
 20
0
 30
0
 70
128
 71
29
 72
75
 73
132
 74
54
 0
VERTEX
 8
MANOPOLA3_1
 10
0
 20
0
 30
0
 70
128
 71
160
 72
133
 73
28
 74
16
 0
VERTEX
 8
MANOPOLA3_1
 10
0
 20
0
 30
0
 70
128
 71
3
 72
5
 73
129
 74
54
 0
VERTEX
 8
MANOPOLA3_1
 10
0
 20
0
 30
0
 70
128
 71
144
 72
103
 73
53
 74
142
 0
VERTEX
 8
MANOPOLA3_1
 10
0
 20
0
 30
0
 70
128
 71
10
 72
26
 73
158
 74
133
 0
VERTEX
 8
MANOPOLA3_1
 10
0
 20
0
 30
0
 70
128
 71
75
 72
67
 73
134
 74
132
 0
VERTEX
 8
MANOPOLA3_1
 10
0
 20
0
 30
0
 70
128
 71
67
 72
73
 73
135
 74
134
 0
VERTEX
 8
MANOPOLA3_1
 10
0
 20
0
 30
0
 70
128
 71
13
 72
14
 73
16
 74
15
 0
VERTEX
 8
MANOPOLA3_1
 10
0
 20
0
 30
0
 70
128
 71
25
 72
26
 73
10
 74
9
 0
VERTEX
 8
MANOPOLA3_1
 10
0
 20
0
 30
0
 70
128
 71
73
 72
31
 73
130
 74
135
 0
VERTEX
 8
MANOPOLA3_1
 10
0
 20
0
 30
0
 70
128
 71
8
 72
36
 73
119
 74
119
 0
VERTEX
 8
MANOPOLA3_1
 10
0
 20
0
 30
0
 70
128
 71
57
 72
46
 73
150
 74
129
 0
VERTEX
 8
MANOPOLA3_1
 10
0
 20
0
 30
0
 70
128
 71
125
 72
35
 73
114
 74
126
 0
VERTEX
 8
MANOPOLA3_1
 10
0
 20
0
 30
0
 70
128
 71
52
 72
69
 73
144
 74
142
 0
VERTEX
 8
MANOPOLA3_1
 10
0
 20
0
 30
0
 70
128
 71
103
 72
102
 73
86
 74
30
 0
VERTEX
 8
MANOPOLA3_1
 10
0
 20
0
 30
0
 70
128
 71
102
 72
101
 73
87
 74
86
 0
VERTEX
 8
MANOPOLA3_1
 10
0
 20
0
 30
0
 70
128
 71
101
 72
46
 73
56
 74
87
 0
VERTEX
 8
MANOPOLA3_1
 10
0
 20
0
 30
0
 70
128
 71
83
 72
38
 73
40
 74
80
 0
VERTEX
 8
MANOPOLA3_1
 10
0
 20
0
 30
0
 70
128
 71
145
 72
105
 73
109
 74
143
 0
VERTEX
 8
MANOPOLA3_1
 10
0
 20
0
 30
0
 70
128
 71
134
 72
93
 73
94
 74
132
 0
VERTEX
 8
MANOPOLA3_1
 10
0
 20
0
 30
0
 70
128
 71
5
 72
47
 73
57
 74
129
 0
VERTEX
 8
MANOPOLA3_1
 10
0
 20
0
 30
0
 70
128
 71
45
 72
56
 73
153
 74
151
 0
VERTEX
 8
MANOPOLA3_1
 10
0
 20
0
 30
0
 70
128
 71
153
 72
56
 73
46
 74
57
 0
VERTEX
 8
MANOPOLA3_1
 10
0
 20
0
 30
0
 70
128
 71
127
 72
8
 73
7
 74
128
 0
VERTEX
 8
MANOPOLA3_1
 10
0
 20
0
 30
0
 70
128
 71
125
 72
36
 73
8
 74
127
 0
VERTEX
 8
MANOPOLA3_1
 10
0
 20
0
 30
0
 70
128
 71
112
 72
39
 73
122
 74
123
 0
VERTEX
 8
MANOPOLA3_1
 10
0
 20
0
 30
0
 70
128
 71
106
 72
112
 73
123
 74
124
 0
VERTEX
 8
MANOPOLA3_1
 10
0
 20
0
 30
0
 70
128
 71
98
 72
99
 73
90
 74
89
 0
VERTEX
 8
MANOPOLA3_1
 10
0
 20
0
 30
0
 70
128
 71
2
 72
7
 73
155
 74
6
 0
VERTEX
 8
MANOPOLA3_1
 10
0
 20
0
 30
0
 70
128
 71
93
 72
92
 73
2
 74
2
 0
VERTEX
 8
MANOPOLA3_1
 10
0
 20
0
 30
0
 70
128
 71
139
 72
27
 73
138
 74
138
 0
VERTEX
 8
MANOPOLA3_1
 10
0
 20
0
 30
0
 70
128
 71
27
 72
17
 73
59
 74
138
 0
VERTEX
 8
MANOPOLA3_1
 10
0
 20
0
 30
0
 70
128
 71
139
 72
48
 73
49
 74
136
 0
VERTEX
 8
MANOPOLA3_1
 10
0
 20
0
 30
0
 70
128
 71
34
 72
89
 73
115
 74
35
 0
VERTEX
 8
MANOPOLA3_1
 10
0
 20
0
 30
0
 70
128
 71
141
 72
52
 73
142
 74
142
 0
VERTEX
 8
MANOPOLA3_1
 10
0
 20
0
 30
0
 70
128
 71
13
 72
15
 73
136
 74
137
 0
VERTEX
 8
MANOPOLA3_1
 10
0
 20
0
 30
0
 70
128
 71
20
 72
18
 73
158
 74
88
 0
VERTEX
 8
MANOPOLA3_1
 10
0
 20
0
 30
0
 70
128
 71
9
 72
10
 73
12
 74
11
 0
VERTEX
 8
MANOPOLA3_1
 10
0
 20
0
 30
0
 70
128
 71
58
 72
23
 73
25
 74
53
 0
VERTEX
 8
MANOPOLA3_1
 10
0
 20
0
 30
0
 70
128
 71
138
 72
48
 73
139
 74
139
 0
VERTEX
 8
MANOPOLA3_1
 10
0
 20
0
 30
0
 70
128
 71
11
 72
12
 73
14
 74
13
 0
VERTEX
 8
MANOPOLA3_1
 10
0
 20
0
 30
0
 70
128
 71
12
 72
10
 73
133
 74
160
 0
VERTEX
 8
MANOPOLA3_1
 10
0
 20
0
 30
0
 70
128
 71
15
 72
27
 73
139
 74
136
 0
VERTEX
 8
MANOPOLA3_1
 10
0
 20
0
 30
0
 70
128
 71
50
 72
51
 73
140
 74
137
 0
VERTEX
 8
MANOPOLA3_1
 10
0
 20
0
 30
0
 70
128
 71
15
 72
16
 73
28
 74
27
 0
VERTEX
 8
MANOPOLA3_1
 10
0
 20
0
 30
0
 70
128
 71
27
 72
28
 73
18
 74
17
 0
VERTEX
 8
MANOPOLA3_1
 10
0
 20
0
 30
0
 70
128
 71
9
 72
11
 73
140
 74
141
 0
VERTEX
 8
MANOPOLA3_1
 10
0
 20
0
 30
0
 70
128
 71
59
 72
17
 73
19
 74
43
 0
VERTEX
 8
MANOPOLA3_1
 10
0
 20
0
 30
0
 70
128
 71
17
 72
18
 73
20
 74
19
 0
VERTEX
 8
MANOPOLA3_1
 10
0
 20
0
 30
0
 70
128
 71
19
 72
20
 73
22
 74
21
 0
VERTEX
 8
MANOPOLA3_1
 10
0
 20
0
 30
0
 70
128
 71
43
 72
19
 73
21
 74
42
 0
VERTEX
 8
MANOPOLA3_1
 10
0
 20
0
 30
0
 70
128
 71
42
 72
21
 73
23
 74
58
 0
VERTEX
 8
MANOPOLA3_1
 10
0
 20
0
 30
0
 70
128
 71
21
 72
22
 73
24
 74
23
 0
VERTEX
 8
MANOPOLA3_1
 10
0
 20
0
 30
0
 70
128
 71
23
 72
24
 73
26
 74
25
 0
VERTEX
 8
MANOPOLA3_1
 10
0
 20
0
 30
0
 70
128
 71
24
 72
22
 73
88
 74
88
 0
VERTEX
 8
MANOPOLA3_1
 10
0
 20
0
 30
0
 70
128
 71
99
 72
100
 73
91
 74
90
 0
VERTEX
 8
MANOPOLA3_1
 10
0
 20
0
 30
0
 70
128
 71
100
 72
50
 73
49
 74
91
 0
VERTEX
 8
MANOPOLA3_1
 10
0
 20
0
 30
0
 70
128
 71
136
 72
49
 73
50
 74
137
 0
VERTEX
 8
MANOPOLA3_1
 10
0
 20
0
 30
0
 70
128
 71
92
 72
37
 73
2
 74
2
 0
VERTEX
 8
MANOPOLA3_1
 10
0
 20
0
 30
0
 70
128
 71
130
 72
31
 73
32
 74
131
 0
VERTEX
 8
MANOPOLA3_1
 10
0
 20
0
 30
0
 70
128
 71
140
 72
11
 73
13
 74
137
 0
VERTEX
 8
MANOPOLA3_1
 10
0
 20
0
 30
0
 70
128
 71
31
 72
72
 73
95
 74
32
 0
VERTEX
 8
MANOPOLA3_1
 10
0
 20
0
 30
0
 70
128
 71
32
 72
95
 73
98
 74
33
 0
VERTEX
 8
MANOPOLA3_1
 10
0
 20
0
 30
0
 70
128
 71
146
 72
111
 73
105
 74
145
 0
VERTEX
 8
MANOPOLA3_1
 10
0
 20
0
 30
0
 70
128
 71
147
 72
39
 73
111
 74
146
 0
VERTEX
 8
MANOPOLA3_1
 10
0
 20
0
 30
0
 70
128
 71
44
 72
152
 73
41
 74
1
 0
VERTEX
 8
MANOPOLA3_1
 10
0
 20
0
 30
0
 70
128
 71
42
 72
62
 73
85
 74
43
 0
VERTEX
 8
MANOPOLA3_1
 10
0
 20
0
 30
0
 70
128
 71
124
 72
120
 73
119
 74
126
 0
VERTEX
 8
MANOPOLA3_1
 10
0
 20
0
 30
0
 70
128
 71
131
 72
2
 73
37
 74
130
 0
VERTEX
 8
MANOPOLA3_1
 10
0
 20
0
 30
0
 70
128
 71
118
 72
115
 73
104
 74
107
 0
VERTEX
 8
MANOPOLA3_1
 10
0
 20
0
 30
0
 70
128
 71
114
 72
35
 73
115
 74
118
 0
VERTEX
 8
MANOPOLA3_1
 10
0
 20
0
 30
0
 70
128
 71
148
 72
102
 73
103
 74
144
 0
VERTEX
 8
MANOPOLA3_1
 10
0
 20
0
 30
0
 70
128
 71
128
 72
7
 73
2
 74
131
 0
VERTEX
 8
MANOPOLA3_1
 10
0
 20
0
 30
0
 70
128
 71
132
 72
94
 73
3
 74
54
 0
VERTEX
 8
MANOPOLA3_1
 10
0
 20
0
 30
0
 70
128
 71
2
 72
94
 73
93
 74
93
 0
VERTEX
 8
MANOPOLA3_1
 10
0
 20
0
 30
0
 70
128
 71
2
 72
6
 73
5
 74
3
 0
VERTEX
 8
MANOPOLA3_1
 10
0
 20
0
 30
0
 70
128
 71
14
 72
12
 73
160
 74
160
 0
VERTEX
 8
MANOPOLA3_1
 10
0
 20
0
 30
0
 70
128
 71
157
 72
156
 73
8
 74
55
 0
VERTEX
 8
MANOPOLA3_1
 10
0
 20
0
 30
0
 70
128
 71
18
 72
28
 73
133
 74
158
 0
VERTEX
 8
MANOPOLA3_1
 10
0
 20
0
 30
0
 70
128
 71
8
 72
121
 73
55
 74
55
 0
VERTEX
 8
MANOPOLA3_1
 10
0
 20
0
 30
0
 70
128
 71
22
 72
20
 73
88
 74
88
 0
VERTEX
 8
MANOPOLA3_1
 10
0
 20
0
 30
0
 70
128
 71
88
 72
158
 73
26
 74
24
 0
VERTEX
 8
MANOPOLA3_1
 10
0
 20
0
 30
0
 70
128
 71
8
 72
120
 73
121
 74
121
 0
VERTEX
 8
MANOPOLA3_1
 10
0
 20
0
 30
0
 70
128
 71
8
 72
119
 73
120
 74
120
 0
VERTEX
 8
MANOPOLA3_1
 10
0
 20
0
 30
0
 70
128
 71
55
 72
121
 73
123
 74
122
 0
VERTEX
 8
MANOPOLA3_1
 10
0
 20
0
 30
0
 70
128
 71
121
 72
120
 73
124
 74
123
 0
VERTEX
 8
MANOPOLA3_1
 10
0
 20
0
 30
0
 70
128
 71
44
 72
1
 73
157
 74
159
 0
SEQEND
 0
POLYLINE
 8
BASE3
 66
1
 10
0.0
 20
0.0
 30
0.0
 70
64
 71
207
 72
251
 0
VERTEX
 8
BASE3
 10
16.6957
 20
-2.4014
 30
64.0758
 70
192
 0
VERTEX
 8
BASE3
 10
17.0176
 20
-2.8015
 30
64.0758
 70
192
 0
VERTEX
 8
BASE3
 10
18.5494
 20
-2.4014
 30
64.0758
 70
192
 0
VERTEX
 8
BASE3
 10
15.0903
 20
-2.4014
 30
63.149
 70
192
 0
VERTEX
 8
BASE3
 10
18.5213
 20
-2.4014
 30
64.3977
 70
192
 0
VERTEX
 8
BASE3
 10
15.2756
 20
-2.4014
 30
62.8843
 70
192
 0
VERTEX
 8
BASE3
 10
18.4376
 20
-2.4014
 30
64.7098
 70
192
 0
VERTEX
 8
BASE3
 10
15.5041
 20
-2.4014
 30
62.6558
 70
192
 0
VERTEX
 8
BASE3
 10
18.3011
 20
-2.4014
 30
65.0027
 70
192
 0
VERTEX
 8
BASE3
 10
15.7688
 20
-2.4014
 30
62.4704
 70
192
 0
VERTEX
 8
BASE3
 10
18.1157
 20
-2.4014
 30
65.2674
 70
192
 0
VERTEX
 8
BASE3
 10
16.0617
 20
-2.4014
 30
62.3339
 70
192
 0
VERTEX
 8
BASE3
 10
17.8872
 20
-2.4014
 30
65.4959
 70
192
 0
VERTEX
 8
BASE3
 10
16.3738
 20
-2.4014
 30
62.2502
 70
192
 0
VERTEX
 8
BASE3
 10
16.6957
 20
-2.4014
 30
62.2221
 70
192
 0
VERTEX
 8
BASE3
 10
17.6226
 20
-2.4014
 30
65.6812
 70
192
 0
VERTEX
 8
BASE3
 10
17.0176
 20
-2.4014
 30
62.2502
 70
192
 0
VERTEX
 8
BASE3
 10
17.3297
 20
-2.4014
 30
62.3339
 70
192
 0
VERTEX
 8
BASE3
 10
17.3297
 20
-2.4014
 30
65.8178
 70
192
 0
VERTEX
 8
BASE3
 10
17.6226
 20
-2.4014
 30
62.4704
 70
192
 0
VERTEX
 8
BASE3
 10
17.0176
 20
-2.4014
 30
65.9014
 70
192
 0
VERTEX
 8
BASE3
 10
16.0617
 20
-3.1027
 30
64.0758
 70
192
 0
VERTEX
 8
BASE3
 10
17.3297
 20
-3.1027
 30
64.0758
 70
192
 0
VERTEX
 8
BASE3
 10
16.6957
 20
-2.4014
 30
65.9296
 70
192
 0
VERTEX
 8
BASE3
 10
16.3738
 20
-2.8015
 30
64.0758
 70
192
 0
VERTEX
 8
BASE3
 10
16.6957
 20
-2.8015
 30
64.0758
 70
192
 0
VERTEX
 8
BASE3
 10
17.8872
 20
-2.4014
 30
62.6558
 70
192
 0
VERTEX
 8
BASE3
 10
16.3738
 20
-2.4014
 30
65.9014
 70
192
 0
VERTEX
 8
BASE3
 10
16.0617
 20
-2.8015
 30
64.0758
 70
192
 0
VERTEX
 8
BASE3
 10
17.3297
 20
-2.8015
 30
64.0758
 70
192
 0
VERTEX
 8
BASE3
 10
16.0617
 20
-2.4014
 30
65.8178
 70
192
 0
VERTEX
 8
BASE3
 10
18.1157
 20
-2.4014
 30
62.8843
 70
192
 0
VERTEX
 8
BASE3
 10
15.7688
 20
-2.4014
 30
65.6812
 70
192
 0
VERTEX
 8
BASE3
 10
18.3011
 20
-2.4014
 30
63.149
 70
192
 0
VERTEX
 8
BASE3
 10
15.5041
 20
-2.4014
 30
65.4959
 70
192
 0
VERTEX
 8
BASE3
 10
18.4376
 20
-2.4014
 30
63.4418
 70
192
 0
VERTEX
 8
BASE3
 10
15.2756
 20
-2.4014
 30
65.2674
 70
192
 0
VERTEX
 8
BASE3
 10
18.5213
 20
-2.4014
 30
63.7539
 70
192
 0
VERTEX
 8
BASE3
 10
15.0903
 20
-2.4014
 30
65.0027
 70
192
 0
VERTEX
 8
BASE3
 10
17.3297
 20
-2.8015
 30
62.3339
 70
192
 0
VERTEX
 8
BASE3
 10
14.9537
 20
-2.4014
 30
64.7098
 70
192
 0
VERTEX
 8
BASE3
 10
16.0617
 20
-2.8015
 30
65.8178
 70
192
 0
VERTEX
 8
BASE3
 10
16.6957
 20
-2.8015
 30
65.9296
 70
192
 0
VERTEX
 8
BASE3
 10
14.8701
 20
-2.4014
 30
64.3977
 70
192
 0
VERTEX
 8
BASE3
 10
16.3738
 20
-2.8015
 30
65.9014
 70
192
 0
VERTEX
 8
BASE3
 10
16.0617
 20
-2.8015
 30
62.3339
 70
192
 0
VERTEX
 8
BASE3
 10
14.8419
 20
-2.4014
 30
64.0758
 70
192
 0
VERTEX
 8
BASE3
 10
16.3738
 20
-2.8015
 30
62.2502
 70
192
 0
VERTEX
 8
BASE3
 10
16.6957
 20
-2.8015
 30
62.2221
 70
192
 0
VERTEX
 8
BASE3
 10
14.8701
 20
-2.4014
 30
63.7539
 70
192
 0
VERTEX
 8
BASE3
 10
17.3297
 20
-2.8015
 30
65.8178
 70
192
 0
VERTEX
 8
BASE3
 10
17.0176
 20
-2.8015
 30
65.9014
 70
192
 0
VERTEX
 8
BASE3
 10
17.0176
 20
-2.8015
 30
62.2502
 70
192
 0
VERTEX
 8
BASE3
 10
14.9537
 20
-2.4014
 30
63.4418
 70
192
 0
VERTEX
 8
BASE3
 10
18.5213
 20
-3.0527
 30
64.3977
 70
192
 0
VERTEX
 8
BASE3
 10
15.7688
 20
-3.0527
 30
62.4704
 70
192
 0
VERTEX
 8
BASE3
 10
18.5494
 20
-3.0527
 30
64.0758
 70
192
 0
VERTEX
 8
BASE3
 10
18.4376
 20
-3.0527
 30
64.7098
 70
192
 0
VERTEX
 8
BASE3
 10
15.2756
 20
-3.0527
 30
62.8843
 70
192
 0
VERTEX
 8
BASE3
 10
18.3011
 20
-3.0527
 30
65.0027
 70
192
 0
VERTEX
 8
BASE3
 10
15.5041
 20
-3.0527
 30
62.6558
 70
192
 0
VERTEX
 8
BASE3
 10
18.4726
 20
-3.1027
 30
63.7671
 70
192
 0
VERTEX
 8
BASE3
 10
18.1157
 20
-3.0527
 30
65.2674
 70
192
 0
VERTEX
 8
BASE3
 10
16.0617
 20
-3.1027
 30
65.7626
 70
192
 0
VERTEX
 8
BASE3
 10
17.3297
 20
-3.1027
 30
62.389
 70
192
 0
VERTEX
 8
BASE3
 10
17.8872
 20
-3.0527
 30
65.4959
 70
192
 0
VERTEX
 8
BASE3
 10
18.0869
 20
-3.1027
 30
62.928
 70
192
 0
VERTEX
 8
BASE3
 10
15.3045
 20
-3.1027
 30
62.928
 70
192
 0
VERTEX
 8
BASE3
 10
17.6226
 20
-3.0527
 30
65.6812
 70
192
 0
VERTEX
 8
BASE3
 10
15.1277
 20
-3.1027
 30
63.1846
 70
192
 0
VERTEX
 8
BASE3
 10
17.8679
 20
-3.1027
 30
62.7051
 70
192
 0
VERTEX
 8
BASE3
 10
14.9188
 20
-3.1027
 30
63.7671
 70
192
 0
VERTEX
 8
BASE3
 10
17.8679
 20
-3.1027
 30
65.4466
 70
192
 0
VERTEX
 8
BASE3
 10
18.0869
 20
-3.1027
 30
65.2236
 70
192
 0
VERTEX
 8
BASE3
 10
18.4726
 20
-3.1027
 30
64.3846
 70
192
 0
VERTEX
 8
BASE3
 10
17.3297
 20
-3.1027
 30
65.7626
 70
192
 0
VERTEX
 8
BASE3
 10
17.613
 20
-3.1027
 30
65.6287
 70
192
 0
VERTEX
 8
BASE3
 10
15.5235
 20
-3.1027
 30
62.7051
 70
192
 0
VERTEX
 8
BASE3
 10
16.0617
 20
-3.1027
 30
62.389
 70
192
 0
VERTEX
 8
BASE3
 10
15.7784
 20
-3.1027
 30
62.5229
 70
192
 0
VERTEX
 8
BASE3
 10
17.8872
 20
-3.0527
 30
62.6558
 70
192
 0
VERTEX
 8
BASE3
 10
14.998
 20
-3.1027
 30
63.4671
 70
192
 0
VERTEX
 8
BASE3
 10
18.1157
 20
-3.0527
 30
62.8843
 70
192
 0
VERTEX
 8
BASE3
 10
16.0617
 20
-3.0527
 30
62.3339
 70
192
 0
VERTEX
 8
BASE3
 10
16.0617
 20
-3.0527
 30
65.8178
 70
192
 0
VERTEX
 8
BASE3
 10
15.7688
 20
-3.0527
 30
65.6812
 70
192
 0
VERTEX
 8
BASE3
 10
17.3297
 20
-3.0527
 30
62.3339
 70
192
 0
VERTEX
 8
BASE3
 10
17.6226
 20
-3.0527
 30
62.4704
 70
192
 0
VERTEX
 8
BASE3
 10
17.3297
 20
-3.0527
 30
65.8178
 70
192
 0
VERTEX
 8
BASE3
 10
17.613
 20
-3.1027
 30
62.5229
 70
192
 0
VERTEX
 8
BASE3
 10
18.4992
 20
-3.1027
 30
64.0758
 70
192
 0
VERTEX
 8
BASE3
 10
18.3011
 20
-3.0527
 30
63.149
 70
192
 0
VERTEX
 8
BASE3
 10
18.3934
 20
-3.1027
 30
64.6845
 70
192
 0
VERTEX
 8
BASE3
 10
18.2637
 20
-3.1027
 30
64.967
 70
192
 0
VERTEX
 8
BASE3
 10
14.9537
 20
-3.0527
 30
63.4418
 70
192
 0
VERTEX
 8
BASE3
 10
15.0903
 20
-3.0527
 30
63.149
 70
192
 0
VERTEX
 8
BASE3
 10
15.7784
 20
-3.1027
 30
65.6287
 70
192
 0
VERTEX
 8
BASE3
 10
15.5041
 20
-3.0527
 30
65.4959
 70
192
 0
VERTEX
 8
BASE3
 10
18.2637
 20
-3.1027
 30
63.1846
 70
192
 0
VERTEX
 8
BASE3
 10
18.4376
 20
-3.0527
 30
63.4418
 70
192
 0
VERTEX
 8
BASE3
 10
15.5235
 20
-3.1027
 30
65.4466
 70
192
 0
VERTEX
 8
BASE3
 10
15.2756
 20
-3.0527
 30
65.2674
 70
192
 0
VERTEX
 8
BASE3
 10
18.3934
 20
-3.1027
 30
63.4671
 70
192
 0
VERTEX
 8
BASE3
 10
18.5213
 20
-3.0527
 30
63.7539
 70
192
 0
VERTEX
 8
BASE3
 10
15.3045
 20
-3.1027
 30
65.2236
 70
192
 0
VERTEX
 8
BASE3
 10
15.0903
 20
-3.0527
 30
65.0027
 70
192
 0
VERTEX
 8
BASE3
 10
15.1277
 20
-3.1027
 30
64.967
 70
192
 0
VERTEX
 8
BASE3
 10
14.9537
 20
-3.0527
 30
64.7098
 70
192
 0
VERTEX
 8
BASE3
 10
14.998
 20
-3.1027
 30
64.6845
 70
192
 0
VERTEX
 8
BASE3
 10
14.8701
 20
-3.0527
 30
64.3977
 70
192
 0
VERTEX
 8
BASE3
 10
14.9188
 20
-3.1027
 30
64.3846
 70
192
 0
VERTEX
 8
BASE3
 10
14.8419
 20
-3.0527
 30
64.0758
 70
192
 0
VERTEX
 8
BASE3
 10
14.8921
 20
-3.1027
 30
64.0758
 70
192
 0
VERTEX
 8
BASE3
 10
14.8701
 20
-3.0527
 30
63.7539
 70
192
 0
VERTEX
 8
BASE3
 10
18.5459
 20
-3.0711
 30
64.0758
 70
192
 0
VERTEX
 8
BASE3
 10
18.5347
 20
-3.0881
 30
64.0758
 70
192
 0
VERTEX
 8
BASE3
 10
18.5177
 20
-3.0992
 30
64.0758
 70
192
 0
VERTEX
 8
BASE3
 10
18.5179
 20
-3.0711
 30
64.3968
 70
192
 0
VERTEX
 8
BASE3
 10
18.507
 20
-3.0881
 30
64.3939
 70
192
 0
VERTEX
 8
BASE3
 10
18.4905
 20
-3.0992
 30
64.3894
 70
192
 0
VERTEX
 8
BASE3
 10
15.5055
 20
-3.0711
 30
62.6592
 70
192
 0
VERTEX
 8
BASE3
 10
15.5098
 20
-3.0881
 30
62.6702
 70
192
 0
VERTEX
 8
BASE3
 10
15.5164
 20
-3.0992
 30
62.6869
 70
192
 0
VERTEX
 8
BASE3
 10
15.7695
 20
-3.0711
 30
62.4741
 70
192
 0
VERTEX
 8
BASE3
 10
15.7716
 20
-3.0881
 30
62.4858
 70
192
 0
VERTEX
 8
BASE3
 10
15.7749
 20
-3.0992
 30
62.5036
 70
192
 0
VERTEX
 8
BASE3
 10
18.5179
 20
-3.0711
 30
63.7549
 70
192
 0
VERTEX
 8
BASE3
 10
18.507
 20
-3.0881
 30
63.7578
 70
192
 0
VERTEX
 8
BASE3
 10
18.4905
 20
-3.0992
 30
63.7622
 70
192
 0
VERTEX
 8
BASE3
 10
18.4345
 20
-3.0711
 30
64.7081
 70
192
 0
VERTEX
 8
BASE3
 10
18.4247
 20
-3.0881
 30
64.7024
 70
192
 0
VERTEX
 8
BASE3
 10
18.4097
 20
-3.0992
 30
64.6939
 70
192
 0
VERTEX
 8
BASE3
 10
15.0929
 20
-3.0711
 30
63.1515
 70
192
 0
VERTEX
 8
BASE3
 10
15.1012
 20
-3.0881
 30
63.1594
 70
192
 0
VERTEX
 8
BASE3
 10
15.1139
 20
-3.0992
 30
63.1715
 70
192
 0
VERTEX
 8
BASE3
 10
15.2777
 20
-3.0711
 30
62.8873
 70
192
 0
VERTEX
 8
BASE3
 10
15.2841
 20
-3.0881
 30
62.8971
 70
192
 0
VERTEX
 8
BASE3
 10
15.2939
 20
-3.0992
 30
62.9119
 70
192
 0
VERTEX
 8
BASE3
 10
18.2984
 20
-3.0711
 30
65.0002
 70
192
 0
VERTEX
 8
BASE3
 10
18.2901
 20
-3.0881
 30
64.9923
 70
192
 0
VERTEX
 8
BASE3
 10
18.2775
 20
-3.0992
 30
64.9802
 70
192
 0
VERTEX
 8
BASE3
 10
18.1137
 20
-3.0711
 30
65.2643
 70
192
 0
VERTEX
 8
BASE3
 10
18.1073
 20
-3.0881
 30
65.2546
 70
192
 0
VERTEX
 8
BASE3
 10
18.0975
 20
-3.0992
 30
65.2397
 70
192
 0
VERTEX
 8
BASE3
 10
15.7749
 20
-3.0992
 30
65.6481
 70
192
 0
VERTEX
 8
BASE3
 10
15.7716
 20
-3.0881
 30
65.6658
 70
192
 0
VERTEX
 8
BASE3
 10
15.7695
 20
-3.0711
 30
65.6775
 70
192
 0
VERTEX
 8
BASE3
 10
16.0617
 20
-3.0992
 30
65.7829
 70
192
 0
VERTEX
 8
BASE3
 10
16.0617
 20
-3.0881
 30
65.8016
 70
192
 0
VERTEX
 8
BASE3
 10
16.0617
 20
-3.0711
 30
65.8139
 70
192
 0
VERTEX
 8
BASE3
 10
17.6165
 20
-3.0992
 30
62.5036
 70
192
 0
VERTEX
 8
BASE3
 10
17.6198
 20
-3.0881
 30
62.4858
 70
192
 0
VERTEX
 8
BASE3
 10
17.6219
 20
-3.0711
 30
62.4741
 70
192
 0
VERTEX
 8
BASE3
 10
17.3297
 20
-3.0992
 30
62.3687
 70
192
 0
VERTEX
 8
BASE3
 10
17.3297
 20
-3.0881
 30
62.35
 70
192
 0
VERTEX
 8
BASE3
 10
17.3297
 20
-3.0711
 30
62.3378
 70
192
 0
VERTEX
 8
BASE3
 10
17.8859
 20
-3.0711
 30
65.4924
 70
192
 0
VERTEX
 8
BASE3
 10
17.8816
 20
-3.0881
 30
65.4814
 70
192
 0
VERTEX
 8
BASE3
 10
17.875
 20
-3.0992
 30
65.4647
 70
192
 0
VERTEX
 8
BASE3
 10
18.2775
 20
-3.0992
 30
63.1715
 70
192
 0
VERTEX
 8
BASE3
 10
18.2901
 20
-3.0881
 30
63.1594
 70
192
 0
VERTEX
 8
BASE3
 10
18.2984
 20
-3.0711
 30
63.1515
 70
192
 0
VERTEX
 8
BASE3
 10
18.0975
 20
-3.0992
 30
62.9119
 70
192
 0
VERTEX
 8
BASE3
 10
18.1073
 20
-3.0881
 30
62.8971
 70
192
 0
VERTEX
 8
BASE3
 10
18.1137
 20
-3.0711
 30
62.8873
 70
192
 0
VERTEX
 8
BASE3
 10
17.6219
 20
-3.0711
 30
65.6775
 70
192
 0
VERTEX
 8
BASE3
 10
17.6198
 20
-3.0881
 30
65.6658
 70
192
 0
VERTEX
 8
BASE3
 10
17.6165
 20
-3.0992
 30
65.6481
 70
192
 0
VERTEX
 8
BASE3
 10
17.875
 20
-3.0992
 30
62.6869
 70
192
 0
VERTEX
 8
BASE3
 10
17.8816
 20
-3.0881
 30
62.6702
 70
192
 0
VERTEX
 8
BASE3
 10
17.8859
 20
-3.0711
 30
62.6592
 70
192
 0
VERTEX
 8
BASE3
 10
14.9817
 20
-3.0992
 30
63.4578
 70
192
 0
VERTEX
 8
BASE3
 10
14.9667
 20
-3.0881
 30
63.4492
 70
192
 0
VERTEX
 8
BASE3
 10
14.9568
 20
-3.0711
 30
63.4436
 70
192
 0
VERTEX
 8
BASE3
 10
14.9008
 20
-3.0992
 30
63.7622
 70
192
 0
VERTEX
 8
BASE3
 10
14.8844
 20
-3.0881
 30
63.7578
 70
192
 0
VERTEX
 8
BASE3
 10
14.8735
 20
-3.0711
 30
63.7549
 70
192
 0
VERTEX
 8
BASE3
 10
17.3297
 20
-3.0992
 30
65.7829
 70
192
 0
VERTEX
 8
BASE3
 10
17.3297
 20
-3.0881
 30
65.8016
 70
192
 0
VERTEX
 8
BASE3
 10
17.3297
 20
-3.0711
 30
65.8139
 70
192
 0
VERTEX
 8
BASE3
 10
16.0617
 20
-3.0992
 30
62.3687
 70
192
 0
VERTEX
 8
BASE3
 10
16.0617
 20
-3.0881
 30
62.35
 70
192
 0
VERTEX
 8
BASE3
 10
16.0617
 20
-3.0711
 30
62.3378
 70
192
 0
VERTEX
 8
BASE3
 10
15.5164
 20
-3.0992
 30
65.4647
 70
192
 0
VERTEX
 8
BASE3
 10
15.5098
 20
-3.0881
 30
65.4814
 70
192
 0
VERTEX
 8
BASE3
 10
15.5055
 20
-3.0711
 30
65.4924
 70
192
 0
VERTEX
 8
BASE3
 10
18.4097
 20
-3.0992
 30
63.4578
 70
192
 0
VERTEX
 8
BASE3
 10
18.4247
 20
-3.0881
 30
63.4492
 70
192
 0
VERTEX
 8
BASE3
 10
18.4345
 20
-3.0711
 30
63.4436
 70
192
 0
VERTEX
 8
BASE3
 10
15.2939
 20
-3.0992
 30
65.2397
 70
192
 0
VERTEX
 8
BASE3
 10
15.2841
 20
-3.0881
 30
65.2546
 70
192
 0
VERTEX
 8
BASE3
 10
15.2777
 20
-3.0711
 30
65.2643
 70
192
 0
VERTEX
 8
BASE3
 10
15.1139
 20
-3.0992
 30
64.9802
 70
192
 0
VERTEX
 8
BASE3
 10
15.1012
 20
-3.0881
 30
64.9923
 70
192
 0
VERTEX
 8
BASE3
 10
15.0929
 20
-3.0711
 30
65.0002
 70
192
 0
VERTEX
 8
BASE3
 10
14.9817
 20
-3.0992
 30
64.6939
 70
192
 0
VERTEX
 8
BASE3
 10
14.9667
 20
-3.0881
 30
64.7024
 70
192
 0
VERTEX
 8
BASE3
 10
14.9568
 20
-3.0711
 30
64.7081
 70
192
 0
VERTEX
 8
BASE3
 10
14.9008
 20
-3.0992
 30
64.3894
 70
192
 0
VERTEX
 8
BASE3
 10
14.8844
 20
-3.0881
 30
64.3939
 70
192
 0
VERTEX
 8
BASE3
 10
14.8735
 20
-3.0711
 30
64.3968
 70
192
 0
VERTEX
 8
BASE3
 10
14.8737
 20
-3.0992
 30
64.0758
 70
192
 0
VERTEX
 8
BASE3
 10
14.8566
 20
-3.0881
 30
64.0758
 70
192
 0
VERTEX
 8
BASE3
 10
14.8455
 20
-3.0711
 30
64.0758
 70
192
 0
VERTEX
 8
BASE3
 10
17.3303
 20
-3.0527
 30
65.8175
 70
192
 0
VERTEX
 8
BASE3
 10
17.3297
 20
-3.0525
 30
65.8178
 70
192
 0
VERTEX
 8
BASE3
 10
17.3297
 20
-3.0525
 30
65.816
 70
192
 0
VERTEX
 8
BASE3
 10
0
 20
0
 30
0
 70
128
 71
1
 72
3
 73
5
 74
5
 0
VERTEX
 8
BASE3
 10
0
 20
0
 30
0
 70
128
 71
3
 72
57
 73
55
 74
5
 0
VERTEX
 8
BASE3
 10
0
 20
0
 30
0
 70
128
 71
1
 72
10
 73
12
 74
12
 0
VERTEX
 8
BASE3
 10
0
 20
0
 30
0
 70
128
 71
1
 72
5
 73
7
 74
7
 0
VERTEX
 8
BASE3
 10
0
 20
0
 30
0
 70
128
 71
5
 72
55
 73
58
 74
7
 0
VERTEX
 8
BASE3
 10
0
 20
0
 30
0
 70
128
 71
10
 72
46
 73
12
 74
12
 0
VERTEX
 8
BASE3
 10
0
 20
0
 30
0
 70
128
 71
1
 72
7
 73
9
 74
9
 0
VERTEX
 8
BASE3
 10
0
 20
0
 30
0
 70
128
 71
7
 72
58
 73
60
 74
9
 0
VERTEX
 8
BASE3
 10
0
 20
0
 30
0
 70
128
 71
1
 72
12
 73
14
 74
14
 0
VERTEX
 8
BASE3
 10
0
 20
0
 30
0
 70
128
 71
1
 72
9
 73
11
 74
11
 0
VERTEX
 8
BASE3
 10
0
 20
0
 30
0
 70
128
 71
9
 72
60
 73
63
 74
11
 0
VERTEX
 8
BASE3
 10
0
 20
0
 30
0
 70
128
 71
12
 72
46
 73
48
 74
14
 0
VERTEX
 8
BASE3
 10
0
 20
0
 30
0
 70
128
 71
1
 72
11
 73
13
 74
13
 0
VERTEX
 8
BASE3
 10
0
 20
0
 30
0
 70
128
 71
11
 72
63
 73
66
 74
13
 0
VERTEX
 8
BASE3
 10
0
 20
0
 30
0
 70
128
 71
1
 72
14
 73
15
 74
15
 0
VERTEX
 8
BASE3
 10
0
 20
0
 30
0
 70
128
 71
1
 72
13
 73
16
 74
16
 0
VERTEX
 8
BASE3
 10
0
 20
0
 30
0
 70
128
 71
13
 72
66
 73
69
 74
16
 0
VERTEX
 8
BASE3
 10
0
 20
0
 30
0
 70
128
 71
14
 72
48
 73
49
 74
15
 0
VERTEX
 8
BASE3
 10
0
 20
0
 30
0
 70
128
 71
1
 72
16
 73
19
 74
19
 0
VERTEX
 8
BASE3
 10
0
 20
0
 30
0
 70
128
 71
205
 72
206
 73
51
 74
51
 0
VERTEX
 8
BASE3
 10
0
 20
0
 30
0
 70
128
 71
1
 72
15
 73
17
 74
17
 0
VERTEX
 8
BASE3
 10
0
 20
0
 30
0
 70
128
 71
1
 72
19
 73
21
 74
21
 0
VERTEX
 8
BASE3
 10
0
 20
0
 30
0
 70
128
 71
19
 72
51
 73
52
 74
21
 0
VERTEX
 8
BASE3
 10
0
 20
0
 30
0
 70
128
 71
15
 72
49
 73
53
 74
17
 0
VERTEX
 8
BASE3
 10
0
 20
0
 30
0
 70
128
 71
1
 72
21
 73
24
 74
24
 0
VERTEX
 8
BASE3
 10
0
 20
0
 30
0
 70
128
 71
21
 72
52
 73
43
 74
24
 0
VERTEX
 8
BASE3
 10
0
 20
0
 30
0
 70
128
 71
1
 72
17
 73
18
 74
18
 0
VERTEX
 8
BASE3
 10
0
 20
0
 30
0
 70
128
 71
1
 72
24
 73
28
 74
28
 0
VERTEX
 8
BASE3
 10
0
 20
0
 30
0
 70
128
 71
24
 72
43
 73
45
 74
28
 0
VERTEX
 8
BASE3
 10
0
 20
0
 30
0
 70
128
 71
17
 72
53
 73
40
 74
18
 0
VERTEX
 8
BASE3
 10
0
 20
0
 30
0
 70
128
 71
1
 72
28
 73
31
 74
31
 0
VERTEX
 8
BASE3
 10
0
 20
0
 30
0
 70
128
 71
28
 72
45
 73
42
 74
31
 0
VERTEX
 8
BASE3
 10
0
 20
0
 30
0
 70
128
 71
1
 72
18
 73
20
 74
20
 0
VERTEX
 8
BASE3
 10
0
 20
0
 30
0
 70
128
 71
1
 72
31
 73
33
 74
33
 0
VERTEX
 8
BASE3
 10
0
 20
0
 30
0
 70
128
 71
31
 72
42
 73
33
 74
33
 0
VERTEX
 8
BASE3
 10
0
 20
0
 30
0
 70
128
 71
18
 72
40
 73
20
 74
20
 0
VERTEX
 8
BASE3
 10
0
 20
0
 30
0
 70
128
 71
1
 72
33
 73
35
 74
35
 0
VERTEX
 8
BASE3
 10
0
 20
0
 30
0
 70
128
 71
33
 72
86
 73
98
 74
35
 0
VERTEX
 8
BASE3
 10
0
 20
0
 30
0
 70
128
 71
1
 72
20
 73
27
 74
27
 0
VERTEX
 8
BASE3
 10
0
 20
0
 30
0
 70
128
 71
1
 72
35
 73
37
 74
37
 0
VERTEX
 8
BASE3
 10
0
 20
0
 30
0
 70
128
 71
35
 72
98
 73
102
 74
37
 0
VERTEX
 8
BASE3
 10
0
 20
0
 30
0
 70
128
 71
20
 72
88
 73
81
 74
27
 0
VERTEX
 8
BASE3
 10
0
 20
0
 30
0
 70
128
 71
1
 72
37
 73
39
 74
39
 0
VERTEX
 8
BASE3
 10
0
 20
0
 30
0
 70
128
 71
37
 72
102
 73
106
 74
39
 0
VERTEX
 8
BASE3
 10
0
 20
0
 30
0
 70
128
 71
1
 72
27
 73
32
 74
32
 0
VERTEX
 8
BASE3
 10
0
 20
0
 30
0
 70
128
 71
1
 72
39
 73
41
 74
41
 0
VERTEX
 8
BASE3
 10
0
 20
0
 30
0
 70
128
 71
39
 72
106
 73
108
 74
41
 0
VERTEX
 8
BASE3
 10
0
 20
0
 30
0
 70
128
 71
27
 72
81
 73
83
 74
32
 0
VERTEX
 8
BASE3
 10
0
 20
0
 30
0
 70
128
 71
1
 72
41
 73
44
 74
44
 0
VERTEX
 8
BASE3
 10
0
 20
0
 30
0
 70
128
 71
41
 72
108
 73
110
 74
44
 0
VERTEX
 8
BASE3
 10
0
 20
0
 30
0
 70
128
 71
1
 72
32
 73
34
 74
34
 0
VERTEX
 8
BASE3
 10
0
 20
0
 30
0
 70
128
 71
1
 72
44
 73
47
 74
47
 0
VERTEX
 8
BASE3
 10
0
 20
0
 30
0
 70
128
 71
44
 72
110
 73
112
 74
47
 0
VERTEX
 8
BASE3
 10
0
 20
0
 30
0
 70
128
 71
32
 72
83
 73
92
 74
34
 0
VERTEX
 8
BASE3
 10
0
 20
0
 30
0
 70
128
 71
1
 72
47
 73
50
 74
50
 0
VERTEX
 8
BASE3
 10
0
 20
0
 30
0
 70
128
 71
71
 72
90
 73
23
 74
23
 0
VERTEX
 8
BASE3
 10
0
 20
0
 30
0
 70
128
 71
1
 72
34
 73
36
 74
36
 0
VERTEX
 8
BASE3
 10
0
 20
0
 30
0
 70
128
 71
1
 72
50
 73
54
 74
54
 0
VERTEX
 8
BASE3
 10
0
 20
0
 30
0
 70
128
 71
50
 72
114
 73
95
 74
54
 0
VERTEX
 8
BASE3
 10
0
 20
0
 30
0
 70
128
 71
34
 72
92
 73
100
 74
36
 0
VERTEX
 8
BASE3
 10
0
 20
0
 30
0
 70
128
 71
1
 72
54
 73
4
 74
4
 0
VERTEX
 8
BASE3
 10
0
 20
0
 30
0
 70
128
 71
54
 72
95
 73
96
 74
4
 0
VERTEX
 8
BASE3
 10
0
 20
0
 30
0
 70
128
 71
1
 72
36
 73
38
 74
38
 0
VERTEX
 8
BASE3
 10
0
 20
0
 30
0
 70
128
 71
1
 72
4
 73
6
 74
6
 0
VERTEX
 8
BASE3
 10
0
 20
0
 30
0
 70
128
 71
4
 72
96
 73
59
 74
6
 0
VERTEX
 8
BASE3
 10
0
 20
0
 30
0
 70
128
 71
36
 72
100
 73
104
 74
38
 0
VERTEX
 8
BASE3
 10
0
 20
0
 30
0
 70
128
 71
1
 72
6
 73
8
 74
8
 0
VERTEX
 8
BASE3
 10
0
 20
0
 30
0
 70
128
 71
6
 72
59
 73
61
 74
8
 0
VERTEX
 8
BASE3
 10
0
 20
0
 30
0
 70
128
 71
1
 72
38
 73
3
 74
3
 0
VERTEX
 8
BASE3
 10
0
 20
0
 30
0
 70
128
 71
1
 72
8
 73
10
 74
10
 0
VERTEX
 8
BASE3
 10
0
 20
0
 30
0
 70
128
 71
8
 72
61
 73
56
 74
10
 0
VERTEX
 8
BASE3
 10
0
 20
0
 30
0
 70
128
 71
38
 72
104
 73
57
 74
3
 0
VERTEX
 8
BASE3
 10
0
 20
0
 30
0
 70
128
 71
112
 72
114
 73
50
 74
47
 0
VERTEX
 8
BASE3
 10
0
 20
0
 30
0
 70
128
 71
90
 72
65
 73
23
 74
23
 0
VERTEX
 8
BASE3
 10
0
 20
0
 30
0
 70
128
 71
42
 72
85
 73
86
 74
33
 0
VERTEX
 8
BASE3
 10
0
 20
0
 30
0
 70
128
 71
99
 72
67
 73
23
 74
23
 0
VERTEX
 8
BASE3
 10
0
 20
0
 30
0
 70
128
 71
91
 72
62
 73
23
 74
23
 0
VERTEX
 8
BASE3
 10
0
 20
0
 30
0
 70
128
 71
111
 72
109
 73
22
 74
22
 0
VERTEX
 8
BASE3
 10
0
 20
0
 30
0
 70
128
 71
113
 72
111
 73
22
 74
22
 0
VERTEX
 8
BASE3
 10
0
 20
0
 30
0
 70
128
 71
97
 72
64
 73
22
 74
22
 0
VERTEX
 8
BASE3
 10
0
 20
0
 30
0
 70
128
 71
22
 72
82
 73
72
 74
72
 0
VERTEX
 8
BASE3
 10
0
 20
0
 30
0
 70
128
 71
22
 72
72
 73
113
 74
113
 0
VERTEX
 8
BASE3
 10
0
 20
0
 30
0
 70
128
 71
109
 72
107
 73
22
 74
22
 0
VERTEX
 8
BASE3
 10
0
 20
0
 30
0
 70
128
 71
107
 72
105
 73
22
 74
22
 0
VERTEX
 8
BASE3
 10
0
 20
0
 30
0
 70
128
 71
22
 72
68
 73
70
 74
70
 0
VERTEX
 8
BASE3
 10
0
 20
0
 30
0
 70
128
 71
22
 72
78
 73
68
 74
68
 0
VERTEX
 8
BASE3
 10
0
 20
0
 30
0
 70
128
 71
67
 72
71
 73
23
 74
23
 0
VERTEX
 8
BASE3
 10
0
 20
0
 30
0
 70
128
 71
40
 72
87
 73
88
 74
20
 0
VERTEX
 8
BASE3
 10
0
 20
0
 30
0
 70
128
 71
10
 72
56
 73
84
 74
46
 0
VERTEX
 8
BASE3
 10
0
 20
0
 30
0
 70
128
 71
62
 72
103
 73
23
 74
23
 0
VERTEX
 8
BASE3
 10
0
 20
0
 30
0
 70
128
 71
77
 72
73
 73
23
 74
23
 0
VERTEX
 8
BASE3
 10
0
 20
0
 30
0
 70
128
 71
205
 72
89
 73
206
 74
206
 0
VERTEX
 8
BASE3
 10
0
 20
0
 30
0
 70
128
 71
42
 72
45
 73
25
 74
29
 0
VERTEX
 8
BASE3
 10
0
 20
0
 30
0
 70
128
 71
45
 72
43
 73
26
 74
25
 0
VERTEX
 8
BASE3
 10
0
 20
0
 30
0
 70
128
 71
53
 72
49
 73
26
 74
2
 0
VERTEX
 8
BASE3
 10
0
 20
0
 30
0
 70
128
 71
52
 72
51
 73
30
 74
2
 0
VERTEX
 8
BASE3
 10
0
 20
0
 30
0
 70
128
 71
89
 72
207
 73
206
 74
206
 0
VERTEX
 8
BASE3
 10
0
 20
0
 30
0
 70
128
 71
84
 72
29
 73
46
 74
46
 0
VERTEX
 8
BASE3
 10
0
 20
0
 30
0
 70
128
 71
93
 72
75
 73
23
 74
23
 0
VERTEX
 8
BASE3
 10
0
 20
0
 30
0
 70
128
 71
51
 72
16
 73
69
 74
205
 0
VERTEX
 8
BASE3
 10
0
 20
0
 30
0
 70
128
 71
73
 72
74
 73
23
 74
23
 0
VERTEX
 8
BASE3
 10
0
 20
0
 30
0
 70
128
 71
25
 72
48
 73
46
 74
29
 0
VERTEX
 8
BASE3
 10
0
 20
0
 30
0
 70
128
 71
26
 72
49
 73
48
 74
25
 0
VERTEX
 8
BASE3
 10
0
 20
0
 30
0
 70
128
 71
26
 72
43
 73
52
 74
2
 0
VERTEX
 8
BASE3
 10
0
 20
0
 30
0
 70
128
 71
30
 72
40
 73
53
 74
2
 0
VERTEX
 8
BASE3
 10
0
 20
0
 30
0
 70
128
 71
65
 72
154
 73
30
 74
30
 0
VERTEX
 8
BASE3
 10
0
 20
0
 30
0
 70
128
 71
64
 72
148
 73
29
 74
29
 0
VERTEX
 8
BASE3
 10
0
 20
0
 30
0
 70
128
 71
105
 72
101
 73
22
 74
22
 0
VERTEX
 8
BASE3
 10
0
 20
0
 30
0
 70
128
 71
101
 72
97
 73
22
 74
22
 0
VERTEX
 8
BASE3
 10
0
 20
0
 30
0
 70
128
 71
22
 72
70
 73
82
 74
82
 0
VERTEX
 8
BASE3
 10
0
 20
0
 30
0
 70
128
 71
22
 72
80
 73
78
 74
78
 0
VERTEX
 8
BASE3
 10
0
 20
0
 30
0
 70
128
 71
22
 72
79
 73
80
 74
80
 0
VERTEX
 8
BASE3
 10
0
 20
0
 30
0
 70
128
 71
74
 72
94
 73
23
 74
23
 0
VERTEX
 8
BASE3
 10
0
 20
0
 30
0
 70
128
 71
94
 72
93
 73
23
 74
23
 0
VERTEX
 8
BASE3
 10
0
 20
0
 30
0
 70
128
 71
75
 72
91
 73
23
 74
23
 0
VERTEX
 8
BASE3
 10
0
 20
0
 30
0
 70
128
 71
103
 72
99
 73
23
 74
23
 0
VERTEX
 8
BASE3
 10
0
 20
0
 30
0
 70
128
 71
180
 72
179
 73
30
 74
30
 0
VERTEX
 8
BASE3
 10
0
 20
0
 30
0
 70
128
 71
179
 72
178
 73
30
 74
30
 0
VERTEX
 8
BASE3
 10
0
 20
0
 30
0
 70
128
 71
183
 72
182
 73
29
 74
29
 0
VERTEX
 8
BASE3
 10
0
 20
0
 30
0
 70
128
 71
182
 72
181
 73
29
 74
29
 0
VERTEX
 8
BASE3
 10
0
 20
0
 30
0
 70
128
 71
154
 72
155
 73
30
 74
30
 0
VERTEX
 8
BASE3
 10
0
 20
0
 30
0
 70
128
 71
23
 72
65
 73
30
 74
30
 0
VERTEX
 8
BASE3
 10
0
 20
0
 30
0
 70
128
 71
148
 72
149
 73
29
 74
29
 0
VERTEX
 8
BASE3
 10
0
 20
0
 30
0
 70
128
 71
22
 72
64
 73
29
 74
29
 0
VERTEX
 8
BASE3
 10
0
 20
0
 30
0
 70
128
 71
57
 72
115
 73
118
 74
55
 0
VERTEX
 8
BASE3
 10
0
 20
0
 30
0
 70
128
 71
55
 72
118
 73
130
 74
58
 0
VERTEX
 8
BASE3
 10
0
 20
0
 30
0
 70
128
 71
56
 72
124
 73
183
 74
84
 0
VERTEX
 8
BASE3
 10
0
 20
0
 30
0
 70
128
 71
58
 72
130
 73
139
 74
60
 0
VERTEX
 8
BASE3
 10
0
 20
0
 30
0
 70
128
 71
60
 72
139
 73
142
 74
63
 0
VERTEX
 8
BASE3
 10
0
 20
0
 30
0
 70
128
 71
63
 72
142
 73
157
 74
66
 0
VERTEX
 8
BASE3
 10
0
 20
0
 30
0
 70
128
 71
66
 72
157
 73
166
 74
69
 0
VERTEX
 8
BASE3
 10
0
 20
0
 30
0
 70
128
 71
150
 72
85
 73
29
 74
29
 0
VERTEX
 8
BASE3
 10
0
 20
0
 30
0
 70
128
 71
86
 72
147
 73
186
 74
98
 0
VERTEX
 8
BASE3
 10
0
 20
0
 30
0
 70
128
 71
98
 72
186
 73
192
 74
102
 0
VERTEX
 8
BASE3
 10
0
 20
0
 30
0
 70
128
 71
88
 72
153
 73
171
 74
81
 0
VERTEX
 8
BASE3
 10
0
 20
0
 30
0
 70
128
 71
102
 72
192
 73
195
 74
106
 0
VERTEX
 8
BASE3
 10
0
 20
0
 30
0
 70
128
 71
106
 72
195
 73
198
 74
108
 0
VERTEX
 8
BASE3
 10
0
 20
0
 30
0
 70
128
 71
81
 72
171
 73
165
 74
83
 0
VERTEX
 8
BASE3
 10
0
 20
0
 30
0
 70
128
 71
108
 72
198
 73
201
 74
110
 0
VERTEX
 8
BASE3
 10
0
 20
0
 30
0
 70
128
 71
110
 72
201
 73
204
 74
112
 0
VERTEX
 8
BASE3
 10
0
 20
0
 30
0
 70
128
 71
83
 72
165
 73
162
 74
92
 0
VERTEX
 8
BASE3
 10
0
 20
0
 30
0
 70
128
 71
114
 72
177
 73
174
 74
95
 0
VERTEX
 8
BASE3
 10
0
 20
0
 30
0
 70
128
 71
92
 72
162
 73
189
 74
100
 0
VERTEX
 8
BASE3
 10
0
 20
0
 30
0
 70
128
 71
95
 72
174
 73
133
 74
96
 0
VERTEX
 8
BASE3
 10
0
 20
0
 30
0
 70
128
 71
96
 72
133
 73
136
 74
59
 0
VERTEX
 8
BASE3
 10
0
 20
0
 30
0
 70
128
 71
100
 72
189
 73
127
 74
104
 0
VERTEX
 8
BASE3
 10
0
 20
0
 30
0
 70
128
 71
59
 72
136
 73
121
 74
61
 0
VERTEX
 8
BASE3
 10
0
 20
0
 30
0
 70
128
 71
61
 72
121
 73
124
 74
56
 0
VERTEX
 8
BASE3
 10
0
 20
0
 30
0
 70
128
 71
104
 72
127
 73
115
 74
57
 0
VERTEX
 8
BASE3
 10
0
 20
0
 30
0
 70
128
 71
112
 72
204
 73
177
 74
114
 0
VERTEX
 8
BASE3
 10
0
 20
0
 30
0
 70
128
 71
87
 72
156
 73
153
 74
88
 0
VERTEX
 8
BASE3
 10
0
 20
0
 30
0
 70
128
 71
85
 72
150
 73
147
 74
86
 0
VERTEX
 8
BASE3
 10
0
 20
0
 30
0
 70
128
 71
115
 72
116
 73
119
 74
118
 0
VERTEX
 8
BASE3
 10
0
 20
0
 30
0
 70
128
 71
116
 72
117
 73
120
 74
119
 0
VERTEX
 8
BASE3
 10
0
 20
0
 30
0
 70
128
 71
117
 72
91
 73
75
 74
120
 0
VERTEX
 8
BASE3
 10
0
 20
0
 30
0
 70
128
 71
118
 72
119
 73
131
 74
130
 0
VERTEX
 8
BASE3
 10
0
 20
0
 30
0
 70
128
 71
119
 72
120
 73
132
 74
131
 0
VERTEX
 8
BASE3
 10
0
 20
0
 30
0
 70
128
 71
120
 72
75
 73
93
 74
132
 0
VERTEX
 8
BASE3
 10
0
 20
0
 30
0
 70
128
 71
124
 72
125
 73
182
 74
183
 0
VERTEX
 8
BASE3
 10
0
 20
0
 30
0
 70
128
 71
125
 72
126
 73
181
 74
182
 0
VERTEX
 8
BASE3
 10
0
 20
0
 30
0
 70
128
 71
126
 72
80
 73
79
 74
181
 0
VERTEX
 8
BASE3
 10
0
 20
0
 30
0
 70
128
 71
130
 72
131
 73
140
 74
139
 0
VERTEX
 8
BASE3
 10
0
 20
0
 30
0
 70
128
 71
131
 72
132
 73
141
 74
140
 0
VERTEX
 8
BASE3
 10
0
 20
0
 30
0
 70
128
 71
132
 72
93
 73
94
 74
141
 0
VERTEX
 8
BASE3
 10
0
 20
0
 30
0
 70
128
 71
139
 72
140
 73
143
 74
142
 0
VERTEX
 8
BASE3
 10
0
 20
0
 30
0
 70
128
 71
140
 72
141
 73
144
 74
143
 0
VERTEX
 8
BASE3
 10
0
 20
0
 30
0
 70
128
 71
141
 72
94
 73
74
 74
144
 0
VERTEX
 8
BASE3
 10
0
 20
0
 30
0
 70
128
 71
142
 72
143
 73
158
 74
157
 0
VERTEX
 8
BASE3
 10
0
 20
0
 30
0
 70
128
 71
143
 72
144
 73
159
 74
158
 0
VERTEX
 8
BASE3
 10
0
 20
0
 30
0
 70
128
 71
144
 72
74
 73
73
 74
159
 0
VERTEX
 8
BASE3
 10
0
 20
0
 30
0
 70
128
 71
157
 72
158
 73
167
 74
166
 0
VERTEX
 8
BASE3
 10
0
 20
0
 30
0
 70
128
 71
158
 72
159
 73
168
 74
167
 0
VERTEX
 8
BASE3
 10
0
 20
0
 30
0
 70
128
 71
159
 72
73
 73
77
 74
168
 0
VERTEX
 8
BASE3
 10
0
 20
0
 30
0
 70
128
 71
51
 72
19
 73
16
 74
16
 0
VERTEX
 8
BASE3
 10
0
 20
0
 30
0
 70
128
 71
207
 72
30
 73
51
 74
206
 0
VERTEX
 8
BASE3
 10
0
 20
0
 30
0
 70
128
 71
85
 72
42
 73
29
 74
29
 0
VERTEX
 8
BASE3
 10
0
 20
0
 30
0
 70
128
 71
147
 72
146
 73
185
 74
186
 0
VERTEX
 8
BASE3
 10
0
 20
0
 30
0
 70
128
 71
146
 72
145
 73
184
 74
185
 0
VERTEX
 8
BASE3
 10
0
 20
0
 30
0
 70
128
 71
145
 72
97
 73
101
 74
184
 0
VERTEX
 8
BASE3
 10
0
 20
0
 30
0
 70
128
 71
186
 72
185
 73
191
 74
192
 0
VERTEX
 8
BASE3
 10
0
 20
0
 30
0
 70
128
 71
185
 72
184
 73
190
 74
191
 0
VERTEX
 8
BASE3
 10
0
 20
0
 30
0
 70
128
 71
184
 72
101
 73
105
 74
190
 0
VERTEX
 8
BASE3
 10
0
 20
0
 30
0
 70
128
 71
153
 72
152
 73
170
 74
171
 0
VERTEX
 8
BASE3
 10
0
 20
0
 30
0
 70
128
 71
152
 72
151
 73
169
 74
170
 0
VERTEX
 8
BASE3
 10
0
 20
0
 30
0
 70
128
 71
151
 72
90
 73
71
 74
169
 0
VERTEX
 8
BASE3
 10
0
 20
0
 30
0
 70
128
 71
192
 72
191
 73
194
 74
195
 0
VERTEX
 8
BASE3
 10
0
 20
0
 30
0
 70
128
 71
191
 72
190
 73
193
 74
194
 0
VERTEX
 8
BASE3
 10
0
 20
0
 30
0
 70
128
 71
190
 72
105
 73
107
 74
193
 0
VERTEX
 8
BASE3
 10
0
 20
0
 30
0
 70
128
 71
195
 72
194
 73
197
 74
198
 0
VERTEX
 8
BASE3
 10
0
 20
0
 30
0
 70
128
 71
194
 72
193
 73
196
 74
197
 0
VERTEX
 8
BASE3
 10
0
 20
0
 30
0
 70
128
 71
193
 72
107
 73
109
 74
196
 0
VERTEX
 8
BASE3
 10
0
 20
0
 30
0
 70
128
 71
171
 72
170
 73
164
 74
165
 0
VERTEX
 8
BASE3
 10
0
 20
0
 30
0
 70
128
 71
170
 72
169
 73
163
 74
164
 0
VERTEX
 8
BASE3
 10
0
 20
0
 30
0
 70
128
 71
169
 72
71
 73
67
 74
163
 0
VERTEX
 8
BASE3
 10
0
 20
0
 30
0
 70
128
 71
198
 72
197
 73
200
 74
201
 0
VERTEX
 8
BASE3
 10
0
 20
0
 30
0
 70
128
 71
197
 72
196
 73
199
 74
200
 0
VERTEX
 8
BASE3
 10
0
 20
0
 30
0
 70
128
 71
196
 72
109
 73
111
 74
199
 0
VERTEX
 8
BASE3
 10
0
 20
0
 30
0
 70
128
 71
201
 72
200
 73
203
 74
204
 0
VERTEX
 8
BASE3
 10
0
 20
0
 30
0
 70
128
 71
200
 72
199
 73
202
 74
203
 0
VERTEX
 8
BASE3
 10
0
 20
0
 30
0
 70
128
 71
199
 72
111
 73
113
 74
202
 0
VERTEX
 8
BASE3
 10
0
 20
0
 30
0
 70
128
 71
165
 72
164
 73
161
 74
162
 0
VERTEX
 8
BASE3
 10
0
 20
0
 30
0
 70
128
 71
164
 72
163
 73
160
 74
161
 0
VERTEX
 8
BASE3
 10
0
 20
0
 30
0
 70
128
 71
163
 72
67
 73
99
 74
160
 0
VERTEX
 8
BASE3
 10
0
 20
0
 30
0
 70
128
 71
177
 72
176
 73
173
 74
174
 0
VERTEX
 8
BASE3
 10
0
 20
0
 30
0
 70
128
 71
176
 72
175
 73
172
 74
173
 0
VERTEX
 8
BASE3
 10
0
 20
0
 30
0
 70
128
 71
175
 72
72
 73
82
 74
172
 0
VERTEX
 8
BASE3
 10
0
 20
0
 30
0
 70
128
 71
162
 72
161
 73
188
 74
189
 0
VERTEX
 8
BASE3
 10
0
 20
0
 30
0
 70
128
 71
161
 72
160
 73
187
 74
188
 0
VERTEX
 8
BASE3
 10
0
 20
0
 30
0
 70
128
 71
160
 72
99
 73
103
 74
187
 0
VERTEX
 8
BASE3
 10
0
 20
0
 30
0
 70
128
 71
174
 72
173
 73
134
 74
133
 0
VERTEX
 8
BASE3
 10
0
 20
0
 30
0
 70
128
 71
173
 72
172
 73
135
 74
134
 0
VERTEX
 8
BASE3
 10
0
 20
0
 30
0
 70
128
 71
172
 72
82
 73
70
 74
135
 0
VERTEX
 8
BASE3
 10
0
 20
0
 30
0
 70
128
 71
133
 72
134
 73
137
 74
136
 0
VERTEX
 8
BASE3
 10
0
 20
0
 30
0
 70
128
 71
134
 72
135
 73
138
 74
137
 0
VERTEX
 8
BASE3
 10
0
 20
0
 30
0
 70
128
 71
135
 72
70
 73
68
 74
138
 0
VERTEX
 8
BASE3
 10
0
 20
0
 30
0
 70
128
 71
189
 72
188
 73
128
 74
127
 0
VERTEX
 8
BASE3
 10
0
 20
0
 30
0
 70
128
 71
188
 72
187
 73
129
 74
128
 0
VERTEX
 8
BASE3
 10
0
 20
0
 30
0
 70
128
 71
187
 72
103
 73
62
 74
129
 0
VERTEX
 8
BASE3
 10
0
 20
0
 30
0
 70
128
 71
136
 72
137
 73
122
 74
121
 0
VERTEX
 8
BASE3
 10
0
 20
0
 30
0
 70
128
 71
137
 72
138
 73
123
 74
122
 0
VERTEX
 8
BASE3
 10
0
 20
0
 30
0
 70
128
 71
138
 72
68
 73
78
 74
123
 0
VERTEX
 8
BASE3
 10
0
 20
0
 30
0
 70
128
 71
121
 72
122
 73
125
 74
124
 0
VERTEX
 8
BASE3
 10
0
 20
0
 30
0
 70
128
 71
122
 72
123
 73
126
 74
125
 0
VERTEX
 8
BASE3
 10
0
 20
0
 30
0
 70
128
 71
123
 72
78
 73
80
 74
126
 0
VERTEX
 8
BASE3
 10
0
 20
0
 30
0
 70
128
 71
127
 72
128
 73
116
 74
115
 0
VERTEX
 8
BASE3
 10
0
 20
0
 30
0
 70
128
 71
128
 72
129
 73
117
 74
116
 0
VERTEX
 8
BASE3
 10
0
 20
0
 30
0
 70
128
 71
129
 72
62
 73
91
 74
117
 0
VERTEX
 8
BASE3
 10
0
 20
0
 30
0
 70
128
 71
204
 72
203
 73
176
 74
177
 0
VERTEX
 8
BASE3
 10
0
 20
0
 30
0
 70
128
 71
203
 72
202
 73
175
 74
176
 0
VERTEX
 8
BASE3
 10
0
 20
0
 30
0
 70
128
 71
202
 72
113
 73
72
 74
175
 0
VERTEX
 8
BASE3
 10
0
 20
0
 30
0
 70
128
 71
156
 72
155
 73
152
 74
153
 0
VERTEX
 8
BASE3
 10
0
 20
0
 30
0
 70
128
 71
155
 72
154
 73
151
 74
152
 0
VERTEX
 8
BASE3
 10
0
 20
0
 30
0
 70
128
 71
154
 72
65
 73
90
 74
151
 0
VERTEX
 8
BASE3
 10
0
 20
0
 30
0
 70
128
 71
150
 72
149
 73
146
 74
147
 0
VERTEX
 8
BASE3
 10
0
 20
0
 30
0
 70
128
 71
149
 72
148
 73
145
 74
146
 0
VERTEX
 8
BASE3
 10
0
 20
0
 30
0
 70
128
 71
148
 72
64
 73
97
 74
145
 0
VERTEX
 8
BASE3
 10
0
 20
0
 30
0
 70
128
 71
180
 72
30
 73
207
 74
89
 0
VERTEX
 8
BASE3
 10
0
 20
0
 30
0
 70
128
 71
178
 72
76
 73
30
 74
30
 0
VERTEX
 8
BASE3
 10
0
 20
0
 30
0
 70
128
 71
76
 72
23
 73
30
 74
30
 0
VERTEX
 8
BASE3
 10
0
 20
0
 30
0
 70
128
 71
155
 72
156
 73
30
 74
30
 0
VERTEX
 8
BASE3
 10
0
 20
0
 30
0
 70
128
 71
156
 72
87
 73
30
 74
30
 0
VERTEX
 8
BASE3
 10
0
 20
0
 30
0
 70
128
 71
87
 72
40
 73
30
 74
30
 0
VERTEX
 8
BASE3
 10
0
 20
0
 30
0
 70
128
 71
84
 72
183
 73
29
 74
29
 0
VERTEX
 8
BASE3
 10
0
 20
0
 30
0
 70
128
 71
181
 72
79
 73
29
 74
29
 0
VERTEX
 8
BASE3
 10
0
 20
0
 30
0
 70
128
 71
79
 72
22
 73
29
 74
29
 0
VERTEX
 8
BASE3
 10
0
 20
0
 30
0
 70
128
 71
149
 72
150
 73
29
 74
29
 0
VERTEX
 8
BASE3
 10
0
 20
0
 30
0
 70
128
 71
77
 72
23
 73
76
 74
76
 0
VERTEX
 8
BASE3
 10
0
 20
0
 30
0
 70
128
 71
69
 72
166
 73
180
 74
89
 0
VERTEX
 8
BASE3
 10
0
 20
0
 30
0
 70
128
 71
179
 72
180
 73
166
 74
167
 0
VERTEX
 8
BASE3
 10
0
 20
0
 30
0
 70
128
 71
167
 72
168
 73
178
 74
179
 0
VERTEX
 8
BASE3
 10
0
 20
0
 30
0
 70
128
 71
77
 72
76
 73
178
 74
168
 0
SEQEND
 0
POLYLINE
 8
MANOPOLA3
 66
1
 10
0.0
 20
0.0
 30
0.0
 70
64
 71
160
 72
166
 0
VERTEX
 8
MANOPOLA3
 10
17.3313
 20
-2.8021
 30
65.8166
 70
192
 0
VERTEX
 8
MANOPOLA3
 10
16.3761
 20
-2.8021
 30
61.6204
 70
192
 0
VERTEX
 8
MANOPOLA3
 10
16.0642
 20
-2.8021
 30
61.754
 70
192
 0
VERTEX
 8
MANOPOLA3
 10
16.3761
 20
-2.8021
 30
65.9002
 70
192
 0
VERTEX
 8
MANOPOLA3
 10
16.0642
 20
-2.8021
 30
64.0759
 70
192
 0
VERTEX
 8
MANOPOLA3
 10
16.3761
 20
-2.8021
 30
64.0759
 70
192
 0
VERTEX
 8
MANOPOLA3
 10
16.6977
 20
-2.8021
 30
61.5923
 70
192
 0
VERTEX
 8
MANOPOLA3
 10
17.0194
 20
-2.8021
 30
61.6204
 70
192
 0
VERTEX
 8
MANOPOLA3
 10
16.5964
 20
-4.4021
 30
65.2987
 70
192
 0
VERTEX
 8
MANOPOLA3
 10
16.5964
 20
-4.3321
 30
65.2987
 70
192
 0
VERTEX
 8
MANOPOLA3
 10
16.6031
 20
-4.4021
 30
65.2483
 70
192
 0
VERTEX
 8
MANOPOLA3
 10
16.6031
 20
-4.3321
 30
65.2483
 70
192
 0
VERTEX
 8
MANOPOLA3
 10
16.6977
 20
-4.4021
 30
65.2225
 70
192
 0
VERTEX
 8
MANOPOLA3
 10
16.6977
 20
-4.3321
 30
65.2224
 70
192
 0
VERTEX
 8
MANOPOLA3
 10
16.7923
 20
-4.4021
 30
65.2483
 70
192
 0
VERTEX
 8
MANOPOLA3
 10
16.7923
 20
-4.3321
 30
65.2483
 70
192
 0
VERTEX
 8
MANOPOLA3
 10
16.7974
 20
-4.4021
 30
65.6496
 70
192
 0
VERTEX
 8
MANOPOLA3
 10
16.7974
 20
-4.3321
 30
65.6495
 70
192
 0
VERTEX
 8
MANOPOLA3
 10
16.7923
 20
-4.4021
 30
65.7
 70
192
 0
VERTEX
 8
MANOPOLA3
 10
16.7923
 20
-4.3321
 30
65.6999
 70
192
 0
VERTEX
 8
MANOPOLA3
 10
16.6977
 20
-4.4021
 30
65.7258
 70
192
 0
VERTEX
 8
MANOPOLA3
 10
16.6977
 20
-4.3321
 30
65.7258
 70
192
 0
VERTEX
 8
MANOPOLA3
 10
16.6031
 20
-4.4021
 30
65.7
 70
192
 0
VERTEX
 8
MANOPOLA3
 10
16.6031
 20
-4.3321
 30
65.6999
 70
192
 0
VERTEX
 8
MANOPOLA3
 10
16.5964
 20
-4.4021
 30
65.6496
 70
192
 0
VERTEX
 8
MANOPOLA3
 10
16.5964
 20
-4.3321
 30
65.6495
 70
192
 0
VERTEX
 8
MANOPOLA3
 10
16.7974
 20
-4.4021
 30
65.2987
 70
192
 0
VERTEX
 8
MANOPOLA3
 10
16.7974
 20
-4.3321
 30
65.2987
 70
192
 0
VERTEX
 8
MANOPOLA3
 10
16.0642
 20
-4.3521
 30
61.754
 70
192
 0
VERTEX
 8
MANOPOLA3
 10
16.4066
 20
-4.3986
 30
65.8732
 70
192
 0
VERTEX
 8
MANOPOLA3
 10
16.1125
 20
-4.3521
 30
61.6911
 70
192
 0
VERTEX
 8
MANOPOLA3
 10
16.3762
 20
-4.3522
 30
61.6215
 70
192
 0
VERTEX
 8
MANOPOLA3
 10
16.6977
 20
-4.3522
 30
61.5937
 70
192
 0
VERTEX
 8
MANOPOLA3
 10
17.0192
 20
-4.3522
 30
61.6215
 70
192
 0
VERTEX
 8
MANOPOLA3
 10
17.283
 20
-4.3521
 30
61.6911
 70
192
 0
VERTEX
 8
MANOPOLA3
 10
17.283
 20
-2.8021
 30
61.6911
 70
192
 0
VERTEX
 8
MANOPOLA3
 10
16.1125
 20
-2.8021
 30
61.6911
 70
192
 0
VERTEX
 8
MANOPOLA3
 10
17.0194
 20
-4.3521
 30
65.9002
 70
192
 0
VERTEX
 8
MANOPOLA3
 10
17.3313
 20
-4.3521
 30
61.754
 70
192
 0
VERTEX
 8
MANOPOLA3
 10
17.3313
 20
-4.3521
 30
65.8166
 70
192
 0
VERTEX
 8
MANOPOLA3
 10
17.0194
 20
-2.8021
 30
65.9002
 70
192
 0
VERTEX
 8
MANOPOLA3
 10
16.6977
 20
-4.4021
 30
65.8781
 70
192
 0
VERTEX
 8
MANOPOLA3
 10
16.971
 20
-4.4021
 30
65.8575
 70
192
 0
VERTEX
 8
MANOPOLA3
 10
17.3313
 20
-3.0522
 30
65.8166
 70
192
 0
VERTEX
 8
MANOPOLA3
 10
16.6977
 20
-4.3521
 30
65.9283
 70
192
 0
VERTEX
 8
MANOPOLA3
 10
16.0642
 20
-4.3521
 30
65.8166
 70
192
 0
VERTEX
 8
MANOPOLA3
 10
16.0642
 20
-2.8021
 30
65.8166
 70
192
 0
VERTEX
 8
MANOPOLA3
 10
17.2813
 20
-4.4021
 30
61.7424
 70
192
 0
VERTEX
 8
MANOPOLA3
 10
17.0107
 20
-4.4021
 30
61.6699
 70
192
 0
VERTEX
 8
MANOPOLA3
 10
16.6977
 20
-4.4021
 30
61.6425
 70
192
 0
VERTEX
 8
MANOPOLA3
 10
16.3848
 20
-4.4021
 30
61.6699
 70
192
 0
VERTEX
 8
MANOPOLA3
 10
16.1142
 20
-4.4021
 30
61.7424
 70
192
 0
VERTEX
 8
MANOPOLA3
 10
16.1337
 20
-4.4021
 30
65.7948
 70
192
 0
VERTEX
 8
MANOPOLA3
 10
16.0642
 20
-3.1022
 30
61.754
 70
192
 0
VERTEX
 8
MANOPOLA3
 10
17.3313
 20
-2.8021
 30
61.754
 70
192
 0
VERTEX
 8
MANOPOLA3
 10
16.3761
 20
-4.3521
 30
65.9002
 70
192
 0
VERTEX
 8
MANOPOLA3
 10
16.0642
 20
-3.0522
 30
65.8166
 70
192
 0
VERTEX
 8
MANOPOLA3
 10
16.4245
 20
-4.4021
 30
65.8575
 70
192
 0
VERTEX
 8
MANOPOLA3
 10
17.2617
 20
-4.4021
 30
65.7949
 70
192
 0
VERTEX
 8
MANOPOLA3
 10
16.0837
 20
-4.3821
 30
61.719
 70
192
 0
VERTEX
 8
MANOPOLA3
 10
17.3118
 20
-4.3821
 30
61.719
 70
192
 0
VERTEX
 8
MANOPOLA3
 10
16.6977
 20
-4.3986
 30
65.8966
 70
192
 0
VERTEX
 8
MANOPOLA3
 10
16.6977
 20
-4.3875
 30
65.9136
 70
192
 0
VERTEX
 8
MANOPOLA3
 10
16.6977
 20
-4.3706
 30
65.9248
 70
192
 0
VERTEX
 8
MANOPOLA3
 10
16.0788
 20
-4.3875
 30
61.7506
 70
192
 0
VERTEX
 8
MANOPOLA3
 10
16.113
 20
-4.3875
 30
61.7061
 70
192
 0
VERTEX
 8
MANOPOLA3
 10
16.0776
 20
-4.3521
 30
61.7143
 70
192
 0
VERTEX
 8
MANOPOLA3
 10
16.0801
 20
-4.3861
 30
61.733
 70
192
 0
VERTEX
 8
MANOPOLA3
 10
16.095
 20
-4.3983
 30
61.7468
 70
192
 0
VERTEX
 8
MANOPOLA3
 10
16.1135
 20
-4.3983
 30
61.7227
 70
192
 0
VERTEX
 8
MANOPOLA3
 10
16.0963
 20
-4.3861
 30
61.7118
 70
192
 0
VERTEX
 8
MANOPOLA3
 10
16.1126
 20
-4.3713
 30
61.695
 70
192
 0
VERTEX
 8
MANOPOLA3
 10
16.0931
 20
-4.3521
 30
61.6998
 70
192
 0
VERTEX
 8
MANOPOLA3
 10
16.0792
 20
-4.3687
 30
61.7155
 70
192
 0
VERTEX
 8
MANOPOLA3
 10
16.0676
 20
-4.3521
 30
61.7331
 70
192
 0
VERTEX
 8
MANOPOLA3
 10
16.068
 20
-4.3713
 30
61.7531
 70
192
 0
VERTEX
 8
MANOPOLA3
 10
16.095
 20
-4.3947
 30
61.7277
 70
192
 0
VERTEX
 8
MANOPOLA3
 10
16.0939
 20
-4.3707
 30
61.7035
 70
192
 0
VERTEX
 8
MANOPOLA3
 10
16.0713
 20
-4.3707
 30
61.7329
 70
192
 0
VERTEX
 8
MANOPOLA3
 10
17.3264
 20
-4.3706
 30
65.8151
 70
192
 0
VERTEX
 8
MANOPOLA3
 10
17.3109
 20
-4.3875
 30
65.8102
 70
192
 0
VERTEX
 8
MANOPOLA3
 10
17.2873
 20
-4.3986
 30
65.8029
 70
192
 0
VERTEX
 8
MANOPOLA3
 10
17.016
 20
-4.3706
 30
65.8972
 70
192
 0
VERTEX
 8
MANOPOLA3
 10
17.0052
 20
-4.3875
 30
65.8877
 70
192
 0
VERTEX
 8
MANOPOLA3
 10
16.9888
 20
-4.3986
 30
65.8732
 70
192
 0
VERTEX
 8
MANOPOLA3
 10
16.3902
 20
-4.3875
 30
65.8877
 70
192
 0
VERTEX
 8
MANOPOLA3
 10
16.3795
 20
-4.3706
 30
65.8972
 70
192
 0
VERTEX
 8
MANOPOLA3
 10
16.6977
 20
-4.3321
 30
65.6999
 70
192
 0
VERTEX
 8
MANOPOLA3
 10
17.0187
 20
-4.3705
 30
61.6246
 70
192
 0
VERTEX
 8
MANOPOLA3
 10
17.0168
 20
-4.3874
 30
61.6353
 70
192
 0
VERTEX
 8
MANOPOLA3
 10
17.0139
 20
-4.3986
 30
61.6518
 70
192
 0
VERTEX
 8
MANOPOLA3
 10
16.0936
 20
-2.8021
 30
61.6995
 70
192
 0
VERTEX
 8
MANOPOLA3
 10
16.0776
 20
-2.8021
 30
61.7143
 70
192
 0
VERTEX
 8
MANOPOLA3
 10
16.0674
 20
-2.8021
 30
61.7336
 70
192
 0
VERTEX
 8
MANOPOLA3
 10
16.3768
 20
-4.3705
 30
61.6246
 70
192
 0
VERTEX
 8
MANOPOLA3
 10
16.3787
 20
-4.3874
 30
61.6353
 70
192
 0
VERTEX
 8
MANOPOLA3
 10
16.3816
 20
-4.3986
 30
61.6518
 70
192
 0
VERTEX
 8
MANOPOLA3
 10
16.6977
 20
-4.3704
 30
61.5967
 70
192
 0
VERTEX
 8
MANOPOLA3
 10
16.6977
 20
-4.3874
 30
61.6075
 70
192
 0
VERTEX
 8
MANOPOLA3
 10
16.6977
 20
-4.3986
 30
61.6242
 70
192
 0
VERTEX
 8
MANOPOLA3
 10
16.069
 20
-4.3706
 30
65.8151
 70
192
 0
VERTEX
 8
MANOPOLA3
 10
16.0845
 20
-4.3875
 30
65.8102
 70
192
 0
VERTEX
 8
MANOPOLA3
 10
16.1081
 20
-4.3986
 30
65.8028
 70
192
 0
VERTEX
 8
MANOPOLA3
 10
17.2825
 20
-4.3875
 30
61.7061
 70
192
 0
VERTEX
 8
MANOPOLA3
 10
17.3166
 20
-4.3875
 30
61.7506
 70
192
 0
VERTEX
 8
MANOPOLA3
 10
17.3178
 20
-4.3521
 30
61.7143
 70
192
 0
VERTEX
 8
MANOPOLA3
 10
17.2992
 20
-4.3861
 30
61.7118
 70
192
 0
VERTEX
 8
MANOPOLA3
 10
17.2819
 20
-4.3983
 30
61.7227
 70
192
 0
VERTEX
 8
MANOPOLA3
 10
17.3004
 20
-4.3983
 30
61.7468
 70
192
 0
VERTEX
 8
MANOPOLA3
 10
17.3154
 20
-4.3861
 30
61.733
 70
192
 0
VERTEX
 8
MANOPOLA3
 10
17.3275
 20
-4.3713
 30
61.7531
 70
192
 0
VERTEX
 8
MANOPOLA3
 10
17.3278
 20
-4.3521
 30
61.7331
 70
192
 0
VERTEX
 8
MANOPOLA3
 10
17.3163
 20
-4.3687
 30
61.7155
 70
192
 0
VERTEX
 8
MANOPOLA3
 10
17.3023
 20
-4.3521
 30
61.6998
 70
192
 0
VERTEX
 8
MANOPOLA3
 10
17.2829
 20
-4.3713
 30
61.695
 70
192
 0
VERTEX
 8
MANOPOLA3
 10
17.3004
 20
-4.3947
 30
61.7277
 70
192
 0
VERTEX
 8
MANOPOLA3
 10
17.3241
 20
-4.3707
 30
61.7329
 70
192
 0
VERTEX
 8
MANOPOLA3
 10
17.3015
 20
-4.3707
 30
61.7035
 70
192
 0
VERTEX
 8
MANOPOLA3
 10
17.3018
 20
-2.8021
 30
61.6995
 70
192
 0
VERTEX
 8
MANOPOLA3
 10
17.3178
 20
-2.8021
 30
61.7143
 70
192
 0
VERTEX
 8
MANOPOLA3
 10
17.328
 20
-2.8021
 30
61.7336
 70
192
 0
VERTEX
 8
MANOPOLA3
 10
17.3313
 20
-3.1022
 30
61.754
 70
192
 0
VERTEX
 8
MANOPOLA3
 10
17.328
 20
-3.1022
 30
61.7335
 70
192
 0
VERTEX
 8
MANOPOLA3
 10
17.3178
 20
-3.1022
 30
61.7143
 70
192
 0
VERTEX
 8
MANOPOLA3
 10
17.283
 20
-3.1022
 30
61.6911
 70
192
 0
VERTEX
 8
MANOPOLA3
 10
17.3019
 20
-3.1022
 30
61.6996
 70
192
 0
VERTEX
 8
MANOPOLA3
 10
17.0194
 20
-3.1022
 30
61.6206
 70
192
 0
VERTEX
 8
MANOPOLA3
 10
16.6977
 20
-3.1022
 30
61.5926
 70
192
 0
VERTEX
 8
MANOPOLA3
 10
16.0642
 20
-3.0737
 30
64.0759
 70
192
 0
VERTEX
 8
MANOPOLA3
 10
16.1125
 20
-3.1022
 30
61.6911
 70
192
 0
VERTEX
 8
MANOPOLA3
 10
16.3761
 20
-3.1022
 30
61.6206
 70
192
 0
VERTEX
 8
MANOPOLA3
 10
16.0675
 20
-3.1022
 30
61.7335
 70
192
 0
VERTEX
 8
MANOPOLA3
 10
16.6977
 20
-4.3321
 30
65.2987
 70
192
 0
VERTEX
 8
MANOPOLA3
 10
16.0776
 20
-3.1022
 30
61.7143
 70
192
 0
VERTEX
 8
MANOPOLA3
 10
16.0935
 20
-3.1022
 30
61.6996
 70
192
 0
VERTEX
 8
MANOPOLA3
 10
16.8638
 20
-4.4021
 30
64.0759
 70
192
 0
VERTEX
 8
MANOPOLA3
 10
16.6977
 20
-4.4021
 30
64.0759
 70
192
 0
VERTEX
 8
MANOPOLA3
 10
17.27
 20
-4.4021
 30
64.0759
 70
192
 0
VERTEX
 8
MANOPOLA3
 10
16.9638
 20
-4.4021
 30
64.0759
 70
192
 0
VERTEX
 8
MANOPOLA3
 10
16.5316
 20
-4.4021
 30
64.0759
 70
192
 0
VERTEX
 8
MANOPOLA3
 10
16.4306
 20
-4.4021
 30
64.0759
 70
192
 0
VERTEX
 8
MANOPOLA3
 10
16.1254
 20
-4.4021
 30
64.0759
 70
192
 0
VERTEX
 8
MANOPOLA3
 10
17.2929
 20
-4.3985
 30
64.0759
 70
192
 0
VERTEX
 8
MANOPOLA3
 10
16.1025
 20
-4.3985
 30
64.0759
 70
192
 0
VERTEX
 8
MANOPOLA3
 10
17.3134
 20
-4.3875
 30
64.0759
 70
192
 0
VERTEX
 8
MANOPOLA3
 10
17.3269
 20
-4.3709
 30
64.0759
 70
192
 0
VERTEX
 8
MANOPOLA3
 10
17.3313
 20
-4.3521
 30
64.0759
 70
192
 0
VERTEX
 8
MANOPOLA3
 10
16.0821
 20
-4.3875
 30
64.0759
 70
192
 0
VERTEX
 8
MANOPOLA3
 10
16.0686
 20
-4.3709
 30
64.0759
 70
192
 0
VERTEX
 8
MANOPOLA3
 10
16.0642
 20
-4.3521
 30
64.0759
 70
192
 0
VERTEX
 8
MANOPOLA3
 10
16.6977
 20
-3.0522
 30
65.9283
 70
192
 0
VERTEX
 8
MANOPOLA3
 10
17.0194
 20
-3.0522
 30
65.9002
 70
192
 0
VERTEX
 8
MANOPOLA3
 10
16.3761
 20
-3.0522
 30
65.9002
 70
192
 0
VERTEX
 8
MANOPOLA3
 10
16.6977
 20
-2.8021
 30
65.9283
 70
192
 0
VERTEX
 8
MANOPOLA3
 10
16.6977
 20
-2.8021
 30
64.0759
 70
192
 0
VERTEX
 8
MANOPOLA3
 10
17.0194
 20
-2.8021
 30
64.0759
 70
192
 0
VERTEX
 8
MANOPOLA3
 10
17.3313
 20
-2.8021
 30
64.0759
 70
192
 0
VERTEX
 8
MANOPOLA3
 10
16.6977
 20
-4.3321
 30
65.6495
 70
192
 0
VERTEX
 8
MANOPOLA3
 10
17.3313
 20
-3.0737
 30
64.0759
 70
192
 0
VERTEX
 8
MANOPOLA3
 10
16.6977
 20
-4.3321
 30
65.2483
 70
192
 0
VERTEX
 8
MANOPOLA3
 10
0
 20
0
 30
0
 70
128
 71
61
 72
107
 73
116
 74
110
 0
VERTEX
 8
MANOPOLA3
 10
0
 20
0
 30
0
 70
128
 71
60
 72
71
 73
78
 74
74
 0
VERTEX
 8
MANOPOLA3
 10
0
 20
0
 30
0
 70
128
 71
122
 72
39
 73
147
 74
159
 0
VERTEX
 8
MANOPOLA3
 10
0
 20
0
 30
0
 70
128
 71
60
 72
74
 73
79
 74
68
 0
VERTEX
 8
MANOPOLA3
 10
0
 20
0
 30
0
 70
128
 71
68
 72
65
 73
69
 74
77
 0
VERTEX
 8
MANOPOLA3
 10
0
 20
0
 30
0
 70
128
 71
53
 72
103
 73
30
 74
58
 0
VERTEX
 8
MANOPOLA3
 10
0
 20
0
 30
0
 70
128
 71
77
 72
70
 73
66
 74
71
 0
VERTEX
 8
MANOPOLA3
 10
0
 20
0
 30
0
 70
128
 71
69
 72
52
 73
70
 74
77
 0
VERTEX
 8
MANOPOLA3
 10
0
 20
0
 30
0
 70
128
 71
157
 72
55
 73
122
 74
159
 0
VERTEX
 8
MANOPOLA3
 10
0
 20
0
 30
0
 70
128
 71
71
 72
66
 73
72
 74
78
 0
VERTEX
 8
MANOPOLA3
 10
0
 20
0
 30
0
 70
128
 71
78
 72
73
 73
67
 74
74
 0
VERTEX
 8
MANOPOLA3
 10
0
 20
0
 30
0
 70
128
 71
33
 72
34
 73
127
 74
128
 0
VERTEX
 8
MANOPOLA3
 10
0
 20
0
 30
0
 70
128
 71
72
 72
31
 73
73
 74
78
 0
VERTEX
 8
MANOPOLA3
 10
0
 20
0
 30
0
 70
128
 71
74
 72
67
 73
75
 74
79
 0
VERTEX
 8
MANOPOLA3
 10
0
 20
0
 30
0
 70
128
 71
79
 72
76
 73
65
 74
68
 0
VERTEX
 8
MANOPOLA3
 10
0
 20
0
 30
0
 70
128
 71
75
 72
29
 73
76
 74
79
 0
VERTEX
 8
MANOPOLA3
 10
0
 20
0
 30
0
 70
128
 71
61
 72
110
 73
117
 74
113
 0
VERTEX
 8
MANOPOLA3
 10
0
 20
0
 30
0
 70
128
 71
135
 72
92
 73
93
 74
134
 0
VERTEX
 8
MANOPOLA3
 10
0
 20
0
 30
0
 70
128
 71
33
 72
98
 73
89
 74
34
 0
VERTEX
 8
MANOPOLA3
 10
0
 20
0
 30
0
 70
128
 71
61
 72
113
 73
118
 74
107
 0
VERTEX
 8
MANOPOLA3
 10
0
 20
0
 30
0
 70
128
 71
62
 72
63
 73
84
 74
85
 0
VERTEX
 8
MANOPOLA3
 10
0
 20
0
 30
0
 70
128
 71
60
 72
68
 73
77
 74
71
 0
VERTEX
 8
MANOPOLA3
 10
0
 20
0
 30
0
 70
128
 71
151
 72
154
 73
41
 74
152
 0
VERTEX
 8
MANOPOLA3
 10
0
 20
0
 30
0
 70
128
 71
155
 72
154
 73
4
 74
6
 0
VERTEX
 8
MANOPOLA3
 10
0
 20
0
 30
0
 70
128
 71
107
 72
104
 73
108
 74
116
 0
VERTEX
 8
MANOPOLA3
 10
0
 20
0
 30
0
 70
128
 71
38
 72
45
 73
151
 74
152
 0
VERTEX
 8
MANOPOLA3
 10
0
 20
0
 30
0
 70
128
 71
63
 72
64
 73
83
 74
84
 0
VERTEX
 8
MANOPOLA3
 10
0
 20
0
 30
0
 70
128
 71
116
 72
109
 73
105
 74
110
 0
VERTEX
 8
MANOPOLA3
 10
0
 20
0
 30
0
 70
128
 71
149
 72
101
 73
102
 74
148
 0
VERTEX
 8
MANOPOLA3
 10
0
 20
0
 30
0
 70
128
 71
64
 72
45
 73
38
 74
83
 0
VERTEX
 8
MANOPOLA3
 10
0
 20
0
 30
0
 70
128
 71
43
 72
85
 73
82
 74
59
 0
VERTEX
 8
MANOPOLA3
 10
0
 20
0
 30
0
 70
128
 71
57
 72
47
 73
4
 74
153
 0
VERTEX
 8
MANOPOLA3
 10
0
 20
0
 30
0
 70
128
 71
34
 72
35
 73
125
 74
127
 0
VERTEX
 8
MANOPOLA3
 10
0
 20
0
 30
0
 70
128
 71
86
 72
87
 73
64
 74
63
 0
VERTEX
 8
MANOPOLA3
 10
0
 20
0
 30
0
 70
128
 71
147
 72
40
 73
44
 74
159
 0
VERTEX
 8
MANOPOLA3
 10
0
 20
0
 30
0
 70
128
 71
58
 72
30
 73
62
 74
42
 0
VERTEX
 8
MANOPOLA3
 10
0
 20
0
 30
0
 70
128
 71
1
 72
41
 73
156
 74
157
 0
VERTEX
 8
MANOPOLA3
 10
0
 20
0
 30
0
 70
128
 71
114
 72
106
 73
124
 74
126
 0
VERTEX
 8
MANOPOLA3
 10
0
 20
0
 30
0
 70
128
 71
130
 72
37
 73
92
 74
135
 0
VERTEX
 8
MANOPOLA3
 10
0
 20
0
 30
0
 70
128
 71
119
 72
36
 73
125
 74
126
 0
VERTEX
 8
MANOPOLA3
 10
0
 20
0
 30
0
 70
128
 71
140
 72
51
 73
52
 74
141
 0
VERTEX
 8
MANOPOLA3
 10
0
 20
0
 30
0
 70
128
 71
142
 72
9
 73
141
 74
141
 0
VERTEX
 8
MANOPOLA3
 10
0
 20
0
 30
0
 70
128
 71
142
 72
53
 73
25
 74
9
 0
VERTEX
 8
MANOPOLA3
 10
0
 20
0
 30
0
 70
128
 71
30
 72
86
 73
63
 74
62
 0
VERTEX
 8
MANOPOLA3
 10
0
 20
0
 30
0
 70
128
 71
129
 72
150
 73
29
 74
54
 0
VERTEX
 8
MANOPOLA3
 10
0
 20
0
 30
0
 70
128
 71
82
 72
81
 73
145
 74
143
 0
VERTEX
 8
MANOPOLA3
 10
0
 20
0
 30
0
 70
128
 71
108
 72
48
 73
109
 74
116
 0
VERTEX
 8
MANOPOLA3
 10
0
 20
0
 30
0
 70
128
 71
156
 72
41
 73
154
 74
155
 0
VERTEX
 8
MANOPOLA3
 10
0
 20
0
 30
0
 70
128
 71
81
 72
80
 73
146
 74
145
 0
VERTEX
 8
MANOPOLA3
 10
0
 20
0
 30
0
 70
128
 71
80
 72
40
 73
147
 74
146
 0
VERTEX
 8
MANOPOLA3
 10
0
 20
0
 30
0
 70
128
 71
4
 72
47
 73
5
 74
6
 0
VERTEX
 8
MANOPOLA3
 10
0
 20
0
 30
0
 70
128
 71
69
 72
65
 73
148
 74
144
 0
VERTEX
 8
MANOPOLA3
 10
0
 20
0
 30
0
 70
128
 71
110
 72
105
 73
111
 74
117
 0
VERTEX
 8
MANOPOLA3
 10
0
 20
0
 30
0
 70
128
 71
65
 72
76
 73
149
 74
148
 0
VERTEX
 8
MANOPOLA3
 10
0
 20
0
 30
0
 70
128
 71
76
 72
29
 73
150
 74
149
 0
VERTEX
 8
MANOPOLA3
 10
0
 20
0
 30
0
 70
128
 71
72
 72
66
 73
96
 74
95
 0
VERTEX
 8
MANOPOLA3
 10
0
 20
0
 30
0
 70
128
 71
155
 72
7
 73
8
 74
156
 0
VERTEX
 8
MANOPOLA3
 10
0
 20
0
 30
0
 70
128
 71
66
 72
70
 73
97
 74
96
 0
VERTEX
 8
MANOPOLA3
 10
0
 20
0
 30
0
 70
128
 71
117
 72
112
 73
106
 74
113
 0
VERTEX
 8
MANOPOLA3
 10
0
 20
0
 30
0
 70
128
 71
150
 72
46
 73
101
 74
149
 0
VERTEX
 8
MANOPOLA3
 10
0
 20
0
 30
0
 70
128
 71
70
 72
52
 73
51
 74
97
 0
VERTEX
 8
MANOPOLA3
 10
0
 20
0
 30
0
 70
128
 71
95
 72
96
 73
99
 74
98
 0
VERTEX
 8
MANOPOLA3
 10
0
 20
0
 30
0
 70
128
 71
96
 72
97
 73
100
 74
99
 0
VERTEX
 8
MANOPOLA3
 10
0
 20
0
 30
0
 70
128
 71
97
 72
51
 73
50
 74
100
 0
VERTEX
 8
MANOPOLA3
 10
0
 20
0
 30
0
 70
128
 71
111
 72
39
 73
112
 74
117
 0
VERTEX
 8
MANOPOLA3
 10
0
 20
0
 30
0
 70
128
 71
44
 72
40
 73
38
 74
152
 0
VERTEX
 8
MANOPOLA3
 10
0
 20
0
 30
0
 70
128
 71
89
 72
90
 73
104
 74
115
 0
VERTEX
 8
MANOPOLA3
 10
0
 20
0
 30
0
 70
128
 71
90
 72
91
 73
108
 74
104
 0
VERTEX
 8
MANOPOLA3
 10
0
 20
0
 30
0
 70
128
 71
59
 72
82
 73
143
 74
138
 0
VERTEX
 8
MANOPOLA3
 10
0
 20
0
 30
0
 70
128
 71
91
 72
49
 73
48
 74
108
 0
VERTEX
 8
MANOPOLA3
 10
0
 20
0
 30
0
 70
128
 71
113
 72
106
 73
114
 74
118
 0
VERTEX
 8
MANOPOLA3
 10
0
 20
0
 30
0
 70
128
 71
87
 72
56
 73
45
 74
64
 0
VERTEX
 8
MANOPOLA3
 10
0
 20
0
 30
0
 70
128
 71
2
 72
3
 73
94
 74
94
 0
VERTEX
 8
MANOPOLA3
 10
0
 20
0
 30
0
 70
128
 71
153
 72
4
 73
154
 74
151
 0
VERTEX
 8
MANOPOLA3
 10
0
 20
0
 30
0
 70
128
 71
16
 72
14
 73
160
 74
160
 0
VERTEX
 8
MANOPOLA3
 10
0
 20
0
 30
0
 70
128
 71
32
 72
33
 73
128
 74
131
 0
VERTEX
 8
MANOPOLA3
 10
0
 20
0
 30
0
 70
128
 71
143
 72
109
 73
48
 74
138
 0
VERTEX
 8
MANOPOLA3
 10
0
 20
0
 30
0
 70
128
 71
85
 72
84
 73
81
 74
82
 0
VERTEX
 8
MANOPOLA3
 10
0
 20
0
 30
0
 70
128
 71
84
 72
83
 73
80
 74
81
 0
VERTEX
 8
MANOPOLA3
 10
0
 20
0
 30
0
 70
128
 71
29
 72
75
 73
132
 74
54
 0
VERTEX
 8
MANOPOLA3
 10
0
 20
0
 30
0
 70
128
 71
160
 72
133
 73
28
 74
16
 0
VERTEX
 8
MANOPOLA3
 10
0
 20
0
 30
0
 70
128
 71
3
 72
5
 73
129
 74
54
 0
VERTEX
 8
MANOPOLA3
 10
0
 20
0
 30
0
 70
128
 71
144
 72
103
 73
53
 74
142
 0
VERTEX
 8
MANOPOLA3
 10
0
 20
0
 30
0
 70
128
 71
10
 72
26
 73
158
 74
133
 0
VERTEX
 8
MANOPOLA3
 10
0
 20
0
 30
0
 70
128
 71
75
 72
67
 73
134
 74
132
 0
VERTEX
 8
MANOPOLA3
 10
0
 20
0
 30
0
 70
128
 71
67
 72
73
 73
135
 74
134
 0
VERTEX
 8
MANOPOLA3
 10
0
 20
0
 30
0
 70
128
 71
13
 72
14
 73
16
 74
15
 0
VERTEX
 8
MANOPOLA3
 10
0
 20
0
 30
0
 70
128
 71
25
 72
26
 73
10
 74
9
 0
VERTEX
 8
MANOPOLA3
 10
0
 20
0
 30
0
 70
128
 71
73
 72
31
 73
130
 74
135
 0
VERTEX
 8
MANOPOLA3
 10
0
 20
0
 30
0
 70
128
 71
8
 72
36
 73
119
 74
119
 0
VERTEX
 8
MANOPOLA3
 10
0
 20
0
 30
0
 70
128
 71
57
 72
46
 73
150
 74
129
 0
VERTEX
 8
MANOPOLA3
 10
0
 20
0
 30
0
 70
128
 71
125
 72
35
 73
114
 74
126
 0
VERTEX
 8
MANOPOLA3
 10
0
 20
0
 30
0
 70
128
 71
52
 72
69
 73
144
 74
142
 0
VERTEX
 8
MANOPOLA3
 10
0
 20
0
 30
0
 70
128
 71
103
 72
102
 73
86
 74
30
 0
VERTEX
 8
MANOPOLA3
 10
0
 20
0
 30
0
 70
128
 71
102
 72
101
 73
87
 74
86
 0
VERTEX
 8
MANOPOLA3
 10
0
 20
0
 30
0
 70
128
 71
101
 72
46
 73
56
 74
87
 0
VERTEX
 8
MANOPOLA3
 10
0
 20
0
 30
0
 70
128
 71
83
 72
38
 73
40
 74
80
 0
VERTEX
 8
MANOPOLA3
 10
0
 20
0
 30
0
 70
128
 71
145
 72
105
 73
109
 74
143
 0
VERTEX
 8
MANOPOLA3
 10
0
 20
0
 30
0
 70
128
 71
134
 72
93
 73
94
 74
132
 0
VERTEX
 8
MANOPOLA3
 10
0
 20
0
 30
0
 70
128
 71
5
 72
47
 73
57
 74
129
 0
VERTEX
 8
MANOPOLA3
 10
0
 20
0
 30
0
 70
128
 71
45
 72
56
 73
153
 74
151
 0
VERTEX
 8
MANOPOLA3
 10
0
 20
0
 30
0
 70
128
 71
153
 72
56
 73
46
 74
57
 0
VERTEX
 8
MANOPOLA3
 10
0
 20
0
 30
0
 70
128
 71
127
 72
8
 73
7
 74
128
 0
VERTEX
 8
MANOPOLA3
 10
0
 20
0
 30
0
 70
128
 71
125
 72
36
 73
8
 74
127
 0
VERTEX
 8
MANOPOLA3
 10
0
 20
0
 30
0
 70
128
 71
112
 72
39
 73
122
 74
123
 0
VERTEX
 8
MANOPOLA3
 10
0
 20
0
 30
0
 70
128
 71
106
 72
112
 73
123
 74
124
 0
VERTEX
 8
MANOPOLA3
 10
0
 20
0
 30
0
 70
128
 71
98
 72
99
 73
90
 74
89
 0
VERTEX
 8
MANOPOLA3
 10
0
 20
0
 30
0
 70
128
 71
2
 72
7
 73
155
 74
6
 0
VERTEX
 8
MANOPOLA3
 10
0
 20
0
 30
0
 70
128
 71
93
 72
92
 73
2
 74
2
 0
VERTEX
 8
MANOPOLA3
 10
0
 20
0
 30
0
 70
128
 71
139
 72
27
 73
138
 74
138
 0
VERTEX
 8
MANOPOLA3
 10
0
 20
0
 30
0
 70
128
 71
27
 72
17
 73
59
 74
138
 0
VERTEX
 8
MANOPOLA3
 10
0
 20
0
 30
0
 70
128
 71
139
 72
48
 73
49
 74
136
 0
VERTEX
 8
MANOPOLA3
 10
0
 20
0
 30
0
 70
128
 71
34
 72
89
 73
115
 74
35
 0
VERTEX
 8
MANOPOLA3
 10
0
 20
0
 30
0
 70
128
 71
141
 72
52
 73
142
 74
142
 0
VERTEX
 8
MANOPOLA3
 10
0
 20
0
 30
0
 70
128
 71
13
 72
15
 73
136
 74
137
 0
VERTEX
 8
MANOPOLA3
 10
0
 20
0
 30
0
 70
128
 71
20
 72
18
 73
158
 74
88
 0
VERTEX
 8
MANOPOLA3
 10
0
 20
0
 30
0
 70
128
 71
9
 72
10
 73
12
 74
11
 0
VERTEX
 8
MANOPOLA3
 10
0
 20
0
 30
0
 70
128
 71
58
 72
23
 73
25
 74
53
 0
VERTEX
 8
MANOPOLA3
 10
0
 20
0
 30
0
 70
128
 71
138
 72
48
 73
139
 74
139
 0
VERTEX
 8
MANOPOLA3
 10
0
 20
0
 30
0
 70
128
 71
11
 72
12
 73
14
 74
13
 0
VERTEX
 8
MANOPOLA3
 10
0
 20
0
 30
0
 70
128
 71
12
 72
10
 73
133
 74
160
 0
VERTEX
 8
MANOPOLA3
 10
0
 20
0
 30
0
 70
128
 71
15
 72
27
 73
139
 74
136
 0
VERTEX
 8
MANOPOLA3
 10
0
 20
0
 30
0
 70
128
 71
50
 72
51
 73
140
 74
137
 0
VERTEX
 8
MANOPOLA3
 10
0
 20
0
 30
0
 70
128
 71
15
 72
16
 73
28
 74
27
 0
VERTEX
 8
MANOPOLA3
 10
0
 20
0
 30
0
 70
128
 71
27
 72
28
 73
18
 74
17
 0
VERTEX
 8
MANOPOLA3
 10
0
 20
0
 30
0
 70
128
 71
9
 72
11
 73
140
 74
141
 0
VERTEX
 8
MANOPOLA3
 10
0
 20
0
 30
0
 70
128
 71
59
 72
17
 73
19
 74
43
 0
VERTEX
 8
MANOPOLA3
 10
0
 20
0
 30
0
 70
128
 71
17
 72
18
 73
20
 74
19
 0
VERTEX
 8
MANOPOLA3
 10
0
 20
0
 30
0
 70
128
 71
19
 72
20
 73
22
 74
21
 0
VERTEX
 8
MANOPOLA3
 10
0
 20
0
 30
0
 70
128
 71
43
 72
19
 73
21
 74
42
 0
VERTEX
 8
MANOPOLA3
 10
0
 20
0
 30
0
 70
128
 71
42
 72
21
 73
23
 74
58
 0
VERTEX
 8
MANOPOLA3
 10
0
 20
0
 30
0
 70
128
 71
21
 72
22
 73
24
 74
23
 0
VERTEX
 8
MANOPOLA3
 10
0
 20
0
 30
0
 70
128
 71
23
 72
24
 73
26
 74
25
 0
VERTEX
 8
MANOPOLA3
 10
0
 20
0
 30
0
 70
128
 71
24
 72
22
 73
88
 74
88
 0
VERTEX
 8
MANOPOLA3
 10
0
 20
0
 30
0
 70
128
 71
99
 72
100
 73
91
 74
90
 0
VERTEX
 8
MANOPOLA3
 10
0
 20
0
 30
0
 70
128
 71
100
 72
50
 73
49
 74
91
 0
VERTEX
 8
MANOPOLA3
 10
0
 20
0
 30
0
 70
128
 71
136
 72
49
 73
50
 74
137
 0
VERTEX
 8
MANOPOLA3
 10
0
 20
0
 30
0
 70
128
 71
92
 72
37
 73
2
 74
2
 0
VERTEX
 8
MANOPOLA3
 10
0
 20
0
 30
0
 70
128
 71
130
 72
31
 73
32
 74
131
 0
VERTEX
 8
MANOPOLA3
 10
0
 20
0
 30
0
 70
128
 71
140
 72
11
 73
13
 74
137
 0
VERTEX
 8
MANOPOLA3
 10
0
 20
0
 30
0
 70
128
 71
31
 72
72
 73
95
 74
32
 0
VERTEX
 8
MANOPOLA3
 10
0
 20
0
 30
0
 70
128
 71
32
 72
95
 73
98
 74
33
 0
VERTEX
 8
MANOPOLA3
 10
0
 20
0
 30
0
 70
128
 71
146
 72
111
 73
105
 74
145
 0
VERTEX
 8
MANOPOLA3
 10
0
 20
0
 30
0
 70
128
 71
147
 72
39
 73
111
 74
146
 0
VERTEX
 8
MANOPOLA3
 10
0
 20
0
 30
0
 70
128
 71
44
 72
152
 73
41
 74
1
 0
VERTEX
 8
MANOPOLA3
 10
0
 20
0
 30
0
 70
128
 71
42
 72
62
 73
85
 74
43
 0
VERTEX
 8
MANOPOLA3
 10
0
 20
0
 30
0
 70
128
 71
124
 72
120
 73
119
 74
126
 0
VERTEX
 8
MANOPOLA3
 10
0
 20
0
 30
0
 70
128
 71
131
 72
2
 73
37
 74
130
 0
VERTEX
 8
MANOPOLA3
 10
0
 20
0
 30
0
 70
128
 71
118
 72
115
 73
104
 74
107
 0
VERTEX
 8
MANOPOLA3
 10
0
 20
0
 30
0
 70
128
 71
114
 72
35
 73
115
 74
118
 0
VERTEX
 8
MANOPOLA3
 10
0
 20
0
 30
0
 70
128
 71
148
 72
102
 73
103
 74
144
 0
VERTEX
 8
MANOPOLA3
 10
0
 20
0
 30
0
 70
128
 71
128
 72
7
 73
2
 74
131
 0
VERTEX
 8
MANOPOLA3
 10
0
 20
0
 30
0
 70
128
 71
132
 72
94
 73
3
 74
54
 0
VERTEX
 8
MANOPOLA3
 10
0
 20
0
 30
0
 70
128
 71
2
 72
94
 73
93
 74
93
 0
VERTEX
 8
MANOPOLA3
 10
0
 20
0
 30
0
 70
128
 71
2
 72
6
 73
5
 74
3
 0
VERTEX
 8
MANOPOLA3
 10
0
 20
0
 30
0
 70
128
 71
14
 72
12
 73
160
 74
160
 0
VERTEX
 8
MANOPOLA3
 10
0
 20
0
 30
0
 70
128
 71
157
 72
156
 73
8
 74
55
 0
VERTEX
 8
MANOPOLA3
 10
0
 20
0
 30
0
 70
128
 71
18
 72
28
 73
133
 74
158
 0
VERTEX
 8
MANOPOLA3
 10
0
 20
0
 30
0
 70
128
 71
8
 72
121
 73
55
 74
55
 0
VERTEX
 8
MANOPOLA3
 10
0
 20
0
 30
0
 70
128
 71
22
 72
20
 73
88
 74
88
 0
VERTEX
 8
MANOPOLA3
 10
0
 20
0
 30
0
 70
128
 71
88
 72
158
 73
26
 74
24
 0
VERTEX
 8
MANOPOLA3
 10
0
 20
0
 30
0
 70
128
 71
8
 72
120
 73
121
 74
121
 0
VERTEX
 8
MANOPOLA3
 10
0
 20
0
 30
0
 70
128
 71
8
 72
119
 73
120
 74
120
 0
VERTEX
 8
MANOPOLA3
 10
0
 20
0
 30
0
 70
128
 71
55
 72
121
 73
123
 74
122
 0
VERTEX
 8
MANOPOLA3
 10
0
 20
0
 30
0
 70
128
 71
121
 72
120
 73
124
 74
123
 0
VERTEX
 8
MANOPOLA3
 10
0
 20
0
 30
0
 70
128
 71
44
 72
1
 73
157
 74
159
 0
SEQEND
 0
POLYLINE
 8
DIETRO
 66
1
 10
0.0
 20
0.0
 30
0.0
 70
64
 71
36
 72
6
 0
VERTEX
 8
DIETRO
 10
-37.5
 20
-1.4119
 30
1.2672
 70
192
 0
VERTEX
 8
DIETRO
 10
-37.5
 20
-1.4119
 30
1.6726
 70
192
 0
VERTEX
 8
DIETRO
 10
-37.5
 20
-1.4119
 30
68.5883
 70
192
 0
VERTEX
 8
DIETRO
 10
-37.5
 20
-1.4119
 30
70.4502
 70
192
 0
VERTEX
 8
DIETRO
 10
-34
 20
-1.4119
 30
1.2672
 70
192
 0
VERTEX
 8
DIETRO
 10
-34
 20
-1.4119
 30
1.6726
 70
192
 0
VERTEX
 8
DIETRO
 10
-34
 20
-1.4119
 30
68.5883
 70
192
 0
VERTEX
 8
DIETRO
 10
-34
 20
-1.4119
 30
70.4502
 70
192
 0
VERTEX
 8
DIETRO
 10
34
 20
-1.4119
 30
1.2672
 70
192
 0
VERTEX
 8
DIETRO
 10
34
 20
-1.4119
 30
1.6726
 70
192
 0
VERTEX
 8
DIETRO
 10
34
 20
-1.4119
 30
68.5883
 70
192
 0
VERTEX
 8
DIETRO
 10
34
 20
-1.4119
 30
70.4502
 70
192
 0
VERTEX
 8
DIETRO
 10
37.5
 20
-1.4119
 30
1.2672
 70
192
 0
VERTEX
 8
DIETRO
 10
37.5
 20
-1.4119
 30
1.6726
 70
192
 0
VERTEX
 8
DIETRO
 10
37.5
 20
-1.4119
 30
68.5883
 70
192
 0
VERTEX
 8
DIETRO
 10
37.5
 20
-1.4119
 30
70.4502
 70
192
 0
VERTEX
 8
DIETRO
 10
37.5
 20
0.1881
 30
1.2672
 70
192
 0
VERTEX
 8
DIETRO
 10
37.5
 20
0.1881
 30
1.6726
 70
192
 0
VERTEX
 8
DIETRO
 10
37.5
 20
0.1881
 30
68.5883
 70
192
 0
VERTEX
 8
DIETRO
 10
37.5
 20
0.1881
 30
70.4502
 70
192
 0
VERTEX
 8
DIETRO
 10
34
 20
0.1881
 30
1.2672
 70
192
 0
VERTEX
 8
DIETRO
 10
34
 20
0.1881
 30
1.6726
 70
192
 0
VERTEX
 8
DIETRO
 10
34
 20
0.1881
 30
68.5883
 70
192
 0
VERTEX
 8
DIETRO
 10
34
 20
0.1881
 30
70.4502
 70
192
 0
VERTEX
 8
DIETRO
 10
-34
 20
0.1881
 30
1.2672
 70
192
 0
VERTEX
 8
DIETRO
 10
-34
 20
0.1881
 30
1.6726
 70
192
 0
VERTEX
 8
DIETRO
 10
-34
 20
0.1881
 30
68.5883
 70
192
 0
VERTEX
 8
DIETRO
 10
-34
 20
0.1881
 30
70.4502
 70
192
 0
VERTEX
 8
DIETRO
 10
-37.5
 20
0.1881
 30
1.2672
 70
192
 0
VERTEX
 8
DIETRO
 10
-37.5
 20
0.1881
 30
1.6726
 70
192
 0
VERTEX
 8
DIETRO
 10
-37.5
 20
0.1881
 30
68.5883
 70
192
 0
VERTEX
 8
DIETRO
 10
-37.5
 20
0.1881
 30
70.4502
 70
192
 0
VERTEX
 8
DIETRO
 10
34
 20
51.0137
 30
1.6726
 70
192
 0
VERTEX
 8
DIETRO
 10
34
 20
51.0137
 30
68.5883
 70
192
 0
VERTEX
 8
DIETRO
 10
-34
 20
51.0137
 30
1.6726
 70
192
 0
VERTEX
 8
DIETRO
 10
-34
 20
51.0137
 30
68.5883
 70
192
 0
VERTEX
 8
DIETRO
 10
0
 20
0
 30
0
 70
128
 71
33
 72
34
 73
36
 74
35
 0
VERTEX
 8
DIETRO
 10
0
 20
0
 30
0
 70
128
 71
22
 72
33
 73
35
 74
26
 0
VERTEX
 8
DIETRO
 10
0
 20
0
 30
0
 70
128
 71
26
 72
35
 73
36
 74
27
 0
VERTEX
 8
DIETRO
 10
0
 20
0
 30
0
 70
128
 71
27
 72
36
 73
34
 74
23
 0
VERTEX
 8
DIETRO
 10
0
 20
0
 30
0
 70
128
 71
23
 72
34
 73
33
 74
22
 0
VERTEX
 8
DIETRO
 10
0
 20
0
 30
0
 70
128
 71
23
 72
22
 73
26
 74
27
 0
SEQEND
 0
POLYLINE
 8
FONDO
 66
1
 10
0.0
 20
0.0
 30
0.0
 70
64
 71
32
 72
30
 0
VERTEX
 8
FONDO
 10
-37.5
 20
-1.4119
 30
1.2672
 70
192
 0
VERTEX
 8
FONDO
 10
-37.5
 20
-1.4119
 30
1.6726
 70
192
 0
VERTEX
 8
FONDO
 10
-37.5
 20
-1.4119
 30
68.5883
 70
192
 0
VERTEX
 8
FONDO
 10
-37.5
 20
-1.4119
 30
70.4502
 70
192
 0
VERTEX
 8
FONDO
 10
-34
 20
-1.4119
 30
1.2672
 70
192
 0
VERTEX
 8
FONDO
 10
-34
 20
-1.4119
 30
1.6726
 70
192
 0
VERTEX
 8
FONDO
 10
-34
 20
-1.4119
 30
68.5883
 70
192
 0
VERTEX
 8
FONDO
 10
-34
 20
-1.4119
 30
70.4502
 70
192
 0
VERTEX
 8
FONDO
 10
34
 20
-1.4119
 30
1.2672
 70
192
 0
VERTEX
 8
FONDO
 10
34
 20
-1.4119
 30
1.6726
 70
192
 0
VERTEX
 8
FONDO
 10
34
 20
-1.4119
 30
68.5883
 70
192
 0
VERTEX
 8
FONDO
 10
34
 20
-1.4119
 30
70.4502
 70
192
 0
VERTEX
 8
FONDO
 10
37.5
 20
-1.4119
 30
1.2672
 70
192
 0
VERTEX
 8
FONDO
 10
37.5
 20
-1.4119
 30
1.6726
 70
192
 0
VERTEX
 8
FONDO
 10
37.5
 20
-1.4119
 30
68.5883
 70
192
 0
VERTEX
 8
FONDO
 10
37.5
 20
-1.4119
 30
70.4502
 70
192
 0
VERTEX
 8
FONDO
 10
37.5
 20
0.1881
 30
1.2672
 70
192
 0
VERTEX
 8
FONDO
 10
37.5
 20
0.1881
 30
1.6726
 70
192
 0
VERTEX
 8
FONDO
 10
37.5
 20
0.1881
 30
68.5883
 70
192
 0
VERTEX
 8
FONDO
 10
37.5
 20
0.1881
 30
70.4502
 70
192
 0
VERTEX
 8
FONDO
 10
34
 20
0.1881
 30
1.2672
 70
192
 0
VERTEX
 8
FONDO
 10
34
 20
0.1881
 30
1.6726
 70
192
 0
VERTEX
 8
FONDO
 10
34
 20
0.1881
 30
68.5883
 70
192
 0
VERTEX
 8
FONDO
 10
34
 20
0.1881
 30
70.4502
 70
192
 0
VERTEX
 8
FONDO
 10
-34
 20
0.1881
 30
1.2672
 70
192
 0
VERTEX
 8
FONDO
 10
-34
 20
0.1881
 30
1.6726
 70
192
 0
VERTEX
 8
FONDO
 10
-34
 20
0.1881
 30
68.5883
 70
192
 0
VERTEX
 8
FONDO
 10
-34
 20
0.1881
 30
70.4502
 70
192
 0
VERTEX
 8
FONDO
 10
-37.5
 20
0.1881
 30
1.2672
 70
192
 0
VERTEX
 8
FONDO
 10
-37.5
 20
0.1881
 30
1.6726
 70
192
 0
VERTEX
 8
FONDO
 10
-37.5
 20
0.1881
 30
68.5883
 70
192
 0
VERTEX
 8
FONDO
 10
-37.5
 20
0.1881
 30
70.4502
 70
192
 0
VERTEX
 8
FONDO
 10
0
 20
0
 30
0
 70
128
 71
1
 72
2
 73
6
 74
5
 0
VERTEX
 8
FONDO
 10
0
 20
0
 30
0
 70
128
 71
5
 72
6
 73
10
 74
9
 0
VERTEX
 8
FONDO
 10
0
 20
0
 30
0
 70
128
 71
9
 72
10
 73
14
 74
13
 0
VERTEX
 8
FONDO
 10
0
 20
0
 30
0
 70
128
 71
2
 72
3
 73
7
 74
6
 0
VERTEX
 8
FONDO
 10
0
 20
0
 30
0
 70
128
 71
6
 72
7
 73
11
 74
10
 0
VERTEX
 8
FONDO
 10
0
 20
0
 30
0
 70
128
 71
10
 72
11
 73
15
 74
14
 0
VERTEX
 8
FONDO
 10
0
 20
0
 30
0
 70
128
 71
3
 72
4
 73
8
 74
7
 0
VERTEX
 8
FONDO
 10
0
 20
0
 30
0
 70
128
 71
7
 72
8
 73
12
 74
11
 0
VERTEX
 8
FONDO
 10
0
 20
0
 30
0
 70
128
 71
11
 72
12
 73
16
 74
15
 0
VERTEX
 8
FONDO
 10
0
 20
0
 30
0
 70
128
 71
13
 72
14
 73
18
 74
17
 0
VERTEX
 8
FONDO
 10
0
 20
0
 30
0
 70
128
 71
14
 72
15
 73
19
 74
18
 0
VERTEX
 8
FONDO
 10
0
 20
0
 30
0
 70
128
 71
15
 72
16
 73
20
 74
19
 0
VERTEX
 8
FONDO
 10
0
 20
0
 30
0
 70
128
 71
17
 72
18
 73
22
 74
21
 0
VERTEX
 8
FONDO
 10
0
 20
0
 30
0
 70
128
 71
21
 72
22
 73
26
 74
25
 0
VERTEX
 8
FONDO
 10
0
 20
0
 30
0
 70
128
 71
25
 72
26
 73
30
 74
29
 0
VERTEX
 8
FONDO
 10
0
 20
0
 30
0
 70
128
 71
18
 72
19
 73
23
 74
22
 0
VERTEX
 8
FONDO
 10
0
 20
0
 30
0
 70
128
 71
21
 72
9
 73
13
 74
17
 0
VERTEX
 8
FONDO
 10
0
 20
0
 30
0
 70
128
 71
26
 72
27
 73
31
 74
30
 0
VERTEX
 8
FONDO
 10
0
 20
0
 30
0
 70
128
 71
19
 72
20
 73
24
 74
23
 0
VERTEX
 8
FONDO
 10
0
 20
0
 30
0
 70
128
 71
23
 72
24
 73
28
 74
27
 0
VERTEX
 8
FONDO
 10
0
 20
0
 30
0
 70
128
 71
27
 72
28
 73
32
 74
31
 0
VERTEX
 8
FONDO
 10
0
 20
0
 30
0
 70
128
 71
29
 72
30
 73
2
 74
1
 0
VERTEX
 8
FONDO
 10
0
 20
0
 30
0
 70
128
 71
30
 72
31
 73
3
 74
2
 0
VERTEX
 8
FONDO
 10
0
 20
0
 30
0
 70
128
 71
31
 72
32
 73
4
 74
3
 0
VERTEX
 8
FONDO
 10
0
 20
0
 30
0
 70
128
 71
4
 72
32
 73
28
 74
8
 0
VERTEX
 8
FONDO
 10
0
 20
0
 30
0
 70
128
 71
8
 72
28
 73
24
 74
12
 0
VERTEX
 8
FONDO
 10
0
 20
0
 30
0
 70
128
 71
12
 72
24
 73
20
 74
16
 0
VERTEX
 8
FONDO
 10
0
 20
0
 30
0
 70
128
 71
29
 72
1
 73
5
 74
25
 0
VERTEX
 8
FONDO
 10
0
 20
0
 30
0
 70
128
 71
25
 72
5
 73
9
 74
21
 0
VERTEX
 8
FONDO
 10
0
 20
0
 30
0
 70
128
 71
27
 72
26
 73
22
 74
23
 0
SEQEND
 0
POLYLINE
 8
CUBO
 66
1
 10
0.0
 20
0.0
 30
0.0
 70
64
 71
8
 72
6
 0
VERTEX
 8
CUBO
 10
-37.575
 20
-2.3335
 30
57.5092
 70
192
 0
VERTEX
 8
CUBO
 10
-37.575
 20
-2.3335
 30
70.6989
 70
192
 0
VERTEX
 8
CUBO
 10
37.575
 20
-2.3335
 30
57.5092
 70
192
 0
VERTEX
 8
CUBO
 10
37.575
 20
-2.3335
 30
70.6989
 70
192
 0
VERTEX
 8
CUBO
 10
37.575
 20
-1.849
 30
57.5092
 70
192
 0
VERTEX
 8
CUBO
 10
37.575
 20
-1.849
 30
70.6989
 70
192
 0
VERTEX
 8
CUBO
 10
-37.575
 20
-1.849
 30
57.5092
 70
192
 0
VERTEX
 8
CUBO
 10
-37.575
 20
-1.849
 30
70.6989
 70
192
 0
VERTEX
 8
CUBO
 10
0
 20
0
 30
0
 70
128
 71
1
 72
2
 73
4
 74
3
 0
VERTEX
 8
CUBO
 10
0
 20
0
 30
0
 70
128
 71
3
 72
4
 73
6
 74
5
 0
VERTEX
 8
CUBO
 10
0
 20
0
 30
0
 70
128
 71
5
 72
6
 73
8
 74
7
 0
VERTEX
 8
CUBO
 10
0
 20
0
 30
0
 70
128
 71
7
 72
8
 73
2
 74
1
 0
VERTEX
 8
CUBO
 10
0
 20
0
 30
0
 70
128
 71
2
 72
8
 73
6
 74
4
 0
VERTEX
 8
CUBO
 10
0
 20
0
 30
0
 70
128
 71
7
 72
1
 73
3
 74
5
 0
SEQEND
 0
POLYLINE
 8
ANTA
 66
1
 10
0.0
 20
0.0
 30
0.0
 70
64
 71
32
 72
32
 0
VERTEX
 8
ANTA
 10
-37.7
 20
-2.34
 30
1.9714
 70
192
 0
VERTEX
 8
ANTA
 10
-37.7
 20
-2.34
 30
13.6905
 70
192
 0
VERTEX
 8
ANTA
 10
-37.7
 20
-2.34
 30
46.1905
 70
192
 0
VERTEX
 8
ANTA
 10
-37.7
 20
-2.34
 30
56.1196
 70
192
 0
VERTEX
 8
ANTA
 10
-35.4001
 20
-2.34
 30
1.9714
 70
192
 0
VERTEX
 8
ANTA
 10
-35.4001
 20
-2.34
 30
13.6905
 70
192
 0
VERTEX
 8
ANTA
 10
-35.4001
 20
-2.34
 30
46.1905
 70
192
 0
VERTEX
 8
ANTA
 10
-35.4001
 20
-2.34
 30
56.1196
 70
192
 0
VERTEX
 8
ANTA
 10
35.3999
 20
-2.34
 30
1.9714
 70
192
 0
VERTEX
 8
ANTA
 10
35.3999
 20
-2.34
 30
13.6905
 70
192
 0
VERTEX
 8
ANTA
 10
35.3999
 20
-2.34
 30
46.1905
 70
192
 0
VERTEX
 8
ANTA
 10
35.3999
 20
-2.34
 30
56.1196
 70
192
 0
VERTEX
 8
ANTA
 10
37.7
 20
-2.34
 30
1.9714
 70
192
 0
VERTEX
 8
ANTA
 10
37.7
 20
-2.34
 30
13.6905
 70
192
 0
VERTEX
 8
ANTA
 10
37.7
 20
-2.34
 30
46.1905
 70
192
 0
VERTEX
 8
ANTA
 10
37.7
 20
-2.34
 30
56.1196
 70
192
 0
VERTEX
 8
ANTA
 10
37.7
 20
-0.3876
 30
1.9714
 70
192
 0
VERTEX
 8
ANTA
 10
37.7
 20
-0.3876
 30
13.6905
 70
192
 0
VERTEX
 8
ANTA
 10
37.7
 20
-0.3876
 30
46.1905
 70
192
 0
VERTEX
 8
ANTA
 10
37.7
 20
-0.3876
 30
56.1196
 70
192
 0
VERTEX
 8
ANTA
 10
35.3999
 20
-0.3876
 30
1.9714
 70
192
 0
VERTEX
 8
ANTA
 10
35.3999
 20
-0.3876
 30
13.6905
 70
192
 0
VERTEX
 8
ANTA
 10
35.3999
 20
-0.3876
 30
46.1905
 70
192
 0
VERTEX
 8
ANTA
 10
35.3999
 20
-0.3876
 30
56.1196
 70
192
 0
VERTEX
 8
ANTA
 10
-35.4001
 20
-0.3876
 30
1.9714
 70
192
 0
VERTEX
 8
ANTA
 10
-35.4001
 20
-0.3876
 30
13.6905
 70
192
 0
VERTEX
 8
ANTA
 10
-35.4001
 20
-0.3876
 30
46.1905
 70
192
 0
VERTEX
 8
ANTA
 10
-35.4001
 20
-0.3876
 30
56.1196
 70
192
 0
VERTEX
 8
ANTA
 10
-37.7
 20
-0.3876
 30
1.9714
 70
192
 0
VERTEX
 8
ANTA
 10
-37.7
 20
-0.3876
 30
13.6905
 70
192
 0
VERTEX
 8
ANTA
 10
-37.7
 20
-0.3876
 30
46.1905
 70
192
 0
VERTEX
 8
ANTA
 10
-37.7
 20
-0.3876
 30
56.1196
 70
192
 0
VERTEX
 8
ANTA
 10
0
 20
0
 30
0
 70
128
 71
1
 72
2
 73
6
 74
5
 0
VERTEX
 8
ANTA
 10
0
 20
0
 30
0
 70
128
 71
5
 72
6
 73
10
 74
9
 0
VERTEX
 8
ANTA
 10
0
 20
0
 30
0
 70
128
 71
9
 72
10
 73
14
 74
13
 0
VERTEX
 8
ANTA
 10
0
 20
0
 30
0
 70
128
 71
2
 72
3
 73
7
 74
6
 0
VERTEX
 8
ANTA
 10
0
 20
0
 30
0
 70
128
 71
21
 72
9
 73
13
 74
17
 0
VERTEX
 8
ANTA
 10
0
 20
0
 30
0
 70
128
 71
10
 72
11
 73
15
 74
14
 0
VERTEX
 8
ANTA
 10
0
 20
0
 30
0
 70
128
 71
3
 72
4
 73
8
 74
7
 0
VERTEX
 8
ANTA
 10
0
 20
0
 30
0
 70
128
 71
7
 72
8
 73
12
 74
11
 0
VERTEX
 8
ANTA
 10
0
 20
0
 30
0
 70
128
 71
11
 72
12
 73
16
 74
15
 0
VERTEX
 8
ANTA
 10
0
 20
0
 30
0
 70
128
 71
13
 72
14
 73
18
 74
17
 0
VERTEX
 8
ANTA
 10
0
 20
0
 30
0
 70
128
 71
14
 72
15
 73
19
 74
18
 0
VERTEX
 8
ANTA
 10
0
 20
0
 30
0
 70
128
 71
15
 72
16
 73
20
 74
19
 0
VERTEX
 8
ANTA
 10
0
 20
0
 30
0
 70
128
 71
17
 72
18
 73
22
 74
21
 0
VERTEX
 8
ANTA
 10
0
 20
0
 30
0
 70
128
 71
21
 72
22
 73
26
 74
25
 0
VERTEX
 8
ANTA
 10
0
 20
0
 30
0
 70
128
 71
25
 72
26
 73
30
 74
29
 0
VERTEX
 8
ANTA
 10
0
 20
0
 30
0
 70
128
 71
18
 72
19
 73
23
 74
22
 0
VERTEX
 8
ANTA
 10
0
 20
0
 30
0
 70
128
 71
25
 72
5
 73
9
 74
21
 0
VERTEX
 8
ANTA
 10
0
 20
0
 30
0
 70
128
 71
26
 72
27
 73
31
 74
30
 0
VERTEX
 8
ANTA
 10
0
 20
0
 30
0
 70
128
 71
19
 72
20
 73
24
 74
23
 0
VERTEX
 8
ANTA
 10
0
 20
0
 30
0
 70
128
 71
23
 72
24
 73
28
 74
27
 0
VERTEX
 8
ANTA
 10
0
 20
0
 30
0
 70
128
 71
27
 72
28
 73
32
 74
31
 0
VERTEX
 8
ANTA
 10
0
 20
0
 30
0
 70
128
 71
29
 72
30
 73
2
 74
1
 0
VERTEX
 8
ANTA
 10
0
 20
0
 30
0
 70
128
 71
30
 72
31
 73
3
 74
2
 0
VERTEX
 8
ANTA
 10
0
 20
0
 30
0
 70
128
 71
31
 72
32
 73
4
 74
3
 0
VERTEX
 8
ANTA
 10
0
 20
0
 30
0
 70
128
 71
4
 72
32
 73
28
 74
8
 0
VERTEX
 8
ANTA
 10
0
 20
0
 30
0
 70
128
 71
8
 72
28
 73
24
 74
12
 0
VERTEX
 8
ANTA
 10
0
 20
0
 30
0
 70
128
 71
12
 72
24
 73
20
 74
16
 0
VERTEX
 8
ANTA
 10
0
 20
0
 30
0
 70
128
 71
29
 72
1
 73
5
 74
25
 0
VERTEX
 8
ANTA
 10
0
 20
0
 30
0
 70
128
 71
27
 72
26
 73
6
 74
7
 0
VERTEX
 8
ANTA
 10
0
 20
0
 30
0
 70
128
 71
23
 72
27
 73
7
 74
11
 0
VERTEX
 8
ANTA
 10
0
 20
0
 30
0
 70
128
 71
22
 72
23
 73
11
 74
10
 0
VERTEX
 8
ANTA
 10
0
 20
0
 30
0
 70
128
 71
26
 72
22
 73
10
 74
6
 0
SEQEND
 0
POLYLINE
 8
CRUSCOTTO
 66
1
 10
0.0
 20
0.0
 30
0.0
 70
64
 71
32
 72
32
 0
VERTEX
 8
CRUSCOTTO
 10
-37.7
 20
-2.3419
 30
57.4503
 70
192
 0
VERTEX
 8
CRUSCOTTO
 10
-37.7
 20
-2.3419
 30
58.4503
 70
192
 0
VERTEX
 8
CRUSCOTTO
 10
-37.7
 20
-2.3419
 30
69.7064
 70
192
 0
VERTEX
 8
CRUSCOTTO
 10
-37.7
 20
-2.3419
 30
70.7064
 70
192
 0
VERTEX
 8
CRUSCOTTO
 10
-28
 20
-2.3419
 30
57.4503
 70
192
 0
VERTEX
 8
CRUSCOTTO
 10
-28
 20
-2.3419
 30
58.4503
 70
192
 0
VERTEX
 8
CRUSCOTTO
 10
-28
 20
-2.3419
 30
69.7064
 70
192
 0
VERTEX
 8
CRUSCOTTO
 10
-28
 20
-2.3419
 30
70.7064
 70
192
 0
VERTEX
 8
CRUSCOTTO
 10
28
 20
-2.3419
 30
57.4503
 70
192
 0
VERTEX
 8
CRUSCOTTO
 10
28
 20
-2.3419
 30
58.4503
 70
192
 0
VERTEX
 8
CRUSCOTTO
 10
28
 20
-2.3419
 30
69.7064
 70
192
 0
VERTEX
 8
CRUSCOTTO
 10
28
 20
-2.3419
 30
70.7064
 70
192
 0
VERTEX
 8
CRUSCOTTO
 10
37.7
 20
-2.3419
 30
57.4503
 70
192
 0
VERTEX
 8
CRUSCOTTO
 10
37.7
 20
-2.3419
 30
58.4503
 70
192
 0
VERTEX
 8
CRUSCOTTO
 10
37.7
 20
-2.3419
 30
69.7064
 70
192
 0
VERTEX
 8
CRUSCOTTO
 10
37.7
 20
-2.3419
 30
70.7064
 70
192
 0
VERTEX
 8
CRUSCOTTO
 10
37.7
 20
-0.3876
 30
57.4503
 70
192
 0
VERTEX
 8
CRUSCOTTO
 10
37.7
 20
-0.3876
 30
58.4503
 70
192
 0
VERTEX
 8
CRUSCOTTO
 10
37.7
 20
-0.3876
 30
69.7064
 70
192
 0
VERTEX
 8
CRUSCOTTO
 10
37.7
 20
-0.3876
 30
70.7064
 70
192
 0
VERTEX
 8
CRUSCOTTO
 10
28
 20
-0.3876
 30
57.4503
 70
192
 0
VERTEX
 8
CRUSCOTTO
 10
28
 20
-0.3876
 30
58.4503
 70
192
 0
VERTEX
 8
CRUSCOTTO
 10
28
 20
-0.3876
 30
69.7064
 70
192
 0
VERTEX
 8
CRUSCOTTO
 10
28
 20
-0.3876
 30
70.7064
 70
192
 0
VERTEX
 8
CRUSCOTTO
 10
-28
 20
-0.3876
 30
57.4503
 70
192
 0
VERTEX
 8
CRUSCOTTO
 10
-28
 20
-0.3876
 30
58.4503
 70
192
 0
VERTEX
 8
CRUSCOTTO
 10
-28
 20
-0.3876
 30
69.7064
 70
192
 0
VERTEX
 8
CRUSCOTTO
 10
-28
 20
-0.3876
 30
70.7064
 70
192
 0
VERTEX
 8
CRUSCOTTO
 10
-37.7
 20
-0.3876
 30
57.4503
 70
192
 0
VERTEX
 8
CRUSCOTTO
 10
-37.7
 20
-0.3876
 30
58.4503
 70
192
 0
VERTEX
 8
CRUSCOTTO
 10
-37.7
 20
-0.3876
 30
69.7064
 70
192
 0
VERTEX
 8
CRUSCOTTO
 10
-37.7
 20
-0.3876
 30
70.7064
 70
192
 0
VERTEX
 8
CRUSCOTTO
 10
0
 20
0
 30
0
 70
128
 71
1
 72
2
 73
6
 74
5
 0
VERTEX
 8
CRUSCOTTO
 10
0
 20
0
 30
0
 70
128
 71
5
 72
6
 73
10
 74
9
 0
VERTEX
 8
CRUSCOTTO
 10
0
 20
0
 30
0
 70
128
 71
9
 72
10
 73
14
 74
13
 0
VERTEX
 8
CRUSCOTTO
 10
0
 20
0
 30
0
 70
128
 71
2
 72
3
 73
7
 74
6
 0
VERTEX
 8
CRUSCOTTO
 10
0
 20
0
 30
0
 70
128
 71
21
 72
9
 73
13
 74
17
 0
VERTEX
 8
CRUSCOTTO
 10
0
 20
0
 30
0
 70
128
 71
10
 72
11
 73
15
 74
14
 0
VERTEX
 8
CRUSCOTTO
 10
0
 20
0
 30
0
 70
128
 71
3
 72
4
 73
8
 74
7
 0
VERTEX
 8
CRUSCOTTO
 10
0
 20
0
 30
0
 70
128
 71
7
 72
8
 73
12
 74
11
 0
VERTEX
 8
CRUSCOTTO
 10
0
 20
0
 30
0
 70
128
 71
11
 72
12
 73
16
 74
15
 0
VERTEX
 8
CRUSCOTTO
 10
0
 20
0
 30
0
 70
128
 71
13
 72
14
 73
18
 74
17
 0
VERTEX
 8
CRUSCOTTO
 10
0
 20
0
 30
0
 70
128
 71
14
 72
15
 73
19
 74
18
 0
VERTEX
 8
CRUSCOTTO
 10
0
 20
0
 30
0
 70
128
 71
15
 72
16
 73
20
 74
19
 0
VERTEX
 8
CRUSCOTTO
 10
0
 20
0
 30
0
 70
128
 71
17
 72
18
 73
22
 74
21
 0
VERTEX
 8
CRUSCOTTO
 10
0
 20
0
 30
0
 70
128
 71
21
 72
22
 73
26
 74
25
 0
VERTEX
 8
CRUSCOTTO
 10
0
 20
0
 30
0
 70
128
 71
25
 72
26
 73
30
 74
29
 0
VERTEX
 8
CRUSCOTTO
 10
0
 20
0
 30
0
 70
128
 71
18
 72
19
 73
23
 74
22
 0
VERTEX
 8
CRUSCOTTO
 10
0
 20
0
 30
0
 70
128
 71
25
 72
5
 73
9
 74
21
 0
VERTEX
 8
CRUSCOTTO
 10
0
 20
0
 30
0
 70
128
 71
26
 72
27
 73
31
 74
30
 0
VERTEX
 8
CRUSCOTTO
 10
0
 20
0
 30
0
 70
128
 71
19
 72
20
 73
24
 74
23
 0
VERTEX
 8
CRUSCOTTO
 10
0
 20
0
 30
0
 70
128
 71
23
 72
24
 73
28
 74
27
 0
VERTEX
 8
CRUSCOTTO
 10
0
 20
0
 30
0
 70
128
 71
27
 72
28
 73
32
 74
31
 0
VERTEX
 8
CRUSCOTTO
 10
0
 20
0
 30
0
 70
128
 71
29
 72
30
 73
2
 74
1
 0
VERTEX
 8
CRUSCOTTO
 10
0
 20
0
 30
0
 70
128
 71
30
 72
31
 73
3
 74
2
 0
VERTEX
 8
CRUSCOTTO
 10
0
 20
0
 30
0
 70
128
 71
31
 72
32
 73
4
 74
3
 0
VERTEX
 8
CRUSCOTTO
 10
0
 20
0
 30
0
 70
128
 71
4
 72
32
 73
28
 74
8
 0
VERTEX
 8
CRUSCOTTO
 10
0
 20
0
 30
0
 70
128
 71
8
 72
28
 73
24
 74
12
 0
VERTEX
 8
CRUSCOTTO
 10
0
 20
0
 30
0
 70
128
 71
12
 72
24
 73
20
 74
16
 0
VERTEX
 8
CRUSCOTTO
 10
0
 20
0
 30
0
 70
128
 71
29
 72
1
 73
5
 74
25
 0
VERTEX
 8
CRUSCOTTO
 10
0
 20
0
 30
0
 70
128
 71
27
 72
26
 73
6
 74
7
 0
VERTEX
 8
CRUSCOTTO
 10
0
 20
0
 30
0
 70
128
 71
23
 72
27
 73
7
 74
11
 0
VERTEX
 8
CRUSCOTTO
 10
0
 20
0
 30
0
 70
128
 71
22
 72
23
 73
11
 74
10
 0
VERTEX
 8
CRUSCOTTO
 10
0
 20
0
 30
0
 70
128
 71
26
 72
22
 73
10
 74
6
 0
SEQEND
 0
POLYLINE
 8
MANIGLIA
 66
1
 10
0.0
 20
0.0
 30
0.0
 70
64
 71
261
 72
330
 0
VERTEX
 8
MANIGLIA
 10
32.3549
 20
-7.8212
 30
52.0831
 70
192
 0
VERTEX
 8
MANIGLIA
 10
-32.355
 20
-7.7976
 30
51.9766
 70
192
 0
VERTEX
 8
MANIGLIA
 10
-28.355
 20
-7.7976
 30
51.9766
 70
192
 0
VERTEX
 8
MANIGLIA
 10
28.3549
 20
-7.7976
 30
51.9766
 70
192
 0
VERTEX
 8
MANIGLIA
 10
32.3549
 20
-7.7976
 30
51.9766
 70
192
 0
VERTEX
 8
MANIGLIA
 10
-32.355
 20
-7.7648
 30
51.8726
 70
192
 0
VERTEX
 8
MANIGLIA
 10
-28.355
 20
-7.7648
 30
51.8726
 70
192
 0
VERTEX
 8
MANIGLIA
 10
28.3549
 20
-7.7648
 30
51.8726
 70
192
 0
VERTEX
 8
MANIGLIA
 10
32.3549
 20
-7.7648
 30
51.8726
 70
192
 0
VERTEX
 8
MANIGLIA
 10
-32.355
 20
-7.723
 30
51.7719
 70
192
 0
VERTEX
 8
MANIGLIA
 10
-28.355
 20
-7.723
 30
51.7719
 70
192
 0
VERTEX
 8
MANIGLIA
 10
28.3549
 20
-7.723
 30
51.7719
 70
192
 0
VERTEX
 8
MANIGLIA
 10
32.3549
 20
-7.723
 30
51.7719
 70
192
 0
VERTEX
 8
MANIGLIA
 10
-32.355
 20
-7.6727
 30
51.6751
 70
192
 0
VERTEX
 8
MANIGLIA
 10
-28.355
 20
-7.6727
 30
51.6751
 70
192
 0
VERTEX
 8
MANIGLIA
 10
28.3549
 20
-7.6727
 30
51.6751
 70
192
 0
VERTEX
 8
MANIGLIA
 10
32.3549
 20
-7.6727
 30
51.6751
 70
192
 0
VERTEX
 8
MANIGLIA
 10
-32.355
 20
-7.6141
 30
51.5832
 70
192
 0
VERTEX
 8
MANIGLIA
 10
-28.355
 20
-7.6141
 30
51.5832
 70
192
 0
VERTEX
 8
MANIGLIA
 10
28.3549
 20
-7.6141
 30
51.5832
 70
192
 0
VERTEX
 8
MANIGLIA
 10
32.3549
 20
-7.6141
 30
51.5832
 70
192
 0
VERTEX
 8
MANIGLIA
 10
-32.355
 20
-7.5477
 30
51.4966
 70
192
 0
VERTEX
 8
MANIGLIA
 10
-28.355
 20
-7.5477
 30
51.4966
 70
192
 0
VERTEX
 8
MANIGLIA
 10
28.3549
 20
-7.5477
 30
51.4966
 70
192
 0
VERTEX
 8
MANIGLIA
 10
32.3549
 20
-7.5477
 30
51.4966
 70
192
 0
VERTEX
 8
MANIGLIA
 10
-32.355
 20
-7.474
 30
51.4162
 70
192
 0
VERTEX
 8
MANIGLIA
 10
-28.355
 20
-7.474
 30
51.4162
 70
192
 0
VERTEX
 8
MANIGLIA
 10
28.3549
 20
-7.474
 30
51.4162
 70
192
 0
VERTEX
 8
MANIGLIA
 10
32.3549
 20
-7.474
 30
51.4162
 70
192
 0
VERTEX
 8
MANIGLIA
 10
-32.355
 20
-7.3936
 30
51.3426
 70
192
 0
VERTEX
 8
MANIGLIA
 10
-28.355
 20
-7.3936
 30
51.3426
 70
192
 0
VERTEX
 8
MANIGLIA
 10
28.3549
 20
-7.3936
 30
51.3426
 70
192
 0
VERTEX
 8
MANIGLIA
 10
32.3549
 20
-7.3936
 30
51.3426
 70
192
 0
VERTEX
 8
MANIGLIA
 10
-32.355
 20
-7.3071
 30
51.2762
 70
192
 0
VERTEX
 8
MANIGLIA
 10
-28.355
 20
-7.3071
 30
51.2762
 70
192
 0
VERTEX
 8
MANIGLIA
 10
28.3549
 20
-7.3071
 30
51.2762
 70
192
 0
VERTEX
 8
MANIGLIA
 10
32.3549
 20
-7.3071
 30
51.2762
 70
192
 0
VERTEX
 8
MANIGLIA
 10
-32.355
 20
-7.2152
 30
51.2176
 70
192
 0
VERTEX
 8
MANIGLIA
 10
-28.355
 20
-7.2152
 30
51.2176
 70
192
 0
VERTEX
 8
MANIGLIA
 10
28.3549
 20
-7.2152
 30
51.2176
 70
192
 0
VERTEX
 8
MANIGLIA
 10
32.3549
 20
-7.2152
 30
51.2176
 70
192
 0
VERTEX
 8
MANIGLIA
 10
-32.355
 20
-7.1184
 30
51.1672
 70
192
 0
VERTEX
 8
MANIGLIA
 10
-28.355
 20
-7.1184
 30
51.1672
 70
192
 0
VERTEX
 8
MANIGLIA
 10
28.3549
 20
-7.1184
 30
51.1672
 70
192
 0
VERTEX
 8
MANIGLIA
 10
32.3549
 20
-7.1184
 30
51.1672
 70
192
 0
VERTEX
 8
MANIGLIA
 10
-32.355
 20
-7.0177
 30
51.1255
 70
192
 0
VERTEX
 8
MANIGLIA
 10
-28.355
 20
-7.0177
 30
51.1255
 70
192
 0
VERTEX
 8
MANIGLIA
 10
28.3549
 20
-7.0177
 30
51.1255
 70
192
 0
VERTEX
 8
MANIGLIA
 10
32.3549
 20
-7.0177
 30
51.1255
 70
192
 0
VERTEX
 8
MANIGLIA
 10
-32.355
 20
-6.9137
 30
51.0927
 70
192
 0
VERTEX
 8
MANIGLIA
 10
-28.355
 20
-6.9137
 30
51.0927
 70
192
 0
VERTEX
 8
MANIGLIA
 10
28.3549
 20
-6.9137
 30
51.0927
 70
192
 0
VERTEX
 8
MANIGLIA
 10
32.3549
 20
-6.9137
 30
51.0927
 70
192
 0
VERTEX
 8
MANIGLIA
 10
-32.355
 20
-6.8072
 30
51.0691
 70
192
 0
VERTEX
 8
MANIGLIA
 10
-28.355
 20
-6.8072
 30
51.0691
 70
192
 0
VERTEX
 8
MANIGLIA
 10
28.3549
 20
-6.8072
 30
51.0691
 70
192
 0
VERTEX
 8
MANIGLIA
 10
32.3549
 20
-6.8072
 30
51.0691
 70
192
 0
VERTEX
 8
MANIGLIA
 10
-32.355
 20
-6.6991
 30
51.0549
 70
192
 0
VERTEX
 8
MANIGLIA
 10
-28.355
 20
-6.6991
 30
51.0549
 70
192
 0
VERTEX
 8
MANIGLIA
 10
28.3549
 20
-6.6991
 30
51.0549
 70
192
 0
VERTEX
 8
MANIGLIA
 10
32.3549
 20
-6.6991
 30
51.0549
 70
192
 0
VERTEX
 8
MANIGLIA
 10
-28.355
 20
-7.1184
 30
53.433
 70
192
 0
VERTEX
 8
MANIGLIA
 10
28.3549
 20
-7.1184
 30
53.433
 70
192
 0
VERTEX
 8
MANIGLIA
 10
32.3549
 20
-7.1184
 30
53.433
 70
192
 0
VERTEX
 8
MANIGLIA
 10
-32.355
 20
-7.2152
 30
53.3827
 70
192
 0
VERTEX
 8
MANIGLIA
 10
-28.355
 20
-7.2152
 30
53.3827
 70
192
 0
VERTEX
 8
MANIGLIA
 10
28.3549
 20
-7.2152
 30
53.3827
 70
192
 0
VERTEX
 8
MANIGLIA
 10
32.3549
 20
-7.2152
 30
53.3827
 70
192
 0
VERTEX
 8
MANIGLIA
 10
-32.355
 20
-7.3071
 30
53.3241
 70
192
 0
VERTEX
 8
MANIGLIA
 10
-28.355
 20
-7.3071
 30
53.3241
 70
192
 0
VERTEX
 8
MANIGLIA
 10
28.3549
 20
-7.3071
 30
53.3241
 70
192
 0
VERTEX
 8
MANIGLIA
 10
32.3549
 20
-7.3071
 30
53.3241
 70
192
 0
VERTEX
 8
MANIGLIA
 10
-32.355
 20
-7.3936
 30
53.2577
 70
192
 0
VERTEX
 8
MANIGLIA
 10
-28.355
 20
-7.3936
 30
53.2577
 70
192
 0
VERTEX
 8
MANIGLIA
 10
28.3549
 20
-7.3936
 30
53.2577
 70
192
 0
VERTEX
 8
MANIGLIA
 10
32.3549
 20
-7.3936
 30
53.2577
 70
192
 0
VERTEX
 8
MANIGLIA
 10
-32.355
 20
-7.474
 30
53.184
 70
192
 0
VERTEX
 8
MANIGLIA
 10
-28.355
 20
-7.474
 30
53.184
 70
192
 0
VERTEX
 8
MANIGLIA
 10
28.3549
 20
-7.474
 30
53.184
 70
192
 0
VERTEX
 8
MANIGLIA
 10
32.3549
 20
-7.474
 30
53.184
 70
192
 0
VERTEX
 8
MANIGLIA
 10
-32.355
 20
-7.5477
 30
53.1036
 70
192
 0
VERTEX
 8
MANIGLIA
 10
-28.355
 20
-7.5477
 30
53.1036
 70
192
 0
VERTEX
 8
MANIGLIA
 10
28.3549
 20
-7.5477
 30
53.1036
 70
192
 0
VERTEX
 8
MANIGLIA
 10
32.3549
 20
-7.5477
 30
53.1036
 70
192
 0
VERTEX
 8
MANIGLIA
 10
-32.355
 20
-7.6141
 30
53.0171
 70
192
 0
VERTEX
 8
MANIGLIA
 10
-28.355
 20
-7.6141
 30
53.0171
 70
192
 0
VERTEX
 8
MANIGLIA
 10
28.3549
 20
-7.6141
 30
53.0171
 70
192
 0
VERTEX
 8
MANIGLIA
 10
32.3549
 20
-7.6141
 30
53.0171
 70
192
 0
VERTEX
 8
MANIGLIA
 10
-32.355
 20
-7.6727
 30
52.9251
 70
192
 0
VERTEX
 8
MANIGLIA
 10
-28.355
 20
-7.6727
 30
52.9251
 70
192
 0
VERTEX
 8
MANIGLIA
 10
28.3549
 20
-7.6727
 30
52.9251
 70
192
 0
VERTEX
 8
MANIGLIA
 10
32.3549
 20
-7.6727
 30
52.9251
 70
192
 0
VERTEX
 8
MANIGLIA
 10
-32.355
 20
-7.723
 30
52.8284
 70
192
 0
VERTEX
 8
MANIGLIA
 10
-28.355
 20
-7.723
 30
52.8284
 70
192
 0
VERTEX
 8
MANIGLIA
 10
28.3549
 20
-7.723
 30
52.8284
 70
192
 0
VERTEX
 8
MANIGLIA
 10
32.3549
 20
-7.723
 30
52.8284
 70
192
 0
VERTEX
 8
MANIGLIA
 10
-32.355
 20
-7.7648
 30
52.7277
 70
192
 0
VERTEX
 8
MANIGLIA
 10
-28.355
 20
-7.7648
 30
52.7277
 70
192
 0
VERTEX
 8
MANIGLIA
 10
28.3549
 20
-7.7648
 30
52.7277
 70
192
 0
VERTEX
 8
MANIGLIA
 10
32.3549
 20
-7.7648
 30
52.7277
 70
192
 0
VERTEX
 8
MANIGLIA
 10
-32.355
 20
-7.7976
 30
52.6236
 70
192
 0
VERTEX
 8
MANIGLIA
 10
-28.355
 20
-7.7976
 30
52.6236
 70
192
 0
VERTEX
 8
MANIGLIA
 10
28.3549
 20
-7.7976
 30
52.6236
 70
192
 0
VERTEX
 8
MANIGLIA
 10
32.3549
 20
-7.7976
 30
52.6236
 70
192
 0
VERTEX
 8
MANIGLIA
 10
-32.355
 20
-7.8212
 30
52.5172
 70
192
 0
VERTEX
 8
MANIGLIA
 10
-28.355
 20
-7.8212
 30
52.5172
 70
192
 0
VERTEX
 8
MANIGLIA
 10
28.3549
 20
-7.8212
 30
52.5172
 70
192
 0
VERTEX
 8
MANIGLIA
 10
32.3549
 20
-7.8212
 30
52.5172
 70
192
 0
VERTEX
 8
MANIGLIA
 10
-32.355
 20
-7.8354
 30
52.4091
 70
192
 0
VERTEX
 8
MANIGLIA
 10
-28.355
 20
-7.8354
 30
52.4091
 70
192
 0
VERTEX
 8
MANIGLIA
 10
28.3549
 20
-7.8354
 30
52.4091
 70
192
 0
VERTEX
 8
MANIGLIA
 10
32.3549
 20
-7.8354
 30
52.4091
 70
192
 0
VERTEX
 8
MANIGLIA
 10
-32.355
 20
-7.8402
 30
52.3001
 70
192
 0
VERTEX
 8
MANIGLIA
 10
-28.355
 20
-7.8402
 30
52.3001
 70
192
 0
VERTEX
 8
MANIGLIA
 10
28.3549
 20
-7.8402
 30
52.3001
 70
192
 0
VERTEX
 8
MANIGLIA
 10
32.3549
 20
-7.8402
 30
52.3001
 70
192
 0
VERTEX
 8
MANIGLIA
 10
-32.355
 20
-7.8354
 30
52.1912
 70
192
 0
VERTEX
 8
MANIGLIA
 10
-28.355
 20
-7.8354
 30
52.1912
 70
192
 0
VERTEX
 8
MANIGLIA
 10
28.3549
 20
-7.8354
 30
52.1912
 70
192
 0
VERTEX
 8
MANIGLIA
 10
32.3549
 20
-7.8354
 30
52.1912
 70
192
 0
VERTEX
 8
MANIGLIA
 10
-32.355
 20
-7.8212
 30
52.0831
 70
192
 0
VERTEX
 8
MANIGLIA
 10
-28.355
 20
-7.8212
 30
52.0831
 70
192
 0
VERTEX
 8
MANIGLIA
 10
28.3549
 20
-7.8212
 30
52.0831
 70
192
 0
VERTEX
 8
MANIGLIA
 10
-32.355
 20
-6.5902
 30
52.3001
 70
192
 0
VERTEX
 8
MANIGLIA
 10
-32.355
 20
-6.5902
 30
51.0501
 70
192
 0
VERTEX
 8
MANIGLIA
 10
-28.355
 20
-6.5902
 30
51.0501
 70
192
 0
VERTEX
 8
MANIGLIA
 10
28.3549
 20
-6.5902
 30
51.0501
 70
192
 0
VERTEX
 8
MANIGLIA
 10
32.3549
 20
-6.5902
 30
51.0501
 70
192
 0
VERTEX
 8
MANIGLIA
 10
-32.355
 20
-6.4812
 30
51.0549
 70
192
 0
VERTEX
 8
MANIGLIA
 10
-28.355
 20
-6.4812
 30
51.0549
 70
192
 0
VERTEX
 8
MANIGLIA
 10
28.3549
 20
-6.4812
 30
51.0549
 70
192
 0
VERTEX
 8
MANIGLIA
 10
32.3549
 20
-6.4812
 30
51.0549
 70
192
 0
VERTEX
 8
MANIGLIA
 10
-32.355
 20
-6.3731
 30
51.0691
 70
192
 0
VERTEX
 8
MANIGLIA
 10
-28.355
 20
-6.3731
 30
51.0691
 70
192
 0
VERTEX
 8
MANIGLIA
 10
28.3549
 20
-6.3731
 30
51.0691
 70
192
 0
VERTEX
 8
MANIGLIA
 10
32.3549
 20
-6.3731
 30
51.0691
 70
192
 0
VERTEX
 8
MANIGLIA
 10
-32.355
 20
-6.2666
 30
51.0927
 70
192
 0
VERTEX
 8
MANIGLIA
 10
-28.355
 20
-6.2666
 30
51.0927
 70
192
 0
VERTEX
 8
MANIGLIA
 10
28.3549
 20
-6.2666
 30
51.0927
 70
192
 0
VERTEX
 8
MANIGLIA
 10
32.3549
 20
-6.2666
 30
51.0927
 70
192
 0
VERTEX
 8
MANIGLIA
 10
-32.355
 20
-6.1626
 30
51.1255
 70
192
 0
VERTEX
 8
MANIGLIA
 10
-28.355
 20
-6.1626
 30
51.1255
 70
192
 0
VERTEX
 8
MANIGLIA
 10
28.3549
 20
-6.1626
 30
51.1255
 70
192
 0
VERTEX
 8
MANIGLIA
 10
32.3549
 20
-6.1626
 30
51.1255
 70
192
 0
VERTEX
 8
MANIGLIA
 10
-32.355
 20
-6.0619
 30
51.1672
 70
192
 0
VERTEX
 8
MANIGLIA
 10
-28.355
 20
-6.0619
 30
51.1672
 70
192
 0
VERTEX
 8
MANIGLIA
 10
28.3549
 20
-6.0619
 30
51.1672
 70
192
 0
VERTEX
 8
MANIGLIA
 10
32.3549
 20
-6.0619
 30
51.1672
 70
192
 0
VERTEX
 8
MANIGLIA
 10
-32.355
 20
-5.9044
 30
51.2503
 70
192
 0
VERTEX
 8
MANIGLIA
 10
-28.355
 20
-5.9044
 30
51.2503
 70
192
 0
VERTEX
 8
MANIGLIA
 10
28.3549
 20
-5.9044
 30
51.2503
 70
192
 0
VERTEX
 8
MANIGLIA
 10
32.3549
 20
-5.9044
 30
51.2503
 70
192
 0
VERTEX
 8
MANIGLIA
 10
-32.355
 20
-7.0177
 30
53.4747
 70
192
 0
VERTEX
 8
MANIGLIA
 10
-28.355
 20
-5.8732
 30
51.2762
 70
192
 0
VERTEX
 8
MANIGLIA
 10
28.3549
 20
-5.8732
 30
51.2762
 70
192
 0
VERTEX
 8
MANIGLIA
 10
28.3549
 20
-6.4812
 30
53.5454
 70
192
 0
VERTEX
 8
MANIGLIA
 10
-28.355
 20
-7.0177
 30
53.4747
 70
192
 0
VERTEX
 8
MANIGLIA
 10
-28.355
 20
-5.7867
 30
51.3426
 70
192
 0
VERTEX
 8
MANIGLIA
 10
28.3549
 20
-5.7867
 30
51.3426
 70
192
 0
VERTEX
 8
MANIGLIA
 10
-28.355
 20
-6.3731
 30
53.5311
 70
192
 0
VERTEX
 8
MANIGLIA
 10
28.3549
 20
-7.0177
 30
53.4747
 70
192
 0
VERTEX
 8
MANIGLIA
 10
-28.355
 20
-5.7063
 30
51.4162
 70
192
 0
VERTEX
 8
MANIGLIA
 10
28.3549
 20
-5.7063
 30
51.4162
 70
192
 0
VERTEX
 8
MANIGLIA
 10
28.3549
 20
-6.3731
 30
53.5311
 70
192
 0
VERTEX
 8
MANIGLIA
 10
32.3549
 20
-7.0177
 30
53.4747
 70
192
 0
VERTEX
 8
MANIGLIA
 10
-28.355
 20
-5.6326
 30
51.4966
 70
192
 0
VERTEX
 8
MANIGLIA
 10
28.3549
 20
-5.6326
 30
51.4966
 70
192
 0
VERTEX
 8
MANIGLIA
 10
32.3549
 20
-6.3731
 30
53.5311
 70
192
 0
VERTEX
 8
MANIGLIA
 10
-32.355
 20
-7.1184
 30
53.433
 70
192
 0
VERTEX
 8
MANIGLIA
 10
-28.355
 20
-5.5662
 30
51.5832
 70
192
 0
VERTEX
 8
MANIGLIA
 10
28.3549
 20
-5.5662
 30
51.5832
 70
192
 0
VERTEX
 8
MANIGLIA
 10
-32.355
 20
-6.4812
 30
53.5454
 70
192
 0
VERTEX
 8
MANIGLIA
 10
28.3563
 20
-4.3398
 30
51.2503
 70
192
 0
VERTEX
 8
MANIGLIA
 10
-28.355
 20
-5.5076
 30
51.6751
 70
192
 0
VERTEX
 8
MANIGLIA
 10
28.3549
 20
-5.5076
 30
51.6751
 70
192
 0
VERTEX
 8
MANIGLIA
 10
-28.355
 20
-6.4812
 30
53.5454
 70
192
 0
VERTEX
 8
MANIGLIA
 10
-32.356
 20
-4.3398
 30
53.3513
 70
192
 0
VERTEX
 8
MANIGLIA
 10
-28.355
 20
-5.4573
 30
51.7719
 70
192
 0
VERTEX
 8
MANIGLIA
 10
28.3549
 20
-5.4573
 30
51.7719
 70
192
 0
VERTEX
 8
MANIGLIA
 10
-32.355
 20
-6.6991
 30
53.5454
 70
192
 0
VERTEX
 8
MANIGLIA
 10
28.3563
 20
-4.3398
 30
53.3513
 70
192
 0
VERTEX
 8
MANIGLIA
 10
-28.355
 20
-5.4155
 30
51.8726
 70
192
 0
VERTEX
 8
MANIGLIA
 10
28.3549
 20
-5.4155
 30
51.8726
 70
192
 0
VERTEX
 8
MANIGLIA
 10
-28.355
 20
-6.6991
 30
53.5454
 70
192
 0
VERTEX
 8
MANIGLIA
 10
32.3563
 20
-4.3398
 30
51.2503
 70
192
 0
VERTEX
 8
MANIGLIA
 10
-28.355
 20
-5.3827
 30
51.9766
 70
192
 0
VERTEX
 8
MANIGLIA
 10
28.3549
 20
-5.3827
 30
51.9766
 70
192
 0
VERTEX
 8
MANIGLIA
 10
28.3549
 20
-6.6991
 30
53.5454
 70
192
 0
VERTEX
 8
MANIGLIA
 10
32.3563
 20
-4.3398
 30
53.3513
 70
192
 0
VERTEX
 8
MANIGLIA
 10
-28.355
 20
-5.3591
 30
52.0831
 70
192
 0
VERTEX
 8
MANIGLIA
 10
28.3549
 20
-5.3591
 30
52.0831
 70
192
 0
VERTEX
 8
MANIGLIA
 10
32.3549
 20
-6.6991
 30
53.5454
 70
192
 0
VERTEX
 8
MANIGLIA
 10
-32.356
 20
-2.3398
 30
53.3513
 70
192
 0
VERTEX
 8
MANIGLIA
 10
-28.355
 20
-5.3449
 30
52.1912
 70
192
 0
VERTEX
 8
MANIGLIA
 10
28.3549
 20
-5.3449
 30
52.1912
 70
192
 0
VERTEX
 8
MANIGLIA
 10
-32.355
 20
-6.8072
 30
53.5311
 70
192
 0
VERTEX
 8
MANIGLIA
 10
32.3563
 20
-2.3398
 30
51.2503
 70
192
 0
VERTEX
 8
MANIGLIA
 10
-28.355
 20
-5.3402
 30
52.3001
 70
192
 0
VERTEX
 8
MANIGLIA
 10
28.3549
 20
-5.3402
 30
52.3001
 70
192
 0
VERTEX
 8
MANIGLIA
 10
-28.355
 20
-6.8072
 30
53.5311
 70
192
 0
VERTEX
 8
MANIGLIA
 10
32.3563
 20
-2.3398
 30
53.3513
 70
192
 0
VERTEX
 8
MANIGLIA
 10
-28.355
 20
-5.3449
 30
52.4091
 70
192
 0
VERTEX
 8
MANIGLIA
 10
28.3549
 20
-5.3449
 30
52.4091
 70
192
 0
VERTEX
 8
MANIGLIA
 10
28.3549
 20
-6.8072
 30
53.5311
 70
192
 0
VERTEX
 8
MANIGLIA
 10
28.3563
 20
-2.3398
 30
51.2503
 70
192
 0
VERTEX
 8
MANIGLIA
 10
-28.355
 20
-5.3591
 30
52.5172
 70
192
 0
VERTEX
 8
MANIGLIA
 10
28.3549
 20
-5.3591
 30
52.5172
 70
192
 0
VERTEX
 8
MANIGLIA
 10
32.3549
 20
-6.8072
 30
53.5311
 70
192
 0
VERTEX
 8
MANIGLIA
 10
28.3563
 20
-2.3398
 30
53.3513
 70
192
 0
VERTEX
 8
MANIGLIA
 10
-28.355
 20
-5.3827
 30
52.6236
 70
192
 0
VERTEX
 8
MANIGLIA
 10
28.3549
 20
-5.3827
 30
52.6236
 70
192
 0
VERTEX
 8
MANIGLIA
 10
-32.355
 20
-6.9137
 30
53.5075
 70
192
 0
VERTEX
 8
MANIGLIA
 10
-32.356
 20
-4.3398
 30
51.2503
 70
192
 0
VERTEX
 8
MANIGLIA
 10
-28.355
 20
-5.4155
 30
52.7277
 70
192
 0
VERTEX
 8
MANIGLIA
 10
28.3549
 20
-5.4155
 30
52.7277
 70
192
 0
VERTEX
 8
MANIGLIA
 10
-28.355
 20
-6.9137
 30
53.5075
 70
192
 0
VERTEX
 8
MANIGLIA
 10
-28.356
 20
-4.3398
 30
53.3513
 70
192
 0
VERTEX
 8
MANIGLIA
 10
-28.355
 20
-5.4573
 30
52.8284
 70
192
 0
VERTEX
 8
MANIGLIA
 10
28.3549
 20
-5.4573
 30
52.8284
 70
192
 0
VERTEX
 8
MANIGLIA
 10
28.3549
 20
-6.9137
 30
53.5075
 70
192
 0
VERTEX
 8
MANIGLIA
 10
-28.356
 20
-2.3398
 30
51.2503
 70
192
 0
VERTEX
 8
MANIGLIA
 10
-28.355
 20
-5.5076
 30
52.9251
 70
192
 0
VERTEX
 8
MANIGLIA
 10
28.3549
 20
-5.5076
 30
52.9251
 70
192
 0
VERTEX
 8
MANIGLIA
 10
32.3549
 20
-6.9137
 30
53.5075
 70
192
 0
VERTEX
 8
MANIGLIA
 10
32.3549
 20
-6.5902
 30
52.3001
 70
192
 0
VERTEX
 8
MANIGLIA
 10
-28.355
 20
-5.5662
 30
53.0171
 70
192
 0
VERTEX
 8
MANIGLIA
 10
28.3549
 20
-5.5662
 30
53.0171
 70
192
 0
VERTEX
 8
MANIGLIA
 10
-28.355
 20
-6.5902
 30
53.5501
 70
192
 0
VERTEX
 8
MANIGLIA
 10
-28.356
 20
-4.3398
 30
51.2503
 70
192
 0
VERTEX
 8
MANIGLIA
 10
-28.355
 20
-5.6326
 30
53.1036
 70
192
 0
VERTEX
 8
MANIGLIA
 10
28.3549
 20
-5.6326
 30
53.1036
 70
192
 0
VERTEX
 8
MANIGLIA
 10
28.3549
 20
-6.5902
 30
53.5501
 70
192
 0
VERTEX
 8
MANIGLIA
 10
32.3549
 20
-6.5902
 30
52.3001
 70
192
 0
VERTEX
 8
MANIGLIA
 10
-28.355
 20
-5.7063
 30
53.184
 70
192
 0
VERTEX
 8
MANIGLIA
 10
28.3549
 20
-5.7063
 30
53.184
 70
192
 0
VERTEX
 8
MANIGLIA
 10
-32.355
 20
-6.5902
 30
53.5501
 70
192
 0
VERTEX
 8
MANIGLIA
 10
-28.356
 20
-2.3398
 30
53.3513
 70
192
 0
VERTEX
 8
MANIGLIA
 10
-28.355
 20
-5.7867
 30
53.2577
 70
192
 0
VERTEX
 8
MANIGLIA
 10
28.3549
 20
-5.7867
 30
53.2577
 70
192
 0
VERTEX
 8
MANIGLIA
 10
32.3549
 20
-6.4812
 30
53.5454
 70
192
 0
VERTEX
 8
MANIGLIA
 10
-32.356
 20
-2.3398
 30
51.2503
 70
192
 0
VERTEX
 8
MANIGLIA
 10
-28.355
 20
-5.8732
 30
53.3241
 70
192
 0
VERTEX
 8
MANIGLIA
 10
28.3549
 20
-5.8732
 30
53.3241
 70
192
 0
VERTEX
 8
MANIGLIA
 10
32.3549
 20
-6.5902
 30
53.5501
 70
192
 0
VERTEX
 8
MANIGLIA
 10
-32.355
 20
-5.9126
 30
53.3511
 70
192
 0
VERTEX
 8
MANIGLIA
 10
-28.355
 20
-5.9126
 30
53.3511
 70
192
 0
VERTEX
 8
MANIGLIA
 10
28.3549
 20
-5.9126
 30
53.3511
 70
192
 0
VERTEX
 8
MANIGLIA
 10
32.3549
 20
-5.9126
 30
53.3511
 70
192
 0
VERTEX
 8
MANIGLIA
 10
-32.355
 20
-6.0619
 30
53.433
 70
192
 0
VERTEX
 8
MANIGLIA
 10
-28.355
 20
-6.0619
 30
53.433
 70
192
 0
VERTEX
 8
MANIGLIA
 10
28.3549
 20
-6.0619
 30
53.433
 70
192
 0
VERTEX
 8
MANIGLIA
 10
32.3549
 20
-6.0619
 30
53.433
 70
192
 0
VERTEX
 8
MANIGLIA
 10
-32.355
 20
-6.1626
 30
53.4747
 70
192
 0
VERTEX
 8
MANIGLIA
 10
-28.355
 20
-6.1626
 30
53.4747
 70
192
 0
VERTEX
 8
MANIGLIA
 10
28.3549
 20
-6.1626
 30
53.4747
 70
192
 0
VERTEX
 8
MANIGLIA
 10
32.3549
 20
-6.1626
 30
53.4747
 70
192
 0
VERTEX
 8
MANIGLIA
 10
-32.355
 20
-6.2666
 30
53.5075
 70
192
 0
VERTEX
 8
MANIGLIA
 10
-28.355
 20
-6.2666
 30
53.5075
 70
192
 0
VERTEX
 8
MANIGLIA
 10
28.3549
 20
-6.2666
 30
53.5075
 70
192
 0
VERTEX
 8
MANIGLIA
 10
32.3549
 20
-6.2666
 30
53.5075
 70
192
 0
VERTEX
 8
MANIGLIA
 10
-32.355
 20
-6.3731
 30
53.5311
 70
192
 0
VERTEX
 8
MANIGLIA
 10
0
 20
0
 30
0
 70
128
 71
248
 72
247
 73
181
 74
189
 0
VERTEX
 8
MANIGLIA
 10
0
 20
0
 30
0
 70
128
 71
45
 72
41
 73
148
 74
148
 0
VERTEX
 8
MANIGLIA
 10
0
 20
0
 30
0
 70
128
 71
93
 72
94
 73
98
 74
97
 0
VERTEX
 8
MANIGLIA
 10
0
 20
0
 30
0
 70
128
 71
94
 72
95
 73
99
 74
98
 0
VERTEX
 8
MANIGLIA
 10
0
 20
0
 30
0
 70
128
 71
95
 72
96
 73
100
 74
99
 0
VERTEX
 8
MANIGLIA
 10
0
 20
0
 30
0
 70
128
 71
252
 72
64
 73
256
 74
256
 0
VERTEX
 8
MANIGLIA
 10
0
 20
0
 30
0
 70
128
 71
148
 72
41
 73
37
 74
37
 0
VERTEX
 8
MANIGLIA
 10
0
 20
0
 30
0
 70
128
 71
97
 72
98
 73
102
 74
101
 0
VERTEX
 8
MANIGLIA
 10
0
 20
0
 30
0
 70
128
 71
98
 72
99
 73
103
 74
102
 0
VERTEX
 8
MANIGLIA
 10
0
 20
0
 30
0
 70
128
 71
99
 72
100
 73
104
 74
103
 0
VERTEX
 8
MANIGLIA
 10
0
 20
0
 30
0
 70
128
 71
205
 72
209
 73
181
 74
173
 0
VERTEX
 8
MANIGLIA
 10
0
 20
0
 30
0
 70
128
 71
148
 72
37
 73
33
 74
33
 0
VERTEX
 8
MANIGLIA
 10
0
 20
0
 30
0
 70
128
 71
101
 72
102
 73
106
 74
105
 0
VERTEX
 8
MANIGLIA
 10
0
 20
0
 30
0
 70
128
 71
102
 72
103
 73
107
 74
106
 0
VERTEX
 8
MANIGLIA
 10
0
 20
0
 30
0
 70
128
 71
103
 72
104
 73
108
 74
107
 0
VERTEX
 8
MANIGLIA
 10
0
 20
0
 30
0
 70
128
 71
148
 72
33
 73
29
 74
29
 0
VERTEX
 8
MANIGLIA
 10
0
 20
0
 30
0
 70
128
 71
148
 72
29
 73
25
 74
25
 0
VERTEX
 8
MANIGLIA
 10
0
 20
0
 30
0
 70
128
 71
105
 72
106
 73
110
 74
109
 0
VERTEX
 8
MANIGLIA
 10
0
 20
0
 30
0
 70
128
 71
106
 72
107
 73
111
 74
110
 0
VERTEX
 8
MANIGLIA
 10
0
 20
0
 30
0
 70
128
 71
107
 72
108
 73
112
 74
111
 0
VERTEX
 8
MANIGLIA
 10
0
 20
0
 30
0
 70
128
 71
181
 72
209
 73
201
 74
189
 0
VERTEX
 8
MANIGLIA
 10
0
 20
0
 30
0
 70
128
 71
148
 72
25
 73
21
 74
21
 0
VERTEX
 8
MANIGLIA
 10
0
 20
0
 30
0
 70
128
 71
109
 72
110
 73
114
 74
113
 0
VERTEX
 8
MANIGLIA
 10
0
 20
0
 30
0
 70
128
 71
110
 72
111
 73
115
 74
114
 0
VERTEX
 8
MANIGLIA
 10
0
 20
0
 30
0
 70
128
 71
111
 72
112
 73
116
 74
115
 0
VERTEX
 8
MANIGLIA
 10
0
 20
0
 30
0
 70
128
 71
205
 72
173
 73
185
 74
197
 0
VERTEX
 8
MANIGLIA
 10
0
 20
0
 30
0
 70
128
 71
148
 72
21
 73
17
 74
17
 0
VERTEX
 8
MANIGLIA
 10
0
 20
0
 30
0
 70
128
 71
113
 72
114
 73
118
 74
117
 0
VERTEX
 8
MANIGLIA
 10
0
 20
0
 30
0
 70
128
 71
114
 72
115
 73
119
 74
118
 0
VERTEX
 8
MANIGLIA
 10
0
 20
0
 30
0
 70
128
 71
115
 72
116
 73
120
 74
119
 0
VERTEX
 8
MANIGLIA
 10
0
 20
0
 30
0
 70
128
 71
185
 72
189
 73
201
 74
197
 0
VERTEX
 8
MANIGLIA
 10
0
 20
0
 30
0
 70
128
 71
148
 72
17
 73
13
 74
13
 0
VERTEX
 8
MANIGLIA
 10
0
 20
0
 30
0
 70
128
 71
117
 72
118
 73
122
 74
121
 0
VERTEX
 8
MANIGLIA
 10
0
 20
0
 30
0
 70
128
 71
118
 72
119
 73
123
 74
122
 0
VERTEX
 8
MANIGLIA
 10
0
 20
0
 30
0
 70
128
 71
119
 72
120
 73
1
 74
123
 0
VERTEX
 8
MANIGLIA
 10
0
 20
0
 30
0
 70
128
 71
261
 72
160
 73
176
 74
172
 0
VERTEX
 8
MANIGLIA
 10
0
 20
0
 30
0
 70
128
 71
148
 72
13
 73
9
 74
9
 0
VERTEX
 8
MANIGLIA
 10
0
 20
0
 30
0
 70
128
 71
121
 72
122
 73
3
 74
2
 0
VERTEX
 8
MANIGLIA
 10
0
 20
0
 30
0
 70
128
 71
122
 72
123
 73
4
 74
3
 0
VERTEX
 8
MANIGLIA
 10
0
 20
0
 30
0
 70
128
 71
123
 72
1
 73
5
 74
4
 0
VERTEX
 8
MANIGLIA
 10
0
 20
0
 30
0
 70
128
 71
160
 72
164
 73
156
 74
176
 0
VERTEX
 8
MANIGLIA
 10
0
 20
0
 30
0
 70
128
 71
148
 72
9
 73
5
 74
5
 0
VERTEX
 8
MANIGLIA
 10
0
 20
0
 30
0
 70
128
 71
2
 72
3
 73
7
 74
6
 0
VERTEX
 8
MANIGLIA
 10
0
 20
0
 30
0
 70
128
 71
3
 72
4
 73
8
 74
7
 0
VERTEX
 8
MANIGLIA
 10
0
 20
0
 30
0
 70
128
 71
4
 72
5
 73
9
 74
8
 0
VERTEX
 8
MANIGLIA
 10
0
 20
0
 30
0
 70
128
 71
197
 72
201
 73
209
 74
205
 0
VERTEX
 8
MANIGLIA
 10
0
 20
0
 30
0
 70
128
 71
148
 72
5
 73
1
 74
1
 0
VERTEX
 8
MANIGLIA
 10
0
 20
0
 30
0
 70
128
 71
6
 72
7
 73
11
 74
10
 0
VERTEX
 8
MANIGLIA
 10
0
 20
0
 30
0
 70
128
 71
7
 72
8
 73
12
 74
11
 0
VERTEX
 8
MANIGLIA
 10
0
 20
0
 30
0
 70
128
 71
8
 72
9
 73
13
 74
12
 0
VERTEX
 8
MANIGLIA
 10
0
 20
0
 30
0
 70
128
 71
241
 72
193
 73
177
 74
213
 0
VERTEX
 8
MANIGLIA
 10
0
 20
0
 30
0
 70
128
 71
148
 72
1
 73
120
 74
120
 0
VERTEX
 8
MANIGLIA
 10
0
 20
0
 30
0
 70
128
 71
10
 72
11
 73
15
 74
14
 0
VERTEX
 8
MANIGLIA
 10
0
 20
0
 30
0
 70
128
 71
11
 72
12
 73
16
 74
15
 0
VERTEX
 8
MANIGLIA
 10
0
 20
0
 30
0
 70
128
 71
12
 72
13
 73
17
 74
16
 0
VERTEX
 8
MANIGLIA
 10
0
 20
0
 30
0
 70
128
 71
177
 72
193
 73
237
 74
217
 0
VERTEX
 8
MANIGLIA
 10
0
 20
0
 30
0
 70
128
 71
148
 72
120
 73
116
 74
116
 0
VERTEX
 8
MANIGLIA
 10
0
 20
0
 30
0
 70
128
 71
14
 72
15
 73
19
 74
18
 0
VERTEX
 8
MANIGLIA
 10
0
 20
0
 30
0
 70
128
 71
15
 72
16
 73
20
 74
19
 0
VERTEX
 8
MANIGLIA
 10
0
 20
0
 30
0
 70
128
 71
16
 72
17
 73
21
 74
20
 0
VERTEX
 8
MANIGLIA
 10
0
 20
0
 30
0
 70
128
 71
259
 72
260
 73
168
 74
164
 0
VERTEX
 8
MANIGLIA
 10
0
 20
0
 30
0
 70
128
 71
148
 72
116
 73
252
 74
252
 0
VERTEX
 8
MANIGLIA
 10
0
 20
0
 30
0
 70
128
 71
18
 72
19
 73
23
 74
22
 0
VERTEX
 8
MANIGLIA
 10
0
 20
0
 30
0
 70
128
 71
19
 72
20
 73
24
 74
23
 0
VERTEX
 8
MANIGLIA
 10
0
 20
0
 30
0
 70
128
 71
20
 72
21
 73
25
 74
24
 0
VERTEX
 8
MANIGLIA
 10
0
 20
0
 30
0
 70
128
 71
164
 72
168
 73
240
 74
156
 0
VERTEX
 8
MANIGLIA
 10
0
 20
0
 30
0
 70
128
 71
49
 72
148
 73
144
 74
144
 0
VERTEX
 8
MANIGLIA
 10
0
 20
0
 30
0
 70
128
 71
22
 72
23
 73
27
 74
26
 0
VERTEX
 8
MANIGLIA
 10
0
 20
0
 30
0
 70
128
 71
172
 72
176
 73
228
 74
236
 0
VERTEX
 8
MANIGLIA
 10
0
 20
0
 30
0
 70
128
 71
176
 72
156
 73
232
 74
228
 0
VERTEX
 8
MANIGLIA
 10
0
 20
0
 30
0
 70
128
 71
156
 72
240
 73
244
 74
232
 0
VERTEX
 8
MANIGLIA
 10
0
 20
0
 30
0
 70
128
 71
241
 72
213
 73
229
 74
221
 0
VERTEX
 8
MANIGLIA
 10
0
 20
0
 30
0
 70
128
 71
53
 72
144
 73
140
 74
140
 0
VERTEX
 8
MANIGLIA
 10
0
 20
0
 30
0
 70
128
 71
236
 72
228
 73
184
 74
180
 0
VERTEX
 8
MANIGLIA
 10
0
 20
0
 30
0
 70
128
 71
228
 72
232
 73
188
 74
184
 0
VERTEX
 8
MANIGLIA
 10
0
 20
0
 30
0
 70
128
 71
232
 72
244
 73
192
 74
188
 0
VERTEX
 8
MANIGLIA
 10
0
 20
0
 30
0
 70
128
 71
229
 72
217
 73
237
 74
221
 0
VERTEX
 8
MANIGLIA
 10
0
 20
0
 30
0
 70
128
 71
57
 72
140
 73
136
 74
136
 0
VERTEX
 8
MANIGLIA
 10
0
 20
0
 30
0
 70
128
 71
180
 72
184
 73
200
 74
196
 0
VERTEX
 8
MANIGLIA
 10
0
 20
0
 30
0
 70
128
 71
184
 72
188
 73
204
 74
200
 0
VERTEX
 8
MANIGLIA
 10
0
 20
0
 30
0
 70
128
 71
188
 72
192
 73
208
 74
204
 0
VERTEX
 8
MANIGLIA
 10
0
 20
0
 30
0
 70
128
 71
256
 72
165
 73
260
 74
260
 0
VERTEX
 8
MANIGLIA
 10
0
 20
0
 30
0
 70
128
 71
61
 72
136
 73
132
 74
132
 0
VERTEX
 8
MANIGLIA
 10
0
 20
0
 30
0
 70
128
 71
196
 72
200
 73
216
 74
212
 0
VERTEX
 8
MANIGLIA
 10
0
 20
0
 30
0
 70
128
 71
200
 72
204
 73
220
 74
216
 0
VERTEX
 8
MANIGLIA
 10
0
 20
0
 30
0
 70
128
 71
204
 72
208
 73
224
 74
220
 0
VERTEX
 8
MANIGLIA
 10
0
 20
0
 30
0
 70
128
 71
242
 72
243
 73
247
 74
246
 0
VERTEX
 8
MANIGLIA
 10
0
 20
0
 30
0
 70
128
 71
116
 72
112
 73
252
 74
252
 0
VERTEX
 8
MANIGLIA
 10
0
 20
0
 30
0
 70
128
 71
212
 72
216
 73
157
 74
153
 0
VERTEX
 8
MANIGLIA
 10
0
 20
0
 30
0
 70
128
 71
216
 72
220
 73
161
 74
157
 0
VERTEX
 8
MANIGLIA
 10
0
 20
0
 30
0
 70
128
 71
220
 72
224
 73
165
 74
161
 0
VERTEX
 8
MANIGLIA
 10
0
 20
0
 30
0
 70
128
 71
260
 72
224
 73
168
 74
168
 0
VERTEX
 8
MANIGLIA
 10
0
 20
0
 30
0
 70
128
 71
112
 72
108
 73
252
 74
252
 0
VERTEX
 8
MANIGLIA
 10
0
 20
0
 30
0
 70
128
 71
153
 72
157
 73
62
 74
169
 0
VERTEX
 8
MANIGLIA
 10
0
 20
0
 30
0
 70
128
 71
157
 72
161
 73
63
 74
62
 0
VERTEX
 8
MANIGLIA
 10
0
 20
0
 30
0
 70
128
 71
161
 72
165
 73
64
 74
63
 0
VERTEX
 8
MANIGLIA
 10
0
 20
0
 30
0
 70
128
 71
246
 72
245
 73
177
 74
217
 0
VERTEX
 8
MANIGLIA
 10
0
 20
0
 30
0
 70
128
 71
108
 72
104
 73
252
 74
252
 0
VERTEX
 8
MANIGLIA
 10
0
 20
0
 30
0
 70
128
 71
169
 72
62
 73
66
 74
65
 0
VERTEX
 8
MANIGLIA
 10
0
 20
0
 30
0
 70
128
 71
62
 72
63
 73
67
 74
66
 0
VERTEX
 8
MANIGLIA
 10
0
 20
0
 30
0
 70
128
 71
63
 72
64
 73
68
 74
67
 0
VERTEX
 8
MANIGLIA
 10
0
 20
0
 30
0
 70
128
 71
245
 72
246
 73
250
 74
249
 0
VERTEX
 8
MANIGLIA
 10
0
 20
0
 30
0
 70
128
 71
104
 72
100
 73
252
 74
252
 0
VERTEX
 8
MANIGLIA
 10
0
 20
0
 30
0
 70
128
 71
65
 72
66
 73
70
 74
69
 0
VERTEX
 8
MANIGLIA
 10
0
 20
0
 30
0
 70
128
 71
66
 72
67
 73
71
 74
70
 0
VERTEX
 8
MANIGLIA
 10
0
 20
0
 30
0
 70
128
 71
67
 72
68
 73
72
 74
71
 0
VERTEX
 8
MANIGLIA
 10
0
 20
0
 30
0
 70
128
 71
246
 72
247
 73
251
 74
250
 0
VERTEX
 8
MANIGLIA
 10
0
 20
0
 30
0
 70
128
 71
100
 72
96
 73
252
 74
252
 0
VERTEX
 8
MANIGLIA
 10
0
 20
0
 30
0
 70
128
 71
69
 72
70
 73
74
 74
73
 0
VERTEX
 8
MANIGLIA
 10
0
 20
0
 30
0
 70
128
 71
70
 72
71
 73
75
 74
74
 0
VERTEX
 8
MANIGLIA
 10
0
 20
0
 30
0
 70
128
 71
71
 72
72
 73
76
 74
75
 0
VERTEX
 8
MANIGLIA
 10
0
 20
0
 30
0
 70
128
 71
242
 72
246
 73
217
 74
217
 0
VERTEX
 8
MANIGLIA
 10
0
 20
0
 30
0
 70
128
 71
96
 72
92
 73
252
 74
252
 0
VERTEX
 8
MANIGLIA
 10
0
 20
0
 30
0
 70
128
 71
73
 72
74
 73
78
 74
77
 0
VERTEX
 8
MANIGLIA
 10
0
 20
0
 30
0
 70
128
 71
74
 72
75
 73
79
 74
78
 0
VERTEX
 8
MANIGLIA
 10
0
 20
0
 30
0
 70
128
 71
75
 72
76
 73
80
 74
79
 0
VERTEX
 8
MANIGLIA
 10
0
 20
0
 30
0
 70
128
 71
229
 72
186
 73
190
 74
190
 0
VERTEX
 8
MANIGLIA
 10
0
 20
0
 30
0
 70
128
 71
92
 72
88
 73
252
 74
252
 0
VERTEX
 8
MANIGLIA
 10
0
 20
0
 30
0
 70
128
 71
77
 72
78
 73
82
 74
81
 0
VERTEX
 8
MANIGLIA
 10
0
 20
0
 30
0
 70
128
 71
78
 72
79
 73
83
 74
82
 0
VERTEX
 8
MANIGLIA
 10
0
 20
0
 30
0
 70
128
 71
79
 72
80
 73
84
 74
83
 0
VERTEX
 8
MANIGLIA
 10
0
 20
0
 30
0
 70
128
 71
242
 72
217
 73
238
 74
238
 0
VERTEX
 8
MANIGLIA
 10
0
 20
0
 30
0
 70
128
 71
88
 72
84
 73
252
 74
252
 0
VERTEX
 8
MANIGLIA
 10
0
 20
0
 30
0
 70
128
 71
81
 72
82
 73
86
 74
85
 0
VERTEX
 8
MANIGLIA
 10
0
 20
0
 30
0
 70
128
 71
82
 72
83
 73
87
 74
86
 0
VERTEX
 8
MANIGLIA
 10
0
 20
0
 30
0
 70
128
 71
83
 72
84
 73
88
 74
87
 0
VERTEX
 8
MANIGLIA
 10
0
 20
0
 30
0
 70
128
 71
229
 72
190
 73
194
 74
194
 0
VERTEX
 8
MANIGLIA
 10
0
 20
0
 30
0
 70
128
 71
84
 72
80
 73
252
 74
252
 0
VERTEX
 8
MANIGLIA
 10
0
 20
0
 30
0
 70
128
 71
85
 72
86
 73
90
 74
89
 0
VERTEX
 8
MANIGLIA
 10
0
 20
0
 30
0
 70
128
 71
86
 72
87
 73
91
 74
90
 0
VERTEX
 8
MANIGLIA
 10
0
 20
0
 30
0
 70
128
 71
87
 72
88
 73
92
 74
91
 0
VERTEX
 8
MANIGLIA
 10
0
 20
0
 30
0
 70
128
 71
229
 72
194
 73
198
 74
198
 0
VERTEX
 8
MANIGLIA
 10
0
 20
0
 30
0
 70
128
 71
80
 72
76
 73
252
 74
252
 0
VERTEX
 8
MANIGLIA
 10
0
 20
0
 30
0
 70
128
 71
89
 72
90
 73
94
 74
93
 0
VERTEX
 8
MANIGLIA
 10
0
 20
0
 30
0
 70
128
 71
90
 72
91
 73
95
 74
94
 0
VERTEX
 8
MANIGLIA
 10
0
 20
0
 30
0
 70
128
 71
91
 72
92
 73
96
 74
95
 0
VERTEX
 8
MANIGLIA
 10
0
 20
0
 30
0
 70
128
 71
76
 72
72
 73
252
 74
252
 0
VERTEX
 8
MANIGLIA
 10
0
 20
0
 30
0
 70
128
 71
125
 72
126
 73
130
 74
129
 0
VERTEX
 8
MANIGLIA
 10
0
 20
0
 30
0
 70
128
 71
126
 72
127
 73
131
 74
130
 0
VERTEX
 8
MANIGLIA
 10
0
 20
0
 30
0
 70
128
 71
127
 72
128
 73
132
 74
131
 0
VERTEX
 8
MANIGLIA
 10
0
 20
0
 30
0
 70
128
 71
217
 72
229
 73
198
 74
198
 0
VERTEX
 8
MANIGLIA
 10
0
 20
0
 30
0
 70
128
 71
72
 72
68
 73
252
 74
252
 0
VERTEX
 8
MANIGLIA
 10
0
 20
0
 30
0
 70
128
 71
129
 72
130
 73
134
 74
133
 0
VERTEX
 8
MANIGLIA
 10
0
 20
0
 30
0
 70
128
 71
130
 72
131
 73
135
 74
134
 0
VERTEX
 8
MANIGLIA
 10
0
 20
0
 30
0
 70
128
 71
131
 72
132
 73
136
 74
135
 0
VERTEX
 8
MANIGLIA
 10
0
 20
0
 30
0
 70
128
 71
217
 72
202
 73
206
 74
206
 0
VERTEX
 8
MANIGLIA
 10
0
 20
0
 30
0
 70
128
 71
252
 72
68
 73
64
 74
64
 0
VERTEX
 8
MANIGLIA
 10
0
 20
0
 30
0
 70
128
 71
133
 72
134
 73
138
 74
137
 0
VERTEX
 8
MANIGLIA
 10
0
 20
0
 30
0
 70
128
 71
134
 72
135
 73
139
 74
138
 0
VERTEX
 8
MANIGLIA
 10
0
 20
0
 30
0
 70
128
 71
135
 72
136
 73
140
 74
139
 0
VERTEX
 8
MANIGLIA
 10
0
 20
0
 30
0
 70
128
 71
217
 72
206
 73
210
 74
210
 0
VERTEX
 8
MANIGLIA
 10
0
 20
0
 30
0
 70
128
 71
256
 72
64
 73
165
 74
165
 0
VERTEX
 8
MANIGLIA
 10
0
 20
0
 30
0
 70
128
 71
137
 72
138
 73
142
 74
141
 0
VERTEX
 8
MANIGLIA
 10
0
 20
0
 30
0
 70
128
 71
138
 72
139
 73
143
 74
142
 0
VERTEX
 8
MANIGLIA
 10
0
 20
0
 30
0
 70
128
 71
139
 72
140
 73
144
 74
143
 0
VERTEX
 8
MANIGLIA
 10
0
 20
0
 30
0
 70
128
 71
217
 72
210
 73
214
 74
214
 0
VERTEX
 8
MANIGLIA
 10
0
 20
0
 30
0
 70
128
 71
260
 72
165
 73
224
 74
224
 0
VERTEX
 8
MANIGLIA
 10
0
 20
0
 30
0
 70
128
 71
141
 72
142
 73
146
 74
145
 0
VERTEX
 8
MANIGLIA
 10
0
 20
0
 30
0
 70
128
 71
142
 72
143
 73
147
 74
146
 0
VERTEX
 8
MANIGLIA
 10
0
 20
0
 30
0
 70
128
 71
143
 72
144
 73
148
 74
147
 0
VERTEX
 8
MANIGLIA
 10
0
 20
0
 30
0
 70
128
 71
217
 72
214
 73
218
 74
218
 0
VERTEX
 8
MANIGLIA
 10
0
 20
0
 30
0
 70
128
 71
168
 72
224
 73
208
 74
208
 0
VERTEX
 8
MANIGLIA
 10
0
 20
0
 30
0
 70
128
 71
145
 72
146
 73
150
 74
149
 0
VERTEX
 8
MANIGLIA
 10
0
 20
0
 30
0
 70
128
 71
146
 72
147
 73
151
 74
150
 0
VERTEX
 8
MANIGLIA
 10
0
 20
0
 30
0
 70
128
 71
147
 72
148
 73
152
 74
151
 0
VERTEX
 8
MANIGLIA
 10
0
 20
0
 30
0
 70
128
 71
217
 72
218
 73
222
 74
222
 0
VERTEX
 8
MANIGLIA
 10
0
 20
0
 30
0
 70
128
 71
240
 72
208
 73
192
 74
192
 0
VERTEX
 8
MANIGLIA
 10
0
 20
0
 30
0
 70
128
 71
23
 72
24
 73
28
 74
27
 0
VERTEX
 8
MANIGLIA
 10
0
 20
0
 30
0
 70
128
 71
150
 72
151
 73
155
 74
154
 0
VERTEX
 8
MANIGLIA
 10
0
 20
0
 30
0
 70
128
 71
60
 72
61
 73
128
 74
127
 0
VERTEX
 8
MANIGLIA
 10
0
 20
0
 30
0
 70
128
 71
217
 72
222
 73
226
 74
226
 0
VERTEX
 8
MANIGLIA
 10
0
 20
0
 30
0
 70
128
 71
247
 72
243
 73
181
 74
181
 0
VERTEX
 8
MANIGLIA
 10
0
 20
0
 30
0
 70
128
 71
24
 72
25
 73
29
 74
28
 0
VERTEX
 8
MANIGLIA
 10
0
 20
0
 30
0
 70
128
 71
154
 72
155
 73
159
 74
158
 0
VERTEX
 8
MANIGLIA
 10
0
 20
0
 30
0
 70
128
 71
42
 72
43
 73
47
 74
46
 0
VERTEX
 8
MANIGLIA
 10
0
 20
0
 30
0
 70
128
 71
217
 72
226
 73
230
 74
230
 0
VERTEX
 8
MANIGLIA
 10
0
 20
0
 30
0
 70
128
 71
243
 72
239
 73
181
 74
181
 0
VERTEX
 8
MANIGLIA
 10
0
 20
0
 30
0
 70
128
 71
217
 72
230
 73
234
 74
234
 0
VERTEX
 8
MANIGLIA
 10
0
 20
0
 30
0
 70
128
 71
158
 72
159
 73
163
 74
162
 0
VERTEX
 8
MANIGLIA
 10
0
 20
0
 30
0
 70
128
 71
43
 72
44
 73
48
 74
47
 0
VERTEX
 8
MANIGLIA
 10
0
 20
0
 30
0
 70
128
 71
217
 72
234
 73
238
 74
238
 0
VERTEX
 8
MANIGLIA
 10
0
 20
0
 30
0
 70
128
 71
239
 72
235
 73
181
 74
181
 0
VERTEX
 8
MANIGLIA
 10
0
 20
0
 30
0
 70
128
 71
235
 72
231
 73
181
 74
181
 0
VERTEX
 8
MANIGLIA
 10
0
 20
0
 30
0
 70
128
 71
162
 72
163
 73
167
 74
166
 0
VERTEX
 8
MANIGLIA
 10
0
 20
0
 30
0
 70
128
 71
44
 72
45
 73
49
 74
48
 0
VERTEX
 8
MANIGLIA
 10
0
 20
0
 30
0
 70
128
 71
229
 72
150
 73
154
 74
154
 0
VERTEX
 8
MANIGLIA
 10
0
 20
0
 30
0
 70
128
 71
231
 72
227
 73
181
 74
181
 0
VERTEX
 8
MANIGLIA
 10
0
 20
0
 30
0
 70
128
 71
26
 72
27
 73
31
 74
30
 0
VERTEX
 8
MANIGLIA
 10
0
 20
0
 30
0
 70
128
 71
166
 72
167
 73
171
 74
170
 0
VERTEX
 8
MANIGLIA
 10
0
 20
0
 30
0
 70
128
 71
229
 72
154
 73
158
 74
158
 0
VERTEX
 8
MANIGLIA
 10
0
 20
0
 30
0
 70
128
 71
229
 72
158
 73
162
 74
162
 0
VERTEX
 8
MANIGLIA
 10
0
 20
0
 30
0
 70
128
 71
227
 72
223
 73
181
 74
181
 0
VERTEX
 8
MANIGLIA
 10
0
 20
0
 30
0
 70
128
 71
27
 72
28
 73
32
 74
31
 0
VERTEX
 8
MANIGLIA
 10
0
 20
0
 30
0
 70
128
 71
170
 72
171
 73
175
 74
174
 0
VERTEX
 8
MANIGLIA
 10
0
 20
0
 30
0
 70
128
 71
223
 72
219
 73
181
 74
181
 0
VERTEX
 8
MANIGLIA
 10
0
 20
0
 30
0
 70
128
 71
229
 72
162
 73
166
 74
166
 0
VERTEX
 8
MANIGLIA
 10
0
 20
0
 30
0
 70
128
 71
219
 72
215
 73
181
 74
181
 0
VERTEX
 8
MANIGLIA
 10
0
 20
0
 30
0
 70
128
 71
28
 72
29
 73
33
 74
32
 0
VERTEX
 8
MANIGLIA
 10
0
 20
0
 30
0
 70
128
 71
174
 72
175
 73
179
 74
178
 0
VERTEX
 8
MANIGLIA
 10
0
 20
0
 30
0
 70
128
 71
46
 72
47
 73
51
 74
50
 0
VERTEX
 8
MANIGLIA
 10
0
 20
0
 30
0
 70
128
 71
229
 72
166
 73
170
 74
170
 0
VERTEX
 8
MANIGLIA
 10
0
 20
0
 30
0
 70
128
 71
215
 72
211
 73
181
 74
181
 0
VERTEX
 8
MANIGLIA
 10
0
 20
0
 30
0
 70
128
 71
229
 72
170
 73
174
 74
174
 0
VERTEX
 8
MANIGLIA
 10
0
 20
0
 30
0
 70
128
 71
178
 72
179
 73
183
 74
182
 0
VERTEX
 8
MANIGLIA
 10
0
 20
0
 30
0
 70
128
 71
47
 72
48
 73
52
 74
51
 0
VERTEX
 8
MANIGLIA
 10
0
 20
0
 30
0
 70
128
 71
229
 72
174
 73
178
 74
178
 0
VERTEX
 8
MANIGLIA
 10
0
 20
0
 30
0
 70
128
 71
211
 72
207
 73
181
 74
181
 0
VERTEX
 8
MANIGLIA
 10
0
 20
0
 30
0
 70
128
 71
207
 72
203
 73
181
 74
181
 0
VERTEX
 8
MANIGLIA
 10
0
 20
0
 30
0
 70
128
 71
182
 72
183
 73
187
 74
186
 0
VERTEX
 8
MANIGLIA
 10
0
 20
0
 30
0
 70
128
 71
48
 72
49
 73
53
 74
52
 0
VERTEX
 8
MANIGLIA
 10
0
 20
0
 30
0
 70
128
 71
229
 72
178
 73
182
 74
182
 0
VERTEX
 8
MANIGLIA
 10
0
 20
0
 30
0
 70
128
 71
181
 72
203
 73
199
 74
199
 0
VERTEX
 8
MANIGLIA
 10
0
 20
0
 30
0
 70
128
 71
30
 72
31
 73
35
 74
34
 0
VERTEX
 8
MANIGLIA
 10
0
 20
0
 30
0
 70
128
 71
186
 72
187
 73
191
 74
190
 0
VERTEX
 8
MANIGLIA
 10
0
 20
0
 30
0
 70
128
 71
229
 72
182
 73
186
 74
186
 0
VERTEX
 8
MANIGLIA
 10
0
 20
0
 30
0
 70
128
 71
149
 72
150
 73
229
 74
213
 0
VERTEX
 8
MANIGLIA
 10
0
 20
0
 30
0
 70
128
 71
199
 72
195
 73
173
 74
173
 0
VERTEX
 8
MANIGLIA
 10
0
 20
0
 30
0
 70
128
 71
31
 72
32
 73
36
 74
35
 0
VERTEX
 8
MANIGLIA
 10
0
 20
0
 30
0
 70
128
 71
190
 72
191
 73
195
 74
194
 0
VERTEX
 8
MANIGLIA
 10
0
 20
0
 30
0
 70
128
 71
195
 72
191
 73
173
 74
173
 0
VERTEX
 8
MANIGLIA
 10
0
 20
0
 30
0
 70
128
 71
247
 72
248
 73
252
 74
251
 0
VERTEX
 8
MANIGLIA
 10
0
 20
0
 30
0
 70
128
 71
191
 72
187
 73
173
 74
173
 0
VERTEX
 8
MANIGLIA
 10
0
 20
0
 30
0
 70
128
 71
32
 72
33
 73
37
 74
36
 0
VERTEX
 8
MANIGLIA
 10
0
 20
0
 30
0
 70
128
 71
194
 72
195
 73
199
 74
198
 0
VERTEX
 8
MANIGLIA
 10
0
 20
0
 30
0
 70
128
 71
50
 72
51
 73
55
 74
54
 0
VERTEX
 8
MANIGLIA
 10
0
 20
0
 30
0
 70
128
 71
168
 72
208
 73
240
 74
240
 0
VERTEX
 8
MANIGLIA
 10
0
 20
0
 30
0
 70
128
 71
187
 72
183
 73
173
 74
173
 0
VERTEX
 8
MANIGLIA
 10
0
 20
0
 30
0
 70
128
 71
249
 72
250
 73
254
 74
253
 0
VERTEX
 8
MANIGLIA
 10
0
 20
0
 30
0
 70
128
 71
198
 72
199
 73
203
 74
202
 0
VERTEX
 8
MANIGLIA
 10
0
 20
0
 30
0
 70
128
 71
51
 72
52
 73
56
 74
55
 0
VERTEX
 8
MANIGLIA
 10
0
 20
0
 30
0
 70
128
 71
221
 72
237
 73
193
 74
241
 0
VERTEX
 8
MANIGLIA
 10
0
 20
0
 30
0
 70
128
 71
183
 72
179
 73
173
 74
173
 0
VERTEX
 8
MANIGLIA
 10
0
 20
0
 30
0
 70
128
 71
179
 72
175
 73
173
 74
173
 0
VERTEX
 8
MANIGLIA
 10
0
 20
0
 30
0
 70
128
 71
202
 72
203
 73
207
 74
206
 0
VERTEX
 8
MANIGLIA
 10
0
 20
0
 30
0
 70
128
 71
52
 72
53
 73
57
 74
56
 0
VERTEX
 8
MANIGLIA
 10
0
 20
0
 30
0
 70
128
 71
250
 72
251
 73
255
 74
254
 0
VERTEX
 8
MANIGLIA
 10
0
 20
0
 30
0
 70
128
 71
175
 72
171
 73
173
 74
173
 0
VERTEX
 8
MANIGLIA
 10
0
 20
0
 30
0
 70
128
 71
34
 72
35
 73
39
 74
38
 0
VERTEX
 8
MANIGLIA
 10
0
 20
0
 30
0
 70
128
 71
206
 72
207
 73
211
 74
210
 0
VERTEX
 8
MANIGLIA
 10
0
 20
0
 30
0
 70
128
 71
251
 72
252
 73
256
 74
255
 0
VERTEX
 8
MANIGLIA
 10
0
 20
0
 30
0
 70
128
 71
217
 72
198
 73
202
 74
202
 0
VERTEX
 8
MANIGLIA
 10
0
 20
0
 30
0
 70
128
 71
171
 72
167
 73
173
 74
173
 0
VERTEX
 8
MANIGLIA
 10
0
 20
0
 30
0
 70
128
 71
35
 72
36
 73
40
 74
39
 0
VERTEX
 8
MANIGLIA
 10
0
 20
0
 30
0
 70
128
 71
210
 72
211
 73
215
 74
214
 0
VERTEX
 8
MANIGLIA
 10
0
 20
0
 30
0
 70
128
 71
167
 72
163
 73
173
 74
173
 0
VERTEX
 8
MANIGLIA
 10
0
 20
0
 30
0
 70
128
 71
163
 72
159
 73
173
 74
173
 0
VERTEX
 8
MANIGLIA
 10
0
 20
0
 30
0
 70
128
 71
159
 72
155
 73
173
 74
173
 0
VERTEX
 8
MANIGLIA
 10
0
 20
0
 30
0
 70
128
 71
36
 72
37
 73
41
 74
40
 0
VERTEX
 8
MANIGLIA
 10
0
 20
0
 30
0
 70
128
 71
214
 72
215
 73
219
 74
218
 0
VERTEX
 8
MANIGLIA
 10
0
 20
0
 30
0
 70
128
 71
54
 72
55
 73
59
 74
58
 0
VERTEX
 8
MANIGLIA
 10
0
 20
0
 30
0
 70
128
 71
240
 72
192
 73
244
 74
244
 0
VERTEX
 8
MANIGLIA
 10
0
 20
0
 30
0
 70
128
 71
155
 72
151
 73
173
 74
173
 0
VERTEX
 8
MANIGLIA
 10
0
 20
0
 30
0
 70
128
 71
253
 72
254
 73
258
 74
257
 0
VERTEX
 8
MANIGLIA
 10
0
 20
0
 30
0
 70
128
 71
218
 72
219
 73
223
 74
222
 0
VERTEX
 8
MANIGLIA
 10
0
 20
0
 30
0
 70
128
 71
55
 72
56
 73
60
 74
59
 0
VERTEX
 8
MANIGLIA
 10
0
 20
0
 30
0
 70
128
 71
151
 72
152
 73
185
 74
173
 0
VERTEX
 8
MANIGLIA
 10
0
 20
0
 30
0
 70
128
 71
152
 72
189
 73
185
 74
185
 0
VERTEX
 8
MANIGLIA
 10
0
 20
0
 30
0
 70
128
 71
45
 72
148
 73
49
 74
49
 0
VERTEX
 8
MANIGLIA
 10
0
 20
0
 30
0
 70
128
 71
222
 72
223
 73
227
 74
226
 0
VERTEX
 8
MANIGLIA
 10
0
 20
0
 30
0
 70
128
 71
56
 72
57
 73
61
 74
60
 0
VERTEX
 8
MANIGLIA
 10
0
 20
0
 30
0
 70
128
 71
254
 72
255
 73
259
 74
258
 0
VERTEX
 8
MANIGLIA
 10
0
 20
0
 30
0
 70
128
 71
148
 72
252
 73
248
 74
248
 0
VERTEX
 8
MANIGLIA
 10
0
 20
0
 30
0
 70
128
 71
38
 72
39
 73
43
 74
42
 0
VERTEX
 8
MANIGLIA
 10
0
 20
0
 30
0
 70
128
 71
226
 72
227
 73
231
 74
230
 0
VERTEX
 8
MANIGLIA
 10
0
 20
0
 30
0
 70
128
 71
255
 72
256
 73
260
 74
259
 0
VERTEX
 8
MANIGLIA
 10
0
 20
0
 30
0
 70
128
 71
181
 72
199
 73
173
 74
173
 0
VERTEX
 8
MANIGLIA
 10
0
 20
0
 30
0
 70
128
 71
49
 72
144
 73
53
 74
53
 0
VERTEX
 8
MANIGLIA
 10
0
 20
0
 30
0
 70
128
 71
39
 72
40
 73
44
 74
43
 0
VERTEX
 8
MANIGLIA
 10
0
 20
0
 30
0
 70
128
 71
230
 72
231
 73
235
 74
234
 0
VERTEX
 8
MANIGLIA
 10
0
 20
0
 30
0
 70
128
 71
53
 72
140
 73
57
 74
57
 0
VERTEX
 8
MANIGLIA
 10
0
 20
0
 30
0
 70
128
 71
257
 72
258
 73
160
 74
261
 0
VERTEX
 8
MANIGLIA
 10
0
 20
0
 30
0
 70
128
 71
57
 72
136
 73
61
 74
61
 0
VERTEX
 8
MANIGLIA
 10
0
 20
0
 30
0
 70
128
 71
40
 72
41
 73
45
 74
44
 0
VERTEX
 8
MANIGLIA
 10
0
 20
0
 30
0
 70
128
 71
234
 72
235
 73
239
 74
238
 0
VERTEX
 8
MANIGLIA
 10
0
 20
0
 30
0
 70
128
 71
58
 72
59
 73
126
 74
125
 0
VERTEX
 8
MANIGLIA
 10
0
 20
0
 30
0
 70
128
 71
258
 72
259
 73
164
 74
160
 0
VERTEX
 8
MANIGLIA
 10
0
 20
0
 30
0
 70
128
 71
61
 72
132
 73
128
 74
128
 0
VERTEX
 8
MANIGLIA
 10
0
 20
0
 30
0
 70
128
 71
152
 72
248
 73
189
 74
189
 0
VERTEX
 8
MANIGLIA
 10
0
 20
0
 30
0
 70
128
 71
238
 72
239
 73
243
 74
242
 0
VERTEX
 8
MANIGLIA
 10
0
 20
0
 30
0
 70
128
 71
59
 72
60
 73
127
 74
126
 0
VERTEX
 8
MANIGLIA
 10
0
 20
0
 30
0
 70
128
 71
152
 72
148
 73
248
 74
248
 0
VERTEX
 8
MANIGLIA
 10
0
 20
0
 30
0
 70
128
 71
145
 72
245
 73
249
 74
249
 0
VERTEX
 8
MANIGLIA
 10
0
 20
0
 30
0
 70
128
 71
245
 72
145
 73
149
 74
149
 0
VERTEX
 8
MANIGLIA
 10
0
 20
0
 30
0
 70
128
 71
177
 72
245
 73
149
 74
149
 0
VERTEX
 8
MANIGLIA
 10
0
 20
0
 30
0
 70
128
 71
249
 72
253
 73
169
 74
169
 0
VERTEX
 8
MANIGLIA
 10
0
 20
0
 30
0
 70
128
 71
249
 72
65
 73
69
 74
69
 0
VERTEX
 8
MANIGLIA
 10
0
 20
0
 30
0
 70
128
 71
249
 72
69
 73
73
 74
73
 0
VERTEX
 8
MANIGLIA
 10
0
 20
0
 30
0
 70
128
 71
249
 72
73
 73
77
 74
77
 0
VERTEX
 8
MANIGLIA
 10
0
 20
0
 30
0
 70
128
 71
249
 72
77
 73
81
 74
81
 0
VERTEX
 8
MANIGLIA
 10
0
 20
0
 30
0
 70
128
 71
249
 72
81
 73
85
 74
85
 0
VERTEX
 8
MANIGLIA
 10
0
 20
0
 30
0
 70
128
 71
249
 72
85
 73
89
 74
89
 0
VERTEX
 8
MANIGLIA
 10
0
 20
0
 30
0
 70
128
 71
249
 72
89
 73
93
 74
93
 0
VERTEX
 8
MANIGLIA
 10
0
 20
0
 30
0
 70
128
 71
249
 72
93
 73
97
 74
97
 0
VERTEX
 8
MANIGLIA
 10
0
 20
0
 30
0
 70
128
 71
249
 72
97
 73
101
 74
101
 0
VERTEX
 8
MANIGLIA
 10
0
 20
0
 30
0
 70
128
 71
249
 72
101
 73
105
 74
105
 0
VERTEX
 8
MANIGLIA
 10
0
 20
0
 30
0
 70
128
 71
249
 72
105
 73
109
 74
109
 0
VERTEX
 8
MANIGLIA
 10
0
 20
0
 30
0
 70
128
 71
249
 72
109
 73
113
 74
113
 0
VERTEX
 8
MANIGLIA
 10
0
 20
0
 30
0
 70
128
 71
253
 72
257
 73
153
 74
153
 0
VERTEX
 8
MANIGLIA
 10
0
 20
0
 30
0
 70
128
 71
257
 72
261
 73
212
 74
212
 0
VERTEX
 8
MANIGLIA
 10
0
 20
0
 30
0
 70
128
 71
261
 72
172
 73
196
 74
196
 0
VERTEX
 8
MANIGLIA
 10
0
 20
0
 30
0
 70
128
 71
172
 72
236
 73
180
 74
180
 0
VERTEX
 8
MANIGLIA
 10
0
 20
0
 30
0
 70
128
 71
113
 72
117
 73
145
 74
145
 0
VERTEX
 8
MANIGLIA
 10
0
 20
0
 30
0
 70
128
 71
117
 72
121
 73
145
 74
145
 0
VERTEX
 8
MANIGLIA
 10
0
 20
0
 30
0
 70
128
 71
121
 72
2
 73
145
 74
145
 0
VERTEX
 8
MANIGLIA
 10
0
 20
0
 30
0
 70
128
 71
2
 72
6
 73
145
 74
145
 0
VERTEX
 8
MANIGLIA
 10
0
 20
0
 30
0
 70
128
 71
6
 72
10
 73
145
 74
145
 0
VERTEX
 8
MANIGLIA
 10
0
 20
0
 30
0
 70
128
 71
10
 72
14
 73
145
 74
145
 0
VERTEX
 8
MANIGLIA
 10
0
 20
0
 30
0
 70
128
 71
14
 72
18
 73
145
 74
145
 0
VERTEX
 8
MANIGLIA
 10
0
 20
0
 30
0
 70
128
 71
18
 72
22
 73
145
 74
145
 0
VERTEX
 8
MANIGLIA
 10
0
 20
0
 30
0
 70
128
 71
22
 72
26
 73
145
 74
145
 0
VERTEX
 8
MANIGLIA
 10
0
 20
0
 30
0
 70
128
 71
26
 72
30
 73
145
 74
145
 0
VERTEX
 8
MANIGLIA
 10
0
 20
0
 30
0
 70
128
 71
30
 72
34
 73
145
 74
145
 0
VERTEX
 8
MANIGLIA
 10
0
 20
0
 30
0
 70
128
 71
34
 72
38
 73
145
 74
145
 0
VERTEX
 8
MANIGLIA
 10
0
 20
0
 30
0
 70
128
 71
145
 72
38
 73
42
 74
42
 0
VERTEX
 8
MANIGLIA
 10
0
 20
0
 30
0
 70
128
 71
141
 72
145
 73
46
 74
46
 0
VERTEX
 8
MANIGLIA
 10
0
 20
0
 30
0
 70
128
 71
137
 72
141
 73
50
 74
50
 0
VERTEX
 8
MANIGLIA
 10
0
 20
0
 30
0
 70
128
 71
133
 72
137
 73
54
 74
54
 0
VERTEX
 8
MANIGLIA
 10
0
 20
0
 30
0
 70
128
 71
129
 72
133
 73
58
 74
58
 0
VERTEX
 8
MANIGLIA
 10
0
 20
0
 30
0
 70
128
 71
145
 72
249
 73
113
 74
113
 0
VERTEX
 8
MANIGLIA
 10
0
 20
0
 30
0
 70
128
 71
177
 72
149
 73
213
 74
213
 0
VERTEX
 8
MANIGLIA
 10
0
 20
0
 30
0
 70
128
 71
249
 72
169
 73
65
 74
65
 0
VERTEX
 8
MANIGLIA
 10
0
 20
0
 30
0
 70
128
 71
253
 72
153
 73
169
 74
169
 0
VERTEX
 8
MANIGLIA
 10
0
 20
0
 30
0
 70
128
 71
257
 72
212
 73
153
 74
153
 0
VERTEX
 8
MANIGLIA
 10
0
 20
0
 30
0
 70
128
 71
261
 72
196
 73
212
 74
212
 0
VERTEX
 8
MANIGLIA
 10
0
 20
0
 30
0
 70
128
 71
172
 72
180
 73
196
 74
196
 0
VERTEX
 8
MANIGLIA
 10
0
 20
0
 30
0
 70
128
 71
145
 72
42
 73
46
 74
46
 0
VERTEX
 8
MANIGLIA
 10
0
 20
0
 30
0
 70
128
 71
141
 72
46
 73
50
 74
50
 0
VERTEX
 8
MANIGLIA
 10
0
 20
0
 30
0
 70
128
 71
137
 72
50
 73
54
 74
54
 0
VERTEX
 8
MANIGLIA
 10
0
 20
0
 30
0
 70
128
 71
133
 72
54
 73
58
 74
58
 0
VERTEX
 8
MANIGLIA
 10
0
 20
0
 30
0
 70
128
 71
129
 72
58
 73
125
 74
125
 0
SEQEND
 0
POLYLINE
 8
ANTA_CORNICE
 66
1
 10
0.0
 20
0.0
 30
0.0
 70
64
 71
32
 72
32
 0
VERTEX
 8
ANTA_CORNICE
 10
-37.5902
 20
-2.2
 30
2.0007
 70
192
 0
VERTEX
 8
ANTA_CORNICE
 10
-37.5902
 20
-2.2
 30
14.0007
 70
192
 0
VERTEX
 8
ANTA_CORNICE
 10
-37.5902
 20
-2.2
 30
44.0007
 70
192
 0
VERTEX
 8
ANTA_CORNICE
 10
-37.5902
 20
-2.2
 30
56.0007
 70
192
 0
VERTEX
 8
ANTA_CORNICE
 10
-25.0652
 20
-2.2
 30
2.0007
 70
192
 0
VERTEX
 8
ANTA_CORNICE
 10
-25.0652
 20
-2.2
 30
14.0007
 70
192
 0
VERTEX
 8
ANTA_CORNICE
 10
-25.0652
 20
-2.2
 30
44.0007
 70
192
 0
VERTEX
 8
ANTA_CORNICE
 10
-25.0652
 20
-2.2
 30
56.0007
 70
192
 0
VERTEX
 8
ANTA_CORNICE
 10
25.0348
 20
-2.2
 30
2.0007
 70
192
 0
VERTEX
 8
ANTA_CORNICE
 10
25.0348
 20
-2.2
 30
14.0007
 70
192
 0
VERTEX
 8
ANTA_CORNICE
 10
25.0348
 20
-2.2
 30
44.0007
 70
192
 0
VERTEX
 8
ANTA_CORNICE
 10
25.0348
 20
-2.2
 30
56.0007
 70
192
 0
VERTEX
 8
ANTA_CORNICE
 10
37.5598
 20
-2.2
 30
2.0007
 70
192
 0
VERTEX
 8
ANTA_CORNICE
 10
37.5598
 20
-2.2
 30
14.0007
 70
192
 0
VERTEX
 8
ANTA_CORNICE
 10
37.5598
 20
-2.2
 30
44.0007
 70
192
 0
VERTEX
 8
ANTA_CORNICE
 10
37.5598
 20
-2.2
 30
56.0007
 70
192
 0
VERTEX
 8
ANTA_CORNICE
 10
37.5598
 20
-1.7
 30
2.0007
 70
192
 0
VERTEX
 8
ANTA_CORNICE
 10
37.5598
 20
-1.7
 30
14.0007
 70
192
 0
VERTEX
 8
ANTA_CORNICE
 10
37.5598
 20
-1.7
 30
44.0007
 70
192
 0
VERTEX
 8
ANTA_CORNICE
 10
37.5598
 20
-1.7
 30
56.0007
 70
192
 0
VERTEX
 8
ANTA_CORNICE
 10
25.0348
 20
-1.7
 30
2.0007
 70
192
 0
VERTEX
 8
ANTA_CORNICE
 10
25.0348
 20
-1.7
 30
14.0007
 70
192
 0
VERTEX
 8
ANTA_CORNICE
 10
25.0348
 20
-1.7
 30
44.0007
 70
192
 0
VERTEX
 8
ANTA_CORNICE
 10
25.0348
 20
-1.7
 30
56.0007
 70
192
 0
VERTEX
 8
ANTA_CORNICE
 10
-25.0652
 20
-1.7
 30
2.0007
 70
192
 0
VERTEX
 8
ANTA_CORNICE
 10
-25.0652
 20
-1.7
 30
14.0007
 70
192
 0
VERTEX
 8
ANTA_CORNICE
 10
-25.0652
 20
-1.7
 30
44.0007
 70
192
 0
VERTEX
 8
ANTA_CORNICE
 10
-25.0652
 20
-1.7
 30
56.0007
 70
192
 0
VERTEX
 8
ANTA_CORNICE
 10
-37.5902
 20
-1.7
 30
2.0007
 70
192
 0
VERTEX
 8
ANTA_CORNICE
 10
-37.5902
 20
-1.7
 30
14.0007
 70
192
 0
VERTEX
 8
ANTA_CORNICE
 10
-37.5902
 20
-1.7
 30
44.0007
 70
192
 0
VERTEX
 8
ANTA_CORNICE
 10
-37.5902
 20
-1.7
 30
56.0007
 70
192
 0
VERTEX
 8
ANTA_CORNICE
 10
0
 20
0
 30
0
 70
128
 71
1
 72
2
 73
6
 74
5
 0
VERTEX
 8
ANTA_CORNICE
 10
0
 20
0
 30
0
 70
128
 71
5
 72
6
 73
10
 74
9
 0
VERTEX
 8
ANTA_CORNICE
 10
0
 20
0
 30
0
 70
128
 71
9
 72
10
 73
14
 74
13
 0
VERTEX
 8
ANTA_CORNICE
 10
0
 20
0
 30
0
 70
128
 71
2
 72
3
 73
7
 74
6
 0
VERTEX
 8
ANTA_CORNICE
 10
0
 20
0
 30
0
 70
128
 71
21
 72
9
 73
13
 74
17
 0
VERTEX
 8
ANTA_CORNICE
 10
0
 20
0
 30
0
 70
128
 71
10
 72
11
 73
15
 74
14
 0
VERTEX
 8
ANTA_CORNICE
 10
0
 20
0
 30
0
 70
128
 71
3
 72
4
 73
8
 74
7
 0
VERTEX
 8
ANTA_CORNICE
 10
0
 20
0
 30
0
 70
128
 71
7
 72
8
 73
12
 74
11
 0
VERTEX
 8
ANTA_CORNICE
 10
0
 20
0
 30
0
 70
128
 71
11
 72
12
 73
16
 74
15
 0
VERTEX
 8
ANTA_CORNICE
 10
0
 20
0
 30
0
 70
128
 71
13
 72
14
 73
18
 74
17
 0
VERTEX
 8
ANTA_CORNICE
 10
0
 20
0
 30
0
 70
128
 71
14
 72
15
 73
19
 74
18
 0
VERTEX
 8
ANTA_CORNICE
 10
0
 20
0
 30
0
 70
128
 71
15
 72
16
 73
20
 74
19
 0
VERTEX
 8
ANTA_CORNICE
 10
0
 20
0
 30
0
 70
128
 71
17
 72
18
 73
22
 74
21
 0
VERTEX
 8
ANTA_CORNICE
 10
0
 20
0
 30
0
 70
128
 71
21
 72
22
 73
26
 74
25
 0
VERTEX
 8
ANTA_CORNICE
 10
0
 20
0
 30
0
 70
128
 71
25
 72
26
 73
30
 74
29
 0
VERTEX
 8
ANTA_CORNICE
 10
0
 20
0
 30
0
 70
128
 71
18
 72
19
 73
23
 74
22
 0
VERTEX
 8
ANTA_CORNICE
 10
0
 20
0
 30
0
 70
128
 71
25
 72
5
 73
9
 74
21
 0
VERTEX
 8
ANTA_CORNICE
 10
0
 20
0
 30
0
 70
128
 71
26
 72
27
 73
31
 74
30
 0
VERTEX
 8
ANTA_CORNICE
 10
0
 20
0
 30
0
 70
128
 71
19
 72
20
 73
24
 74
23
 0
VERTEX
 8
ANTA_CORNICE
 10
0
 20
0
 30
0
 70
128
 71
23
 72
24
 73
28
 74
27
 0
VERTEX
 8
ANTA_CORNICE
 10
0
 20
0
 30
0
 70
128
 71
27
 72
28
 73
32
 74
31
 0
VERTEX
 8
ANTA_CORNICE
 10
0
 20
0
 30
0
 70
128
 71
29
 72
30
 73
2
 74
1
 0
VERTEX
 8
ANTA_CORNICE
 10
0
 20
0
 30
0
 70
128
 71
30
 72
31
 73
3
 74
2
 0
VERTEX
 8
ANTA_CORNICE
 10
0
 20
0
 30
0
 70
128
 71
31
 72
32
 73
4
 74
3
 0
VERTEX
 8
ANTA_CORNICE
 10
0
 20
0
 30
0
 70
128
 71
4
 72
32
 73
28
 74
8
 0
VERTEX
 8
ANTA_CORNICE
 10
0
 20
0
 30
0
 70
128
 71
8
 72
28
 73
24
 74
12
 0
VERTEX
 8
ANTA_CORNICE
 10
0
 20
0
 30
0
 70
128
 71
12
 72
24
 73
20
 74
16
 0
VERTEX
 8
ANTA_CORNICE
 10
0
 20
0
 30
0
 70
128
 71
29
 72
1
 73
5
 74
25
 0
VERTEX
 8
ANTA_CORNICE
 10
0
 20
0
 30
0
 70
128
 71
23
 72
27
 73
7
 74
11
 0
VERTEX
 8
ANTA_CORNICE
 10
0
 20
0
 30
0
 70
128
 71
22
 72
23
 73
11
 74
10
 0
VERTEX
 8
ANTA_CORNICE
 10
0
 20
0
 30
0
 70
128
 71
26
 72
22
 73
10
 74
6
 0
VERTEX
 8
ANTA_CORNICE
 10
0
 20
0
 30
0
 70
128
 71
27
 72
26
 73
6
 74
7
 0
SEQEND
 0
POLYLINE
 8
ANTA_FINESTRA
 66
1
 10
0.0
 20
0.0
 30
0.0
 70
64
 71
8
 72
6
 0
VERTEX
 8
ANTA_FINESTRA
 10
25.05
 20
-2.2
 30
14.1603
 70
192
 0
VERTEX
 8
ANTA_FINESTRA
 10
25.05
 20
-2.2
 30
44.1603
 70
192
 0
VERTEX
 8
ANTA_FINESTRA
 10
-25.05
 20
-1.7
 30
44.1603
 70
192
 0
VERTEX
 8
ANTA_FINESTRA
 10
25.05
 20
-1.7
 30
14.1603
 70
192
 0
VERTEX
 8
ANTA_FINESTRA
 10
25.05
 20
-1.7
 30
44.1603
 70
192
 0
VERTEX
 8
ANTA_FINESTRA
 10
-25.05
 20
-2.2
 30
14.1603
 70
192
 0
VERTEX
 8
ANTA_FINESTRA
 10
-25.05
 20
-2.2
 30
44.1603
 70
192
 0
VERTEX
 8
ANTA_FINESTRA
 10
-25.05
 20
-1.7
 30
14.1603
 70
192
 0
VERTEX
 8
ANTA_FINESTRA
 10
0
 20
0
 30
0
 70
128
 71
6
 72
7
 73
2
 74
1
 0
VERTEX
 8
ANTA_FINESTRA
 10
0
 20
0
 30
0
 70
128
 71
4
 72
5
 73
3
 74
8
 0
VERTEX
 8
ANTA_FINESTRA
 10
0
 20
0
 30
0
 70
128
 71
8
 72
3
 73
7
 74
6
 0
VERTEX
 8
ANTA_FINESTRA
 10
0
 20
0
 30
0
 70
128
 71
3
 72
5
 73
2
 74
7
 0
VERTEX
 8
ANTA_FINESTRA
 10
0
 20
0
 30
0
 70
128
 71
1
 72
2
 73
5
 74
4
 0
VERTEX
 8
ANTA_FINESTRA
 10
0
 20
0
 30
0
 70
128
 71
6
 72
1
 73
4
 74
8
 0
SEQEND
 0
ENDSEC
 0
EOF
