 0
SECTION
 2
HEADER
 9
$ACADVER
 1
AC1009
 0
ENDSEC
 0
SECTION
 2
TABLES
 0
TABLE
 2
LTYPE
 70
1
 0
LTYPE
 2
CONTINUOUS
 70
64
 3
solid line
 72
65
 73
0
 40
0.0
 0
ENDTAB
 0
TABLE
 2
LAYER
 70
6
 0
LAYER
 2
0
 70
0
 62
7
 6
CONTINUOUS
 0
LAYER
 2
F6RT30S2_-_RADIANT_COOKTOP_600
 70
64
 62
7
 6
CONTINUOUS
 0
LAYER
 2
DISCO_6
 70
64
 62
253
 6
CONTINUOUS
 0
LAYER
 2
DISCO_5
 70
64
 62
253
 6
CONTINUOUS
 0
LAYER
 2
DISCO_4
 70
64
 62
253
 6
CONTINUOUS
 0
LAYER
 2
DISCO_3
 70
64
 62
253
 6
CONTINUOUS
 0
LAYER
 2
DISCO_2
 70
64
 62
253
 6
CONTINUOUS
 0
LAYER
 2
DISCO_1
 70
64
 62
253
 6
CONTINUOUS
 0
LAYER
 2
DISCO
 70
64
 62
253
 6
CONTINUOUS
 0
LAYER
 2
BORDO
 70
64
 62
253
 6
CONTINUOUS
 0
LAYER
 2
PIANO
 70
64
 62
39
 6
CONTINUOUS
 0
LAYER
 2
BASE
 70
64
 62
253
 6
CONTINUOUS
 0
ENDTAB
 0
ENDSEC
 0
SECTION
 2
BLOCKS
 0
ENDSEC
 0
SECTION
 2
ENTITIES
 0
POLYLINE
 8
DISCO_6
 66
1
 10
0.0
 20
0.0
 30
0.0
 70
64
 71
288
 72
192
 0
VERTEX
 8
DISCO_6
 10
26.4199
 20
-9.5694
 30
0.4501
 70
192
 0
VERTEX
 8
DISCO_6
 10
26.3699
 20
-9.5694
 30
0.4501
 70
192
 0
VERTEX
 8
DISCO_6
 10
26.3199
 20
-9.5694
 30
0.4501
 70
192
 0
VERTEX
 8
DISCO_6
 10
26.3955
 20
-8.8234
 30
0.4501
 70
192
 0
VERTEX
 8
DISCO_6
 10
26.3456
 20
-8.8267
 30
0.4501
 70
192
 0
VERTEX
 8
DISCO_6
 10
26.2957
 20
-8.83
 30
0.4501
 70
192
 0
VERTEX
 8
DISCO_6
 10
26.3223
 20
-8.0807
 30
0.4501
 70
192
 0
VERTEX
 8
DISCO_6
 10
26.2728
 20
-8.0872
 30
0.4501
 70
192
 0
VERTEX
 8
DISCO_6
 10
26.2232
 20
-8.0937
 30
0.4501
 70
192
 0
VERTEX
 8
DISCO_6
 10
26.2008
 20
-7.3443
 30
0.4501
 70
192
 0
VERTEX
 8
DISCO_6
 10
26.1517
 20
-7.3541
 30
0.4501
 70
192
 0
VERTEX
 8
DISCO_6
 10
26.1027
 20
-7.3638
 30
0.4501
 70
192
 0
VERTEX
 8
DISCO_6
 10
26.0313
 20
-6.6174
 30
0.4501
 70
192
 0
VERTEX
 8
DISCO_6
 10
25.983
 20
-6.6304
 30
0.4501
 70
192
 0
VERTEX
 8
DISCO_6
 10
25.9347
 20
-6.6433
 30
0.4501
 70
192
 0
VERTEX
 8
DISCO_6
 10
25.8146
 20
-5.9032
 30
0.4501
 70
192
 0
VERTEX
 8
DISCO_6
 10
25.7673
 20
-5.9193
 30
0.4501
 70
192
 0
VERTEX
 8
DISCO_6
 10
25.7199
 20
-5.9354
 30
0.4501
 70
192
 0
VERTEX
 8
DISCO_6
 10
25.5517
 20
-5.2047
 30
0.4501
 70
192
 0
VERTEX
 8
DISCO_6
 10
25.5055
 20
-5.2239
 30
0.4501
 70
192
 0
VERTEX
 8
DISCO_6
 10
25.4593
 20
-5.243
 30
0.4501
 70
192
 0
VERTEX
 8
DISCO_6
 10
25.2437
 20
-4.5249
 30
0.4501
 70
192
 0
VERTEX
 8
DISCO_6
 10
25.1989
 20
-4.547
 30
0.4501
 70
192
 0
VERTEX
 8
DISCO_6
 10
25.154
 20
-4.5691
 30
0.4501
 70
192
 0
VERTEX
 8
DISCO_6
 10
24.8919
 20
-3.8667
 30
0.4501
 70
192
 0
VERTEX
 8
DISCO_6
 10
24.8486
 20
-3.8917
 30
0.4501
 70
192
 0
VERTEX
 8
DISCO_6
 10
24.8053
 20
-3.9167
 30
0.4501
 70
192
 0
VERTEX
 8
DISCO_6
 10
24.4978
 20
-3.2329
 30
0.4501
 70
192
 0
VERTEX
 8
DISCO_6
 10
24.4562
 20
-3.2607
 30
0.4501
 70
192
 0
VERTEX
 8
DISCO_6
 10
24.4146
 20
-3.2884
 30
0.4501
 70
192
 0
VERTEX
 8
DISCO_6
 10
24.063
 20
-2.6262
 30
0.4501
 70
192
 0
VERTEX
 8
DISCO_6
 10
24.0233
 20
-2.6567
 30
0.4501
 70
192
 0
VERTEX
 8
DISCO_6
 10
23.9837
 20
-2.6871
 30
0.4501
 70
192
 0
VERTEX
 8
DISCO_6
 10
23.5895
 20
-2.0493
 30
0.4501
 70
192
 0
VERTEX
 8
DISCO_6
 10
23.5519
 20
-2.0822
 30
0.4501
 70
192
 0
VERTEX
 8
DISCO_6
 10
23.5143
 20
-2.1152
 30
0.4501
 70
192
 0
VERTEX
 8
DISCO_6
 10
23.0793
 20
-1.5045
 30
0.4501
 70
192
 0
VERTEX
 8
DISCO_6
 10
23.044
 20
-1.5399
 30
0.4501
 70
192
 0
VERTEX
 8
DISCO_6
 10
23.0086
 20
-1.5753
 30
0.4501
 70
192
 0
VERTEX
 8
DISCO_6
 10
22.5346
 20
-0.9943
 30
0.4501
 70
192
 0
VERTEX
 8
DISCO_6
 10
22.5016
 20
-1.0319
 30
0.4501
 70
192
 0
VERTEX
 8
DISCO_6
 10
22.4687
 20
-1.0695
 30
0.4501
 70
192
 0
VERTEX
 8
DISCO_6
 10
21.9577
 20
-0.5209
 30
0.4501
 70
192
 0
VERTEX
 8
DISCO_6
 10
21.9272
 20
-0.5605
 30
0.4501
 70
192
 0
VERTEX
 8
DISCO_6
 10
21.8968
 20
-0.6002
 30
0.4501
 70
192
 0
VERTEX
 8
DISCO_6
 10
21.351
 20
-0.0861
 30
0.4501
 70
192
 0
VERTEX
 8
DISCO_6
 10
21.3232
 20
-0.1277
 30
0.4501
 70
192
 0
VERTEX
 8
DISCO_6
 10
21.2954
 20
-0.1693
 30
0.4501
 70
192
 0
VERTEX
 8
DISCO_6
 10
20.7172
 20
0.308
 30
0.4501
 70
192
 0
VERTEX
 8
DISCO_6
 10
20.6922
 20
0.2647
 30
0.4501
 70
192
 0
VERTEX
 8
DISCO_6
 10
20.6672
 20
0.2214
 30
0.4501
 70
192
 0
VERTEX
 8
DISCO_6
 10
20.059
 20
0.6598
 30
0.4501
 70
192
 0
VERTEX
 8
DISCO_6
 10
20.0369
 20
0.615
 30
0.4501
 70
192
 0
VERTEX
 8
DISCO_6
 10
20.0147
 20
0.5701
 30
0.4501
 70
192
 0
VERTEX
 8
DISCO_6
 10
19.3792
 20
0.9678
 30
0.4501
 70
192
 0
VERTEX
 8
DISCO_6
 10
19.36
 20
0.9216
 30
0.4501
 70
192
 0
VERTEX
 8
DISCO_6
 10
19.3409
 20
0.8754
 30
0.4501
 70
192
 0
VERTEX
 8
DISCO_6
 10
18.6806
 20
1.2307
 30
0.4501
 70
192
 0
VERTEX
 8
DISCO_6
 10
18.6646
 20
1.1834
 30
0.4501
 70
192
 0
VERTEX
 8
DISCO_6
 10
18.6485
 20
1.136
 30
0.4501
 70
192
 0
VERTEX
 8
DISCO_6
 10
17.9664
 20
1.4474
 30
0.4501
 70
192
 0
VERTEX
 8
DISCO_6
 10
17.9535
 20
1.3991
 30
0.4501
 70
192
 0
VERTEX
 8
DISCO_6
 10
17.9405
 20
1.3508
 30
0.4501
 70
192
 0
VERTEX
 8
DISCO_6
 10
17.2396
 20
1.6169
 30
0.4501
 70
192
 0
VERTEX
 8
DISCO_6
 10
17.2298
 20
1.5678
 30
0.4501
 70
192
 0
VERTEX
 8
DISCO_6
 10
17.2201
 20
1.5188
 30
0.4501
 70
192
 0
VERTEX
 8
DISCO_6
 10
16.5032
 20
1.7385
 30
0.4501
 70
192
 0
VERTEX
 8
DISCO_6
 10
16.4967
 20
1.6889
 30
0.4501
 70
192
 0
VERTEX
 8
DISCO_6
 10
16.4901
 20
1.6393
 30
0.4501
 70
192
 0
VERTEX
 8
DISCO_6
 10
15.7604
 20
1.8116
 30
0.4501
 70
192
 0
VERTEX
 8
DISCO_6
 10
15.7572
 20
1.7617
 30
0.4501
 70
192
 0
VERTEX
 8
DISCO_6
 10
15.7539
 20
1.7118
 30
0.4501
 70
192
 0
VERTEX
 8
DISCO_6
 10
15.0145
 20
1.836
 30
0.4501
 70
192
 0
VERTEX
 8
DISCO_6
 10
15.0145
 20
1.786
 30
0.4501
 70
192
 0
VERTEX
 8
DISCO_6
 10
15.0145
 20
1.736
 30
0.4501
 70
192
 0
VERTEX
 8
DISCO_6
 10
14.2685
 20
1.8116
 30
0.4501
 70
192
 0
VERTEX
 8
DISCO_6
 10
14.2718
 20
1.7617
 30
0.4501
 70
192
 0
VERTEX
 8
DISCO_6
 10
14.2751
 20
1.7118
 30
0.4501
 70
192
 0
VERTEX
 8
DISCO_6
 10
13.5258
 20
1.7385
 30
0.4501
 70
192
 0
VERTEX
 8
DISCO_6
 10
13.5323
 20
1.6889
 30
0.4501
 70
192
 0
VERTEX
 8
DISCO_6
 10
13.5388
 20
1.6393
 30
0.4501
 70
192
 0
VERTEX
 8
DISCO_6
 10
12.7894
 20
1.6169
 30
0.4501
 70
192
 0
VERTEX
 8
DISCO_6
 10
12.7992
 20
1.5678
 30
0.4501
 70
192
 0
VERTEX
 8
DISCO_6
 10
12.8089
 20
1.5188
 30
0.4501
 70
192
 0
VERTEX
 8
DISCO_6
 10
12.0626
 20
1.4474
 30
0.4501
 70
192
 0
VERTEX
 8
DISCO_6
 10
12.0755
 20
1.3991
 30
0.4501
 70
192
 0
VERTEX
 8
DISCO_6
 10
12.0884
 20
1.3508
 30
0.4501
 70
192
 0
VERTEX
 8
DISCO_6
 10
11.3483
 20
1.2307
 30
0.4501
 70
192
 0
VERTEX
 8
DISCO_6
 10
11.3644
 20
1.1834
 30
0.4501
 70
192
 0
VERTEX
 8
DISCO_6
 10
11.3805
 20
1.136
 30
0.4501
 70
192
 0
VERTEX
 8
DISCO_6
 10
10.6498
 20
0.9678
 30
0.4501
 70
192
 0
VERTEX
 8
DISCO_6
 10
10.669
 20
0.9216
 30
0.4501
 70
192
 0
VERTEX
 8
DISCO_6
 10
10.6881
 20
0.8754
 30
0.4501
 70
192
 0
VERTEX
 8
DISCO_6
 10
9.97
 20
0.6598
 30
0.4501
 70
192
 0
VERTEX
 8
DISCO_6
 10
9.9921
 20
0.615
 30
0.4501
 70
192
 0
VERTEX
 8
DISCO_6
 10
10.0142
 20
0.5701
 30
0.4501
 70
192
 0
VERTEX
 8
DISCO_6
 10
9.3118
 20
0.308
 30
0.4501
 70
192
 0
VERTEX
 8
DISCO_6
 10
9.3368
 20
0.2647
 30
0.4501
 70
192
 0
VERTEX
 8
DISCO_6
 10
9.3618
 20
0.2214
 30
0.4501
 70
192
 0
VERTEX
 8
DISCO_6
 10
8.678
 20
-0.0861
 30
0.4501
 70
192
 0
VERTEX
 8
DISCO_6
 10
8.7058
 20
-0.1277
 30
0.4501
 70
192
 0
VERTEX
 8
DISCO_6
 10
8.7336
 20
-0.1693
 30
0.4501
 70
192
 0
VERTEX
 8
DISCO_6
 10
8.0713
 20
-0.5209
 30
0.4501
 70
192
 0
VERTEX
 8
DISCO_6
 10
8.1018
 20
-0.5605
 30
0.4501
 70
192
 0
VERTEX
 8
DISCO_6
 10
8.1322
 20
-0.6002
 30
0.4501
 70
192
 0
VERTEX
 8
DISCO_6
 10
7.4944
 20
-0.9943
 30
0.4501
 70
192
 0
VERTEX
 8
DISCO_6
 10
7.5274
 20
-1.0319
 30
0.4501
 70
192
 0
VERTEX
 8
DISCO_6
 10
7.5603
 20
-1.0695
 30
0.4501
 70
192
 0
VERTEX
 8
DISCO_6
 10
6.9496
 20
-1.5045
 30
0.4501
 70
192
 0
VERTEX
 8
DISCO_6
 10
6.985
 20
-1.5399
 30
0.4501
 70
192
 0
VERTEX
 8
DISCO_6
 10
7.0204
 20
-1.5753
 30
0.4501
 70
192
 0
VERTEX
 8
DISCO_6
 10
6.4394
 20
-2.0493
 30
0.4501
 70
192
 0
VERTEX
 8
DISCO_6
 10
6.477
 20
-2.0822
 30
0.4501
 70
192
 0
VERTEX
 8
DISCO_6
 10
6.5146
 20
-2.1152
 30
0.4501
 70
192
 0
VERTEX
 8
DISCO_6
 10
5.966
 20
-2.6262
 30
0.4501
 70
192
 0
VERTEX
 8
DISCO_6
 10
6.0056
 20
-2.6567
 30
0.4501
 70
192
 0
VERTEX
 8
DISCO_6
 10
6.0453
 20
-2.6871
 30
0.4501
 70
192
 0
VERTEX
 8
DISCO_6
 10
5.5312
 20
-3.2329
 30
0.4501
 70
192
 0
VERTEX
 8
DISCO_6
 10
5.5728
 20
-3.2607
 30
0.4501
 70
192
 0
VERTEX
 8
DISCO_6
 10
5.6144
 20
-3.2884
 30
0.4501
 70
192
 0
VERTEX
 8
DISCO_6
 10
5.1371
 20
-3.8667
 30
0.4501
 70
192
 0
VERTEX
 8
DISCO_6
 10
5.1804
 20
-3.8917
 30
0.4501
 70
192
 0
VERTEX
 8
DISCO_6
 10
5.2237
 20
-3.9167
 30
0.4501
 70
192
 0
VERTEX
 8
DISCO_6
 10
4.7853
 20
-4.5249
 30
0.4501
 70
192
 0
VERTEX
 8
DISCO_6
 10
4.8301
 20
-4.547
 30
0.4501
 70
192
 0
VERTEX
 8
DISCO_6
 10
4.875
 20
-4.5691
 30
0.4501
 70
192
 0
VERTEX
 8
DISCO_6
 10
4.4773
 20
-5.2047
 30
0.4501
 70
192
 0
VERTEX
 8
DISCO_6
 10
4.5235
 20
-5.2239
 30
0.4501
 70
192
 0
VERTEX
 8
DISCO_6
 10
4.5697
 20
-5.243
 30
0.4501
 70
192
 0
VERTEX
 8
DISCO_6
 10
4.2144
 20
-5.9032
 30
0.4501
 70
192
 0
VERTEX
 8
DISCO_6
 10
4.2617
 20
-5.9193
 30
0.4501
 70
192
 0
VERTEX
 8
DISCO_6
 10
4.3091
 20
-5.9354
 30
0.4501
 70
192
 0
VERTEX
 8
DISCO_6
 10
3.9977
 20
-6.6174
 30
0.4501
 70
192
 0
VERTEX
 8
DISCO_6
 10
4.046
 20
-6.6304
 30
0.4501
 70
192
 0
VERTEX
 8
DISCO_6
 10
4.0943
 20
-6.6433
 30
0.4501
 70
192
 0
VERTEX
 8
DISCO_6
 10
3.8282
 20
-7.3443
 30
0.4501
 70
192
 0
VERTEX
 8
DISCO_6
 10
3.8773
 20
-7.3541
 30
0.4501
 70
192
 0
VERTEX
 8
DISCO_6
 10
3.9263
 20
-7.3638
 30
0.4501
 70
192
 0
VERTEX
 8
DISCO_6
 10
3.7066
 20
-8.0807
 30
0.4501
 70
192
 0
VERTEX
 8
DISCO_6
 10
3.7562
 20
-8.0872
 30
0.4501
 70
192
 0
VERTEX
 8
DISCO_6
 10
3.8058
 20
-8.0937
 30
0.4501
 70
192
 0
VERTEX
 8
DISCO_6
 10
3.6335
 20
-8.8234
 30
0.4501
 70
192
 0
VERTEX
 8
DISCO_6
 10
3.6834
 20
-8.8267
 30
0.4501
 70
192
 0
VERTEX
 8
DISCO_6
 10
3.7333
 20
-8.83
 30
0.4501
 70
192
 0
VERTEX
 8
DISCO_6
 10
3.6091
 20
-9.5694
 30
0.4501
 70
192
 0
VERTEX
 8
DISCO_6
 10
3.6591
 20
-9.5694
 30
0.4501
 70
192
 0
VERTEX
 8
DISCO_6
 10
3.7091
 20
-9.5694
 30
0.4501
 70
192
 0
VERTEX
 8
DISCO_6
 10
3.6335
 20
-10.3153
 30
0.4501
 70
192
 0
VERTEX
 8
DISCO_6
 10
3.6834
 20
-10.3121
 30
0.4501
 70
192
 0
VERTEX
 8
DISCO_6
 10
3.7333
 20
-10.3088
 30
0.4501
 70
192
 0
VERTEX
 8
DISCO_6
 10
3.7066
 20
-11.0581
 30
0.4501
 70
192
 0
VERTEX
 8
DISCO_6
 10
3.7562
 20
-11.0516
 30
0.4501
 70
192
 0
VERTEX
 8
DISCO_6
 10
3.8058
 20
-11.045
 30
0.4501
 70
192
 0
VERTEX
 8
DISCO_6
 10
3.8282
 20
-11.7945
 30
0.4501
 70
192
 0
VERTEX
 8
DISCO_6
 10
3.8773
 20
-11.7847
 30
0.4501
 70
192
 0
VERTEX
 8
DISCO_6
 10
3.9263
 20
-11.775
 30
0.4501
 70
192
 0
VERTEX
 8
DISCO_6
 10
3.9977
 20
-12.5213
 30
0.4501
 70
192
 0
VERTEX
 8
DISCO_6
 10
4.046
 20
-12.5084
 30
0.4501
 70
192
 0
VERTEX
 8
DISCO_6
 10
4.0943
 20
-12.4954
 30
0.4501
 70
192
 0
VERTEX
 8
DISCO_6
 10
4.2144
 20
-13.2355
 30
0.4501
 70
192
 0
VERTEX
 8
DISCO_6
 10
4.2617
 20
-13.2195
 30
0.4501
 70
192
 0
VERTEX
 8
DISCO_6
 10
4.3091
 20
-13.2034
 30
0.4501
 70
192
 0
VERTEX
 8
DISCO_6
 10
4.4773
 20
-13.9341
 30
0.4501
 70
192
 0
VERTEX
 8
DISCO_6
 10
4.5235
 20
-13.9149
 30
0.4501
 70
192
 0
VERTEX
 8
DISCO_6
 10
4.5697
 20
-13.8958
 30
0.4501
 70
192
 0
VERTEX
 8
DISCO_6
 10
4.7853
 20
-14.6139
 30
0.4501
 70
192
 0
VERTEX
 8
DISCO_6
 10
4.8301
 20
-14.5918
 30
0.4501
 70
192
 0
VERTEX
 8
DISCO_6
 10
4.875
 20
-14.5696
 30
0.4501
 70
192
 0
VERTEX
 8
DISCO_6
 10
5.1371
 20
-15.2721
 30
0.4501
 70
192
 0
VERTEX
 8
DISCO_6
 10
5.1804
 20
-15.2471
 30
0.4501
 70
192
 0
VERTEX
 8
DISCO_6
 10
5.2237
 20
-15.2221
 30
0.4501
 70
192
 0
VERTEX
 8
DISCO_6
 10
5.5312
 20
-15.9059
 30
0.4501
 70
192
 0
VERTEX
 8
DISCO_6
 10
5.5728
 20
-15.8781
 30
0.4501
 70
192
 0
VERTEX
 8
DISCO_6
 10
5.6144
 20
-15.8503
 30
0.4501
 70
192
 0
VERTEX
 8
DISCO_6
 10
5.966
 20
-16.5126
 30
0.4501
 70
192
 0
VERTEX
 8
DISCO_6
 10
6.0056
 20
-16.4821
 30
0.4501
 70
192
 0
VERTEX
 8
DISCO_6
 10
6.0453
 20
-16.4517
 30
0.4501
 70
192
 0
VERTEX
 8
DISCO_6
 10
6.4394
 20
-17.0895
 30
0.4501
 70
192
 0
VERTEX
 8
DISCO_6
 10
6.477
 20
-17.0565
 30
0.4501
 70
192
 0
VERTEX
 8
DISCO_6
 10
6.5146
 20
-17.0236
 30
0.4501
 70
192
 0
VERTEX
 8
DISCO_6
 10
6.9496
 20
-17.6342
 30
0.4501
 70
192
 0
VERTEX
 8
DISCO_6
 10
6.985
 20
-17.5989
 30
0.4501
 70
192
 0
VERTEX
 8
DISCO_6
 10
7.0204
 20
-17.5635
 30
0.4501
 70
192
 0
VERTEX
 8
DISCO_6
 10
7.4944
 20
-18.1444
 30
0.4501
 70
192
 0
VERTEX
 8
DISCO_6
 10
7.5274
 20
-18.1068
 30
0.4501
 70
192
 0
VERTEX
 8
DISCO_6
 10
7.5603
 20
-18.0692
 30
0.4501
 70
192
 0
VERTEX
 8
DISCO_6
 10
8.0713
 20
-18.6179
 30
0.4501
 70
192
 0
VERTEX
 8
DISCO_6
 10
8.1018
 20
-18.5782
 30
0.4501
 70
192
 0
VERTEX
 8
DISCO_6
 10
8.1322
 20
-18.5386
 30
0.4501
 70
192
 0
VERTEX
 8
DISCO_6
 10
8.678
 20
-19.0526
 30
0.4501
 70
192
 0
VERTEX
 8
DISCO_6
 10
8.7058
 20
-19.0111
 30
0.4501
 70
192
 0
VERTEX
 8
DISCO_6
 10
8.7336
 20
-18.9695
 30
0.4501
 70
192
 0
VERTEX
 8
DISCO_6
 10
9.3118
 20
-19.4468
 30
0.4501
 70
192
 0
VERTEX
 8
DISCO_6
 10
9.3368
 20
-19.4035
 30
0.4501
 70
192
 0
VERTEX
 8
DISCO_6
 10
9.3618
 20
-19.3602
 30
0.4501
 70
192
 0
VERTEX
 8
DISCO_6
 10
9.97
 20
-19.7986
 30
0.4501
 70
192
 0
VERTEX
 8
DISCO_6
 10
9.9921
 20
-19.7537
 30
0.4501
 70
192
 0
VERTEX
 8
DISCO_6
 10
10.0142
 20
-19.7089
 30
0.4501
 70
192
 0
VERTEX
 8
DISCO_6
 10
10.6498
 20
-20.1066
 30
0.4501
 70
192
 0
VERTEX
 8
DISCO_6
 10
10.669
 20
-20.0604
 30
0.4501
 70
192
 0
VERTEX
 8
DISCO_6
 10
10.6881
 20
-20.0142
 30
0.4501
 70
192
 0
VERTEX
 8
DISCO_6
 10
11.3483
 20
-20.3695
 30
0.4501
 70
192
 0
VERTEX
 8
DISCO_6
 10
11.3644
 20
-20.3222
 30
0.4501
 70
192
 0
VERTEX
 8
DISCO_6
 10
11.3805
 20
-20.2748
 30
0.4501
 70
192
 0
VERTEX
 8
DISCO_6
 10
12.0626
 20
-20.5862
 30
0.4501
 70
192
 0
VERTEX
 8
DISCO_6
 10
12.0755
 20
-20.5379
 30
0.4501
 70
192
 0
VERTEX
 8
DISCO_6
 10
12.0884
 20
-20.4896
 30
0.4501
 70
192
 0
VERTEX
 8
DISCO_6
 10
12.7894
 20
-20.7557
 30
0.4501
 70
192
 0
VERTEX
 8
DISCO_6
 10
12.7992
 20
-20.7066
 30
0.4501
 70
192
 0
VERTEX
 8
DISCO_6
 10
12.8089
 20
-20.6576
 30
0.4501
 70
192
 0
VERTEX
 8
DISCO_6
 10
13.5258
 20
-20.8772
 30
0.4501
 70
192
 0
VERTEX
 8
DISCO_6
 10
13.5323
 20
-20.8277
 30
0.4501
 70
192
 0
VERTEX
 8
DISCO_6
 10
13.5388
 20
-20.7781
 30
0.4501
 70
192
 0
VERTEX
 8
DISCO_6
 10
14.2685
 20
-20.9504
 30
0.4501
 70
192
 0
VERTEX
 8
DISCO_6
 10
14.2718
 20
-20.9005
 30
0.4501
 70
192
 0
VERTEX
 8
DISCO_6
 10
14.2751
 20
-20.8506
 30
0.4501
 70
192
 0
VERTEX
 8
DISCO_6
 10
15.0145
 20
-20.9748
 30
0.4501
 70
192
 0
VERTEX
 8
DISCO_6
 10
15.0145
 20
-20.9248
 30
0.4501
 70
192
 0
VERTEX
 8
DISCO_6
 10
15.0145
 20
-20.8748
 30
0.4501
 70
192
 0
VERTEX
 8
DISCO_6
 10
15.7604
 20
-20.9504
 30
0.4501
 70
192
 0
VERTEX
 8
DISCO_6
 10
15.7572
 20
-20.9005
 30
0.4501
 70
192
 0
VERTEX
 8
DISCO_6
 10
15.7539
 20
-20.8506
 30
0.4501
 70
192
 0
VERTEX
 8
DISCO_6
 10
16.5032
 20
-20.8772
 30
0.4501
 70
192
 0
VERTEX
 8
DISCO_6
 10
16.4967
 20
-20.8277
 30
0.4501
 70
192
 0
VERTEX
 8
DISCO_6
 10
16.4901
 20
-20.7781
 30
0.4501
 70
192
 0
VERTEX
 8
DISCO_6
 10
17.2396
 20
-20.7557
 30
0.4501
 70
192
 0
VERTEX
 8
DISCO_6
 10
17.2298
 20
-20.7066
 30
0.4501
 70
192
 0
VERTEX
 8
DISCO_6
 10
17.2201
 20
-20.6576
 30
0.4501
 70
192
 0
VERTEX
 8
DISCO_6
 10
17.9664
 20
-20.5862
 30
0.4501
 70
192
 0
VERTEX
 8
DISCO_6
 10
17.9535
 20
-20.5379
 30
0.4501
 70
192
 0
VERTEX
 8
DISCO_6
 10
17.9405
 20
-20.4896
 30
0.4501
 70
192
 0
VERTEX
 8
DISCO_6
 10
18.6806
 20
-20.3695
 30
0.4501
 70
192
 0
VERTEX
 8
DISCO_6
 10
18.6646
 20
-20.3222
 30
0.4501
 70
192
 0
VERTEX
 8
DISCO_6
 10
18.6485
 20
-20.2748
 30
0.4501
 70
192
 0
VERTEX
 8
DISCO_6
 10
19.3792
 20
-20.1066
 30
0.4501
 70
192
 0
VERTEX
 8
DISCO_6
 10
19.36
 20
-20.0604
 30
0.4501
 70
192
 0
VERTEX
 8
DISCO_6
 10
19.3409
 20
-20.0142
 30
0.4501
 70
192
 0
VERTEX
 8
DISCO_6
 10
20.059
 20
-19.7986
 30
0.4501
 70
192
 0
VERTEX
 8
DISCO_6
 10
20.0369
 20
-19.7537
 30
0.4501
 70
192
 0
VERTEX
 8
DISCO_6
 10
20.0147
 20
-19.7089
 30
0.4501
 70
192
 0
VERTEX
 8
DISCO_6
 10
20.7172
 20
-19.4468
 30
0.4501
 70
192
 0
VERTEX
 8
DISCO_6
 10
20.6922
 20
-19.4035
 30
0.4501
 70
192
 0
VERTEX
 8
DISCO_6
 10
20.6672
 20
-19.3602
 30
0.4501
 70
192
 0
VERTEX
 8
DISCO_6
 10
21.351
 20
-19.0526
 30
0.4501
 70
192
 0
VERTEX
 8
DISCO_6
 10
21.3232
 20
-19.0111
 30
0.4501
 70
192
 0
VERTEX
 8
DISCO_6
 10
21.2954
 20
-18.9695
 30
0.4501
 70
192
 0
VERTEX
 8
DISCO_6
 10
21.9577
 20
-18.6179
 30
0.4501
 70
192
 0
VERTEX
 8
DISCO_6
 10
21.9272
 20
-18.5782
 30
0.4501
 70
192
 0
VERTEX
 8
DISCO_6
 10
21.8968
 20
-18.5386
 30
0.4501
 70
192
 0
VERTEX
 8
DISCO_6
 10
22.5346
 20
-18.1444
 30
0.4501
 70
192
 0
VERTEX
 8
DISCO_6
 10
22.5016
 20
-18.1068
 30
0.4501
 70
192
 0
VERTEX
 8
DISCO_6
 10
22.4687
 20
-18.0692
 30
0.4501
 70
192
 0
VERTEX
 8
DISCO_6
 10
23.0793
 20
-17.6342
 30
0.4501
 70
192
 0
VERTEX
 8
DISCO_6
 10
23.044
 20
-17.5989
 30
0.4501
 70
192
 0
VERTEX
 8
DISCO_6
 10
23.0086
 20
-17.5635
 30
0.4501
 70
192
 0
VERTEX
 8
DISCO_6
 10
23.5895
 20
-17.0895
 30
0.4501
 70
192
 0
VERTEX
 8
DISCO_6
 10
23.5519
 20
-17.0565
 30
0.4501
 70
192
 0
VERTEX
 8
DISCO_6
 10
23.5143
 20
-17.0236
 30
0.4501
 70
192
 0
VERTEX
 8
DISCO_6
 10
24.063
 20
-16.5126
 30
0.4501
 70
192
 0
VERTEX
 8
DISCO_6
 10
24.0233
 20
-16.4821
 30
0.4501
 70
192
 0
VERTEX
 8
DISCO_6
 10
23.9837
 20
-16.4517
 30
0.4501
 70
192
 0
VERTEX
 8
DISCO_6
 10
24.4978
 20
-15.9059
 30
0.4501
 70
192
 0
VERTEX
 8
DISCO_6
 10
24.4562
 20
-15.8781
 30
0.4501
 70
192
 0
VERTEX
 8
DISCO_6
 10
24.4146
 20
-15.8503
 30
0.4501
 70
192
 0
VERTEX
 8
DISCO_6
 10
24.8919
 20
-15.2721
 30
0.4501
 70
192
 0
VERTEX
 8
DISCO_6
 10
24.8486
 20
-15.2471
 30
0.4501
 70
192
 0
VERTEX
 8
DISCO_6
 10
24.8053
 20
-15.2221
 30
0.4501
 70
192
 0
VERTEX
 8
DISCO_6
 10
25.2437
 20
-14.6139
 30
0.4501
 70
192
 0
VERTEX
 8
DISCO_6
 10
25.1989
 20
-14.5918
 30
0.4501
 70
192
 0
VERTEX
 8
DISCO_6
 10
25.154
 20
-14.5696
 30
0.4501
 70
192
 0
VERTEX
 8
DISCO_6
 10
25.5517
 20
-13.9341
 30
0.4501
 70
192
 0
VERTEX
 8
DISCO_6
 10
25.5055
 20
-13.9149
 30
0.4501
 70
192
 0
VERTEX
 8
DISCO_6
 10
25.4593
 20
-13.8958
 30
0.4501
 70
192
 0
VERTEX
 8
DISCO_6
 10
25.8146
 20
-13.2355
 30
0.4501
 70
192
 0
VERTEX
 8
DISCO_6
 10
25.7673
 20
-13.2195
 30
0.4501
 70
192
 0
VERTEX
 8
DISCO_6
 10
25.7199
 20
-13.2034
 30
0.4501
 70
192
 0
VERTEX
 8
DISCO_6
 10
26.0313
 20
-12.5213
 30
0.4501
 70
192
 0
VERTEX
 8
DISCO_6
 10
25.983
 20
-12.5084
 30
0.4501
 70
192
 0
VERTEX
 8
DISCO_6
 10
25.9347
 20
-12.4954
 30
0.4501
 70
192
 0
VERTEX
 8
DISCO_6
 10
26.2008
 20
-11.7945
 30
0.4501
 70
192
 0
VERTEX
 8
DISCO_6
 10
26.1517
 20
-11.7847
 30
0.4501
 70
192
 0
VERTEX
 8
DISCO_6
 10
26.1027
 20
-11.775
 30
0.4501
 70
192
 0
VERTEX
 8
DISCO_6
 10
26.3223
 20
-11.0581
 30
0.4501
 70
192
 0
VERTEX
 8
DISCO_6
 10
26.2728
 20
-11.0516
 30
0.4501
 70
192
 0
VERTEX
 8
DISCO_6
 10
26.2232
 20
-11.045
 30
0.4501
 70
192
 0
VERTEX
 8
DISCO_6
 10
26.3955
 20
-10.3153
 30
0.4501
 70
192
 0
VERTEX
 8
DISCO_6
 10
26.3456
 20
-10.3121
 30
0.4501
 70
192
 0
VERTEX
 8
DISCO_6
 10
26.2957
 20
-10.3088
 30
0.4501
 70
192
 0
VERTEX
 8
DISCO_6
 10
0
 20
0
 30
0
 70
128
 71
1
 72
2
 73
5
 74
4
 0
VERTEX
 8
DISCO_6
 10
0
 20
0
 30
0
 70
128
 71
2
 72
3
 73
6
 74
5
 0
VERTEX
 8
DISCO_6
 10
0
 20
0
 30
0
 70
128
 71
4
 72
5
 73
8
 74
7
 0
VERTEX
 8
DISCO_6
 10
0
 20
0
 30
0
 70
128
 71
5
 72
6
 73
9
 74
8
 0
VERTEX
 8
DISCO_6
 10
0
 20
0
 30
0
 70
128
 71
7
 72
8
 73
11
 74
10
 0
VERTEX
 8
DISCO_6
 10
0
 20
0
 30
0
 70
128
 71
8
 72
9
 73
12
 74
11
 0
VERTEX
 8
DISCO_6
 10
0
 20
0
 30
0
 70
128
 71
10
 72
11
 73
14
 74
13
 0
VERTEX
 8
DISCO_6
 10
0
 20
0
 30
0
 70
128
 71
11
 72
12
 73
15
 74
14
 0
VERTEX
 8
DISCO_6
 10
0
 20
0
 30
0
 70
128
 71
13
 72
14
 73
17
 74
16
 0
VERTEX
 8
DISCO_6
 10
0
 20
0
 30
0
 70
128
 71
14
 72
15
 73
18
 74
17
 0
VERTEX
 8
DISCO_6
 10
0
 20
0
 30
0
 70
128
 71
16
 72
17
 73
20
 74
19
 0
VERTEX
 8
DISCO_6
 10
0
 20
0
 30
0
 70
128
 71
17
 72
18
 73
21
 74
20
 0
VERTEX
 8
DISCO_6
 10
0
 20
0
 30
0
 70
128
 71
19
 72
20
 73
23
 74
22
 0
VERTEX
 8
DISCO_6
 10
0
 20
0
 30
0
 70
128
 71
20
 72
21
 73
24
 74
23
 0
VERTEX
 8
DISCO_6
 10
0
 20
0
 30
0
 70
128
 71
22
 72
23
 73
26
 74
25
 0
VERTEX
 8
DISCO_6
 10
0
 20
0
 30
0
 70
128
 71
23
 72
24
 73
27
 74
26
 0
VERTEX
 8
DISCO_6
 10
0
 20
0
 30
0
 70
128
 71
25
 72
26
 73
29
 74
28
 0
VERTEX
 8
DISCO_6
 10
0
 20
0
 30
0
 70
128
 71
26
 72
27
 73
30
 74
29
 0
VERTEX
 8
DISCO_6
 10
0
 20
0
 30
0
 70
128
 71
28
 72
29
 73
32
 74
31
 0
VERTEX
 8
DISCO_6
 10
0
 20
0
 30
0
 70
128
 71
29
 72
30
 73
33
 74
32
 0
VERTEX
 8
DISCO_6
 10
0
 20
0
 30
0
 70
128
 71
31
 72
32
 73
35
 74
34
 0
VERTEX
 8
DISCO_6
 10
0
 20
0
 30
0
 70
128
 71
32
 72
33
 73
36
 74
35
 0
VERTEX
 8
DISCO_6
 10
0
 20
0
 30
0
 70
128
 71
34
 72
35
 73
38
 74
37
 0
VERTEX
 8
DISCO_6
 10
0
 20
0
 30
0
 70
128
 71
35
 72
36
 73
39
 74
38
 0
VERTEX
 8
DISCO_6
 10
0
 20
0
 30
0
 70
128
 71
37
 72
38
 73
41
 74
40
 0
VERTEX
 8
DISCO_6
 10
0
 20
0
 30
0
 70
128
 71
38
 72
39
 73
42
 74
41
 0
VERTEX
 8
DISCO_6
 10
0
 20
0
 30
0
 70
128
 71
40
 72
41
 73
44
 74
43
 0
VERTEX
 8
DISCO_6
 10
0
 20
0
 30
0
 70
128
 71
41
 72
42
 73
45
 74
44
 0
VERTEX
 8
DISCO_6
 10
0
 20
0
 30
0
 70
128
 71
43
 72
44
 73
47
 74
46
 0
VERTEX
 8
DISCO_6
 10
0
 20
0
 30
0
 70
128
 71
44
 72
45
 73
48
 74
47
 0
VERTEX
 8
DISCO_6
 10
0
 20
0
 30
0
 70
128
 71
46
 72
47
 73
50
 74
49
 0
VERTEX
 8
DISCO_6
 10
0
 20
0
 30
0
 70
128
 71
47
 72
48
 73
51
 74
50
 0
VERTEX
 8
DISCO_6
 10
0
 20
0
 30
0
 70
128
 71
49
 72
50
 73
53
 74
52
 0
VERTEX
 8
DISCO_6
 10
0
 20
0
 30
0
 70
128
 71
50
 72
51
 73
54
 74
53
 0
VERTEX
 8
DISCO_6
 10
0
 20
0
 30
0
 70
128
 71
52
 72
53
 73
56
 74
55
 0
VERTEX
 8
DISCO_6
 10
0
 20
0
 30
0
 70
128
 71
53
 72
54
 73
57
 74
56
 0
VERTEX
 8
DISCO_6
 10
0
 20
0
 30
0
 70
128
 71
55
 72
56
 73
59
 74
58
 0
VERTEX
 8
DISCO_6
 10
0
 20
0
 30
0
 70
128
 71
56
 72
57
 73
60
 74
59
 0
VERTEX
 8
DISCO_6
 10
0
 20
0
 30
0
 70
128
 71
58
 72
59
 73
62
 74
61
 0
VERTEX
 8
DISCO_6
 10
0
 20
0
 30
0
 70
128
 71
59
 72
60
 73
63
 74
62
 0
VERTEX
 8
DISCO_6
 10
0
 20
0
 30
0
 70
128
 71
61
 72
62
 73
65
 74
64
 0
VERTEX
 8
DISCO_6
 10
0
 20
0
 30
0
 70
128
 71
62
 72
63
 73
66
 74
65
 0
VERTEX
 8
DISCO_6
 10
0
 20
0
 30
0
 70
128
 71
64
 72
65
 73
68
 74
67
 0
VERTEX
 8
DISCO_6
 10
0
 20
0
 30
0
 70
128
 71
65
 72
66
 73
69
 74
68
 0
VERTEX
 8
DISCO_6
 10
0
 20
0
 30
0
 70
128
 71
67
 72
68
 73
71
 74
70
 0
VERTEX
 8
DISCO_6
 10
0
 20
0
 30
0
 70
128
 71
68
 72
69
 73
72
 74
71
 0
VERTEX
 8
DISCO_6
 10
0
 20
0
 30
0
 70
128
 71
70
 72
71
 73
74
 74
73
 0
VERTEX
 8
DISCO_6
 10
0
 20
0
 30
0
 70
128
 71
71
 72
72
 73
75
 74
74
 0
VERTEX
 8
DISCO_6
 10
0
 20
0
 30
0
 70
128
 71
73
 72
74
 73
77
 74
76
 0
VERTEX
 8
DISCO_6
 10
0
 20
0
 30
0
 70
128
 71
74
 72
75
 73
78
 74
77
 0
VERTEX
 8
DISCO_6
 10
0
 20
0
 30
0
 70
128
 71
76
 72
77
 73
80
 74
79
 0
VERTEX
 8
DISCO_6
 10
0
 20
0
 30
0
 70
128
 71
77
 72
78
 73
81
 74
80
 0
VERTEX
 8
DISCO_6
 10
0
 20
0
 30
0
 70
128
 71
79
 72
80
 73
83
 74
82
 0
VERTEX
 8
DISCO_6
 10
0
 20
0
 30
0
 70
128
 71
80
 72
81
 73
84
 74
83
 0
VERTEX
 8
DISCO_6
 10
0
 20
0
 30
0
 70
128
 71
82
 72
83
 73
86
 74
85
 0
VERTEX
 8
DISCO_6
 10
0
 20
0
 30
0
 70
128
 71
83
 72
84
 73
87
 74
86
 0
VERTEX
 8
DISCO_6
 10
0
 20
0
 30
0
 70
128
 71
85
 72
86
 73
89
 74
88
 0
VERTEX
 8
DISCO_6
 10
0
 20
0
 30
0
 70
128
 71
86
 72
87
 73
90
 74
89
 0
VERTEX
 8
DISCO_6
 10
0
 20
0
 30
0
 70
128
 71
88
 72
89
 73
92
 74
91
 0
VERTEX
 8
DISCO_6
 10
0
 20
0
 30
0
 70
128
 71
89
 72
90
 73
93
 74
92
 0
VERTEX
 8
DISCO_6
 10
0
 20
0
 30
0
 70
128
 71
91
 72
92
 73
95
 74
94
 0
VERTEX
 8
DISCO_6
 10
0
 20
0
 30
0
 70
128
 71
92
 72
93
 73
96
 74
95
 0
VERTEX
 8
DISCO_6
 10
0
 20
0
 30
0
 70
128
 71
94
 72
95
 73
98
 74
97
 0
VERTEX
 8
DISCO_6
 10
0
 20
0
 30
0
 70
128
 71
95
 72
96
 73
99
 74
98
 0
VERTEX
 8
DISCO_6
 10
0
 20
0
 30
0
 70
128
 71
97
 72
98
 73
101
 74
100
 0
VERTEX
 8
DISCO_6
 10
0
 20
0
 30
0
 70
128
 71
98
 72
99
 73
102
 74
101
 0
VERTEX
 8
DISCO_6
 10
0
 20
0
 30
0
 70
128
 71
100
 72
101
 73
104
 74
103
 0
VERTEX
 8
DISCO_6
 10
0
 20
0
 30
0
 70
128
 71
101
 72
102
 73
105
 74
104
 0
VERTEX
 8
DISCO_6
 10
0
 20
0
 30
0
 70
128
 71
103
 72
104
 73
107
 74
106
 0
VERTEX
 8
DISCO_6
 10
0
 20
0
 30
0
 70
128
 71
104
 72
105
 73
108
 74
107
 0
VERTEX
 8
DISCO_6
 10
0
 20
0
 30
0
 70
128
 71
106
 72
107
 73
110
 74
109
 0
VERTEX
 8
DISCO_6
 10
0
 20
0
 30
0
 70
128
 71
107
 72
108
 73
111
 74
110
 0
VERTEX
 8
DISCO_6
 10
0
 20
0
 30
0
 70
128
 71
109
 72
110
 73
113
 74
112
 0
VERTEX
 8
DISCO_6
 10
0
 20
0
 30
0
 70
128
 71
110
 72
111
 73
114
 74
113
 0
VERTEX
 8
DISCO_6
 10
0
 20
0
 30
0
 70
128
 71
112
 72
113
 73
116
 74
115
 0
VERTEX
 8
DISCO_6
 10
0
 20
0
 30
0
 70
128
 71
113
 72
114
 73
117
 74
116
 0
VERTEX
 8
DISCO_6
 10
0
 20
0
 30
0
 70
128
 71
115
 72
116
 73
119
 74
118
 0
VERTEX
 8
DISCO_6
 10
0
 20
0
 30
0
 70
128
 71
116
 72
117
 73
120
 74
119
 0
VERTEX
 8
DISCO_6
 10
0
 20
0
 30
0
 70
128
 71
118
 72
119
 73
122
 74
121
 0
VERTEX
 8
DISCO_6
 10
0
 20
0
 30
0
 70
128
 71
119
 72
120
 73
123
 74
122
 0
VERTEX
 8
DISCO_6
 10
0
 20
0
 30
0
 70
128
 71
121
 72
122
 73
125
 74
124
 0
VERTEX
 8
DISCO_6
 10
0
 20
0
 30
0
 70
128
 71
122
 72
123
 73
126
 74
125
 0
VERTEX
 8
DISCO_6
 10
0
 20
0
 30
0
 70
128
 71
124
 72
125
 73
128
 74
127
 0
VERTEX
 8
DISCO_6
 10
0
 20
0
 30
0
 70
128
 71
125
 72
126
 73
129
 74
128
 0
VERTEX
 8
DISCO_6
 10
0
 20
0
 30
0
 70
128
 71
127
 72
128
 73
131
 74
130
 0
VERTEX
 8
DISCO_6
 10
0
 20
0
 30
0
 70
128
 71
128
 72
129
 73
132
 74
131
 0
VERTEX
 8
DISCO_6
 10
0
 20
0
 30
0
 70
128
 71
130
 72
131
 73
134
 74
133
 0
VERTEX
 8
DISCO_6
 10
0
 20
0
 30
0
 70
128
 71
131
 72
132
 73
135
 74
134
 0
VERTEX
 8
DISCO_6
 10
0
 20
0
 30
0
 70
128
 71
133
 72
134
 73
137
 74
136
 0
VERTEX
 8
DISCO_6
 10
0
 20
0
 30
0
 70
128
 71
134
 72
135
 73
138
 74
137
 0
VERTEX
 8
DISCO_6
 10
0
 20
0
 30
0
 70
128
 71
136
 72
137
 73
140
 74
139
 0
VERTEX
 8
DISCO_6
 10
0
 20
0
 30
0
 70
128
 71
137
 72
138
 73
141
 74
140
 0
VERTEX
 8
DISCO_6
 10
0
 20
0
 30
0
 70
128
 71
139
 72
140
 73
143
 74
142
 0
VERTEX
 8
DISCO_6
 10
0
 20
0
 30
0
 70
128
 71
140
 72
141
 73
144
 74
143
 0
VERTEX
 8
DISCO_6
 10
0
 20
0
 30
0
 70
128
 71
142
 72
143
 73
146
 74
145
 0
VERTEX
 8
DISCO_6
 10
0
 20
0
 30
0
 70
128
 71
143
 72
144
 73
147
 74
146
 0
VERTEX
 8
DISCO_6
 10
0
 20
0
 30
0
 70
128
 71
145
 72
146
 73
149
 74
148
 0
VERTEX
 8
DISCO_6
 10
0
 20
0
 30
0
 70
128
 71
146
 72
147
 73
150
 74
149
 0
VERTEX
 8
DISCO_6
 10
0
 20
0
 30
0
 70
128
 71
148
 72
149
 73
152
 74
151
 0
VERTEX
 8
DISCO_6
 10
0
 20
0
 30
0
 70
128
 71
149
 72
150
 73
153
 74
152
 0
VERTEX
 8
DISCO_6
 10
0
 20
0
 30
0
 70
128
 71
151
 72
152
 73
155
 74
154
 0
VERTEX
 8
DISCO_6
 10
0
 20
0
 30
0
 70
128
 71
152
 72
153
 73
156
 74
155
 0
VERTEX
 8
DISCO_6
 10
0
 20
0
 30
0
 70
128
 71
154
 72
155
 73
158
 74
157
 0
VERTEX
 8
DISCO_6
 10
0
 20
0
 30
0
 70
128
 71
155
 72
156
 73
159
 74
158
 0
VERTEX
 8
DISCO_6
 10
0
 20
0
 30
0
 70
128
 71
157
 72
158
 73
161
 74
160
 0
VERTEX
 8
DISCO_6
 10
0
 20
0
 30
0
 70
128
 71
158
 72
159
 73
162
 74
161
 0
VERTEX
 8
DISCO_6
 10
0
 20
0
 30
0
 70
128
 71
160
 72
161
 73
164
 74
163
 0
VERTEX
 8
DISCO_6
 10
0
 20
0
 30
0
 70
128
 71
161
 72
162
 73
165
 74
164
 0
VERTEX
 8
DISCO_6
 10
0
 20
0
 30
0
 70
128
 71
163
 72
164
 73
167
 74
166
 0
VERTEX
 8
DISCO_6
 10
0
 20
0
 30
0
 70
128
 71
164
 72
165
 73
168
 74
167
 0
VERTEX
 8
DISCO_6
 10
0
 20
0
 30
0
 70
128
 71
166
 72
167
 73
170
 74
169
 0
VERTEX
 8
DISCO_6
 10
0
 20
0
 30
0
 70
128
 71
167
 72
168
 73
171
 74
170
 0
VERTEX
 8
DISCO_6
 10
0
 20
0
 30
0
 70
128
 71
169
 72
170
 73
173
 74
172
 0
VERTEX
 8
DISCO_6
 10
0
 20
0
 30
0
 70
128
 71
170
 72
171
 73
174
 74
173
 0
VERTEX
 8
DISCO_6
 10
0
 20
0
 30
0
 70
128
 71
172
 72
173
 73
176
 74
175
 0
VERTEX
 8
DISCO_6
 10
0
 20
0
 30
0
 70
128
 71
173
 72
174
 73
177
 74
176
 0
VERTEX
 8
DISCO_6
 10
0
 20
0
 30
0
 70
128
 71
175
 72
176
 73
179
 74
178
 0
VERTEX
 8
DISCO_6
 10
0
 20
0
 30
0
 70
128
 71
176
 72
177
 73
180
 74
179
 0
VERTEX
 8
DISCO_6
 10
0
 20
0
 30
0
 70
128
 71
178
 72
179
 73
182
 74
181
 0
VERTEX
 8
DISCO_6
 10
0
 20
0
 30
0
 70
128
 71
179
 72
180
 73
183
 74
182
 0
VERTEX
 8
DISCO_6
 10
0
 20
0
 30
0
 70
128
 71
181
 72
182
 73
185
 74
184
 0
VERTEX
 8
DISCO_6
 10
0
 20
0
 30
0
 70
128
 71
182
 72
183
 73
186
 74
185
 0
VERTEX
 8
DISCO_6
 10
0
 20
0
 30
0
 70
128
 71
184
 72
185
 73
188
 74
187
 0
VERTEX
 8
DISCO_6
 10
0
 20
0
 30
0
 70
128
 71
185
 72
186
 73
189
 74
188
 0
VERTEX
 8
DISCO_6
 10
0
 20
0
 30
0
 70
128
 71
187
 72
188
 73
191
 74
190
 0
VERTEX
 8
DISCO_6
 10
0
 20
0
 30
0
 70
128
 71
188
 72
189
 73
192
 74
191
 0
VERTEX
 8
DISCO_6
 10
0
 20
0
 30
0
 70
128
 71
190
 72
191
 73
194
 74
193
 0
VERTEX
 8
DISCO_6
 10
0
 20
0
 30
0
 70
128
 71
191
 72
192
 73
195
 74
194
 0
VERTEX
 8
DISCO_6
 10
0
 20
0
 30
0
 70
128
 71
193
 72
194
 73
197
 74
196
 0
VERTEX
 8
DISCO_6
 10
0
 20
0
 30
0
 70
128
 71
194
 72
195
 73
198
 74
197
 0
VERTEX
 8
DISCO_6
 10
0
 20
0
 30
0
 70
128
 71
196
 72
197
 73
200
 74
199
 0
VERTEX
 8
DISCO_6
 10
0
 20
0
 30
0
 70
128
 71
197
 72
198
 73
201
 74
200
 0
VERTEX
 8
DISCO_6
 10
0
 20
0
 30
0
 70
128
 71
199
 72
200
 73
203
 74
202
 0
VERTEX
 8
DISCO_6
 10
0
 20
0
 30
0
 70
128
 71
200
 72
201
 73
204
 74
203
 0
VERTEX
 8
DISCO_6
 10
0
 20
0
 30
0
 70
128
 71
202
 72
203
 73
206
 74
205
 0
VERTEX
 8
DISCO_6
 10
0
 20
0
 30
0
 70
128
 71
203
 72
204
 73
207
 74
206
 0
VERTEX
 8
DISCO_6
 10
0
 20
0
 30
0
 70
128
 71
205
 72
206
 73
209
 74
208
 0
VERTEX
 8
DISCO_6
 10
0
 20
0
 30
0
 70
128
 71
206
 72
207
 73
210
 74
209
 0
VERTEX
 8
DISCO_6
 10
0
 20
0
 30
0
 70
128
 71
208
 72
209
 73
212
 74
211
 0
VERTEX
 8
DISCO_6
 10
0
 20
0
 30
0
 70
128
 71
209
 72
210
 73
213
 74
212
 0
VERTEX
 8
DISCO_6
 10
0
 20
0
 30
0
 70
128
 71
211
 72
212
 73
215
 74
214
 0
VERTEX
 8
DISCO_6
 10
0
 20
0
 30
0
 70
128
 71
212
 72
213
 73
216
 74
215
 0
VERTEX
 8
DISCO_6
 10
0
 20
0
 30
0
 70
128
 71
214
 72
215
 73
218
 74
217
 0
VERTEX
 8
DISCO_6
 10
0
 20
0
 30
0
 70
128
 71
215
 72
216
 73
219
 74
218
 0
VERTEX
 8
DISCO_6
 10
0
 20
0
 30
0
 70
128
 71
217
 72
218
 73
221
 74
220
 0
VERTEX
 8
DISCO_6
 10
0
 20
0
 30
0
 70
128
 71
218
 72
219
 73
222
 74
221
 0
VERTEX
 8
DISCO_6
 10
0
 20
0
 30
0
 70
128
 71
220
 72
221
 73
224
 74
223
 0
VERTEX
 8
DISCO_6
 10
0
 20
0
 30
0
 70
128
 71
221
 72
222
 73
225
 74
224
 0
VERTEX
 8
DISCO_6
 10
0
 20
0
 30
0
 70
128
 71
223
 72
224
 73
227
 74
226
 0
VERTEX
 8
DISCO_6
 10
0
 20
0
 30
0
 70
128
 71
224
 72
225
 73
228
 74
227
 0
VERTEX
 8
DISCO_6
 10
0
 20
0
 30
0
 70
128
 71
226
 72
227
 73
230
 74
229
 0
VERTEX
 8
DISCO_6
 10
0
 20
0
 30
0
 70
128
 71
227
 72
228
 73
231
 74
230
 0
VERTEX
 8
DISCO_6
 10
0
 20
0
 30
0
 70
128
 71
229
 72
230
 73
233
 74
232
 0
VERTEX
 8
DISCO_6
 10
0
 20
0
 30
0
 70
128
 71
230
 72
231
 73
234
 74
233
 0
VERTEX
 8
DISCO_6
 10
0
 20
0
 30
0
 70
128
 71
232
 72
233
 73
236
 74
235
 0
VERTEX
 8
DISCO_6
 10
0
 20
0
 30
0
 70
128
 71
233
 72
234
 73
237
 74
236
 0
VERTEX
 8
DISCO_6
 10
0
 20
0
 30
0
 70
128
 71
235
 72
236
 73
239
 74
238
 0
VERTEX
 8
DISCO_6
 10
0
 20
0
 30
0
 70
128
 71
236
 72
237
 73
240
 74
239
 0
VERTEX
 8
DISCO_6
 10
0
 20
0
 30
0
 70
128
 71
238
 72
239
 73
242
 74
241
 0
VERTEX
 8
DISCO_6
 10
0
 20
0
 30
0
 70
128
 71
239
 72
240
 73
243
 74
242
 0
VERTEX
 8
DISCO_6
 10
0
 20
0
 30
0
 70
128
 71
241
 72
242
 73
245
 74
244
 0
VERTEX
 8
DISCO_6
 10
0
 20
0
 30
0
 70
128
 71
242
 72
243
 73
246
 74
245
 0
VERTEX
 8
DISCO_6
 10
0
 20
0
 30
0
 70
128
 71
244
 72
245
 73
248
 74
247
 0
VERTEX
 8
DISCO_6
 10
0
 20
0
 30
0
 70
128
 71
245
 72
246
 73
249
 74
248
 0
VERTEX
 8
DISCO_6
 10
0
 20
0
 30
0
 70
128
 71
247
 72
248
 73
251
 74
250
 0
VERTEX
 8
DISCO_6
 10
0
 20
0
 30
0
 70
128
 71
248
 72
249
 73
252
 74
251
 0
VERTEX
 8
DISCO_6
 10
0
 20
0
 30
0
 70
128
 71
250
 72
251
 73
254
 74
253
 0
VERTEX
 8
DISCO_6
 10
0
 20
0
 30
0
 70
128
 71
251
 72
252
 73
255
 74
254
 0
VERTEX
 8
DISCO_6
 10
0
 20
0
 30
0
 70
128
 71
253
 72
254
 73
257
 74
256
 0
VERTEX
 8
DISCO_6
 10
0
 20
0
 30
0
 70
128
 71
254
 72
255
 73
258
 74
257
 0
VERTEX
 8
DISCO_6
 10
0
 20
0
 30
0
 70
128
 71
256
 72
257
 73
260
 74
259
 0
VERTEX
 8
DISCO_6
 10
0
 20
0
 30
0
 70
128
 71
257
 72
258
 73
261
 74
260
 0
VERTEX
 8
DISCO_6
 10
0
 20
0
 30
0
 70
128
 71
259
 72
260
 73
263
 74
262
 0
VERTEX
 8
DISCO_6
 10
0
 20
0
 30
0
 70
128
 71
260
 72
261
 73
264
 74
263
 0
VERTEX
 8
DISCO_6
 10
0
 20
0
 30
0
 70
128
 71
262
 72
263
 73
266
 74
265
 0
VERTEX
 8
DISCO_6
 10
0
 20
0
 30
0
 70
128
 71
263
 72
264
 73
267
 74
266
 0
VERTEX
 8
DISCO_6
 10
0
 20
0
 30
0
 70
128
 71
265
 72
266
 73
269
 74
268
 0
VERTEX
 8
DISCO_6
 10
0
 20
0
 30
0
 70
128
 71
266
 72
267
 73
270
 74
269
 0
VERTEX
 8
DISCO_6
 10
0
 20
0
 30
0
 70
128
 71
268
 72
269
 73
272
 74
271
 0
VERTEX
 8
DISCO_6
 10
0
 20
0
 30
0
 70
128
 71
269
 72
270
 73
273
 74
272
 0
VERTEX
 8
DISCO_6
 10
0
 20
0
 30
0
 70
128
 71
271
 72
272
 73
275
 74
274
 0
VERTEX
 8
DISCO_6
 10
0
 20
0
 30
0
 70
128
 71
272
 72
273
 73
276
 74
275
 0
VERTEX
 8
DISCO_6
 10
0
 20
0
 30
0
 70
128
 71
274
 72
275
 73
278
 74
277
 0
VERTEX
 8
DISCO_6
 10
0
 20
0
 30
0
 70
128
 71
275
 72
276
 73
279
 74
278
 0
VERTEX
 8
DISCO_6
 10
0
 20
0
 30
0
 70
128
 71
277
 72
278
 73
281
 74
280
 0
VERTEX
 8
DISCO_6
 10
0
 20
0
 30
0
 70
128
 71
278
 72
279
 73
282
 74
281
 0
VERTEX
 8
DISCO_6
 10
0
 20
0
 30
0
 70
128
 71
280
 72
281
 73
284
 74
283
 0
VERTEX
 8
DISCO_6
 10
0
 20
0
 30
0
 70
128
 71
281
 72
282
 73
285
 74
284
 0
VERTEX
 8
DISCO_6
 10
0
 20
0
 30
0
 70
128
 71
283
 72
284
 73
287
 74
286
 0
VERTEX
 8
DISCO_6
 10
0
 20
0
 30
0
 70
128
 71
284
 72
285
 73
288
 74
287
 0
VERTEX
 8
DISCO_6
 10
0
 20
0
 30
0
 70
128
 71
286
 72
287
 73
2
 74
1
 0
VERTEX
 8
DISCO_6
 10
0
 20
0
 30
0
 70
128
 71
287
 72
288
 73
3
 74
2
 0
SEQEND
 0
POLYLINE
 8
DISCO_5
 66
1
 10
0.0
 20
0.0
 30
0.0
 70
64
 71
288
 72
192
 0
VERTEX
 8
DISCO_5
 10
24.2313
 20
-9.5694
 30
0.4501
 70
192
 0
VERTEX
 8
DISCO_5
 10
24.1813
 20
-9.5694
 30
0.4501
 70
192
 0
VERTEX
 8
DISCO_5
 10
24.1313
 20
-9.5694
 30
0.4501
 70
192
 0
VERTEX
 8
DISCO_5
 10
24.2115
 20
-8.9666
 30
0.4501
 70
192
 0
VERTEX
 8
DISCO_5
 10
24.1617
 20
-8.9699
 30
0.4501
 70
192
 0
VERTEX
 8
DISCO_5
 10
24.1118
 20
-8.9731
 30
0.4501
 70
192
 0
VERTEX
 8
DISCO_5
 10
24.1524
 20
-8.3664
 30
0.4501
 70
192
 0
VERTEX
 8
DISCO_5
 10
24.1029
 20
-8.3729
 30
0.4501
 70
192
 0
VERTEX
 8
DISCO_5
 10
24.0533
 20
-8.3794
 30
0.4501
 70
192
 0
VERTEX
 8
DISCO_5
 10
24.0542
 20
-7.7713
 30
0.4501
 70
192
 0
VERTEX
 8
DISCO_5
 10
24.0051
 20
-7.781
 30
0.4501
 70
192
 0
VERTEX
 8
DISCO_5
 10
23.9561
 20
-7.7908
 30
0.4501
 70
192
 0
VERTEX
 8
DISCO_5
 10
23.9172
 20
-7.1839
 30
0.4501
 70
192
 0
VERTEX
 8
DISCO_5
 10
23.8689
 20
-7.1968
 30
0.4501
 70
192
 0
VERTEX
 8
DISCO_5
 10
23.8206
 20
-7.2098
 30
0.4501
 70
192
 0
VERTEX
 8
DISCO_5
 10
23.7421
 20
-6.6068
 30
0.4501
 70
192
 0
VERTEX
 8
DISCO_5
 10
23.6948
 20
-6.6228
 30
0.4501
 70
192
 0
VERTEX
 8
DISCO_5
 10
23.6475
 20
-6.6389
 30
0.4501
 70
192
 0
VERTEX
 8
DISCO_5
 10
23.5297
 20
-6.0423
 30
0.4501
 70
192
 0
VERTEX
 8
DISCO_5
 10
23.4835
 20
-6.0614
 30
0.4501
 70
192
 0
VERTEX
 8
DISCO_5
 10
23.4373
 20
-6.0805
 30
0.4501
 70
192
 0
VERTEX
 8
DISCO_5
 10
23.2808
 20
-5.4929
 30
0.4501
 70
192
 0
VERTEX
 8
DISCO_5
 10
23.2359
 20
-5.515
 30
0.4501
 70
192
 0
VERTEX
 8
DISCO_5
 10
23.1911
 20
-5.5371
 30
0.4501
 70
192
 0
VERTEX
 8
DISCO_5
 10
22.9965
 20
-4.961
 30
0.4501
 70
192
 0
VERTEX
 8
DISCO_5
 10
22.9532
 20
-4.986
 30
0.4501
 70
192
 0
VERTEX
 8
DISCO_5
 10
22.9099
 20
-5.011
 30
0.4501
 70
192
 0
VERTEX
 8
DISCO_5
 10
22.678
 20
-4.4488
 30
0.4501
 70
192
 0
VERTEX
 8
DISCO_5
 10
22.6364
 20
-4.4766
 30
0.4501
 70
192
 0
VERTEX
 8
DISCO_5
 10
22.5948
 20
-4.5044
 30
0.4501
 70
192
 0
VERTEX
 8
DISCO_5
 10
22.3266
 20
-3.9586
 30
0.4501
 70
192
 0
VERTEX
 8
DISCO_5
 10
22.287
 20
-3.989
 30
0.4501
 70
192
 0
VERTEX
 8
DISCO_5
 10
22.2473
 20
-4.0194
 30
0.4501
 70
192
 0
VERTEX
 8
DISCO_5
 10
21.944
 20
-3.4923
 30
0.4501
 70
192
 0
VERTEX
 8
DISCO_5
 10
21.9064
 20
-3.5253
 30
0.4501
 70
192
 0
VERTEX
 8
DISCO_5
 10
21.8689
 20
-3.5583
 30
0.4501
 70
192
 0
VERTEX
 8
DISCO_5
 10
21.5317
 20
-3.0521
 30
0.4501
 70
192
 0
VERTEX
 8
DISCO_5
 10
21.4964
 20
-3.0875
 30
0.4501
 70
192
 0
VERTEX
 8
DISCO_5
 10
21.461
 20
-3.1228
 30
0.4501
 70
192
 0
VERTEX
 8
DISCO_5
 10
21.0915
 20
-2.6399
 30
0.4501
 70
192
 0
VERTEX
 8
DISCO_5
 10
21.0586
 20
-2.6774
 30
0.4501
 70
192
 0
VERTEX
 8
DISCO_5
 10
21.0256
 20
-2.715
 30
0.4501
 70
192
 0
VERTEX
 8
DISCO_5
 10
20.6253
 20
-2.2572
 30
0.4501
 70
192
 0
VERTEX
 8
DISCO_5
 10
20.5949
 20
-2.2969
 30
0.4501
 70
192
 0
VERTEX
 8
DISCO_5
 10
20.5645
 20
-2.3365
 30
0.4501
 70
192
 0
VERTEX
 8
DISCO_5
 10
20.1351
 20
-1.9059
 30
0.4501
 70
192
 0
VERTEX
 8
DISCO_5
 10
20.1073
 20
-1.9475
 30
0.4501
 70
192
 0
VERTEX
 8
DISCO_5
 10
20.0795
 20
-1.989
 30
0.4501
 70
192
 0
VERTEX
 8
DISCO_5
 10
19.6229
 20
-1.5874
 30
0.4501
 70
192
 0
VERTEX
 8
DISCO_5
 10
19.5979
 20
-1.6307
 30
0.4501
 70
192
 0
VERTEX
 8
DISCO_5
 10
19.5729
 20
-1.674
 30
0.4501
 70
192
 0
VERTEX
 8
DISCO_5
 10
19.091
 20
-1.3031
 30
0.4501
 70
192
 0
VERTEX
 8
DISCO_5
 10
19.0689
 20
-1.3479
 30
0.4501
 70
192
 0
VERTEX
 8
DISCO_5
 10
19.0468
 20
-1.3928
 30
0.4501
 70
192
 0
VERTEX
 8
DISCO_5
 10
18.5416
 20
-1.0542
 30
0.4501
 70
192
 0
VERTEX
 8
DISCO_5
 10
18.5225
 20
-1.1004
 30
0.4501
 70
192
 0
VERTEX
 8
DISCO_5
 10
18.5033
 20
-1.1466
 30
0.4501
 70
192
 0
VERTEX
 8
DISCO_5
 10
17.9771
 20
-0.8418
 30
0.4501
 70
192
 0
VERTEX
 8
DISCO_5
 10
17.9611
 20
-0.8891
 30
0.4501
 70
192
 0
VERTEX
 8
DISCO_5
 10
17.945
 20
-0.9364
 30
0.4501
 70
192
 0
VERTEX
 8
DISCO_5
 10
17.4
 20
-0.6667
 30
0.4501
 70
192
 0
VERTEX
 8
DISCO_5
 10
17.387
 20
-0.715
 30
0.4501
 70
192
 0
VERTEX
 8
DISCO_5
 10
17.3741
 20
-0.7632
 30
0.4501
 70
192
 0
VERTEX
 8
DISCO_5
 10
16.8126
 20
-0.5297
 30
0.4501
 70
192
 0
VERTEX
 8
DISCO_5
 10
16.8028
 20
-0.5787
 30
0.4501
 70
192
 0
VERTEX
 8
DISCO_5
 10
16.7931
 20
-0.6278
 30
0.4501
 70
192
 0
VERTEX
 8
DISCO_5
 10
16.2175
 20
-0.4315
 30
0.4501
 70
192
 0
VERTEX
 8
DISCO_5
 10
16.211
 20
-0.481
 30
0.4501
 70
192
 0
VERTEX
 8
DISCO_5
 10
16.2045
 20
-0.5306
 30
0.4501
 70
192
 0
VERTEX
 8
DISCO_5
 10
15.6173
 20
-0.3724
 30
0.4501
 70
192
 0
VERTEX
 8
DISCO_5
 10
15.614
 20
-0.4222
 30
0.4501
 70
192
 0
VERTEX
 8
DISCO_5
 10
15.6108
 20
-0.4721
 30
0.4501
 70
192
 0
VERTEX
 8
DISCO_5
 10
15.0145
 20
-0.3526
 30
0.4501
 70
192
 0
VERTEX
 8
DISCO_5
 10
15.0145
 20
-0.4026
 30
0.4501
 70
192
 0
VERTEX
 8
DISCO_5
 10
15.0145
 20
-0.4526
 30
0.4501
 70
192
 0
VERTEX
 8
DISCO_5
 10
14.4117
 20
-0.3724
 30
0.4501
 70
192
 0
VERTEX
 8
DISCO_5
 10
14.415
 20
-0.4222
 30
0.4501
 70
192
 0
VERTEX
 8
DISCO_5
 10
14.4182
 20
-0.4721
 30
0.4501
 70
192
 0
VERTEX
 8
DISCO_5
 10
13.8115
 20
-0.4315
 30
0.4501
 70
192
 0
VERTEX
 8
DISCO_5
 10
13.818
 20
-0.481
 30
0.4501
 70
192
 0
VERTEX
 8
DISCO_5
 10
13.8245
 20
-0.5306
 30
0.4501
 70
192
 0
VERTEX
 8
DISCO_5
 10
13.2164
 20
-0.5297
 30
0.4501
 70
192
 0
VERTEX
 8
DISCO_5
 10
13.2261
 20
-0.5787
 30
0.4501
 70
192
 0
VERTEX
 8
DISCO_5
 10
13.2359
 20
-0.6278
 30
0.4501
 70
192
 0
VERTEX
 8
DISCO_5
 10
12.629
 20
-0.6667
 30
0.4501
 70
192
 0
VERTEX
 8
DISCO_5
 10
12.642
 20
-0.715
 30
0.4501
 70
192
 0
VERTEX
 8
DISCO_5
 10
12.6549
 20
-0.7632
 30
0.4501
 70
192
 0
VERTEX
 8
DISCO_5
 10
12.0519
 20
-0.8418
 30
0.4501
 70
192
 0
VERTEX
 8
DISCO_5
 10
12.0679
 20
-0.8891
 30
0.4501
 70
192
 0
VERTEX
 8
DISCO_5
 10
12.084
 20
-0.9364
 30
0.4501
 70
192
 0
VERTEX
 8
DISCO_5
 10
11.4874
 20
-1.0542
 30
0.4501
 70
192
 0
VERTEX
 8
DISCO_5
 10
11.5065
 20
-1.1004
 30
0.4501
 70
192
 0
VERTEX
 8
DISCO_5
 10
11.5256
 20
-1.1466
 30
0.4501
 70
192
 0
VERTEX
 8
DISCO_5
 10
10.938
 20
-1.3031
 30
0.4501
 70
192
 0
VERTEX
 8
DISCO_5
 10
10.9601
 20
-1.3479
 30
0.4501
 70
192
 0
VERTEX
 8
DISCO_5
 10
10.9822
 20
-1.3928
 30
0.4501
 70
192
 0
VERTEX
 8
DISCO_5
 10
10.4061
 20
-1.5874
 30
0.4501
 70
192
 0
VERTEX
 8
DISCO_5
 10
10.4311
 20
-1.6307
 30
0.4501
 70
192
 0
VERTEX
 8
DISCO_5
 10
10.4561
 20
-1.674
 30
0.4501
 70
192
 0
VERTEX
 8
DISCO_5
 10
9.8939
 20
-1.9059
 30
0.4501
 70
192
 0
VERTEX
 8
DISCO_5
 10
9.9217
 20
-1.9475
 30
0.4501
 70
192
 0
VERTEX
 8
DISCO_5
 10
9.9495
 20
-1.989
 30
0.4501
 70
192
 0
VERTEX
 8
DISCO_5
 10
9.4037
 20
-2.2572
 30
0.4501
 70
192
 0
VERTEX
 8
DISCO_5
 10
9.4341
 20
-2.2969
 30
0.4501
 70
192
 0
VERTEX
 8
DISCO_5
 10
9.4645
 20
-2.3365
 30
0.4501
 70
192
 0
VERTEX
 8
DISCO_5
 10
8.9375
 20
-2.6399
 30
0.4501
 70
192
 0
VERTEX
 8
DISCO_5
 10
8.9704
 20
-2.6774
 30
0.4501
 70
192
 0
VERTEX
 8
DISCO_5
 10
9.0034
 20
-2.715
 30
0.4501
 70
192
 0
VERTEX
 8
DISCO_5
 10
8.4973
 20
-3.0521
 30
0.4501
 70
192
 0
VERTEX
 8
DISCO_5
 10
8.5326
 20
-3.0875
 30
0.4501
 70
192
 0
VERTEX
 8
DISCO_5
 10
8.5679
 20
-3.1228
 30
0.4501
 70
192
 0
VERTEX
 8
DISCO_5
 10
8.085
 20
-3.4923
 30
0.4501
 70
192
 0
VERTEX
 8
DISCO_5
 10
8.1225
 20
-3.5253
 30
0.4501
 70
192
 0
VERTEX
 8
DISCO_5
 10
8.1601
 20
-3.5583
 30
0.4501
 70
192
 0
VERTEX
 8
DISCO_5
 10
7.7023
 20
-3.9586
 30
0.4501
 70
192
 0
VERTEX
 8
DISCO_5
 10
7.742
 20
-3.989
 30
0.4501
 70
192
 0
VERTEX
 8
DISCO_5
 10
7.7817
 20
-4.0194
 30
0.4501
 70
192
 0
VERTEX
 8
DISCO_5
 10
7.351
 20
-4.4488
 30
0.4501
 70
192
 0
VERTEX
 8
DISCO_5
 10
7.3926
 20
-4.4766
 30
0.4501
 70
192
 0
VERTEX
 8
DISCO_5
 10
7.4342
 20
-4.5044
 30
0.4501
 70
192
 0
VERTEX
 8
DISCO_5
 10
7.0325
 20
-4.961
 30
0.4501
 70
192
 0
VERTEX
 8
DISCO_5
 10
7.0758
 20
-4.986
 30
0.4501
 70
192
 0
VERTEX
 8
DISCO_5
 10
7.1191
 20
-5.011
 30
0.4501
 70
192
 0
VERTEX
 8
DISCO_5
 10
6.7482
 20
-5.4929
 30
0.4501
 70
192
 0
VERTEX
 8
DISCO_5
 10
6.7931
 20
-5.515
 30
0.4501
 70
192
 0
VERTEX
 8
DISCO_5
 10
6.8379
 20
-5.5371
 30
0.4501
 70
192
 0
VERTEX
 8
DISCO_5
 10
6.4993
 20
-6.0423
 30
0.4501
 70
192
 0
VERTEX
 8
DISCO_5
 10
6.5455
 20
-6.0614
 30
0.4501
 70
192
 0
VERTEX
 8
DISCO_5
 10
6.5917
 20
-6.0805
 30
0.4501
 70
192
 0
VERTEX
 8
DISCO_5
 10
6.2869
 20
-6.6068
 30
0.4501
 70
192
 0
VERTEX
 8
DISCO_5
 10
6.3342
 20
-6.6228
 30
0.4501
 70
192
 0
VERTEX
 8
DISCO_5
 10
6.3815
 20
-6.6389
 30
0.4501
 70
192
 0
VERTEX
 8
DISCO_5
 10
6.1118
 20
-7.1839
 30
0.4501
 70
192
 0
VERTEX
 8
DISCO_5
 10
6.1601
 20
-7.1968
 30
0.4501
 70
192
 0
VERTEX
 8
DISCO_5
 10
6.2083
 20
-7.2098
 30
0.4501
 70
192
 0
VERTEX
 8
DISCO_5
 10
5.9748
 20
-7.7713
 30
0.4501
 70
192
 0
VERTEX
 8
DISCO_5
 10
6.0238
 20
-7.781
 30
0.4501
 70
192
 0
VERTEX
 8
DISCO_5
 10
6.0729
 20
-7.7908
 30
0.4501
 70
192
 0
VERTEX
 8
DISCO_5
 10
5.8766
 20
-8.3664
 30
0.4501
 70
192
 0
VERTEX
 8
DISCO_5
 10
5.9261
 20
-8.3729
 30
0.4501
 70
192
 0
VERTEX
 8
DISCO_5
 10
5.9757
 20
-8.3794
 30
0.4501
 70
192
 0
VERTEX
 8
DISCO_5
 10
5.8175
 20
-8.9666
 30
0.4501
 70
192
 0
VERTEX
 8
DISCO_5
 10
5.8673
 20
-8.9699
 30
0.4501
 70
192
 0
VERTEX
 8
DISCO_5
 10
5.9172
 20
-8.9731
 30
0.4501
 70
192
 0
VERTEX
 8
DISCO_5
 10
5.7977
 20
-9.5694
 30
0.4501
 70
192
 0
VERTEX
 8
DISCO_5
 10
5.8477
 20
-9.5694
 30
0.4501
 70
192
 0
VERTEX
 8
DISCO_5
 10
5.8977
 20
-9.5694
 30
0.4501
 70
192
 0
VERTEX
 8
DISCO_5
 10
5.8175
 20
-10.1722
 30
0.4501
 70
192
 0
VERTEX
 8
DISCO_5
 10
5.8673
 20
-10.1689
 30
0.4501
 70
192
 0
VERTEX
 8
DISCO_5
 10
5.9172
 20
-10.1657
 30
0.4501
 70
192
 0
VERTEX
 8
DISCO_5
 10
5.8766
 20
-10.7724
 30
0.4501
 70
192
 0
VERTEX
 8
DISCO_5
 10
5.9261
 20
-10.7659
 30
0.4501
 70
192
 0
VERTEX
 8
DISCO_5
 10
5.9757
 20
-10.7594
 30
0.4501
 70
192
 0
VERTEX
 8
DISCO_5
 10
5.9748
 20
-11.3675
 30
0.4501
 70
192
 0
VERTEX
 8
DISCO_5
 10
6.0238
 20
-11.3577
 30
0.4501
 70
192
 0
VERTEX
 8
DISCO_5
 10
6.0729
 20
-11.348
 30
0.4501
 70
192
 0
VERTEX
 8
DISCO_5
 10
6.1118
 20
-11.9549
 30
0.4501
 70
192
 0
VERTEX
 8
DISCO_5
 10
6.1601
 20
-11.9419
 30
0.4501
 70
192
 0
VERTEX
 8
DISCO_5
 10
6.2083
 20
-11.929
 30
0.4501
 70
192
 0
VERTEX
 8
DISCO_5
 10
6.2869
 20
-12.532
 30
0.4501
 70
192
 0
VERTEX
 8
DISCO_5
 10
6.3342
 20
-12.516
 30
0.4501
 70
192
 0
VERTEX
 8
DISCO_5
 10
6.3815
 20
-12.4999
 30
0.4501
 70
192
 0
VERTEX
 8
DISCO_5
 10
6.4993
 20
-13.0965
 30
0.4501
 70
192
 0
VERTEX
 8
DISCO_5
 10
6.5455
 20
-13.0774
 30
0.4501
 70
192
 0
VERTEX
 8
DISCO_5
 10
6.5917
 20
-13.0582
 30
0.4501
 70
192
 0
VERTEX
 8
DISCO_5
 10
6.7482
 20
-13.6459
 30
0.4501
 70
192
 0
VERTEX
 8
DISCO_5
 10
6.7931
 20
-13.6238
 30
0.4501
 70
192
 0
VERTEX
 8
DISCO_5
 10
6.8379
 20
-13.6016
 30
0.4501
 70
192
 0
VERTEX
 8
DISCO_5
 10
7.0325
 20
-14.1778
 30
0.4501
 70
192
 0
VERTEX
 8
DISCO_5
 10
7.0758
 20
-14.1528
 30
0.4501
 70
192
 0
VERTEX
 8
DISCO_5
 10
7.1191
 20
-14.1278
 30
0.4501
 70
192
 0
VERTEX
 8
DISCO_5
 10
7.351
 20
-14.69
 30
0.4501
 70
192
 0
VERTEX
 8
DISCO_5
 10
7.3926
 20
-14.6622
 30
0.4501
 70
192
 0
VERTEX
 8
DISCO_5
 10
7.4342
 20
-14.6344
 30
0.4501
 70
192
 0
VERTEX
 8
DISCO_5
 10
7.7023
 20
-15.1802
 30
0.4501
 70
192
 0
VERTEX
 8
DISCO_5
 10
7.742
 20
-15.1498
 30
0.4501
 70
192
 0
VERTEX
 8
DISCO_5
 10
7.7817
 20
-15.1193
 30
0.4501
 70
192
 0
VERTEX
 8
DISCO_5
 10
8.085
 20
-15.6464
 30
0.4501
 70
192
 0
VERTEX
 8
DISCO_5
 10
8.1225
 20
-15.6135
 30
0.4501
 70
192
 0
VERTEX
 8
DISCO_5
 10
8.1601
 20
-15.5805
 30
0.4501
 70
192
 0
VERTEX
 8
DISCO_5
 10
8.4973
 20
-16.0866
 30
0.4501
 70
192
 0
VERTEX
 8
DISCO_5
 10
8.5326
 20
-16.0513
 30
0.4501
 70
192
 0
VERTEX
 8
DISCO_5
 10
8.5679
 20
-16.0159
 30
0.4501
 70
192
 0
VERTEX
 8
DISCO_5
 10
8.9375
 20
-16.4989
 30
0.4501
 70
192
 0
VERTEX
 8
DISCO_5
 10
8.9704
 20
-16.4613
 30
0.4501
 70
192
 0
VERTEX
 8
DISCO_5
 10
9.0034
 20
-16.4238
 30
0.4501
 70
192
 0
VERTEX
 8
DISCO_5
 10
9.4037
 20
-16.8815
 30
0.4501
 70
192
 0
VERTEX
 8
DISCO_5
 10
9.4341
 20
-16.8419
 30
0.4501
 70
192
 0
VERTEX
 8
DISCO_5
 10
9.4645
 20
-16.8022
 30
0.4501
 70
192
 0
VERTEX
 8
DISCO_5
 10
9.8939
 20
-17.2329
 30
0.4501
 70
192
 0
VERTEX
 8
DISCO_5
 10
9.9217
 20
-17.1913
 30
0.4501
 70
192
 0
VERTEX
 8
DISCO_5
 10
9.9495
 20
-17.1497
 30
0.4501
 70
192
 0
VERTEX
 8
DISCO_5
 10
10.4061
 20
-17.5513
 30
0.4501
 70
192
 0
VERTEX
 8
DISCO_5
 10
10.4311
 20
-17.5081
 30
0.4501
 70
192
 0
VERTEX
 8
DISCO_5
 10
10.4561
 20
-17.4648
 30
0.4501
 70
192
 0
VERTEX
 8
DISCO_5
 10
10.938
 20
-17.8357
 30
0.4501
 70
192
 0
VERTEX
 8
DISCO_5
 10
10.9601
 20
-17.7908
 30
0.4501
 70
192
 0
VERTEX
 8
DISCO_5
 10
10.9822
 20
-17.746
 30
0.4501
 70
192
 0
VERTEX
 8
DISCO_5
 10
11.4874
 20
-18.0846
 30
0.4501
 70
192
 0
VERTEX
 8
DISCO_5
 10
11.5065
 20
-18.0384
 30
0.4501
 70
192
 0
VERTEX
 8
DISCO_5
 10
11.5256
 20
-17.9922
 30
0.4501
 70
192
 0
VERTEX
 8
DISCO_5
 10
12.0519
 20
-18.297
 30
0.4501
 70
192
 0
VERTEX
 8
DISCO_5
 10
12.0679
 20
-18.2497
 30
0.4501
 70
192
 0
VERTEX
 8
DISCO_5
 10
12.084
 20
-18.2024
 30
0.4501
 70
192
 0
VERTEX
 8
DISCO_5
 10
12.629
 20
-18.4721
 30
0.4501
 70
192
 0
VERTEX
 8
DISCO_5
 10
12.642
 20
-18.4238
 30
0.4501
 70
192
 0
VERTEX
 8
DISCO_5
 10
12.6549
 20
-18.3755
 30
0.4501
 70
192
 0
VERTEX
 8
DISCO_5
 10
13.2164
 20
-18.6091
 30
0.4501
 70
192
 0
VERTEX
 8
DISCO_5
 10
13.2261
 20
-18.56
 30
0.4501
 70
192
 0
VERTEX
 8
DISCO_5
 10
13.2359
 20
-18.511
 30
0.4501
 70
192
 0
VERTEX
 8
DISCO_5
 10
13.8115
 20
-18.7073
 30
0.4501
 70
192
 0
VERTEX
 8
DISCO_5
 10
13.818
 20
-18.6577
 30
0.4501
 70
192
 0
VERTEX
 8
DISCO_5
 10
13.8245
 20
-18.6082
 30
0.4501
 70
192
 0
VERTEX
 8
DISCO_5
 10
14.4117
 20
-18.7664
 30
0.4501
 70
192
 0
VERTEX
 8
DISCO_5
 10
14.415
 20
-18.7165
 30
0.4501
 70
192
 0
VERTEX
 8
DISCO_5
 10
14.4182
 20
-18.6667
 30
0.4501
 70
192
 0
VERTEX
 8
DISCO_5
 10
15.0145
 20
-18.7862
 30
0.4501
 70
192
 0
VERTEX
 8
DISCO_5
 10
15.0145
 20
-18.7362
 30
0.4501
 70
192
 0
VERTEX
 8
DISCO_5
 10
15.0145
 20
-18.6862
 30
0.4501
 70
192
 0
VERTEX
 8
DISCO_5
 10
15.6173
 20
-18.7664
 30
0.4501
 70
192
 0
VERTEX
 8
DISCO_5
 10
15.614
 20
-18.7165
 30
0.4501
 70
192
 0
VERTEX
 8
DISCO_5
 10
15.6108
 20
-18.6667
 30
0.4501
 70
192
 0
VERTEX
 8
DISCO_5
 10
16.2175
 20
-18.7073
 30
0.4501
 70
192
 0
VERTEX
 8
DISCO_5
 10
16.211
 20
-18.6577
 30
0.4501
 70
192
 0
VERTEX
 8
DISCO_5
 10
16.2045
 20
-18.6082
 30
0.4501
 70
192
 0
VERTEX
 8
DISCO_5
 10
16.8126
 20
-18.6091
 30
0.4501
 70
192
 0
VERTEX
 8
DISCO_5
 10
16.8028
 20
-18.56
 30
0.4501
 70
192
 0
VERTEX
 8
DISCO_5
 10
16.7931
 20
-18.511
 30
0.4501
 70
192
 0
VERTEX
 8
DISCO_5
 10
17.4
 20
-18.4721
 30
0.4501
 70
192
 0
VERTEX
 8
DISCO_5
 10
17.387
 20
-18.4238
 30
0.4501
 70
192
 0
VERTEX
 8
DISCO_5
 10
17.3741
 20
-18.3755
 30
0.4501
 70
192
 0
VERTEX
 8
DISCO_5
 10
17.9771
 20
-18.297
 30
0.4501
 70
192
 0
VERTEX
 8
DISCO_5
 10
17.9611
 20
-18.2497
 30
0.4501
 70
192
 0
VERTEX
 8
DISCO_5
 10
17.945
 20
-18.2024
 30
0.4501
 70
192
 0
VERTEX
 8
DISCO_5
 10
18.5416
 20
-18.0846
 30
0.4501
 70
192
 0
VERTEX
 8
DISCO_5
 10
18.5225
 20
-18.0384
 30
0.4501
 70
192
 0
VERTEX
 8
DISCO_5
 10
18.5033
 20
-17.9922
 30
0.4501
 70
192
 0
VERTEX
 8
DISCO_5
 10
19.091
 20
-17.8357
 30
0.4501
 70
192
 0
VERTEX
 8
DISCO_5
 10
19.0689
 20
-17.7908
 30
0.4501
 70
192
 0
VERTEX
 8
DISCO_5
 10
19.0468
 20
-17.746
 30
0.4501
 70
192
 0
VERTEX
 8
DISCO_5
 10
19.6229
 20
-17.5513
 30
0.4501
 70
192
 0
VERTEX
 8
DISCO_5
 10
19.5979
 20
-17.5081
 30
0.4501
 70
192
 0
VERTEX
 8
DISCO_5
 10
19.5729
 20
-17.4648
 30
0.4501
 70
192
 0
VERTEX
 8
DISCO_5
 10
20.1351
 20
-17.2329
 30
0.4501
 70
192
 0
VERTEX
 8
DISCO_5
 10
20.1073
 20
-17.1913
 30
0.4501
 70
192
 0
VERTEX
 8
DISCO_5
 10
20.0795
 20
-17.1497
 30
0.4501
 70
192
 0
VERTEX
 8
DISCO_5
 10
20.6253
 20
-16.8815
 30
0.4501
 70
192
 0
VERTEX
 8
DISCO_5
 10
20.5949
 20
-16.8419
 30
0.4501
 70
192
 0
VERTEX
 8
DISCO_5
 10
20.5645
 20
-16.8022
 30
0.4501
 70
192
 0
VERTEX
 8
DISCO_5
 10
21.0915
 20
-16.4989
 30
0.4501
 70
192
 0
VERTEX
 8
DISCO_5
 10
21.0586
 20
-16.4613
 30
0.4501
 70
192
 0
VERTEX
 8
DISCO_5
 10
21.0256
 20
-16.4238
 30
0.4501
 70
192
 0
VERTEX
 8
DISCO_5
 10
21.5317
 20
-16.0866
 30
0.4501
 70
192
 0
VERTEX
 8
DISCO_5
 10
21.4964
 20
-16.0513
 30
0.4501
 70
192
 0
VERTEX
 8
DISCO_5
 10
21.461
 20
-16.0159
 30
0.4501
 70
192
 0
VERTEX
 8
DISCO_5
 10
21.944
 20
-15.6464
 30
0.4501
 70
192
 0
VERTEX
 8
DISCO_5
 10
21.9064
 20
-15.6135
 30
0.4501
 70
192
 0
VERTEX
 8
DISCO_5
 10
21.8689
 20
-15.5805
 30
0.4501
 70
192
 0
VERTEX
 8
DISCO_5
 10
22.3266
 20
-15.1802
 30
0.4501
 70
192
 0
VERTEX
 8
DISCO_5
 10
22.287
 20
-15.1498
 30
0.4501
 70
192
 0
VERTEX
 8
DISCO_5
 10
22.2473
 20
-15.1193
 30
0.4501
 70
192
 0
VERTEX
 8
DISCO_5
 10
22.678
 20
-14.69
 30
0.4501
 70
192
 0
VERTEX
 8
DISCO_5
 10
22.6364
 20
-14.6622
 30
0.4501
 70
192
 0
VERTEX
 8
DISCO_5
 10
22.5948
 20
-14.6344
 30
0.4501
 70
192
 0
VERTEX
 8
DISCO_5
 10
22.9965
 20
-14.1778
 30
0.4501
 70
192
 0
VERTEX
 8
DISCO_5
 10
22.9532
 20
-14.1528
 30
0.4501
 70
192
 0
VERTEX
 8
DISCO_5
 10
22.9099
 20
-14.1278
 30
0.4501
 70
192
 0
VERTEX
 8
DISCO_5
 10
23.2808
 20
-13.6459
 30
0.4501
 70
192
 0
VERTEX
 8
DISCO_5
 10
23.2359
 20
-13.6238
 30
0.4501
 70
192
 0
VERTEX
 8
DISCO_5
 10
23.1911
 20
-13.6016
 30
0.4501
 70
192
 0
VERTEX
 8
DISCO_5
 10
23.5297
 20
-13.0965
 30
0.4501
 70
192
 0
VERTEX
 8
DISCO_5
 10
23.4835
 20
-13.0774
 30
0.4501
 70
192
 0
VERTEX
 8
DISCO_5
 10
23.4373
 20
-13.0582
 30
0.4501
 70
192
 0
VERTEX
 8
DISCO_5
 10
23.7421
 20
-12.532
 30
0.4501
 70
192
 0
VERTEX
 8
DISCO_5
 10
23.6948
 20
-12.516
 30
0.4501
 70
192
 0
VERTEX
 8
DISCO_5
 10
23.6475
 20
-12.4999
 30
0.4501
 70
192
 0
VERTEX
 8
DISCO_5
 10
23.9172
 20
-11.9549
 30
0.4501
 70
192
 0
VERTEX
 8
DISCO_5
 10
23.8689
 20
-11.9419
 30
0.4501
 70
192
 0
VERTEX
 8
DISCO_5
 10
23.8206
 20
-11.929
 30
0.4501
 70
192
 0
VERTEX
 8
DISCO_5
 10
24.0542
 20
-11.3675
 30
0.4501
 70
192
 0
VERTEX
 8
DISCO_5
 10
24.0051
 20
-11.3577
 30
0.4501
 70
192
 0
VERTEX
 8
DISCO_5
 10
23.9561
 20
-11.348
 30
0.4501
 70
192
 0
VERTEX
 8
DISCO_5
 10
24.1524
 20
-10.7724
 30
0.4501
 70
192
 0
VERTEX
 8
DISCO_5
 10
24.1029
 20
-10.7659
 30
0.4501
 70
192
 0
VERTEX
 8
DISCO_5
 10
24.0533
 20
-10.7594
 30
0.4501
 70
192
 0
VERTEX
 8
DISCO_5
 10
24.2115
 20
-10.1722
 30
0.4501
 70
192
 0
VERTEX
 8
DISCO_5
 10
24.1617
 20
-10.1689
 30
0.4501
 70
192
 0
VERTEX
 8
DISCO_5
 10
24.1118
 20
-10.1657
 30
0.4501
 70
192
 0
VERTEX
 8
DISCO_5
 10
0
 20
0
 30
0
 70
128
 71
1
 72
2
 73
5
 74
4
 0
VERTEX
 8
DISCO_5
 10
0
 20
0
 30
0
 70
128
 71
2
 72
3
 73
6
 74
5
 0
VERTEX
 8
DISCO_5
 10
0
 20
0
 30
0
 70
128
 71
4
 72
5
 73
8
 74
7
 0
VERTEX
 8
DISCO_5
 10
0
 20
0
 30
0
 70
128
 71
5
 72
6
 73
9
 74
8
 0
VERTEX
 8
DISCO_5
 10
0
 20
0
 30
0
 70
128
 71
7
 72
8
 73
11
 74
10
 0
VERTEX
 8
DISCO_5
 10
0
 20
0
 30
0
 70
128
 71
8
 72
9
 73
12
 74
11
 0
VERTEX
 8
DISCO_5
 10
0
 20
0
 30
0
 70
128
 71
10
 72
11
 73
14
 74
13
 0
VERTEX
 8
DISCO_5
 10
0
 20
0
 30
0
 70
128
 71
11
 72
12
 73
15
 74
14
 0
VERTEX
 8
DISCO_5
 10
0
 20
0
 30
0
 70
128
 71
13
 72
14
 73
17
 74
16
 0
VERTEX
 8
DISCO_5
 10
0
 20
0
 30
0
 70
128
 71
14
 72
15
 73
18
 74
17
 0
VERTEX
 8
DISCO_5
 10
0
 20
0
 30
0
 70
128
 71
16
 72
17
 73
20
 74
19
 0
VERTEX
 8
DISCO_5
 10
0
 20
0
 30
0
 70
128
 71
17
 72
18
 73
21
 74
20
 0
VERTEX
 8
DISCO_5
 10
0
 20
0
 30
0
 70
128
 71
19
 72
20
 73
23
 74
22
 0
VERTEX
 8
DISCO_5
 10
0
 20
0
 30
0
 70
128
 71
20
 72
21
 73
24
 74
23
 0
VERTEX
 8
DISCO_5
 10
0
 20
0
 30
0
 70
128
 71
22
 72
23
 73
26
 74
25
 0
VERTEX
 8
DISCO_5
 10
0
 20
0
 30
0
 70
128
 71
23
 72
24
 73
27
 74
26
 0
VERTEX
 8
DISCO_5
 10
0
 20
0
 30
0
 70
128
 71
25
 72
26
 73
29
 74
28
 0
VERTEX
 8
DISCO_5
 10
0
 20
0
 30
0
 70
128
 71
26
 72
27
 73
30
 74
29
 0
VERTEX
 8
DISCO_5
 10
0
 20
0
 30
0
 70
128
 71
28
 72
29
 73
32
 74
31
 0
VERTEX
 8
DISCO_5
 10
0
 20
0
 30
0
 70
128
 71
29
 72
30
 73
33
 74
32
 0
VERTEX
 8
DISCO_5
 10
0
 20
0
 30
0
 70
128
 71
31
 72
32
 73
35
 74
34
 0
VERTEX
 8
DISCO_5
 10
0
 20
0
 30
0
 70
128
 71
32
 72
33
 73
36
 74
35
 0
VERTEX
 8
DISCO_5
 10
0
 20
0
 30
0
 70
128
 71
34
 72
35
 73
38
 74
37
 0
VERTEX
 8
DISCO_5
 10
0
 20
0
 30
0
 70
128
 71
35
 72
36
 73
39
 74
38
 0
VERTEX
 8
DISCO_5
 10
0
 20
0
 30
0
 70
128
 71
37
 72
38
 73
41
 74
40
 0
VERTEX
 8
DISCO_5
 10
0
 20
0
 30
0
 70
128
 71
38
 72
39
 73
42
 74
41
 0
VERTEX
 8
DISCO_5
 10
0
 20
0
 30
0
 70
128
 71
40
 72
41
 73
44
 74
43
 0
VERTEX
 8
DISCO_5
 10
0
 20
0
 30
0
 70
128
 71
41
 72
42
 73
45
 74
44
 0
VERTEX
 8
DISCO_5
 10
0
 20
0
 30
0
 70
128
 71
43
 72
44
 73
47
 74
46
 0
VERTEX
 8
DISCO_5
 10
0
 20
0
 30
0
 70
128
 71
44
 72
45
 73
48
 74
47
 0
VERTEX
 8
DISCO_5
 10
0
 20
0
 30
0
 70
128
 71
46
 72
47
 73
50
 74
49
 0
VERTEX
 8
DISCO_5
 10
0
 20
0
 30
0
 70
128
 71
47
 72
48
 73
51
 74
50
 0
VERTEX
 8
DISCO_5
 10
0
 20
0
 30
0
 70
128
 71
49
 72
50
 73
53
 74
52
 0
VERTEX
 8
DISCO_5
 10
0
 20
0
 30
0
 70
128
 71
50
 72
51
 73
54
 74
53
 0
VERTEX
 8
DISCO_5
 10
0
 20
0
 30
0
 70
128
 71
52
 72
53
 73
56
 74
55
 0
VERTEX
 8
DISCO_5
 10
0
 20
0
 30
0
 70
128
 71
53
 72
54
 73
57
 74
56
 0
VERTEX
 8
DISCO_5
 10
0
 20
0
 30
0
 70
128
 71
55
 72
56
 73
59
 74
58
 0
VERTEX
 8
DISCO_5
 10
0
 20
0
 30
0
 70
128
 71
56
 72
57
 73
60
 74
59
 0
VERTEX
 8
DISCO_5
 10
0
 20
0
 30
0
 70
128
 71
58
 72
59
 73
62
 74
61
 0
VERTEX
 8
DISCO_5
 10
0
 20
0
 30
0
 70
128
 71
59
 72
60
 73
63
 74
62
 0
VERTEX
 8
DISCO_5
 10
0
 20
0
 30
0
 70
128
 71
61
 72
62
 73
65
 74
64
 0
VERTEX
 8
DISCO_5
 10
0
 20
0
 30
0
 70
128
 71
62
 72
63
 73
66
 74
65
 0
VERTEX
 8
DISCO_5
 10
0
 20
0
 30
0
 70
128
 71
64
 72
65
 73
68
 74
67
 0
VERTEX
 8
DISCO_5
 10
0
 20
0
 30
0
 70
128
 71
65
 72
66
 73
69
 74
68
 0
VERTEX
 8
DISCO_5
 10
0
 20
0
 30
0
 70
128
 71
67
 72
68
 73
71
 74
70
 0
VERTEX
 8
DISCO_5
 10
0
 20
0
 30
0
 70
128
 71
68
 72
69
 73
72
 74
71
 0
VERTEX
 8
DISCO_5
 10
0
 20
0
 30
0
 70
128
 71
70
 72
71
 73
74
 74
73
 0
VERTEX
 8
DISCO_5
 10
0
 20
0
 30
0
 70
128
 71
71
 72
72
 73
75
 74
74
 0
VERTEX
 8
DISCO_5
 10
0
 20
0
 30
0
 70
128
 71
73
 72
74
 73
77
 74
76
 0
VERTEX
 8
DISCO_5
 10
0
 20
0
 30
0
 70
128
 71
74
 72
75
 73
78
 74
77
 0
VERTEX
 8
DISCO_5
 10
0
 20
0
 30
0
 70
128
 71
76
 72
77
 73
80
 74
79
 0
VERTEX
 8
DISCO_5
 10
0
 20
0
 30
0
 70
128
 71
77
 72
78
 73
81
 74
80
 0
VERTEX
 8
DISCO_5
 10
0
 20
0
 30
0
 70
128
 71
79
 72
80
 73
83
 74
82
 0
VERTEX
 8
DISCO_5
 10
0
 20
0
 30
0
 70
128
 71
80
 72
81
 73
84
 74
83
 0
VERTEX
 8
DISCO_5
 10
0
 20
0
 30
0
 70
128
 71
82
 72
83
 73
86
 74
85
 0
VERTEX
 8
DISCO_5
 10
0
 20
0
 30
0
 70
128
 71
83
 72
84
 73
87
 74
86
 0
VERTEX
 8
DISCO_5
 10
0
 20
0
 30
0
 70
128
 71
85
 72
86
 73
89
 74
88
 0
VERTEX
 8
DISCO_5
 10
0
 20
0
 30
0
 70
128
 71
86
 72
87
 73
90
 74
89
 0
VERTEX
 8
DISCO_5
 10
0
 20
0
 30
0
 70
128
 71
88
 72
89
 73
92
 74
91
 0
VERTEX
 8
DISCO_5
 10
0
 20
0
 30
0
 70
128
 71
89
 72
90
 73
93
 74
92
 0
VERTEX
 8
DISCO_5
 10
0
 20
0
 30
0
 70
128
 71
91
 72
92
 73
95
 74
94
 0
VERTEX
 8
DISCO_5
 10
0
 20
0
 30
0
 70
128
 71
92
 72
93
 73
96
 74
95
 0
VERTEX
 8
DISCO_5
 10
0
 20
0
 30
0
 70
128
 71
94
 72
95
 73
98
 74
97
 0
VERTEX
 8
DISCO_5
 10
0
 20
0
 30
0
 70
128
 71
95
 72
96
 73
99
 74
98
 0
VERTEX
 8
DISCO_5
 10
0
 20
0
 30
0
 70
128
 71
97
 72
98
 73
101
 74
100
 0
VERTEX
 8
DISCO_5
 10
0
 20
0
 30
0
 70
128
 71
98
 72
99
 73
102
 74
101
 0
VERTEX
 8
DISCO_5
 10
0
 20
0
 30
0
 70
128
 71
100
 72
101
 73
104
 74
103
 0
VERTEX
 8
DISCO_5
 10
0
 20
0
 30
0
 70
128
 71
101
 72
102
 73
105
 74
104
 0
VERTEX
 8
DISCO_5
 10
0
 20
0
 30
0
 70
128
 71
103
 72
104
 73
107
 74
106
 0
VERTEX
 8
DISCO_5
 10
0
 20
0
 30
0
 70
128
 71
104
 72
105
 73
108
 74
107
 0
VERTEX
 8
DISCO_5
 10
0
 20
0
 30
0
 70
128
 71
106
 72
107
 73
110
 74
109
 0
VERTEX
 8
DISCO_5
 10
0
 20
0
 30
0
 70
128
 71
107
 72
108
 73
111
 74
110
 0
VERTEX
 8
DISCO_5
 10
0
 20
0
 30
0
 70
128
 71
109
 72
110
 73
113
 74
112
 0
VERTEX
 8
DISCO_5
 10
0
 20
0
 30
0
 70
128
 71
110
 72
111
 73
114
 74
113
 0
VERTEX
 8
DISCO_5
 10
0
 20
0
 30
0
 70
128
 71
112
 72
113
 73
116
 74
115
 0
VERTEX
 8
DISCO_5
 10
0
 20
0
 30
0
 70
128
 71
113
 72
114
 73
117
 74
116
 0
VERTEX
 8
DISCO_5
 10
0
 20
0
 30
0
 70
128
 71
115
 72
116
 73
119
 74
118
 0
VERTEX
 8
DISCO_5
 10
0
 20
0
 30
0
 70
128
 71
116
 72
117
 73
120
 74
119
 0
VERTEX
 8
DISCO_5
 10
0
 20
0
 30
0
 70
128
 71
118
 72
119
 73
122
 74
121
 0
VERTEX
 8
DISCO_5
 10
0
 20
0
 30
0
 70
128
 71
119
 72
120
 73
123
 74
122
 0
VERTEX
 8
DISCO_5
 10
0
 20
0
 30
0
 70
128
 71
121
 72
122
 73
125
 74
124
 0
VERTEX
 8
DISCO_5
 10
0
 20
0
 30
0
 70
128
 71
122
 72
123
 73
126
 74
125
 0
VERTEX
 8
DISCO_5
 10
0
 20
0
 30
0
 70
128
 71
124
 72
125
 73
128
 74
127
 0
VERTEX
 8
DISCO_5
 10
0
 20
0
 30
0
 70
128
 71
125
 72
126
 73
129
 74
128
 0
VERTEX
 8
DISCO_5
 10
0
 20
0
 30
0
 70
128
 71
127
 72
128
 73
131
 74
130
 0
VERTEX
 8
DISCO_5
 10
0
 20
0
 30
0
 70
128
 71
128
 72
129
 73
132
 74
131
 0
VERTEX
 8
DISCO_5
 10
0
 20
0
 30
0
 70
128
 71
130
 72
131
 73
134
 74
133
 0
VERTEX
 8
DISCO_5
 10
0
 20
0
 30
0
 70
128
 71
131
 72
132
 73
135
 74
134
 0
VERTEX
 8
DISCO_5
 10
0
 20
0
 30
0
 70
128
 71
133
 72
134
 73
137
 74
136
 0
VERTEX
 8
DISCO_5
 10
0
 20
0
 30
0
 70
128
 71
134
 72
135
 73
138
 74
137
 0
VERTEX
 8
DISCO_5
 10
0
 20
0
 30
0
 70
128
 71
136
 72
137
 73
140
 74
139
 0
VERTEX
 8
DISCO_5
 10
0
 20
0
 30
0
 70
128
 71
137
 72
138
 73
141
 74
140
 0
VERTEX
 8
DISCO_5
 10
0
 20
0
 30
0
 70
128
 71
139
 72
140
 73
143
 74
142
 0
VERTEX
 8
DISCO_5
 10
0
 20
0
 30
0
 70
128
 71
140
 72
141
 73
144
 74
143
 0
VERTEX
 8
DISCO_5
 10
0
 20
0
 30
0
 70
128
 71
142
 72
143
 73
146
 74
145
 0
VERTEX
 8
DISCO_5
 10
0
 20
0
 30
0
 70
128
 71
143
 72
144
 73
147
 74
146
 0
VERTEX
 8
DISCO_5
 10
0
 20
0
 30
0
 70
128
 71
145
 72
146
 73
149
 74
148
 0
VERTEX
 8
DISCO_5
 10
0
 20
0
 30
0
 70
128
 71
146
 72
147
 73
150
 74
149
 0
VERTEX
 8
DISCO_5
 10
0
 20
0
 30
0
 70
128
 71
148
 72
149
 73
152
 74
151
 0
VERTEX
 8
DISCO_5
 10
0
 20
0
 30
0
 70
128
 71
149
 72
150
 73
153
 74
152
 0
VERTEX
 8
DISCO_5
 10
0
 20
0
 30
0
 70
128
 71
151
 72
152
 73
155
 74
154
 0
VERTEX
 8
DISCO_5
 10
0
 20
0
 30
0
 70
128
 71
152
 72
153
 73
156
 74
155
 0
VERTEX
 8
DISCO_5
 10
0
 20
0
 30
0
 70
128
 71
154
 72
155
 73
158
 74
157
 0
VERTEX
 8
DISCO_5
 10
0
 20
0
 30
0
 70
128
 71
155
 72
156
 73
159
 74
158
 0
VERTEX
 8
DISCO_5
 10
0
 20
0
 30
0
 70
128
 71
157
 72
158
 73
161
 74
160
 0
VERTEX
 8
DISCO_5
 10
0
 20
0
 30
0
 70
128
 71
158
 72
159
 73
162
 74
161
 0
VERTEX
 8
DISCO_5
 10
0
 20
0
 30
0
 70
128
 71
160
 72
161
 73
164
 74
163
 0
VERTEX
 8
DISCO_5
 10
0
 20
0
 30
0
 70
128
 71
161
 72
162
 73
165
 74
164
 0
VERTEX
 8
DISCO_5
 10
0
 20
0
 30
0
 70
128
 71
163
 72
164
 73
167
 74
166
 0
VERTEX
 8
DISCO_5
 10
0
 20
0
 30
0
 70
128
 71
164
 72
165
 73
168
 74
167
 0
VERTEX
 8
DISCO_5
 10
0
 20
0
 30
0
 70
128
 71
166
 72
167
 73
170
 74
169
 0
VERTEX
 8
DISCO_5
 10
0
 20
0
 30
0
 70
128
 71
167
 72
168
 73
171
 74
170
 0
VERTEX
 8
DISCO_5
 10
0
 20
0
 30
0
 70
128
 71
169
 72
170
 73
173
 74
172
 0
VERTEX
 8
DISCO_5
 10
0
 20
0
 30
0
 70
128
 71
170
 72
171
 73
174
 74
173
 0
VERTEX
 8
DISCO_5
 10
0
 20
0
 30
0
 70
128
 71
172
 72
173
 73
176
 74
175
 0
VERTEX
 8
DISCO_5
 10
0
 20
0
 30
0
 70
128
 71
173
 72
174
 73
177
 74
176
 0
VERTEX
 8
DISCO_5
 10
0
 20
0
 30
0
 70
128
 71
175
 72
176
 73
179
 74
178
 0
VERTEX
 8
DISCO_5
 10
0
 20
0
 30
0
 70
128
 71
176
 72
177
 73
180
 74
179
 0
VERTEX
 8
DISCO_5
 10
0
 20
0
 30
0
 70
128
 71
178
 72
179
 73
182
 74
181
 0
VERTEX
 8
DISCO_5
 10
0
 20
0
 30
0
 70
128
 71
179
 72
180
 73
183
 74
182
 0
VERTEX
 8
DISCO_5
 10
0
 20
0
 30
0
 70
128
 71
181
 72
182
 73
185
 74
184
 0
VERTEX
 8
DISCO_5
 10
0
 20
0
 30
0
 70
128
 71
182
 72
183
 73
186
 74
185
 0
VERTEX
 8
DISCO_5
 10
0
 20
0
 30
0
 70
128
 71
184
 72
185
 73
188
 74
187
 0
VERTEX
 8
DISCO_5
 10
0
 20
0
 30
0
 70
128
 71
185
 72
186
 73
189
 74
188
 0
VERTEX
 8
DISCO_5
 10
0
 20
0
 30
0
 70
128
 71
187
 72
188
 73
191
 74
190
 0
VERTEX
 8
DISCO_5
 10
0
 20
0
 30
0
 70
128
 71
188
 72
189
 73
192
 74
191
 0
VERTEX
 8
DISCO_5
 10
0
 20
0
 30
0
 70
128
 71
190
 72
191
 73
194
 74
193
 0
VERTEX
 8
DISCO_5
 10
0
 20
0
 30
0
 70
128
 71
191
 72
192
 73
195
 74
194
 0
VERTEX
 8
DISCO_5
 10
0
 20
0
 30
0
 70
128
 71
193
 72
194
 73
197
 74
196
 0
VERTEX
 8
DISCO_5
 10
0
 20
0
 30
0
 70
128
 71
194
 72
195
 73
198
 74
197
 0
VERTEX
 8
DISCO_5
 10
0
 20
0
 30
0
 70
128
 71
196
 72
197
 73
200
 74
199
 0
VERTEX
 8
DISCO_5
 10
0
 20
0
 30
0
 70
128
 71
197
 72
198
 73
201
 74
200
 0
VERTEX
 8
DISCO_5
 10
0
 20
0
 30
0
 70
128
 71
199
 72
200
 73
203
 74
202
 0
VERTEX
 8
DISCO_5
 10
0
 20
0
 30
0
 70
128
 71
200
 72
201
 73
204
 74
203
 0
VERTEX
 8
DISCO_5
 10
0
 20
0
 30
0
 70
128
 71
202
 72
203
 73
206
 74
205
 0
VERTEX
 8
DISCO_5
 10
0
 20
0
 30
0
 70
128
 71
203
 72
204
 73
207
 74
206
 0
VERTEX
 8
DISCO_5
 10
0
 20
0
 30
0
 70
128
 71
205
 72
206
 73
209
 74
208
 0
VERTEX
 8
DISCO_5
 10
0
 20
0
 30
0
 70
128
 71
206
 72
207
 73
210
 74
209
 0
VERTEX
 8
DISCO_5
 10
0
 20
0
 30
0
 70
128
 71
208
 72
209
 73
212
 74
211
 0
VERTEX
 8
DISCO_5
 10
0
 20
0
 30
0
 70
128
 71
209
 72
210
 73
213
 74
212
 0
VERTEX
 8
DISCO_5
 10
0
 20
0
 30
0
 70
128
 71
211
 72
212
 73
215
 74
214
 0
VERTEX
 8
DISCO_5
 10
0
 20
0
 30
0
 70
128
 71
212
 72
213
 73
216
 74
215
 0
VERTEX
 8
DISCO_5
 10
0
 20
0
 30
0
 70
128
 71
214
 72
215
 73
218
 74
217
 0
VERTEX
 8
DISCO_5
 10
0
 20
0
 30
0
 70
128
 71
215
 72
216
 73
219
 74
218
 0
VERTEX
 8
DISCO_5
 10
0
 20
0
 30
0
 70
128
 71
217
 72
218
 73
221
 74
220
 0
VERTEX
 8
DISCO_5
 10
0
 20
0
 30
0
 70
128
 71
218
 72
219
 73
222
 74
221
 0
VERTEX
 8
DISCO_5
 10
0
 20
0
 30
0
 70
128
 71
220
 72
221
 73
224
 74
223
 0
VERTEX
 8
DISCO_5
 10
0
 20
0
 30
0
 70
128
 71
221
 72
222
 73
225
 74
224
 0
VERTEX
 8
DISCO_5
 10
0
 20
0
 30
0
 70
128
 71
223
 72
224
 73
227
 74
226
 0
VERTEX
 8
DISCO_5
 10
0
 20
0
 30
0
 70
128
 71
224
 72
225
 73
228
 74
227
 0
VERTEX
 8
DISCO_5
 10
0
 20
0
 30
0
 70
128
 71
226
 72
227
 73
230
 74
229
 0
VERTEX
 8
DISCO_5
 10
0
 20
0
 30
0
 70
128
 71
227
 72
228
 73
231
 74
230
 0
VERTEX
 8
DISCO_5
 10
0
 20
0
 30
0
 70
128
 71
229
 72
230
 73
233
 74
232
 0
VERTEX
 8
DISCO_5
 10
0
 20
0
 30
0
 70
128
 71
230
 72
231
 73
234
 74
233
 0
VERTEX
 8
DISCO_5
 10
0
 20
0
 30
0
 70
128
 71
232
 72
233
 73
236
 74
235
 0
VERTEX
 8
DISCO_5
 10
0
 20
0
 30
0
 70
128
 71
233
 72
234
 73
237
 74
236
 0
VERTEX
 8
DISCO_5
 10
0
 20
0
 30
0
 70
128
 71
235
 72
236
 73
239
 74
238
 0
VERTEX
 8
DISCO_5
 10
0
 20
0
 30
0
 70
128
 71
236
 72
237
 73
240
 74
239
 0
VERTEX
 8
DISCO_5
 10
0
 20
0
 30
0
 70
128
 71
238
 72
239
 73
242
 74
241
 0
VERTEX
 8
DISCO_5
 10
0
 20
0
 30
0
 70
128
 71
239
 72
240
 73
243
 74
242
 0
VERTEX
 8
DISCO_5
 10
0
 20
0
 30
0
 70
128
 71
241
 72
242
 73
245
 74
244
 0
VERTEX
 8
DISCO_5
 10
0
 20
0
 30
0
 70
128
 71
242
 72
243
 73
246
 74
245
 0
VERTEX
 8
DISCO_5
 10
0
 20
0
 30
0
 70
128
 71
244
 72
245
 73
248
 74
247
 0
VERTEX
 8
DISCO_5
 10
0
 20
0
 30
0
 70
128
 71
245
 72
246
 73
249
 74
248
 0
VERTEX
 8
DISCO_5
 10
0
 20
0
 30
0
 70
128
 71
247
 72
248
 73
251
 74
250
 0
VERTEX
 8
DISCO_5
 10
0
 20
0
 30
0
 70
128
 71
248
 72
249
 73
252
 74
251
 0
VERTEX
 8
DISCO_5
 10
0
 20
0
 30
0
 70
128
 71
250
 72
251
 73
254
 74
253
 0
VERTEX
 8
DISCO_5
 10
0
 20
0
 30
0
 70
128
 71
251
 72
252
 73
255
 74
254
 0
VERTEX
 8
DISCO_5
 10
0
 20
0
 30
0
 70
128
 71
253
 72
254
 73
257
 74
256
 0
VERTEX
 8
DISCO_5
 10
0
 20
0
 30
0
 70
128
 71
254
 72
255
 73
258
 74
257
 0
VERTEX
 8
DISCO_5
 10
0
 20
0
 30
0
 70
128
 71
256
 72
257
 73
260
 74
259
 0
VERTEX
 8
DISCO_5
 10
0
 20
0
 30
0
 70
128
 71
257
 72
258
 73
261
 74
260
 0
VERTEX
 8
DISCO_5
 10
0
 20
0
 30
0
 70
128
 71
259
 72
260
 73
263
 74
262
 0
VERTEX
 8
DISCO_5
 10
0
 20
0
 30
0
 70
128
 71
260
 72
261
 73
264
 74
263
 0
VERTEX
 8
DISCO_5
 10
0
 20
0
 30
0
 70
128
 71
262
 72
263
 73
266
 74
265
 0
VERTEX
 8
DISCO_5
 10
0
 20
0
 30
0
 70
128
 71
263
 72
264
 73
267
 74
266
 0
VERTEX
 8
DISCO_5
 10
0
 20
0
 30
0
 70
128
 71
265
 72
266
 73
269
 74
268
 0
VERTEX
 8
DISCO_5
 10
0
 20
0
 30
0
 70
128
 71
266
 72
267
 73
270
 74
269
 0
VERTEX
 8
DISCO_5
 10
0
 20
0
 30
0
 70
128
 71
268
 72
269
 73
272
 74
271
 0
VERTEX
 8
DISCO_5
 10
0
 20
0
 30
0
 70
128
 71
269
 72
270
 73
273
 74
272
 0
VERTEX
 8
DISCO_5
 10
0
 20
0
 30
0
 70
128
 71
271
 72
272
 73
275
 74
274
 0
VERTEX
 8
DISCO_5
 10
0
 20
0
 30
0
 70
128
 71
272
 72
273
 73
276
 74
275
 0
VERTEX
 8
DISCO_5
 10
0
 20
0
 30
0
 70
128
 71
274
 72
275
 73
278
 74
277
 0
VERTEX
 8
DISCO_5
 10
0
 20
0
 30
0
 70
128
 71
275
 72
276
 73
279
 74
278
 0
VERTEX
 8
DISCO_5
 10
0
 20
0
 30
0
 70
128
 71
277
 72
278
 73
281
 74
280
 0
VERTEX
 8
DISCO_5
 10
0
 20
0
 30
0
 70
128
 71
278
 72
279
 73
282
 74
281
 0
VERTEX
 8
DISCO_5
 10
0
 20
0
 30
0
 70
128
 71
280
 72
281
 73
284
 74
283
 0
VERTEX
 8
DISCO_5
 10
0
 20
0
 30
0
 70
128
 71
281
 72
282
 73
285
 74
284
 0
VERTEX
 8
DISCO_5
 10
0
 20
0
 30
0
 70
128
 71
283
 72
284
 73
287
 74
286
 0
VERTEX
 8
DISCO_5
 10
0
 20
0
 30
0
 70
128
 71
284
 72
285
 73
288
 74
287
 0
VERTEX
 8
DISCO_5
 10
0
 20
0
 30
0
 70
128
 71
286
 72
287
 73
2
 74
1
 0
VERTEX
 8
DISCO_5
 10
0
 20
0
 30
0
 70
128
 71
287
 72
288
 73
3
 74
2
 0
SEQEND
 0
POLYLINE
 8
DISCO_4
 66
1
 10
0.0
 20
0.0
 30
0.0
 70
64
 71
288
 72
192
 0
VERTEX
 8
DISCO_4
 10
21.2345
 20
-9.5694
 30
0.4501
 70
192
 0
VERTEX
 8
DISCO_4
 10
21.1845
 20
-9.5694
 30
0.4501
 70
192
 0
VERTEX
 8
DISCO_4
 10
21.1345
 20
-9.5694
 30
0.4501
 70
192
 0
VERTEX
 8
DISCO_4
 10
21.2212
 20
-9.1626
 30
0.4501
 70
192
 0
VERTEX
 8
DISCO_4
 10
21.1713
 20
-9.1658
 30
0.4501
 70
192
 0
VERTEX
 8
DISCO_4
 10
21.1214
 20
-9.1691
 30
0.4501
 70
192
 0
VERTEX
 8
DISCO_4
 10
21.1813
 20
-8.7575
 30
0.4501
 70
192
 0
VERTEX
 8
DISCO_4
 10
21.1317
 20
-8.764
 30
0.4501
 70
192
 0
VERTEX
 8
DISCO_4
 10
21.0821
 20
-8.7706
 30
0.4501
 70
192
 0
VERTEX
 8
DISCO_4
 10
21.115
 20
-8.3559
 30
0.4501
 70
192
 0
VERTEX
 8
DISCO_4
 10
21.066
 20
-8.3657
 30
0.4501
 70
192
 0
VERTEX
 8
DISCO_4
 10
21.0169
 20
-8.3754
 30
0.4501
 70
192
 0
VERTEX
 8
DISCO_4
 10
21.0226
 20
-7.9595
 30
0.4501
 70
192
 0
VERTEX
 8
DISCO_4
 10
20.9743
 20
-7.9725
 30
0.4501
 70
192
 0
VERTEX
 8
DISCO_4
 10
20.926
 20
-7.9854
 30
0.4501
 70
192
 0
VERTEX
 8
DISCO_4
 10
20.9044
 20
-7.57
 30
0.4501
 70
192
 0
VERTEX
 8
DISCO_4
 10
20.8571
 20
-7.5861
 30
0.4501
 70
192
 0
VERTEX
 8
DISCO_4
 10
20.8097
 20
-7.6022
 30
0.4501
 70
192
 0
VERTEX
 8
DISCO_4
 10
20.7611
 20
-7.1891
 30
0.4501
 70
192
 0
VERTEX
 8
DISCO_4
 10
20.7148
 20
-7.2082
 30
0.4501
 70
192
 0
VERTEX
 8
DISCO_4
 10
20.6686
 20
-7.2274
 30
0.4501
 70
192
 0
VERTEX
 8
DISCO_4
 10
20.5931
 20
-6.8183
 30
0.4501
 70
192
 0
VERTEX
 8
DISCO_4
 10
20.5482
 20
-6.8405
 30
0.4501
 70
192
 0
VERTEX
 8
DISCO_4
 10
20.5034
 20
-6.8626
 30
0.4501
 70
192
 0
VERTEX
 8
DISCO_4
 10
20.4012
 20
-6.4594
 30
0.4501
 70
192
 0
VERTEX
 8
DISCO_4
 10
20.3579
 20
-6.4844
 30
0.4501
 70
192
 0
VERTEX
 8
DISCO_4
 10
20.3146
 20
-6.5094
 30
0.4501
 70
192
 0
VERTEX
 8
DISCO_4
 10
20.1863
 20
-6.1137
 30
0.4501
 70
192
 0
VERTEX
 8
DISCO_4
 10
20.1447
 20
-6.1415
 30
0.4501
 70
192
 0
VERTEX
 8
DISCO_4
 10
20.1031
 20
-6.1693
 30
0.4501
 70
192
 0
VERTEX
 8
DISCO_4
 10
19.9492
 20
-5.7829
 30
0.4501
 70
192
 0
VERTEX
 8
DISCO_4
 10
19.9095
 20
-5.8133
 30
0.4501
 70
192
 0
VERTEX
 8
DISCO_4
 10
19.8698
 20
-5.8438
 30
0.4501
 70
192
 0
VERTEX
 8
DISCO_4
 10
19.691
 20
-5.4682
 30
0.4501
 70
192
 0
VERTEX
 8
DISCO_4
 10
19.6534
 20
-5.5012
 30
0.4501
 70
192
 0
VERTEX
 8
DISCO_4
 10
19.6158
 20
-5.5342
 30
0.4501
 70
192
 0
VERTEX
 8
DISCO_4
 10
19.4127
 20
-5.1712
 30
0.4501
 70
192
 0
VERTEX
 8
DISCO_4
 10
19.3774
 20
-5.2065
 30
0.4501
 70
192
 0
VERTEX
 8
DISCO_4
 10
19.342
 20
-5.2419
 30
0.4501
 70
192
 0
VERTEX
 8
DISCO_4
 10
19.1156
 20
-4.8929
 30
0.4501
 70
192
 0
VERTEX
 8
DISCO_4
 10
19.0827
 20
-4.9305
 30
0.4501
 70
192
 0
VERTEX
 8
DISCO_4
 10
19.0497
 20
-4.9681
 30
0.4501
 70
192
 0
VERTEX
 8
DISCO_4
 10
18.801
 20
-4.6347
 30
0.4501
 70
192
 0
VERTEX
 8
DISCO_4
 10
18.7706
 20
-4.6744
 30
0.4501
 70
192
 0
VERTEX
 8
DISCO_4
 10
18.7401
 20
-4.7141
 30
0.4501
 70
192
 0
VERTEX
 8
DISCO_4
 10
18.4702
 20
-4.3976
 30
0.4501
 70
192
 0
VERTEX
 8
DISCO_4
 10
18.4424
 20
-4.4392
 30
0.4501
 70
192
 0
VERTEX
 8
DISCO_4
 10
18.4146
 20
-4.4808
 30
0.4501
 70
192
 0
VERTEX
 8
DISCO_4
 10
18.1245
 20
-4.1827
 30
0.4501
 70
192
 0
VERTEX
 8
DISCO_4
 10
18.0995
 20
-4.226
 30
0.4501
 70
192
 0
VERTEX
 8
DISCO_4
 10
18.0745
 20
-4.2693
 30
0.4501
 70
192
 0
VERTEX
 8
DISCO_4
 10
17.7655
 20
-3.9908
 30
0.4501
 70
192
 0
VERTEX
 8
DISCO_4
 10
17.7434
 20
-4.0357
 30
0.4501
 70
192
 0
VERTEX
 8
DISCO_4
 10
17.7213
 20
-4.0805
 30
0.4501
 70
192
 0
VERTEX
 8
DISCO_4
 10
17.3948
 20
-3.8228
 30
0.4501
 70
192
 0
VERTEX
 8
DISCO_4
 10
17.3757
 20
-3.869
 30
0.4501
 70
192
 0
VERTEX
 8
DISCO_4
 10
17.3565
 20
-3.9152
 30
0.4501
 70
192
 0
VERTEX
 8
DISCO_4
 10
17.0139
 20
-3.6795
 30
0.4501
 70
192
 0
VERTEX
 8
DISCO_4
 10
16.9978
 20
-3.7268
 30
0.4501
 70
192
 0
VERTEX
 8
DISCO_4
 10
16.9817
 20
-3.7742
 30
0.4501
 70
192
 0
VERTEX
 8
DISCO_4
 10
16.6244
 20
-3.5613
 30
0.4501
 70
192
 0
VERTEX
 8
DISCO_4
 10
16.6114
 20
-3.6096
 30
0.4501
 70
192
 0
VERTEX
 8
DISCO_4
 10
16.5985
 20
-3.6579
 30
0.4501
 70
192
 0
VERTEX
 8
DISCO_4
 10
16.228
 20
-3.4689
 30
0.4501
 70
192
 0
VERTEX
 8
DISCO_4
 10
16.2182
 20
-3.5179
 30
0.4501
 70
192
 0
VERTEX
 8
DISCO_4
 10
16.2084
 20
-3.567
 30
0.4501
 70
192
 0
VERTEX
 8
DISCO_4
 10
15.8264
 20
-3.4026
 30
0.4501
 70
192
 0
VERTEX
 8
DISCO_4
 10
15.8198
 20
-3.4522
 30
0.4501
 70
192
 0
VERTEX
 8
DISCO_4
 10
15.8133
 20
-3.5017
 30
0.4501
 70
192
 0
VERTEX
 8
DISCO_4
 10
15.4213
 20
-3.3627
 30
0.4501
 70
192
 0
VERTEX
 8
DISCO_4
 10
15.418
 20
-3.4126
 30
0.4501
 70
192
 0
VERTEX
 8
DISCO_4
 10
15.4148
 20
-3.4625
 30
0.4501
 70
192
 0
VERTEX
 8
DISCO_4
 10
15.0145
 20
-3.3494
 30
0.4501
 70
192
 0
VERTEX
 8
DISCO_4
 10
15.0145
 20
-3.3994
 30
0.4501
 70
192
 0
VERTEX
 8
DISCO_4
 10
15.0145
 20
-3.4494
 30
0.4501
 70
192
 0
VERTEX
 8
DISCO_4
 10
14.6077
 20
-3.3627
 30
0.4501
 70
192
 0
VERTEX
 8
DISCO_4
 10
14.611
 20
-3.4126
 30
0.4501
 70
192
 0
VERTEX
 8
DISCO_4
 10
14.6142
 20
-3.4625
 30
0.4501
 70
192
 0
VERTEX
 8
DISCO_4
 10
14.2026
 20
-3.4026
 30
0.4501
 70
192
 0
VERTEX
 8
DISCO_4
 10
14.2091
 20
-3.4522
 30
0.4501
 70
192
 0
VERTEX
 8
DISCO_4
 10
14.2157
 20
-3.5017
 30
0.4501
 70
192
 0
VERTEX
 8
DISCO_4
 10
13.801
 20
-3.4689
 30
0.4501
 70
192
 0
VERTEX
 8
DISCO_4
 10
13.8108
 20
-3.5179
 30
0.4501
 70
192
 0
VERTEX
 8
DISCO_4
 10
13.8205
 20
-3.567
 30
0.4501
 70
192
 0
VERTEX
 8
DISCO_4
 10
13.4046
 20
-3.5613
 30
0.4501
 70
192
 0
VERTEX
 8
DISCO_4
 10
13.4176
 20
-3.6096
 30
0.4501
 70
192
 0
VERTEX
 8
DISCO_4
 10
13.4305
 20
-3.6579
 30
0.4501
 70
192
 0
VERTEX
 8
DISCO_4
 10
13.0151
 20
-3.6795
 30
0.4501
 70
192
 0
VERTEX
 8
DISCO_4
 10
13.0312
 20
-3.7268
 30
0.4501
 70
192
 0
VERTEX
 8
DISCO_4
 10
13.0473
 20
-3.7742
 30
0.4501
 70
192
 0
VERTEX
 8
DISCO_4
 10
12.6342
 20
-3.8228
 30
0.4501
 70
192
 0
VERTEX
 8
DISCO_4
 10
12.6533
 20
-3.869
 30
0.4501
 70
192
 0
VERTEX
 8
DISCO_4
 10
12.6725
 20
-3.9152
 30
0.4501
 70
192
 0
VERTEX
 8
DISCO_4
 10
12.2634
 20
-3.9908
 30
0.4501
 70
192
 0
VERTEX
 8
DISCO_4
 10
12.2856
 20
-4.0357
 30
0.4501
 70
192
 0
VERTEX
 8
DISCO_4
 10
12.3077
 20
-4.0805
 30
0.4501
 70
192
 0
VERTEX
 8
DISCO_4
 10
11.9045
 20
-4.1827
 30
0.4501
 70
192
 0
VERTEX
 8
DISCO_4
 10
11.9295
 20
-4.226
 30
0.4501
 70
192
 0
VERTEX
 8
DISCO_4
 10
11.9545
 20
-4.2693
 30
0.4501
 70
192
 0
VERTEX
 8
DISCO_4
 10
11.5588
 20
-4.3976
 30
0.4501
 70
192
 0
VERTEX
 8
DISCO_4
 10
11.5866
 20
-4.4392
 30
0.4501
 70
192
 0
VERTEX
 8
DISCO_4
 10
11.6144
 20
-4.4808
 30
0.4501
 70
192
 0
VERTEX
 8
DISCO_4
 10
11.228
 20
-4.6347
 30
0.4501
 70
192
 0
VERTEX
 8
DISCO_4
 10
11.2584
 20
-4.6744
 30
0.4501
 70
192
 0
VERTEX
 8
DISCO_4
 10
11.2889
 20
-4.7141
 30
0.4501
 70
192
 0
VERTEX
 8
DISCO_4
 10
10.9133
 20
-4.8929
 30
0.4501
 70
192
 0
VERTEX
 8
DISCO_4
 10
10.9463
 20
-4.9305
 30
0.4501
 70
192
 0
VERTEX
 8
DISCO_4
 10
10.9793
 20
-4.9681
 30
0.4501
 70
192
 0
VERTEX
 8
DISCO_4
 10
10.6163
 20
-5.1712
 30
0.4501
 70
192
 0
VERTEX
 8
DISCO_4
 10
10.6516
 20
-5.2065
 30
0.4501
 70
192
 0
VERTEX
 8
DISCO_4
 10
10.687
 20
-5.2419
 30
0.4501
 70
192
 0
VERTEX
 8
DISCO_4
 10
10.338
 20
-5.4682
 30
0.4501
 70
192
 0
VERTEX
 8
DISCO_4
 10
10.3756
 20
-5.5012
 30
0.4501
 70
192
 0
VERTEX
 8
DISCO_4
 10
10.4132
 20
-5.5342
 30
0.4501
 70
192
 0
VERTEX
 8
DISCO_4
 10
10.0798
 20
-5.7829
 30
0.4501
 70
192
 0
VERTEX
 8
DISCO_4
 10
10.1195
 20
-5.8133
 30
0.4501
 70
192
 0
VERTEX
 8
DISCO_4
 10
10.1592
 20
-5.8438
 30
0.4501
 70
192
 0
VERTEX
 8
DISCO_4
 10
9.8427
 20
-6.1137
 30
0.4501
 70
192
 0
VERTEX
 8
DISCO_4
 10
9.8843
 20
-6.1415
 30
0.4501
 70
192
 0
VERTEX
 8
DISCO_4
 10
9.9259
 20
-6.1693
 30
0.4501
 70
192
 0
VERTEX
 8
DISCO_4
 10
9.6278
 20
-6.4594
 30
0.4501
 70
192
 0
VERTEX
 8
DISCO_4
 10
9.6711
 20
-6.4844
 30
0.4501
 70
192
 0
VERTEX
 8
DISCO_4
 10
9.7144
 20
-6.5094
 30
0.4501
 70
192
 0
VERTEX
 8
DISCO_4
 10
9.4359
 20
-6.8183
 30
0.4501
 70
192
 0
VERTEX
 8
DISCO_4
 10
9.4808
 20
-6.8405
 30
0.4501
 70
192
 0
VERTEX
 8
DISCO_4
 10
9.5256
 20
-6.8626
 30
0.4501
 70
192
 0
VERTEX
 8
DISCO_4
 10
9.2679
 20
-7.1891
 30
0.4501
 70
192
 0
VERTEX
 8
DISCO_4
 10
9.3141
 20
-7.2082
 30
0.4501
 70
192
 0
VERTEX
 8
DISCO_4
 10
9.3604
 20
-7.2274
 30
0.4501
 70
192
 0
VERTEX
 8
DISCO_4
 10
9.1246
 20
-7.57
 30
0.4501
 70
192
 0
VERTEX
 8
DISCO_4
 10
9.1719
 20
-7.5861
 30
0.4501
 70
192
 0
VERTEX
 8
DISCO_4
 10
9.2193
 20
-7.6022
 30
0.4501
 70
192
 0
VERTEX
 8
DISCO_4
 10
9.0064
 20
-7.9595
 30
0.4501
 70
192
 0
VERTEX
 8
DISCO_4
 10
9.0547
 20
-7.9725
 30
0.4501
 70
192
 0
VERTEX
 8
DISCO_4
 10
9.103
 20
-7.9854
 30
0.4501
 70
192
 0
VERTEX
 8
DISCO_4
 10
8.914
 20
-8.3559
 30
0.4501
 70
192
 0
VERTEX
 8
DISCO_4
 10
8.963
 20
-8.3657
 30
0.4501
 70
192
 0
VERTEX
 8
DISCO_4
 10
9.0121
 20
-8.3754
 30
0.4501
 70
192
 0
VERTEX
 8
DISCO_4
 10
8.8477
 20
-8.7575
 30
0.4501
 70
192
 0
VERTEX
 8
DISCO_4
 10
8.8973
 20
-8.764
 30
0.4501
 70
192
 0
VERTEX
 8
DISCO_4
 10
8.9469
 20
-8.7706
 30
0.4501
 70
192
 0
VERTEX
 8
DISCO_4
 10
8.8078
 20
-9.1626
 30
0.4501
 70
192
 0
VERTEX
 8
DISCO_4
 10
8.8577
 20
-9.1658
 30
0.4501
 70
192
 0
VERTEX
 8
DISCO_4
 10
8.9076
 20
-9.1691
 30
0.4501
 70
192
 0
VERTEX
 8
DISCO_4
 10
8.7945
 20
-9.5694
 30
0.4501
 70
192
 0
VERTEX
 8
DISCO_4
 10
8.8445
 20
-9.5694
 30
0.4501
 70
192
 0
VERTEX
 8
DISCO_4
 10
8.8945
 20
-9.5694
 30
0.4501
 70
192
 0
VERTEX
 8
DISCO_4
 10
8.8078
 20
-9.9762
 30
0.4501
 70
192
 0
VERTEX
 8
DISCO_4
 10
8.8577
 20
-9.9729
 30
0.4501
 70
192
 0
VERTEX
 8
DISCO_4
 10
8.9076
 20
-9.9697
 30
0.4501
 70
192
 0
VERTEX
 8
DISCO_4
 10
8.8477
 20
-10.3813
 30
0.4501
 70
192
 0
VERTEX
 8
DISCO_4
 10
8.8973
 20
-10.3747
 30
0.4501
 70
192
 0
VERTEX
 8
DISCO_4
 10
8.9469
 20
-10.3682
 30
0.4501
 70
192
 0
VERTEX
 8
DISCO_4
 10
8.914
 20
-10.7829
 30
0.4501
 70
192
 0
VERTEX
 8
DISCO_4
 10
8.963
 20
-10.7731
 30
0.4501
 70
192
 0
VERTEX
 8
DISCO_4
 10
9.0121
 20
-10.7633
 30
0.4501
 70
192
 0
VERTEX
 8
DISCO_4
 10
9.0064
 20
-11.1792
 30
0.4501
 70
192
 0
VERTEX
 8
DISCO_4
 10
9.0547
 20
-11.1663
 30
0.4501
 70
192
 0
VERTEX
 8
DISCO_4
 10
9.103
 20
-11.1534
 30
0.4501
 70
192
 0
VERTEX
 8
DISCO_4
 10
9.1246
 20
-11.5688
 30
0.4501
 70
192
 0
VERTEX
 8
DISCO_4
 10
9.1719
 20
-11.5527
 30
0.4501
 70
192
 0
VERTEX
 8
DISCO_4
 10
9.2193
 20
-11.5366
 30
0.4501
 70
192
 0
VERTEX
 8
DISCO_4
 10
9.2679
 20
-11.9497
 30
0.4501
 70
192
 0
VERTEX
 8
DISCO_4
 10
9.3141
 20
-11.9306
 30
0.4501
 70
192
 0
VERTEX
 8
DISCO_4
 10
9.3604
 20
-11.9114
 30
0.4501
 70
192
 0
VERTEX
 8
DISCO_4
 10
9.4359
 20
-12.3204
 30
0.4501
 70
192
 0
VERTEX
 8
DISCO_4
 10
9.4808
 20
-12.2983
 30
0.4501
 70
192
 0
VERTEX
 8
DISCO_4
 10
9.5256
 20
-12.2762
 30
0.4501
 70
192
 0
VERTEX
 8
DISCO_4
 10
9.6278
 20
-12.6794
 30
0.4501
 70
192
 0
VERTEX
 8
DISCO_4
 10
9.6711
 20
-12.6544
 30
0.4501
 70
192
 0
VERTEX
 8
DISCO_4
 10
9.7144
 20
-12.6294
 30
0.4501
 70
192
 0
VERTEX
 8
DISCO_4
 10
9.8427
 20
-13.0251
 30
0.4501
 70
192
 0
VERTEX
 8
DISCO_4
 10
9.8843
 20
-12.9973
 30
0.4501
 70
192
 0
VERTEX
 8
DISCO_4
 10
9.9259
 20
-12.9695
 30
0.4501
 70
192
 0
VERTEX
 8
DISCO_4
 10
10.0798
 20
-13.3559
 30
0.4501
 70
192
 0
VERTEX
 8
DISCO_4
 10
10.1195
 20
-13.3255
 30
0.4501
 70
192
 0
VERTEX
 8
DISCO_4
 10
10.1592
 20
-13.295
 30
0.4501
 70
192
 0
VERTEX
 8
DISCO_4
 10
10.338
 20
-13.6705
 30
0.4501
 70
192
 0
VERTEX
 8
DISCO_4
 10
10.3756
 20
-13.6376
 30
0.4501
 70
192
 0
VERTEX
 8
DISCO_4
 10
10.4132
 20
-13.6046
 30
0.4501
 70
192
 0
VERTEX
 8
DISCO_4
 10
10.6163
 20
-13.9676
 30
0.4501
 70
192
 0
VERTEX
 8
DISCO_4
 10
10.6516
 20
-13.9322
 30
0.4501
 70
192
 0
VERTEX
 8
DISCO_4
 10
10.687
 20
-13.8969
 30
0.4501
 70
192
 0
VERTEX
 8
DISCO_4
 10
10.9133
 20
-14.2459
 30
0.4501
 70
192
 0
VERTEX
 8
DISCO_4
 10
10.9463
 20
-14.2083
 30
0.4501
 70
192
 0
VERTEX
 8
DISCO_4
 10
10.9793
 20
-14.1706
 30
0.4501
 70
192
 0
VERTEX
 8
DISCO_4
 10
11.228
 20
-14.5041
 30
0.4501
 70
192
 0
VERTEX
 8
DISCO_4
 10
11.2584
 20
-14.4644
 30
0.4501
 70
192
 0
VERTEX
 8
DISCO_4
 10
11.2889
 20
-14.4247
 30
0.4501
 70
192
 0
VERTEX
 8
DISCO_4
 10
11.5588
 20
-14.7412
 30
0.4501
 70
192
 0
VERTEX
 8
DISCO_4
 10
11.5866
 20
-14.6996
 30
0.4501
 70
192
 0
VERTEX
 8
DISCO_4
 10
11.6144
 20
-14.658
 30
0.4501
 70
192
 0
VERTEX
 8
DISCO_4
 10
11.9045
 20
-14.9561
 30
0.4501
 70
192
 0
VERTEX
 8
DISCO_4
 10
11.9295
 20
-14.9128
 30
0.4501
 70
192
 0
VERTEX
 8
DISCO_4
 10
11.9545
 20
-14.8695
 30
0.4501
 70
192
 0
VERTEX
 8
DISCO_4
 10
12.2634
 20
-15.148
 30
0.4501
 70
192
 0
VERTEX
 8
DISCO_4
 10
12.2856
 20
-15.1031
 30
0.4501
 70
192
 0
VERTEX
 8
DISCO_4
 10
12.3077
 20
-15.0582
 30
0.4501
 70
192
 0
VERTEX
 8
DISCO_4
 10
12.6342
 20
-15.3159
 30
0.4501
 70
192
 0
VERTEX
 8
DISCO_4
 10
12.6533
 20
-15.2697
 30
0.4501
 70
192
 0
VERTEX
 8
DISCO_4
 10
12.6725
 20
-15.2235
 30
0.4501
 70
192
 0
VERTEX
 8
DISCO_4
 10
13.0151
 20
-15.4593
 30
0.4501
 70
192
 0
VERTEX
 8
DISCO_4
 10
13.0312
 20
-15.412
 30
0.4501
 70
192
 0
VERTEX
 8
DISCO_4
 10
13.0473
 20
-15.3646
 30
0.4501
 70
192
 0
VERTEX
 8
DISCO_4
 10
13.4046
 20
-15.5775
 30
0.4501
 70
192
 0
VERTEX
 8
DISCO_4
 10
13.4176
 20
-15.5292
 30
0.4501
 70
192
 0
VERTEX
 8
DISCO_4
 10
13.4305
 20
-15.4809
 30
0.4501
 70
192
 0
VERTEX
 8
DISCO_4
 10
13.801
 20
-15.6699
 30
0.4501
 70
192
 0
VERTEX
 8
DISCO_4
 10
13.8108
 20
-15.6208
 30
0.4501
 70
192
 0
VERTEX
 8
DISCO_4
 10
13.8205
 20
-15.5718
 30
0.4501
 70
192
 0
VERTEX
 8
DISCO_4
 10
14.2026
 20
-15.7362
 30
0.4501
 70
192
 0
VERTEX
 8
DISCO_4
 10
14.2091
 20
-15.6866
 30
0.4501
 70
192
 0
VERTEX
 8
DISCO_4
 10
14.2157
 20
-15.637
 30
0.4501
 70
192
 0
VERTEX
 8
DISCO_4
 10
14.6077
 20
-15.7761
 30
0.4501
 70
192
 0
VERTEX
 8
DISCO_4
 10
14.611
 20
-15.7262
 30
0.4501
 70
192
 0
VERTEX
 8
DISCO_4
 10
14.6142
 20
-15.6763
 30
0.4501
 70
192
 0
VERTEX
 8
DISCO_4
 10
15.0145
 20
-15.7894
 30
0.4501
 70
192
 0
VERTEX
 8
DISCO_4
 10
15.0145
 20
-15.7394
 30
0.4501
 70
192
 0
VERTEX
 8
DISCO_4
 10
15.0145
 20
-15.6894
 30
0.4501
 70
192
 0
VERTEX
 8
DISCO_4
 10
15.4213
 20
-15.7761
 30
0.4501
 70
192
 0
VERTEX
 8
DISCO_4
 10
15.418
 20
-15.7262
 30
0.4501
 70
192
 0
VERTEX
 8
DISCO_4
 10
15.4148
 20
-15.6763
 30
0.4501
 70
192
 0
VERTEX
 8
DISCO_4
 10
15.8264
 20
-15.7362
 30
0.4501
 70
192
 0
VERTEX
 8
DISCO_4
 10
15.8198
 20
-15.6866
 30
0.4501
 70
192
 0
VERTEX
 8
DISCO_4
 10
15.8133
 20
-15.637
 30
0.4501
 70
192
 0
VERTEX
 8
DISCO_4
 10
16.228
 20
-15.6699
 30
0.4501
 70
192
 0
VERTEX
 8
DISCO_4
 10
16.2182
 20
-15.6208
 30
0.4501
 70
192
 0
VERTEX
 8
DISCO_4
 10
16.2084
 20
-15.5718
 30
0.4501
 70
192
 0
VERTEX
 8
DISCO_4
 10
16.6244
 20
-15.5775
 30
0.4501
 70
192
 0
VERTEX
 8
DISCO_4
 10
16.6114
 20
-15.5292
 30
0.4501
 70
192
 0
VERTEX
 8
DISCO_4
 10
16.5985
 20
-15.4809
 30
0.4501
 70
192
 0
VERTEX
 8
DISCO_4
 10
17.0139
 20
-15.4593
 30
0.4501
 70
192
 0
VERTEX
 8
DISCO_4
 10
16.9978
 20
-15.412
 30
0.4501
 70
192
 0
VERTEX
 8
DISCO_4
 10
16.9817
 20
-15.3646
 30
0.4501
 70
192
 0
VERTEX
 8
DISCO_4
 10
17.3948
 20
-15.3159
 30
0.4501
 70
192
 0
VERTEX
 8
DISCO_4
 10
17.3757
 20
-15.2697
 30
0.4501
 70
192
 0
VERTEX
 8
DISCO_4
 10
17.3565
 20
-15.2235
 30
0.4501
 70
192
 0
VERTEX
 8
DISCO_4
 10
17.7655
 20
-15.148
 30
0.4501
 70
192
 0
VERTEX
 8
DISCO_4
 10
17.7434
 20
-15.1031
 30
0.4501
 70
192
 0
VERTEX
 8
DISCO_4
 10
17.7213
 20
-15.0582
 30
0.4501
 70
192
 0
VERTEX
 8
DISCO_4
 10
18.1245
 20
-14.9561
 30
0.4501
 70
192
 0
VERTEX
 8
DISCO_4
 10
18.0995
 20
-14.9128
 30
0.4501
 70
192
 0
VERTEX
 8
DISCO_4
 10
18.0745
 20
-14.8695
 30
0.4501
 70
192
 0
VERTEX
 8
DISCO_4
 10
18.4702
 20
-14.7412
 30
0.4501
 70
192
 0
VERTEX
 8
DISCO_4
 10
18.4424
 20
-14.6996
 30
0.4501
 70
192
 0
VERTEX
 8
DISCO_4
 10
18.4146
 20
-14.658
 30
0.4501
 70
192
 0
VERTEX
 8
DISCO_4
 10
18.801
 20
-14.5041
 30
0.4501
 70
192
 0
VERTEX
 8
DISCO_4
 10
18.7706
 20
-14.4644
 30
0.4501
 70
192
 0
VERTEX
 8
DISCO_4
 10
18.7401
 20
-14.4247
 30
0.4501
 70
192
 0
VERTEX
 8
DISCO_4
 10
19.1156
 20
-14.2459
 30
0.4501
 70
192
 0
VERTEX
 8
DISCO_4
 10
19.0827
 20
-14.2083
 30
0.4501
 70
192
 0
VERTEX
 8
DISCO_4
 10
19.0497
 20
-14.1706
 30
0.4501
 70
192
 0
VERTEX
 8
DISCO_4
 10
19.4127
 20
-13.9676
 30
0.4501
 70
192
 0
VERTEX
 8
DISCO_4
 10
19.3774
 20
-13.9322
 30
0.4501
 70
192
 0
VERTEX
 8
DISCO_4
 10
19.342
 20
-13.8969
 30
0.4501
 70
192
 0
VERTEX
 8
DISCO_4
 10
19.691
 20
-13.6705
 30
0.4501
 70
192
 0
VERTEX
 8
DISCO_4
 10
19.6534
 20
-13.6376
 30
0.4501
 70
192
 0
VERTEX
 8
DISCO_4
 10
19.6158
 20
-13.6046
 30
0.4501
 70
192
 0
VERTEX
 8
DISCO_4
 10
19.9492
 20
-13.3559
 30
0.4501
 70
192
 0
VERTEX
 8
DISCO_4
 10
19.9095
 20
-13.3255
 30
0.4501
 70
192
 0
VERTEX
 8
DISCO_4
 10
19.8698
 20
-13.295
 30
0.4501
 70
192
 0
VERTEX
 8
DISCO_4
 10
20.1863
 20
-13.0251
 30
0.4501
 70
192
 0
VERTEX
 8
DISCO_4
 10
20.1447
 20
-12.9973
 30
0.4501
 70
192
 0
VERTEX
 8
DISCO_4
 10
20.1031
 20
-12.9695
 30
0.4501
 70
192
 0
VERTEX
 8
DISCO_4
 10
20.4012
 20
-12.6794
 30
0.4501
 70
192
 0
VERTEX
 8
DISCO_4
 10
20.3579
 20
-12.6544
 30
0.4501
 70
192
 0
VERTEX
 8
DISCO_4
 10
20.3146
 20
-12.6294
 30
0.4501
 70
192
 0
VERTEX
 8
DISCO_4
 10
20.5931
 20
-12.3204
 30
0.4501
 70
192
 0
VERTEX
 8
DISCO_4
 10
20.5482
 20
-12.2983
 30
0.4501
 70
192
 0
VERTEX
 8
DISCO_4
 10
20.5034
 20
-12.2762
 30
0.4501
 70
192
 0
VERTEX
 8
DISCO_4
 10
20.7611
 20
-11.9497
 30
0.4501
 70
192
 0
VERTEX
 8
DISCO_4
 10
20.7148
 20
-11.9306
 30
0.4501
 70
192
 0
VERTEX
 8
DISCO_4
 10
20.6686
 20
-11.9114
 30
0.4501
 70
192
 0
VERTEX
 8
DISCO_4
 10
20.9044
 20
-11.5688
 30
0.4501
 70
192
 0
VERTEX
 8
DISCO_4
 10
20.8571
 20
-11.5527
 30
0.4501
 70
192
 0
VERTEX
 8
DISCO_4
 10
20.8097
 20
-11.5366
 30
0.4501
 70
192
 0
VERTEX
 8
DISCO_4
 10
21.0226
 20
-11.1792
 30
0.4501
 70
192
 0
VERTEX
 8
DISCO_4
 10
20.9743
 20
-11.1663
 30
0.4501
 70
192
 0
VERTEX
 8
DISCO_4
 10
20.926
 20
-11.1534
 30
0.4501
 70
192
 0
VERTEX
 8
DISCO_4
 10
21.115
 20
-10.7829
 30
0.4501
 70
192
 0
VERTEX
 8
DISCO_4
 10
21.066
 20
-10.7731
 30
0.4501
 70
192
 0
VERTEX
 8
DISCO_4
 10
21.0169
 20
-10.7633
 30
0.4501
 70
192
 0
VERTEX
 8
DISCO_4
 10
21.1813
 20
-10.3813
 30
0.4501
 70
192
 0
VERTEX
 8
DISCO_4
 10
21.1317
 20
-10.3747
 30
0.4501
 70
192
 0
VERTEX
 8
DISCO_4
 10
21.0821
 20
-10.3682
 30
0.4501
 70
192
 0
VERTEX
 8
DISCO_4
 10
21.2212
 20
-9.9762
 30
0.4501
 70
192
 0
VERTEX
 8
DISCO_4
 10
21.1713
 20
-9.9729
 30
0.4501
 70
192
 0
VERTEX
 8
DISCO_4
 10
21.1214
 20
-9.9697
 30
0.4501
 70
192
 0
VERTEX
 8
DISCO_4
 10
0
 20
0
 30
0
 70
128
 71
1
 72
2
 73
5
 74
4
 0
VERTEX
 8
DISCO_4
 10
0
 20
0
 30
0
 70
128
 71
2
 72
3
 73
6
 74
5
 0
VERTEX
 8
DISCO_4
 10
0
 20
0
 30
0
 70
128
 71
4
 72
5
 73
8
 74
7
 0
VERTEX
 8
DISCO_4
 10
0
 20
0
 30
0
 70
128
 71
5
 72
6
 73
9
 74
8
 0
VERTEX
 8
DISCO_4
 10
0
 20
0
 30
0
 70
128
 71
7
 72
8
 73
11
 74
10
 0
VERTEX
 8
DISCO_4
 10
0
 20
0
 30
0
 70
128
 71
8
 72
9
 73
12
 74
11
 0
VERTEX
 8
DISCO_4
 10
0
 20
0
 30
0
 70
128
 71
10
 72
11
 73
14
 74
13
 0
VERTEX
 8
DISCO_4
 10
0
 20
0
 30
0
 70
128
 71
11
 72
12
 73
15
 74
14
 0
VERTEX
 8
DISCO_4
 10
0
 20
0
 30
0
 70
128
 71
13
 72
14
 73
17
 74
16
 0
VERTEX
 8
DISCO_4
 10
0
 20
0
 30
0
 70
128
 71
14
 72
15
 73
18
 74
17
 0
VERTEX
 8
DISCO_4
 10
0
 20
0
 30
0
 70
128
 71
16
 72
17
 73
20
 74
19
 0
VERTEX
 8
DISCO_4
 10
0
 20
0
 30
0
 70
128
 71
17
 72
18
 73
21
 74
20
 0
VERTEX
 8
DISCO_4
 10
0
 20
0
 30
0
 70
128
 71
19
 72
20
 73
23
 74
22
 0
VERTEX
 8
DISCO_4
 10
0
 20
0
 30
0
 70
128
 71
20
 72
21
 73
24
 74
23
 0
VERTEX
 8
DISCO_4
 10
0
 20
0
 30
0
 70
128
 71
22
 72
23
 73
26
 74
25
 0
VERTEX
 8
DISCO_4
 10
0
 20
0
 30
0
 70
128
 71
23
 72
24
 73
27
 74
26
 0
VERTEX
 8
DISCO_4
 10
0
 20
0
 30
0
 70
128
 71
25
 72
26
 73
29
 74
28
 0
VERTEX
 8
DISCO_4
 10
0
 20
0
 30
0
 70
128
 71
26
 72
27
 73
30
 74
29
 0
VERTEX
 8
DISCO_4
 10
0
 20
0
 30
0
 70
128
 71
28
 72
29
 73
32
 74
31
 0
VERTEX
 8
DISCO_4
 10
0
 20
0
 30
0
 70
128
 71
29
 72
30
 73
33
 74
32
 0
VERTEX
 8
DISCO_4
 10
0
 20
0
 30
0
 70
128
 71
31
 72
32
 73
35
 74
34
 0
VERTEX
 8
DISCO_4
 10
0
 20
0
 30
0
 70
128
 71
32
 72
33
 73
36
 74
35
 0
VERTEX
 8
DISCO_4
 10
0
 20
0
 30
0
 70
128
 71
34
 72
35
 73
38
 74
37
 0
VERTEX
 8
DISCO_4
 10
0
 20
0
 30
0
 70
128
 71
35
 72
36
 73
39
 74
38
 0
VERTEX
 8
DISCO_4
 10
0
 20
0
 30
0
 70
128
 71
37
 72
38
 73
41
 74
40
 0
VERTEX
 8
DISCO_4
 10
0
 20
0
 30
0
 70
128
 71
38
 72
39
 73
42
 74
41
 0
VERTEX
 8
DISCO_4
 10
0
 20
0
 30
0
 70
128
 71
40
 72
41
 73
44
 74
43
 0
VERTEX
 8
DISCO_4
 10
0
 20
0
 30
0
 70
128
 71
41
 72
42
 73
45
 74
44
 0
VERTEX
 8
DISCO_4
 10
0
 20
0
 30
0
 70
128
 71
43
 72
44
 73
47
 74
46
 0
VERTEX
 8
DISCO_4
 10
0
 20
0
 30
0
 70
128
 71
44
 72
45
 73
48
 74
47
 0
VERTEX
 8
DISCO_4
 10
0
 20
0
 30
0
 70
128
 71
46
 72
47
 73
50
 74
49
 0
VERTEX
 8
DISCO_4
 10
0
 20
0
 30
0
 70
128
 71
47
 72
48
 73
51
 74
50
 0
VERTEX
 8
DISCO_4
 10
0
 20
0
 30
0
 70
128
 71
49
 72
50
 73
53
 74
52
 0
VERTEX
 8
DISCO_4
 10
0
 20
0
 30
0
 70
128
 71
50
 72
51
 73
54
 74
53
 0
VERTEX
 8
DISCO_4
 10
0
 20
0
 30
0
 70
128
 71
52
 72
53
 73
56
 74
55
 0
VERTEX
 8
DISCO_4
 10
0
 20
0
 30
0
 70
128
 71
53
 72
54
 73
57
 74
56
 0
VERTEX
 8
DISCO_4
 10
0
 20
0
 30
0
 70
128
 71
55
 72
56
 73
59
 74
58
 0
VERTEX
 8
DISCO_4
 10
0
 20
0
 30
0
 70
128
 71
56
 72
57
 73
60
 74
59
 0
VERTEX
 8
DISCO_4
 10
0
 20
0
 30
0
 70
128
 71
58
 72
59
 73
62
 74
61
 0
VERTEX
 8
DISCO_4
 10
0
 20
0
 30
0
 70
128
 71
59
 72
60
 73
63
 74
62
 0
VERTEX
 8
DISCO_4
 10
0
 20
0
 30
0
 70
128
 71
61
 72
62
 73
65
 74
64
 0
VERTEX
 8
DISCO_4
 10
0
 20
0
 30
0
 70
128
 71
62
 72
63
 73
66
 74
65
 0
VERTEX
 8
DISCO_4
 10
0
 20
0
 30
0
 70
128
 71
64
 72
65
 73
68
 74
67
 0
VERTEX
 8
DISCO_4
 10
0
 20
0
 30
0
 70
128
 71
65
 72
66
 73
69
 74
68
 0
VERTEX
 8
DISCO_4
 10
0
 20
0
 30
0
 70
128
 71
67
 72
68
 73
71
 74
70
 0
VERTEX
 8
DISCO_4
 10
0
 20
0
 30
0
 70
128
 71
68
 72
69
 73
72
 74
71
 0
VERTEX
 8
DISCO_4
 10
0
 20
0
 30
0
 70
128
 71
70
 72
71
 73
74
 74
73
 0
VERTEX
 8
DISCO_4
 10
0
 20
0
 30
0
 70
128
 71
71
 72
72
 73
75
 74
74
 0
VERTEX
 8
DISCO_4
 10
0
 20
0
 30
0
 70
128
 71
73
 72
74
 73
77
 74
76
 0
VERTEX
 8
DISCO_4
 10
0
 20
0
 30
0
 70
128
 71
74
 72
75
 73
78
 74
77
 0
VERTEX
 8
DISCO_4
 10
0
 20
0
 30
0
 70
128
 71
76
 72
77
 73
80
 74
79
 0
VERTEX
 8
DISCO_4
 10
0
 20
0
 30
0
 70
128
 71
77
 72
78
 73
81
 74
80
 0
VERTEX
 8
DISCO_4
 10
0
 20
0
 30
0
 70
128
 71
79
 72
80
 73
83
 74
82
 0
VERTEX
 8
DISCO_4
 10
0
 20
0
 30
0
 70
128
 71
80
 72
81
 73
84
 74
83
 0
VERTEX
 8
DISCO_4
 10
0
 20
0
 30
0
 70
128
 71
82
 72
83
 73
86
 74
85
 0
VERTEX
 8
DISCO_4
 10
0
 20
0
 30
0
 70
128
 71
83
 72
84
 73
87
 74
86
 0
VERTEX
 8
DISCO_4
 10
0
 20
0
 30
0
 70
128
 71
85
 72
86
 73
89
 74
88
 0
VERTEX
 8
DISCO_4
 10
0
 20
0
 30
0
 70
128
 71
86
 72
87
 73
90
 74
89
 0
VERTEX
 8
DISCO_4
 10
0
 20
0
 30
0
 70
128
 71
88
 72
89
 73
92
 74
91
 0
VERTEX
 8
DISCO_4
 10
0
 20
0
 30
0
 70
128
 71
89
 72
90
 73
93
 74
92
 0
VERTEX
 8
DISCO_4
 10
0
 20
0
 30
0
 70
128
 71
91
 72
92
 73
95
 74
94
 0
VERTEX
 8
DISCO_4
 10
0
 20
0
 30
0
 70
128
 71
92
 72
93
 73
96
 74
95
 0
VERTEX
 8
DISCO_4
 10
0
 20
0
 30
0
 70
128
 71
94
 72
95
 73
98
 74
97
 0
VERTEX
 8
DISCO_4
 10
0
 20
0
 30
0
 70
128
 71
95
 72
96
 73
99
 74
98
 0
VERTEX
 8
DISCO_4
 10
0
 20
0
 30
0
 70
128
 71
97
 72
98
 73
101
 74
100
 0
VERTEX
 8
DISCO_4
 10
0
 20
0
 30
0
 70
128
 71
98
 72
99
 73
102
 74
101
 0
VERTEX
 8
DISCO_4
 10
0
 20
0
 30
0
 70
128
 71
100
 72
101
 73
104
 74
103
 0
VERTEX
 8
DISCO_4
 10
0
 20
0
 30
0
 70
128
 71
101
 72
102
 73
105
 74
104
 0
VERTEX
 8
DISCO_4
 10
0
 20
0
 30
0
 70
128
 71
103
 72
104
 73
107
 74
106
 0
VERTEX
 8
DISCO_4
 10
0
 20
0
 30
0
 70
128
 71
104
 72
105
 73
108
 74
107
 0
VERTEX
 8
DISCO_4
 10
0
 20
0
 30
0
 70
128
 71
106
 72
107
 73
110
 74
109
 0
VERTEX
 8
DISCO_4
 10
0
 20
0
 30
0
 70
128
 71
107
 72
108
 73
111
 74
110
 0
VERTEX
 8
DISCO_4
 10
0
 20
0
 30
0
 70
128
 71
109
 72
110
 73
113
 74
112
 0
VERTEX
 8
DISCO_4
 10
0
 20
0
 30
0
 70
128
 71
110
 72
111
 73
114
 74
113
 0
VERTEX
 8
DISCO_4
 10
0
 20
0
 30
0
 70
128
 71
112
 72
113
 73
116
 74
115
 0
VERTEX
 8
DISCO_4
 10
0
 20
0
 30
0
 70
128
 71
113
 72
114
 73
117
 74
116
 0
VERTEX
 8
DISCO_4
 10
0
 20
0
 30
0
 70
128
 71
115
 72
116
 73
119
 74
118
 0
VERTEX
 8
DISCO_4
 10
0
 20
0
 30
0
 70
128
 71
116
 72
117
 73
120
 74
119
 0
VERTEX
 8
DISCO_4
 10
0
 20
0
 30
0
 70
128
 71
118
 72
119
 73
122
 74
121
 0
VERTEX
 8
DISCO_4
 10
0
 20
0
 30
0
 70
128
 71
119
 72
120
 73
123
 74
122
 0
VERTEX
 8
DISCO_4
 10
0
 20
0
 30
0
 70
128
 71
121
 72
122
 73
125
 74
124
 0
VERTEX
 8
DISCO_4
 10
0
 20
0
 30
0
 70
128
 71
122
 72
123
 73
126
 74
125
 0
VERTEX
 8
DISCO_4
 10
0
 20
0
 30
0
 70
128
 71
124
 72
125
 73
128
 74
127
 0
VERTEX
 8
DISCO_4
 10
0
 20
0
 30
0
 70
128
 71
125
 72
126
 73
129
 74
128
 0
VERTEX
 8
DISCO_4
 10
0
 20
0
 30
0
 70
128
 71
127
 72
128
 73
131
 74
130
 0
VERTEX
 8
DISCO_4
 10
0
 20
0
 30
0
 70
128
 71
128
 72
129
 73
132
 74
131
 0
VERTEX
 8
DISCO_4
 10
0
 20
0
 30
0
 70
128
 71
130
 72
131
 73
134
 74
133
 0
VERTEX
 8
DISCO_4
 10
0
 20
0
 30
0
 70
128
 71
131
 72
132
 73
135
 74
134
 0
VERTEX
 8
DISCO_4
 10
0
 20
0
 30
0
 70
128
 71
133
 72
134
 73
137
 74
136
 0
VERTEX
 8
DISCO_4
 10
0
 20
0
 30
0
 70
128
 71
134
 72
135
 73
138
 74
137
 0
VERTEX
 8
DISCO_4
 10
0
 20
0
 30
0
 70
128
 71
136
 72
137
 73
140
 74
139
 0
VERTEX
 8
DISCO_4
 10
0
 20
0
 30
0
 70
128
 71
137
 72
138
 73
141
 74
140
 0
VERTEX
 8
DISCO_4
 10
0
 20
0
 30
0
 70
128
 71
139
 72
140
 73
143
 74
142
 0
VERTEX
 8
DISCO_4
 10
0
 20
0
 30
0
 70
128
 71
140
 72
141
 73
144
 74
143
 0
VERTEX
 8
DISCO_4
 10
0
 20
0
 30
0
 70
128
 71
142
 72
143
 73
146
 74
145
 0
VERTEX
 8
DISCO_4
 10
0
 20
0
 30
0
 70
128
 71
143
 72
144
 73
147
 74
146
 0
VERTEX
 8
DISCO_4
 10
0
 20
0
 30
0
 70
128
 71
145
 72
146
 73
149
 74
148
 0
VERTEX
 8
DISCO_4
 10
0
 20
0
 30
0
 70
128
 71
146
 72
147
 73
150
 74
149
 0
VERTEX
 8
DISCO_4
 10
0
 20
0
 30
0
 70
128
 71
148
 72
149
 73
152
 74
151
 0
VERTEX
 8
DISCO_4
 10
0
 20
0
 30
0
 70
128
 71
149
 72
150
 73
153
 74
152
 0
VERTEX
 8
DISCO_4
 10
0
 20
0
 30
0
 70
128
 71
151
 72
152
 73
155
 74
154
 0
VERTEX
 8
DISCO_4
 10
0
 20
0
 30
0
 70
128
 71
152
 72
153
 73
156
 74
155
 0
VERTEX
 8
DISCO_4
 10
0
 20
0
 30
0
 70
128
 71
154
 72
155
 73
158
 74
157
 0
VERTEX
 8
DISCO_4
 10
0
 20
0
 30
0
 70
128
 71
155
 72
156
 73
159
 74
158
 0
VERTEX
 8
DISCO_4
 10
0
 20
0
 30
0
 70
128
 71
157
 72
158
 73
161
 74
160
 0
VERTEX
 8
DISCO_4
 10
0
 20
0
 30
0
 70
128
 71
158
 72
159
 73
162
 74
161
 0
VERTEX
 8
DISCO_4
 10
0
 20
0
 30
0
 70
128
 71
160
 72
161
 73
164
 74
163
 0
VERTEX
 8
DISCO_4
 10
0
 20
0
 30
0
 70
128
 71
161
 72
162
 73
165
 74
164
 0
VERTEX
 8
DISCO_4
 10
0
 20
0
 30
0
 70
128
 71
163
 72
164
 73
167
 74
166
 0
VERTEX
 8
DISCO_4
 10
0
 20
0
 30
0
 70
128
 71
164
 72
165
 73
168
 74
167
 0
VERTEX
 8
DISCO_4
 10
0
 20
0
 30
0
 70
128
 71
166
 72
167
 73
170
 74
169
 0
VERTEX
 8
DISCO_4
 10
0
 20
0
 30
0
 70
128
 71
167
 72
168
 73
171
 74
170
 0
VERTEX
 8
DISCO_4
 10
0
 20
0
 30
0
 70
128
 71
169
 72
170
 73
173
 74
172
 0
VERTEX
 8
DISCO_4
 10
0
 20
0
 30
0
 70
128
 71
170
 72
171
 73
174
 74
173
 0
VERTEX
 8
DISCO_4
 10
0
 20
0
 30
0
 70
128
 71
172
 72
173
 73
176
 74
175
 0
VERTEX
 8
DISCO_4
 10
0
 20
0
 30
0
 70
128
 71
173
 72
174
 73
177
 74
176
 0
VERTEX
 8
DISCO_4
 10
0
 20
0
 30
0
 70
128
 71
175
 72
176
 73
179
 74
178
 0
VERTEX
 8
DISCO_4
 10
0
 20
0
 30
0
 70
128
 71
176
 72
177
 73
180
 74
179
 0
VERTEX
 8
DISCO_4
 10
0
 20
0
 30
0
 70
128
 71
178
 72
179
 73
182
 74
181
 0
VERTEX
 8
DISCO_4
 10
0
 20
0
 30
0
 70
128
 71
179
 72
180
 73
183
 74
182
 0
VERTEX
 8
DISCO_4
 10
0
 20
0
 30
0
 70
128
 71
181
 72
182
 73
185
 74
184
 0
VERTEX
 8
DISCO_4
 10
0
 20
0
 30
0
 70
128
 71
182
 72
183
 73
186
 74
185
 0
VERTEX
 8
DISCO_4
 10
0
 20
0
 30
0
 70
128
 71
184
 72
185
 73
188
 74
187
 0
VERTEX
 8
DISCO_4
 10
0
 20
0
 30
0
 70
128
 71
185
 72
186
 73
189
 74
188
 0
VERTEX
 8
DISCO_4
 10
0
 20
0
 30
0
 70
128
 71
187
 72
188
 73
191
 74
190
 0
VERTEX
 8
DISCO_4
 10
0
 20
0
 30
0
 70
128
 71
188
 72
189
 73
192
 74
191
 0
VERTEX
 8
DISCO_4
 10
0
 20
0
 30
0
 70
128
 71
190
 72
191
 73
194
 74
193
 0
VERTEX
 8
DISCO_4
 10
0
 20
0
 30
0
 70
128
 71
191
 72
192
 73
195
 74
194
 0
VERTEX
 8
DISCO_4
 10
0
 20
0
 30
0
 70
128
 71
193
 72
194
 73
197
 74
196
 0
VERTEX
 8
DISCO_4
 10
0
 20
0
 30
0
 70
128
 71
194
 72
195
 73
198
 74
197
 0
VERTEX
 8
DISCO_4
 10
0
 20
0
 30
0
 70
128
 71
196
 72
197
 73
200
 74
199
 0
VERTEX
 8
DISCO_4
 10
0
 20
0
 30
0
 70
128
 71
197
 72
198
 73
201
 74
200
 0
VERTEX
 8
DISCO_4
 10
0
 20
0
 30
0
 70
128
 71
199
 72
200
 73
203
 74
202
 0
VERTEX
 8
DISCO_4
 10
0
 20
0
 30
0
 70
128
 71
200
 72
201
 73
204
 74
203
 0
VERTEX
 8
DISCO_4
 10
0
 20
0
 30
0
 70
128
 71
202
 72
203
 73
206
 74
205
 0
VERTEX
 8
DISCO_4
 10
0
 20
0
 30
0
 70
128
 71
203
 72
204
 73
207
 74
206
 0
VERTEX
 8
DISCO_4
 10
0
 20
0
 30
0
 70
128
 71
205
 72
206
 73
209
 74
208
 0
VERTEX
 8
DISCO_4
 10
0
 20
0
 30
0
 70
128
 71
206
 72
207
 73
210
 74
209
 0
VERTEX
 8
DISCO_4
 10
0
 20
0
 30
0
 70
128
 71
208
 72
209
 73
212
 74
211
 0
VERTEX
 8
DISCO_4
 10
0
 20
0
 30
0
 70
128
 71
209
 72
210
 73
213
 74
212
 0
VERTEX
 8
DISCO_4
 10
0
 20
0
 30
0
 70
128
 71
211
 72
212
 73
215
 74
214
 0
VERTEX
 8
DISCO_4
 10
0
 20
0
 30
0
 70
128
 71
212
 72
213
 73
216
 74
215
 0
VERTEX
 8
DISCO_4
 10
0
 20
0
 30
0
 70
128
 71
214
 72
215
 73
218
 74
217
 0
VERTEX
 8
DISCO_4
 10
0
 20
0
 30
0
 70
128
 71
215
 72
216
 73
219
 74
218
 0
VERTEX
 8
DISCO_4
 10
0
 20
0
 30
0
 70
128
 71
217
 72
218
 73
221
 74
220
 0
VERTEX
 8
DISCO_4
 10
0
 20
0
 30
0
 70
128
 71
218
 72
219
 73
222
 74
221
 0
VERTEX
 8
DISCO_4
 10
0
 20
0
 30
0
 70
128
 71
220
 72
221
 73
224
 74
223
 0
VERTEX
 8
DISCO_4
 10
0
 20
0
 30
0
 70
128
 71
221
 72
222
 73
225
 74
224
 0
VERTEX
 8
DISCO_4
 10
0
 20
0
 30
0
 70
128
 71
223
 72
224
 73
227
 74
226
 0
VERTEX
 8
DISCO_4
 10
0
 20
0
 30
0
 70
128
 71
224
 72
225
 73
228
 74
227
 0
VERTEX
 8
DISCO_4
 10
0
 20
0
 30
0
 70
128
 71
226
 72
227
 73
230
 74
229
 0
VERTEX
 8
DISCO_4
 10
0
 20
0
 30
0
 70
128
 71
227
 72
228
 73
231
 74
230
 0
VERTEX
 8
DISCO_4
 10
0
 20
0
 30
0
 70
128
 71
229
 72
230
 73
233
 74
232
 0
VERTEX
 8
DISCO_4
 10
0
 20
0
 30
0
 70
128
 71
230
 72
231
 73
234
 74
233
 0
VERTEX
 8
DISCO_4
 10
0
 20
0
 30
0
 70
128
 71
232
 72
233
 73
236
 74
235
 0
VERTEX
 8
DISCO_4
 10
0
 20
0
 30
0
 70
128
 71
233
 72
234
 73
237
 74
236
 0
VERTEX
 8
DISCO_4
 10
0
 20
0
 30
0
 70
128
 71
235
 72
236
 73
239
 74
238
 0
VERTEX
 8
DISCO_4
 10
0
 20
0
 30
0
 70
128
 71
236
 72
237
 73
240
 74
239
 0
VERTEX
 8
DISCO_4
 10
0
 20
0
 30
0
 70
128
 71
238
 72
239
 73
242
 74
241
 0
VERTEX
 8
DISCO_4
 10
0
 20
0
 30
0
 70
128
 71
239
 72
240
 73
243
 74
242
 0
VERTEX
 8
DISCO_4
 10
0
 20
0
 30
0
 70
128
 71
241
 72
242
 73
245
 74
244
 0
VERTEX
 8
DISCO_4
 10
0
 20
0
 30
0
 70
128
 71
242
 72
243
 73
246
 74
245
 0
VERTEX
 8
DISCO_4
 10
0
 20
0
 30
0
 70
128
 71
244
 72
245
 73
248
 74
247
 0
VERTEX
 8
DISCO_4
 10
0
 20
0
 30
0
 70
128
 71
245
 72
246
 73
249
 74
248
 0
VERTEX
 8
DISCO_4
 10
0
 20
0
 30
0
 70
128
 71
247
 72
248
 73
251
 74
250
 0
VERTEX
 8
DISCO_4
 10
0
 20
0
 30
0
 70
128
 71
248
 72
249
 73
252
 74
251
 0
VERTEX
 8
DISCO_4
 10
0
 20
0
 30
0
 70
128
 71
250
 72
251
 73
254
 74
253
 0
VERTEX
 8
DISCO_4
 10
0
 20
0
 30
0
 70
128
 71
251
 72
252
 73
255
 74
254
 0
VERTEX
 8
DISCO_4
 10
0
 20
0
 30
0
 70
128
 71
253
 72
254
 73
257
 74
256
 0
VERTEX
 8
DISCO_4
 10
0
 20
0
 30
0
 70
128
 71
254
 72
255
 73
258
 74
257
 0
VERTEX
 8
DISCO_4
 10
0
 20
0
 30
0
 70
128
 71
256
 72
257
 73
260
 74
259
 0
VERTEX
 8
DISCO_4
 10
0
 20
0
 30
0
 70
128
 71
257
 72
258
 73
261
 74
260
 0
VERTEX
 8
DISCO_4
 10
0
 20
0
 30
0
 70
128
 71
259
 72
260
 73
263
 74
262
 0
VERTEX
 8
DISCO_4
 10
0
 20
0
 30
0
 70
128
 71
260
 72
261
 73
264
 74
263
 0
VERTEX
 8
DISCO_4
 10
0
 20
0
 30
0
 70
128
 71
262
 72
263
 73
266
 74
265
 0
VERTEX
 8
DISCO_4
 10
0
 20
0
 30
0
 70
128
 71
263
 72
264
 73
267
 74
266
 0
VERTEX
 8
DISCO_4
 10
0
 20
0
 30
0
 70
128
 71
265
 72
266
 73
269
 74
268
 0
VERTEX
 8
DISCO_4
 10
0
 20
0
 30
0
 70
128
 71
266
 72
267
 73
270
 74
269
 0
VERTEX
 8
DISCO_4
 10
0
 20
0
 30
0
 70
128
 71
268
 72
269
 73
272
 74
271
 0
VERTEX
 8
DISCO_4
 10
0
 20
0
 30
0
 70
128
 71
269
 72
270
 73
273
 74
272
 0
VERTEX
 8
DISCO_4
 10
0
 20
0
 30
0
 70
128
 71
271
 72
272
 73
275
 74
274
 0
VERTEX
 8
DISCO_4
 10
0
 20
0
 30
0
 70
128
 71
272
 72
273
 73
276
 74
275
 0
VERTEX
 8
DISCO_4
 10
0
 20
0
 30
0
 70
128
 71
274
 72
275
 73
278
 74
277
 0
VERTEX
 8
DISCO_4
 10
0
 20
0
 30
0
 70
128
 71
275
 72
276
 73
279
 74
278
 0
VERTEX
 8
DISCO_4
 10
0
 20
0
 30
0
 70
128
 71
277
 72
278
 73
281
 74
280
 0
VERTEX
 8
DISCO_4
 10
0
 20
0
 30
0
 70
128
 71
278
 72
279
 73
282
 74
281
 0
VERTEX
 8
DISCO_4
 10
0
 20
0
 30
0
 70
128
 71
280
 72
281
 73
284
 74
283
 0
VERTEX
 8
DISCO_4
 10
0
 20
0
 30
0
 70
128
 71
281
 72
282
 73
285
 74
284
 0
VERTEX
 8
DISCO_4
 10
0
 20
0
 30
0
 70
128
 71
283
 72
284
 73
287
 74
286
 0
VERTEX
 8
DISCO_4
 10
0
 20
0
 30
0
 70
128
 71
284
 72
285
 73
288
 74
287
 0
VERTEX
 8
DISCO_4
 10
0
 20
0
 30
0
 70
128
 71
286
 72
287
 73
2
 74
1
 0
VERTEX
 8
DISCO_4
 10
0
 20
0
 30
0
 70
128
 71
287
 72
288
 73
3
 74
2
 0
SEQEND
 0
POLYLINE
 8
DISCO_3
 66
1
 10
0.0
 20
0.0
 30
0.0
 70
64
 71
288
 72
192
 0
VERTEX
 8
DISCO_3
 10
-2.5817
 20
-9.5694
 30
0.4501
 70
192
 0
VERTEX
 8
DISCO_3
 10
-2.6316
 20
-9.5694
 30
0.4501
 70
192
 0
VERTEX
 8
DISCO_3
 10
-2.6816
 20
-9.5694
 30
0.4501
 70
192
 0
VERTEX
 8
DISCO_3
 10
-2.6038
 20
-8.8925
 30
0.4501
 70
192
 0
VERTEX
 8
DISCO_3
 10
-2.6537
 20
-8.8958
 30
0.4501
 70
192
 0
VERTEX
 8
DISCO_3
 10
-2.7036
 20
-8.8991
 30
0.4501
 70
192
 0
VERTEX
 8
DISCO_3
 10
-2.6702
 20
-8.2186
 30
0.4501
 70
192
 0
VERTEX
 8
DISCO_3
 10
-2.7198
 20
-8.2251
 30
0.4501
 70
192
 0
VERTEX
 8
DISCO_3
 10
-2.7693
 20
-8.2316
 30
0.4501
 70
192
 0
VERTEX
 8
DISCO_3
 10
-2.7805
 20
-7.5504
 30
0.4501
 70
192
 0
VERTEX
 8
DISCO_3
 10
-2.8295
 20
-7.5602
 30
0.4501
 70
192
 0
VERTEX
 8
DISCO_3
 10
-2.8786
 20
-7.5699
 30
0.4501
 70
192
 0
VERTEX
 8
DISCO_3
 10
-2.9343
 20
-6.8909
 30
0.4501
 70
192
 0
VERTEX
 8
DISCO_3
 10
-2.9826
 20
-6.9038
 30
0.4501
 70
192
 0
VERTEX
 8
DISCO_3
 10
-3.0309
 20
-6.9168
 30
0.4501
 70
192
 0
VERTEX
 8
DISCO_3
 10
-3.1309
 20
-6.2428
 30
0.4501
 70
192
 0
VERTEX
 8
DISCO_3
 10
-3.1782
 20
-6.2589
 30
0.4501
 70
192
 0
VERTEX
 8
DISCO_3
 10
-3.2255
 20
-6.275
 30
0.4501
 70
192
 0
VERTEX
 8
DISCO_3
 10
-3.3694
 20
-5.609
 30
0.4501
 70
192
 0
VERTEX
 8
DISCO_3
 10
-3.4156
 20
-5.6281
 30
0.4501
 70
192
 0
VERTEX
 8
DISCO_3
 10
-3.4618
 20
-5.6473
 30
0.4501
 70
192
 0
VERTEX
 8
DISCO_3
 10
-3.6489
 20
-4.9922
 30
0.4501
 70
192
 0
VERTEX
 8
DISCO_3
 10
-3.6938
 20
-5.0143
 30
0.4501
 70
192
 0
VERTEX
 8
DISCO_3
 10
-3.7386
 20
-5.0364
 30
0.4501
 70
192
 0
VERTEX
 8
DISCO_3
 10
-3.9682
 20
-4.3949
 30
0.4501
 70
192
 0
VERTEX
 8
DISCO_3
 10
-4.0114
 20
-4.4199
 30
0.4501
 70
192
 0
VERTEX
 8
DISCO_3
 10
-4.0547
 20
-4.4449
 30
0.4501
 70
192
 0
VERTEX
 8
DISCO_3
 10
-4.3258
 20
-3.8198
 30
0.4501
 70
192
 0
VERTEX
 8
DISCO_3
 10
-4.3673
 20
-3.8476
 30
0.4501
 70
192
 0
VERTEX
 8
DISCO_3
 10
-4.4089
 20
-3.8753
 30
0.4501
 70
192
 0
VERTEX
 8
DISCO_3
 10
-4.7202
 20
-3.2693
 30
0.4501
 70
192
 0
VERTEX
 8
DISCO_3
 10
-4.7599
 20
-3.2998
 30
0.4501
 70
192
 0
VERTEX
 8
DISCO_3
 10
-4.7996
 20
-3.3302
 30
0.4501
 70
192
 0
VERTEX
 8
DISCO_3
 10
-5.1499
 20
-2.7458
 30
0.4501
 70
192
 0
VERTEX
 8
DISCO_3
 10
-5.1874
 20
-2.7788
 30
0.4501
 70
192
 0
VERTEX
 8
DISCO_3
 10
-5.225
 20
-2.8118
 30
0.4501
 70
192
 0
VERTEX
 8
DISCO_3
 10
-5.6128
 20
-2.2516
 30
0.4501
 70
192
 0
VERTEX
 8
DISCO_3
 10
-5.6481
 20
-2.2869
 30
0.4501
 70
192
 0
VERTEX
 8
DISCO_3
 10
-5.6835
 20
-2.3223
 30
0.4501
 70
192
 0
VERTEX
 8
DISCO_3
 10
-6.1071
 20
-1.7886
 30
0.4501
 70
192
 0
VERTEX
 8
DISCO_3
 10
-6.14
 20
-1.8262
 30
0.4501
 70
192
 0
VERTEX
 8
DISCO_3
 10
-6.173
 20
-1.8638
 30
0.4501
 70
192
 0
VERTEX
 8
DISCO_3
 10
-6.6306
 20
-1.359
 30
0.4501
 70
192
 0
VERTEX
 8
DISCO_3
 10
-6.661
 20
-1.3987
 30
0.4501
 70
192
 0
VERTEX
 8
DISCO_3
 10
-6.6914
 20
-1.4383
 30
0.4501
 70
192
 0
VERTEX
 8
DISCO_3
 10
-7.1811
 20
-0.9645
 30
0.4501
 70
192
 0
VERTEX
 8
DISCO_3
 10
-7.2088
 20
-1.0061
 30
0.4501
 70
192
 0
VERTEX
 8
DISCO_3
 10
-7.2366
 20
-1.0477
 30
0.4501
 70
192
 0
VERTEX
 8
DISCO_3
 10
-7.7561
 20
-0.6069
 30
0.4501
 70
192
 0
VERTEX
 8
DISCO_3
 10
-7.7811
 20
-0.6502
 30
0.4501
 70
192
 0
VERTEX
 8
DISCO_3
 10
-7.8061
 20
-0.6935
 30
0.4501
 70
192
 0
VERTEX
 8
DISCO_3
 10
-8.3534
 20
-0.2877
 30
0.4501
 70
192
 0
VERTEX
 8
DISCO_3
 10
-8.3755
 20
-0.3325
 30
0.4501
 70
192
 0
VERTEX
 8
DISCO_3
 10
-8.3976
 20
-0.3773
 30
0.4501
 70
192
 0
VERTEX
 8
DISCO_3
 10
-8.9703
 20
-0.0082
 30
0.4501
 70
192
 0
VERTEX
 8
DISCO_3
 10
-8.9894
 20
-0.0544
 30
0.4501
 70
192
 0
VERTEX
 8
DISCO_3
 10
-9.0085
 20
-0.1005
 30
0.4501
 70
192
 0
VERTEX
 8
DISCO_3
 10
-9.6041
 20
0.2304
 30
0.4501
 70
192
 0
VERTEX
 8
DISCO_3
 10
-9.6201
 20
0.183
 30
0.4501
 70
192
 0
VERTEX
 8
DISCO_3
 10
-9.6362
 20
0.1357
 30
0.4501
 70
192
 0
VERTEX
 8
DISCO_3
 10
-10.2521
 20
0.427
 30
0.4501
 70
192
 0
VERTEX
 8
DISCO_3
 10
-10.2651
 20
0.3787
 30
0.4501
 70
192
 0
VERTEX
 8
DISCO_3
 10
-10.278
 20
0.3304
 30
0.4501
 70
192
 0
VERTEX
 8
DISCO_3
 10
-10.9116
 20
0.5807
 30
0.4501
 70
192
 0
VERTEX
 8
DISCO_3
 10
-10.9214
 20
0.5317
 30
0.4501
 70
192
 0
VERTEX
 8
DISCO_3
 10
-10.9312
 20
0.4827
 30
0.4501
 70
192
 0
VERTEX
 8
DISCO_3
 10
-11.5798
 20
0.6911
 30
0.4501
 70
192
 0
VERTEX
 8
DISCO_3
 10
-11.5863
 20
0.6415
 30
0.4501
 70
192
 0
VERTEX
 8
DISCO_3
 10
-11.5929
 20
0.5919
 30
0.4501
 70
192
 0
VERTEX
 8
DISCO_3
 10
-12.2538
 20
0.7574
 30
0.4501
 70
192
 0
VERTEX
 8
DISCO_3
 10
-12.257
 20
0.7075
 30
0.4501
 70
192
 0
VERTEX
 8
DISCO_3
 10
-12.2603
 20
0.6577
 30
0.4501
 70
192
 0
VERTEX
 8
DISCO_3
 10
-12.9306
 20
0.7796
 30
0.4501
 70
192
 0
VERTEX
 8
DISCO_3
 10
-12.9306
 20
0.7296
 30
0.4501
 70
192
 0
VERTEX
 8
DISCO_3
 10
-12.9306
 20
0.6796
 30
0.4501
 70
192
 0
VERTEX
 8
DISCO_3
 10
-13.6075
 20
0.7574
 30
0.4501
 70
192
 0
VERTEX
 8
DISCO_3
 10
-13.6042
 20
0.7075
 30
0.4501
 70
192
 0
VERTEX
 8
DISCO_3
 10
-13.601
 20
0.6577
 30
0.4501
 70
192
 0
VERTEX
 8
DISCO_3
 10
-14.2814
 20
0.6911
 30
0.4501
 70
192
 0
VERTEX
 8
DISCO_3
 10
-14.2749
 20
0.6415
 30
0.4501
 70
192
 0
VERTEX
 8
DISCO_3
 10
-14.2684
 20
0.5919
 30
0.4501
 70
192
 0
VERTEX
 8
DISCO_3
 10
-14.9496
 20
0.5807
 30
0.4501
 70
192
 0
VERTEX
 8
DISCO_3
 10
-14.9399
 20
0.5317
 30
0.4501
 70
192
 0
VERTEX
 8
DISCO_3
 10
-14.9301
 20
0.4827
 30
0.4501
 70
192
 0
VERTEX
 8
DISCO_3
 10
-15.6091
 20
0.427
 30
0.4501
 70
192
 0
VERTEX
 8
DISCO_3
 10
-15.5962
 20
0.3787
 30
0.4501
 70
192
 0
VERTEX
 8
DISCO_3
 10
-15.5833
 20
0.3304
 30
0.4501
 70
192
 0
VERTEX
 8
DISCO_3
 10
-16.2572
 20
0.2304
 30
0.4501
 70
192
 0
VERTEX
 8
DISCO_3
 10
-16.2411
 20
0.183
 30
0.4501
 70
192
 0
VERTEX
 8
DISCO_3
 10
-16.2251
 20
0.1357
 30
0.4501
 70
192
 0
VERTEX
 8
DISCO_3
 10
-16.891
 20
-0.0082
 30
0.4501
 70
192
 0
VERTEX
 8
DISCO_3
 10
-16.8719
 20
-0.0544
 30
0.4501
 70
192
 0
VERTEX
 8
DISCO_3
 10
-16.8528
 20
-0.1005
 30
0.4501
 70
192
 0
VERTEX
 8
DISCO_3
 10
-17.5079
 20
-0.2877
 30
0.4501
 70
192
 0
VERTEX
 8
DISCO_3
 10
-17.4858
 20
-0.3325
 30
0.4501
 70
192
 0
VERTEX
 8
DISCO_3
 10
-17.4637
 20
-0.3773
 30
0.4501
 70
192
 0
VERTEX
 8
DISCO_3
 10
-18.1051
 20
-0.6069
 30
0.4501
 70
192
 0
VERTEX
 8
DISCO_3
 10
-18.0801
 20
-0.6502
 30
0.4501
 70
192
 0
VERTEX
 8
DISCO_3
 10
-18.0551
 20
-0.6935
 30
0.4501
 70
192
 0
VERTEX
 8
DISCO_3
 10
-18.6802
 20
-0.9645
 30
0.4501
 70
192
 0
VERTEX
 8
DISCO_3
 10
-18.6524
 20
-1.0061
 30
0.4501
 70
192
 0
VERTEX
 8
DISCO_3
 10
-18.6247
 20
-1.0477
 30
0.4501
 70
192
 0
VERTEX
 8
DISCO_3
 10
-19.2307
 20
-1.359
 30
0.4501
 70
192
 0
VERTEX
 8
DISCO_3
 10
-19.2003
 20
-1.3987
 30
0.4501
 70
192
 0
VERTEX
 8
DISCO_3
 10
-19.1698
 20
-1.4383
 30
0.4501
 70
192
 0
VERTEX
 8
DISCO_3
 10
-19.7542
 20
-1.7886
 30
0.4501
 70
192
 0
VERTEX
 8
DISCO_3
 10
-19.7212
 20
-1.8262
 30
0.4501
 70
192
 0
VERTEX
 8
DISCO_3
 10
-19.6883
 20
-1.8638
 30
0.4501
 70
192
 0
VERTEX
 8
DISCO_3
 10
-20.2485
 20
-2.2516
 30
0.4501
 70
192
 0
VERTEX
 8
DISCO_3
 10
-20.2131
 20
-2.2869
 30
0.4501
 70
192
 0
VERTEX
 8
DISCO_3
 10
-20.1778
 20
-2.3223
 30
0.4501
 70
192
 0
VERTEX
 8
DISCO_3
 10
-20.7114
 20
-2.7458
 30
0.4501
 70
192
 0
VERTEX
 8
DISCO_3
 10
-20.6738
 20
-2.7788
 30
0.4501
 70
192
 0
VERTEX
 8
DISCO_3
 10
-20.6362
 20
-2.8118
 30
0.4501
 70
192
 0
VERTEX
 8
DISCO_3
 10
-21.141
 20
-3.2693
 30
0.4501
 70
192
 0
VERTEX
 8
DISCO_3
 10
-21.1014
 20
-3.2998
 30
0.4501
 70
192
 0
VERTEX
 8
DISCO_3
 10
-21.0617
 20
-3.3302
 30
0.4501
 70
192
 0
VERTEX
 8
DISCO_3
 10
-21.5355
 20
-3.8198
 30
0.4501
 70
192
 0
VERTEX
 8
DISCO_3
 10
-21.4939
 20
-3.8476
 30
0.4501
 70
192
 0
VERTEX
 8
DISCO_3
 10
-21.4524
 20
-3.8753
 30
0.4501
 70
192
 0
VERTEX
 8
DISCO_3
 10
-21.8931
 20
-4.3949
 30
0.4501
 70
192
 0
VERTEX
 8
DISCO_3
 10
-21.8498
 20
-4.4199
 30
0.4501
 70
192
 0
VERTEX
 8
DISCO_3
 10
-21.8065
 20
-4.4449
 30
0.4501
 70
192
 0
VERTEX
 8
DISCO_3
 10
-22.2123
 20
-4.9922
 30
0.4501
 70
192
 0
VERTEX
 8
DISCO_3
 10
-22.1675
 20
-5.0143
 30
0.4501
 70
192
 0
VERTEX
 8
DISCO_3
 10
-22.1227
 20
-5.0364
 30
0.4501
 70
192
 0
VERTEX
 8
DISCO_3
 10
-22.4918
 20
-5.609
 30
0.4501
 70
192
 0
VERTEX
 8
DISCO_3
 10
-22.4457
 20
-5.6281
 30
0.4501
 70
192
 0
VERTEX
 8
DISCO_3
 10
-22.3995
 20
-5.6473
 30
0.4501
 70
192
 0
VERTEX
 8
DISCO_3
 10
-22.7304
 20
-6.2428
 30
0.4501
 70
192
 0
VERTEX
 8
DISCO_3
 10
-22.6831
 20
-6.2589
 30
0.4501
 70
192
 0
VERTEX
 8
DISCO_3
 10
-22.6357
 20
-6.275
 30
0.4501
 70
192
 0
VERTEX
 8
DISCO_3
 10
-22.927
 20
-6.8909
 30
0.4501
 70
192
 0
VERTEX
 8
DISCO_3
 10
-22.8787
 20
-6.9038
 30
0.4501
 70
192
 0
VERTEX
 8
DISCO_3
 10
-22.8304
 20
-6.9168
 30
0.4501
 70
192
 0
VERTEX
 8
DISCO_3
 10
-23.0808
 20
-7.5504
 30
0.4501
 70
192
 0
VERTEX
 8
DISCO_3
 10
-23.0317
 20
-7.5602
 30
0.4501
 70
192
 0
VERTEX
 8
DISCO_3
 10
-22.9827
 20
-7.5699
 30
0.4501
 70
192
 0
VERTEX
 8
DISCO_3
 10
-23.1911
 20
-8.2186
 30
0.4501
 70
192
 0
VERTEX
 8
DISCO_3
 10
-23.1415
 20
-8.2251
 30
0.4501
 70
192
 0
VERTEX
 8
DISCO_3
 10
-23.092
 20
-8.2316
 30
0.4501
 70
192
 0
VERTEX
 8
DISCO_3
 10
-23.2575
 20
-8.8925
 30
0.4501
 70
192
 0
VERTEX
 8
DISCO_3
 10
-23.2076
 20
-8.8958
 30
0.4501
 70
192
 0
VERTEX
 8
DISCO_3
 10
-23.1577
 20
-8.8991
 30
0.4501
 70
192
 0
VERTEX
 8
DISCO_3
 10
-23.2796
 20
-9.5694
 30
0.4501
 70
192
 0
VERTEX
 8
DISCO_3
 10
-23.2296
 20
-9.5694
 30
0.4501
 70
192
 0
VERTEX
 8
DISCO_3
 10
-23.1796
 20
-9.5694
 30
0.4501
 70
192
 0
VERTEX
 8
DISCO_3
 10
-23.2575
 20
-10.2462
 30
0.4501
 70
192
 0
VERTEX
 8
DISCO_3
 10
-23.2076
 20
-10.243
 30
0.4501
 70
192
 0
VERTEX
 8
DISCO_3
 10
-23.1577
 20
-10.2397
 30
0.4501
 70
192
 0
VERTEX
 8
DISCO_3
 10
-23.1911
 20
-10.9202
 30
0.4501
 70
192
 0
VERTEX
 8
DISCO_3
 10
-23.1415
 20
-10.9137
 30
0.4501
 70
192
 0
VERTEX
 8
DISCO_3
 10
-23.092
 20
-10.9072
 30
0.4501
 70
192
 0
VERTEX
 8
DISCO_3
 10
-23.0808
 20
-11.5884
 30
0.4501
 70
192
 0
VERTEX
 8
DISCO_3
 10
-23.0317
 20
-11.5786
 30
0.4501
 70
192
 0
VERTEX
 8
DISCO_3
 10
-22.9827
 20
-11.5689
 30
0.4501
 70
192
 0
VERTEX
 8
DISCO_3
 10
-22.927
 20
-12.2479
 30
0.4501
 70
192
 0
VERTEX
 8
DISCO_3
 10
-22.8787
 20
-12.235
 30
0.4501
 70
192
 0
VERTEX
 8
DISCO_3
 10
-22.8304
 20
-12.222
 30
0.4501
 70
192
 0
VERTEX
 8
DISCO_3
 10
-22.7304
 20
-12.896
 30
0.4501
 70
192
 0
VERTEX
 8
DISCO_3
 10
-22.6831
 20
-12.8799
 30
0.4501
 70
192
 0
VERTEX
 8
DISCO_3
 10
-22.6357
 20
-12.8638
 30
0.4501
 70
192
 0
VERTEX
 8
DISCO_3
 10
-22.4918
 20
-13.5298
 30
0.4501
 70
192
 0
VERTEX
 8
DISCO_3
 10
-22.4457
 20
-13.5106
 30
0.4501
 70
192
 0
VERTEX
 8
DISCO_3
 10
-22.3995
 20
-13.4915
 30
0.4501
 70
192
 0
VERTEX
 8
DISCO_3
 10
-22.2123
 20
-14.1466
 30
0.4501
 70
192
 0
VERTEX
 8
DISCO_3
 10
-22.1675
 20
-14.1245
 30
0.4501
 70
192
 0
VERTEX
 8
DISCO_3
 10
-22.1227
 20
-14.1024
 30
0.4501
 70
192
 0
VERTEX
 8
DISCO_3
 10
-21.8931
 20
-14.7439
 30
0.4501
 70
192
 0
VERTEX
 8
DISCO_3
 10
-21.8498
 20
-14.7189
 30
0.4501
 70
192
 0
VERTEX
 8
DISCO_3
 10
-21.8065
 20
-14.6939
 30
0.4501
 70
192
 0
VERTEX
 8
DISCO_3
 10
-21.5355
 20
-15.319
 30
0.4501
 70
192
 0
VERTEX
 8
DISCO_3
 10
-21.4939
 20
-15.2912
 30
0.4501
 70
192
 0
VERTEX
 8
DISCO_3
 10
-21.4524
 20
-15.2634
 30
0.4501
 70
192
 0
VERTEX
 8
DISCO_3
 10
-21.141
 20
-15.8694
 30
0.4501
 70
192
 0
VERTEX
 8
DISCO_3
 10
-21.1014
 20
-15.839
 30
0.4501
 70
192
 0
VERTEX
 8
DISCO_3
 10
-21.0617
 20
-15.8086
 30
0.4501
 70
192
 0
VERTEX
 8
DISCO_3
 10
-20.7114
 20
-16.3929
 30
0.4501
 70
192
 0
VERTEX
 8
DISCO_3
 10
-20.6738
 20
-16.36
 30
0.4501
 70
192
 0
VERTEX
 8
DISCO_3
 10
-20.6362
 20
-16.327
 30
0.4501
 70
192
 0
VERTEX
 8
DISCO_3
 10
-20.2485
 20
-16.8872
 30
0.4501
 70
192
 0
VERTEX
 8
DISCO_3
 10
-20.2131
 20
-16.8519
 30
0.4501
 70
192
 0
VERTEX
 8
DISCO_3
 10
-20.1778
 20
-16.8165
 30
0.4501
 70
192
 0
VERTEX
 8
DISCO_3
 10
-19.7542
 20
-17.3502
 30
0.4501
 70
192
 0
VERTEX
 8
DISCO_3
 10
-19.7212
 20
-17.3126
 30
0.4501
 70
192
 0
VERTEX
 8
DISCO_3
 10
-19.6883
 20
-17.275
 30
0.4501
 70
192
 0
VERTEX
 8
DISCO_3
 10
-19.2307
 20
-17.7798
 30
0.4501
 70
192
 0
VERTEX
 8
DISCO_3
 10
-19.2003
 20
-17.7401
 30
0.4501
 70
192
 0
VERTEX
 8
DISCO_3
 10
-19.1698
 20
-17.7005
 30
0.4501
 70
192
 0
VERTEX
 8
DISCO_3
 10
-18.6802
 20
-18.1742
 30
0.4501
 70
192
 0
VERTEX
 8
DISCO_3
 10
-18.6524
 20
-18.1327
 30
0.4501
 70
192
 0
VERTEX
 8
DISCO_3
 10
-18.6247
 20
-18.0911
 30
0.4501
 70
192
 0
VERTEX
 8
DISCO_3
 10
-18.1051
 20
-18.5319
 30
0.4501
 70
192
 0
VERTEX
 8
DISCO_3
 10
-18.0801
 20
-18.4886
 30
0.4501
 70
192
 0
VERTEX
 8
DISCO_3
 10
-18.0551
 20
-18.4453
 30
0.4501
 70
192
 0
VERTEX
 8
DISCO_3
 10
-17.5079
 20
-18.8511
 30
0.4501
 70
192
 0
VERTEX
 8
DISCO_3
 10
-17.4858
 20
-18.8063
 30
0.4501
 70
192
 0
VERTEX
 8
DISCO_3
 10
-17.4637
 20
-18.7614
 30
0.4501
 70
192
 0
VERTEX
 8
DISCO_3
 10
-16.891
 20
-19.1306
 30
0.4501
 70
192
 0
VERTEX
 8
DISCO_3
 10
-16.8719
 20
-19.0844
 30
0.4501
 70
192
 0
VERTEX
 8
DISCO_3
 10
-16.8528
 20
-19.0382
 30
0.4501
 70
192
 0
VERTEX
 8
DISCO_3
 10
-16.2572
 20
-19.3691
 30
0.4501
 70
192
 0
VERTEX
 8
DISCO_3
 10
-16.2411
 20
-19.3218
 30
0.4501
 70
192
 0
VERTEX
 8
DISCO_3
 10
-16.2251
 20
-19.2745
 30
0.4501
 70
192
 0
VERTEX
 8
DISCO_3
 10
-15.6091
 20
-19.5657
 30
0.4501
 70
192
 0
VERTEX
 8
DISCO_3
 10
-15.5962
 20
-19.5174
 30
0.4501
 70
192
 0
VERTEX
 8
DISCO_3
 10
-15.5833
 20
-19.4692
 30
0.4501
 70
192
 0
VERTEX
 8
DISCO_3
 10
-14.9496
 20
-19.7195
 30
0.4501
 70
192
 0
VERTEX
 8
DISCO_3
 10
-14.9399
 20
-19.6705
 30
0.4501
 70
192
 0
VERTEX
 8
DISCO_3
 10
-14.9301
 20
-19.6215
 30
0.4501
 70
192
 0
VERTEX
 8
DISCO_3
 10
-14.2814
 20
-19.8298
 30
0.4501
 70
192
 0
VERTEX
 8
DISCO_3
 10
-14.2749
 20
-19.7803
 30
0.4501
 70
192
 0
VERTEX
 8
DISCO_3
 10
-14.2684
 20
-19.7307
 30
0.4501
 70
192
 0
VERTEX
 8
DISCO_3
 10
-13.6075
 20
-19.8962
 30
0.4501
 70
192
 0
VERTEX
 8
DISCO_3
 10
-13.6042
 20
-19.8463
 30
0.4501
 70
192
 0
VERTEX
 8
DISCO_3
 10
-13.601
 20
-19.7964
 30
0.4501
 70
192
 0
VERTEX
 8
DISCO_3
 10
-12.9306
 20
-19.9184
 30
0.4501
 70
192
 0
VERTEX
 8
DISCO_3
 10
-12.9306
 20
-19.8684
 30
0.4501
 70
192
 0
VERTEX
 8
DISCO_3
 10
-12.9306
 20
-19.8184
 30
0.4501
 70
192
 0
VERTEX
 8
DISCO_3
 10
-12.2538
 20
-19.8962
 30
0.4501
 70
192
 0
VERTEX
 8
DISCO_3
 10
-12.257
 20
-19.8463
 30
0.4501
 70
192
 0
VERTEX
 8
DISCO_3
 10
-12.2603
 20
-19.7964
 30
0.4501
 70
192
 0
VERTEX
 8
DISCO_3
 10
-11.5798
 20
-19.8298
 30
0.4501
 70
192
 0
VERTEX
 8
DISCO_3
 10
-11.5863
 20
-19.7803
 30
0.4501
 70
192
 0
VERTEX
 8
DISCO_3
 10
-11.5929
 20
-19.7307
 30
0.4501
 70
192
 0
VERTEX
 8
DISCO_3
 10
-10.9116
 20
-19.7195
 30
0.4501
 70
192
 0
VERTEX
 8
DISCO_3
 10
-10.9214
 20
-19.6705
 30
0.4501
 70
192
 0
VERTEX
 8
DISCO_3
 10
-10.9312
 20
-19.6215
 30
0.4501
 70
192
 0
VERTEX
 8
DISCO_3
 10
-10.2521
 20
-19.5657
 30
0.4501
 70
192
 0
VERTEX
 8
DISCO_3
 10
-10.2651
 20
-19.5174
 30
0.4501
 70
192
 0
VERTEX
 8
DISCO_3
 10
-10.278
 20
-19.4692
 30
0.4501
 70
192
 0
VERTEX
 8
DISCO_3
 10
-9.6041
 20
-19.3691
 30
0.4501
 70
192
 0
VERTEX
 8
DISCO_3
 10
-9.6201
 20
-19.3218
 30
0.4501
 70
192
 0
VERTEX
 8
DISCO_3
 10
-9.6362
 20
-19.2745
 30
0.4501
 70
192
 0
VERTEX
 8
DISCO_3
 10
-8.9703
 20
-19.1306
 30
0.4501
 70
192
 0
VERTEX
 8
DISCO_3
 10
-8.9894
 20
-19.0844
 30
0.4501
 70
192
 0
VERTEX
 8
DISCO_3
 10
-9.0085
 20
-19.0382
 30
0.4501
 70
192
 0
VERTEX
 8
DISCO_3
 10
-8.3534
 20
-18.8511
 30
0.4501
 70
192
 0
VERTEX
 8
DISCO_3
 10
-8.3755
 20
-18.8063
 30
0.4501
 70
192
 0
VERTEX
 8
DISCO_3
 10
-8.3976
 20
-18.7614
 30
0.4501
 70
192
 0
VERTEX
 8
DISCO_3
 10
-7.7561
 20
-18.5319
 30
0.4501
 70
192
 0
VERTEX
 8
DISCO_3
 10
-7.7811
 20
-18.4886
 30
0.4501
 70
192
 0
VERTEX
 8
DISCO_3
 10
-7.8061
 20
-18.4453
 30
0.4501
 70
192
 0
VERTEX
 8
DISCO_3
 10
-7.1811
 20
-18.1742
 30
0.4501
 70
192
 0
VERTEX
 8
DISCO_3
 10
-7.2088
 20
-18.1327
 30
0.4501
 70
192
 0
VERTEX
 8
DISCO_3
 10
-7.2366
 20
-18.0911
 30
0.4501
 70
192
 0
VERTEX
 8
DISCO_3
 10
-6.6306
 20
-17.7798
 30
0.4501
 70
192
 0
VERTEX
 8
DISCO_3
 10
-6.661
 20
-17.7401
 30
0.4501
 70
192
 0
VERTEX
 8
DISCO_3
 10
-6.6914
 20
-17.7005
 30
0.4501
 70
192
 0
VERTEX
 8
DISCO_3
 10
-6.1071
 20
-17.3502
 30
0.4501
 70
192
 0
VERTEX
 8
DISCO_3
 10
-6.14
 20
-17.3126
 30
0.4501
 70
192
 0
VERTEX
 8
DISCO_3
 10
-6.173
 20
-17.275
 30
0.4501
 70
192
 0
VERTEX
 8
DISCO_3
 10
-5.6128
 20
-16.8872
 30
0.4501
 70
192
 0
VERTEX
 8
DISCO_3
 10
-5.6481
 20
-16.8519
 30
0.4501
 70
192
 0
VERTEX
 8
DISCO_3
 10
-5.6835
 20
-16.8165
 30
0.4501
 70
192
 0
VERTEX
 8
DISCO_3
 10
-5.1499
 20
-16.3929
 30
0.4501
 70
192
 0
VERTEX
 8
DISCO_3
 10
-5.1874
 20
-16.36
 30
0.4501
 70
192
 0
VERTEX
 8
DISCO_3
 10
-5.225
 20
-16.327
 30
0.4501
 70
192
 0
VERTEX
 8
DISCO_3
 10
-4.7202
 20
-15.8694
 30
0.4501
 70
192
 0
VERTEX
 8
DISCO_3
 10
-4.7599
 20
-15.839
 30
0.4501
 70
192
 0
VERTEX
 8
DISCO_3
 10
-4.7996
 20
-15.8086
 30
0.4501
 70
192
 0
VERTEX
 8
DISCO_3
 10
-4.3258
 20
-15.319
 30
0.4501
 70
192
 0
VERTEX
 8
DISCO_3
 10
-4.3673
 20
-15.2912
 30
0.4501
 70
192
 0
VERTEX
 8
DISCO_3
 10
-4.4089
 20
-15.2634
 30
0.4501
 70
192
 0
VERTEX
 8
DISCO_3
 10
-3.9682
 20
-14.7439
 30
0.4501
 70
192
 0
VERTEX
 8
DISCO_3
 10
-4.0114
 20
-14.7189
 30
0.4501
 70
192
 0
VERTEX
 8
DISCO_3
 10
-4.0547
 20
-14.6939
 30
0.4501
 70
192
 0
VERTEX
 8
DISCO_3
 10
-3.6489
 20
-14.1466
 30
0.4501
 70
192
 0
VERTEX
 8
DISCO_3
 10
-3.6938
 20
-14.1245
 30
0.4501
 70
192
 0
VERTEX
 8
DISCO_3
 10
-3.7386
 20
-14.1024
 30
0.4501
 70
192
 0
VERTEX
 8
DISCO_3
 10
-3.3694
 20
-13.5298
 30
0.4501
 70
192
 0
VERTEX
 8
DISCO_3
 10
-3.4156
 20
-13.5106
 30
0.4501
 70
192
 0
VERTEX
 8
DISCO_3
 10
-3.4618
 20
-13.4915
 30
0.4501
 70
192
 0
VERTEX
 8
DISCO_3
 10
-3.1309
 20
-12.896
 30
0.4501
 70
192
 0
VERTEX
 8
DISCO_3
 10
-3.1782
 20
-12.8799
 30
0.4501
 70
192
 0
VERTEX
 8
DISCO_3
 10
-3.2255
 20
-12.8638
 30
0.4501
 70
192
 0
VERTEX
 8
DISCO_3
 10
-2.9343
 20
-12.2479
 30
0.4501
 70
192
 0
VERTEX
 8
DISCO_3
 10
-2.9826
 20
-12.235
 30
0.4501
 70
192
 0
VERTEX
 8
DISCO_3
 10
-3.0309
 20
-12.222
 30
0.4501
 70
192
 0
VERTEX
 8
DISCO_3
 10
-2.7805
 20
-11.5884
 30
0.4501
 70
192
 0
VERTEX
 8
DISCO_3
 10
-2.8295
 20
-11.5786
 30
0.4501
 70
192
 0
VERTEX
 8
DISCO_3
 10
-2.8786
 20
-11.5689
 30
0.4501
 70
192
 0
VERTEX
 8
DISCO_3
 10
-2.6702
 20
-10.9202
 30
0.4501
 70
192
 0
VERTEX
 8
DISCO_3
 10
-2.7198
 20
-10.9137
 30
0.4501
 70
192
 0
VERTEX
 8
DISCO_3
 10
-2.7693
 20
-10.9072
 30
0.4501
 70
192
 0
VERTEX
 8
DISCO_3
 10
-2.6038
 20
-10.2462
 30
0.4501
 70
192
 0
VERTEX
 8
DISCO_3
 10
-2.6537
 20
-10.243
 30
0.4501
 70
192
 0
VERTEX
 8
DISCO_3
 10
-2.7036
 20
-10.2397
 30
0.4501
 70
192
 0
VERTEX
 8
DISCO_3
 10
0
 20
0
 30
0
 70
128
 71
1
 72
2
 73
5
 74
4
 0
VERTEX
 8
DISCO_3
 10
0
 20
0
 30
0
 70
128
 71
2
 72
3
 73
6
 74
5
 0
VERTEX
 8
DISCO_3
 10
0
 20
0
 30
0
 70
128
 71
4
 72
5
 73
8
 74
7
 0
VERTEX
 8
DISCO_3
 10
0
 20
0
 30
0
 70
128
 71
5
 72
6
 73
9
 74
8
 0
VERTEX
 8
DISCO_3
 10
0
 20
0
 30
0
 70
128
 71
7
 72
8
 73
11
 74
10
 0
VERTEX
 8
DISCO_3
 10
0
 20
0
 30
0
 70
128
 71
8
 72
9
 73
12
 74
11
 0
VERTEX
 8
DISCO_3
 10
0
 20
0
 30
0
 70
128
 71
10
 72
11
 73
14
 74
13
 0
VERTEX
 8
DISCO_3
 10
0
 20
0
 30
0
 70
128
 71
11
 72
12
 73
15
 74
14
 0
VERTEX
 8
DISCO_3
 10
0
 20
0
 30
0
 70
128
 71
13
 72
14
 73
17
 74
16
 0
VERTEX
 8
DISCO_3
 10
0
 20
0
 30
0
 70
128
 71
14
 72
15
 73
18
 74
17
 0
VERTEX
 8
DISCO_3
 10
0
 20
0
 30
0
 70
128
 71
16
 72
17
 73
20
 74
19
 0
VERTEX
 8
DISCO_3
 10
0
 20
0
 30
0
 70
128
 71
17
 72
18
 73
21
 74
20
 0
VERTEX
 8
DISCO_3
 10
0
 20
0
 30
0
 70
128
 71
19
 72
20
 73
23
 74
22
 0
VERTEX
 8
DISCO_3
 10
0
 20
0
 30
0
 70
128
 71
20
 72
21
 73
24
 74
23
 0
VERTEX
 8
DISCO_3
 10
0
 20
0
 30
0
 70
128
 71
22
 72
23
 73
26
 74
25
 0
VERTEX
 8
DISCO_3
 10
0
 20
0
 30
0
 70
128
 71
23
 72
24
 73
27
 74
26
 0
VERTEX
 8
DISCO_3
 10
0
 20
0
 30
0
 70
128
 71
25
 72
26
 73
29
 74
28
 0
VERTEX
 8
DISCO_3
 10
0
 20
0
 30
0
 70
128
 71
26
 72
27
 73
30
 74
29
 0
VERTEX
 8
DISCO_3
 10
0
 20
0
 30
0
 70
128
 71
28
 72
29
 73
32
 74
31
 0
VERTEX
 8
DISCO_3
 10
0
 20
0
 30
0
 70
128
 71
29
 72
30
 73
33
 74
32
 0
VERTEX
 8
DISCO_3
 10
0
 20
0
 30
0
 70
128
 71
31
 72
32
 73
35
 74
34
 0
VERTEX
 8
DISCO_3
 10
0
 20
0
 30
0
 70
128
 71
32
 72
33
 73
36
 74
35
 0
VERTEX
 8
DISCO_3
 10
0
 20
0
 30
0
 70
128
 71
34
 72
35
 73
38
 74
37
 0
VERTEX
 8
DISCO_3
 10
0
 20
0
 30
0
 70
128
 71
35
 72
36
 73
39
 74
38
 0
VERTEX
 8
DISCO_3
 10
0
 20
0
 30
0
 70
128
 71
37
 72
38
 73
41
 74
40
 0
VERTEX
 8
DISCO_3
 10
0
 20
0
 30
0
 70
128
 71
38
 72
39
 73
42
 74
41
 0
VERTEX
 8
DISCO_3
 10
0
 20
0
 30
0
 70
128
 71
40
 72
41
 73
44
 74
43
 0
VERTEX
 8
DISCO_3
 10
0
 20
0
 30
0
 70
128
 71
41
 72
42
 73
45
 74
44
 0
VERTEX
 8
DISCO_3
 10
0
 20
0
 30
0
 70
128
 71
43
 72
44
 73
47
 74
46
 0
VERTEX
 8
DISCO_3
 10
0
 20
0
 30
0
 70
128
 71
44
 72
45
 73
48
 74
47
 0
VERTEX
 8
DISCO_3
 10
0
 20
0
 30
0
 70
128
 71
46
 72
47
 73
50
 74
49
 0
VERTEX
 8
DISCO_3
 10
0
 20
0
 30
0
 70
128
 71
47
 72
48
 73
51
 74
50
 0
VERTEX
 8
DISCO_3
 10
0
 20
0
 30
0
 70
128
 71
49
 72
50
 73
53
 74
52
 0
VERTEX
 8
DISCO_3
 10
0
 20
0
 30
0
 70
128
 71
50
 72
51
 73
54
 74
53
 0
VERTEX
 8
DISCO_3
 10
0
 20
0
 30
0
 70
128
 71
52
 72
53
 73
56
 74
55
 0
VERTEX
 8
DISCO_3
 10
0
 20
0
 30
0
 70
128
 71
53
 72
54
 73
57
 74
56
 0
VERTEX
 8
DISCO_3
 10
0
 20
0
 30
0
 70
128
 71
55
 72
56
 73
59
 74
58
 0
VERTEX
 8
DISCO_3
 10
0
 20
0
 30
0
 70
128
 71
56
 72
57
 73
60
 74
59
 0
VERTEX
 8
DISCO_3
 10
0
 20
0
 30
0
 70
128
 71
58
 72
59
 73
62
 74
61
 0
VERTEX
 8
DISCO_3
 10
0
 20
0
 30
0
 70
128
 71
59
 72
60
 73
63
 74
62
 0
VERTEX
 8
DISCO_3
 10
0
 20
0
 30
0
 70
128
 71
61
 72
62
 73
65
 74
64
 0
VERTEX
 8
DISCO_3
 10
0
 20
0
 30
0
 70
128
 71
62
 72
63
 73
66
 74
65
 0
VERTEX
 8
DISCO_3
 10
0
 20
0
 30
0
 70
128
 71
64
 72
65
 73
68
 74
67
 0
VERTEX
 8
DISCO_3
 10
0
 20
0
 30
0
 70
128
 71
65
 72
66
 73
69
 74
68
 0
VERTEX
 8
DISCO_3
 10
0
 20
0
 30
0
 70
128
 71
67
 72
68
 73
71
 74
70
 0
VERTEX
 8
DISCO_3
 10
0
 20
0
 30
0
 70
128
 71
68
 72
69
 73
72
 74
71
 0
VERTEX
 8
DISCO_3
 10
0
 20
0
 30
0
 70
128
 71
70
 72
71
 73
74
 74
73
 0
VERTEX
 8
DISCO_3
 10
0
 20
0
 30
0
 70
128
 71
71
 72
72
 73
75
 74
74
 0
VERTEX
 8
DISCO_3
 10
0
 20
0
 30
0
 70
128
 71
73
 72
74
 73
77
 74
76
 0
VERTEX
 8
DISCO_3
 10
0
 20
0
 30
0
 70
128
 71
74
 72
75
 73
78
 74
77
 0
VERTEX
 8
DISCO_3
 10
0
 20
0
 30
0
 70
128
 71
76
 72
77
 73
80
 74
79
 0
VERTEX
 8
DISCO_3
 10
0
 20
0
 30
0
 70
128
 71
77
 72
78
 73
81
 74
80
 0
VERTEX
 8
DISCO_3
 10
0
 20
0
 30
0
 70
128
 71
79
 72
80
 73
83
 74
82
 0
VERTEX
 8
DISCO_3
 10
0
 20
0
 30
0
 70
128
 71
80
 72
81
 73
84
 74
83
 0
VERTEX
 8
DISCO_3
 10
0
 20
0
 30
0
 70
128
 71
82
 72
83
 73
86
 74
85
 0
VERTEX
 8
DISCO_3
 10
0
 20
0
 30
0
 70
128
 71
83
 72
84
 73
87
 74
86
 0
VERTEX
 8
DISCO_3
 10
0
 20
0
 30
0
 70
128
 71
85
 72
86
 73
89
 74
88
 0
VERTEX
 8
DISCO_3
 10
0
 20
0
 30
0
 70
128
 71
86
 72
87
 73
90
 74
89
 0
VERTEX
 8
DISCO_3
 10
0
 20
0
 30
0
 70
128
 71
88
 72
89
 73
92
 74
91
 0
VERTEX
 8
DISCO_3
 10
0
 20
0
 30
0
 70
128
 71
89
 72
90
 73
93
 74
92
 0
VERTEX
 8
DISCO_3
 10
0
 20
0
 30
0
 70
128
 71
91
 72
92
 73
95
 74
94
 0
VERTEX
 8
DISCO_3
 10
0
 20
0
 30
0
 70
128
 71
92
 72
93
 73
96
 74
95
 0
VERTEX
 8
DISCO_3
 10
0
 20
0
 30
0
 70
128
 71
94
 72
95
 73
98
 74
97
 0
VERTEX
 8
DISCO_3
 10
0
 20
0
 30
0
 70
128
 71
95
 72
96
 73
99
 74
98
 0
VERTEX
 8
DISCO_3
 10
0
 20
0
 30
0
 70
128
 71
97
 72
98
 73
101
 74
100
 0
VERTEX
 8
DISCO_3
 10
0
 20
0
 30
0
 70
128
 71
98
 72
99
 73
102
 74
101
 0
VERTEX
 8
DISCO_3
 10
0
 20
0
 30
0
 70
128
 71
100
 72
101
 73
104
 74
103
 0
VERTEX
 8
DISCO_3
 10
0
 20
0
 30
0
 70
128
 71
101
 72
102
 73
105
 74
104
 0
VERTEX
 8
DISCO_3
 10
0
 20
0
 30
0
 70
128
 71
103
 72
104
 73
107
 74
106
 0
VERTEX
 8
DISCO_3
 10
0
 20
0
 30
0
 70
128
 71
104
 72
105
 73
108
 74
107
 0
VERTEX
 8
DISCO_3
 10
0
 20
0
 30
0
 70
128
 71
106
 72
107
 73
110
 74
109
 0
VERTEX
 8
DISCO_3
 10
0
 20
0
 30
0
 70
128
 71
107
 72
108
 73
111
 74
110
 0
VERTEX
 8
DISCO_3
 10
0
 20
0
 30
0
 70
128
 71
109
 72
110
 73
113
 74
112
 0
VERTEX
 8
DISCO_3
 10
0
 20
0
 30
0
 70
128
 71
110
 72
111
 73
114
 74
113
 0
VERTEX
 8
DISCO_3
 10
0
 20
0
 30
0
 70
128
 71
112
 72
113
 73
116
 74
115
 0
VERTEX
 8
DISCO_3
 10
0
 20
0
 30
0
 70
128
 71
113
 72
114
 73
117
 74
116
 0
VERTEX
 8
DISCO_3
 10
0
 20
0
 30
0
 70
128
 71
115
 72
116
 73
119
 74
118
 0
VERTEX
 8
DISCO_3
 10
0
 20
0
 30
0
 70
128
 71
116
 72
117
 73
120
 74
119
 0
VERTEX
 8
DISCO_3
 10
0
 20
0
 30
0
 70
128
 71
118
 72
119
 73
122
 74
121
 0
VERTEX
 8
DISCO_3
 10
0
 20
0
 30
0
 70
128
 71
119
 72
120
 73
123
 74
122
 0
VERTEX
 8
DISCO_3
 10
0
 20
0
 30
0
 70
128
 71
121
 72
122
 73
125
 74
124
 0
VERTEX
 8
DISCO_3
 10
0
 20
0
 30
0
 70
128
 71
122
 72
123
 73
126
 74
125
 0
VERTEX
 8
DISCO_3
 10
0
 20
0
 30
0
 70
128
 71
124
 72
125
 73
128
 74
127
 0
VERTEX
 8
DISCO_3
 10
0
 20
0
 30
0
 70
128
 71
125
 72
126
 73
129
 74
128
 0
VERTEX
 8
DISCO_3
 10
0
 20
0
 30
0
 70
128
 71
127
 72
128
 73
131
 74
130
 0
VERTEX
 8
DISCO_3
 10
0
 20
0
 30
0
 70
128
 71
128
 72
129
 73
132
 74
131
 0
VERTEX
 8
DISCO_3
 10
0
 20
0
 30
0
 70
128
 71
130
 72
131
 73
134
 74
133
 0
VERTEX
 8
DISCO_3
 10
0
 20
0
 30
0
 70
128
 71
131
 72
132
 73
135
 74
134
 0
VERTEX
 8
DISCO_3
 10
0
 20
0
 30
0
 70
128
 71
133
 72
134
 73
137
 74
136
 0
VERTEX
 8
DISCO_3
 10
0
 20
0
 30
0
 70
128
 71
134
 72
135
 73
138
 74
137
 0
VERTEX
 8
DISCO_3
 10
0
 20
0
 30
0
 70
128
 71
136
 72
137
 73
140
 74
139
 0
VERTEX
 8
DISCO_3
 10
0
 20
0
 30
0
 70
128
 71
137
 72
138
 73
141
 74
140
 0
VERTEX
 8
DISCO_3
 10
0
 20
0
 30
0
 70
128
 71
139
 72
140
 73
143
 74
142
 0
VERTEX
 8
DISCO_3
 10
0
 20
0
 30
0
 70
128
 71
140
 72
141
 73
144
 74
143
 0
VERTEX
 8
DISCO_3
 10
0
 20
0
 30
0
 70
128
 71
142
 72
143
 73
146
 74
145
 0
VERTEX
 8
DISCO_3
 10
0
 20
0
 30
0
 70
128
 71
143
 72
144
 73
147
 74
146
 0
VERTEX
 8
DISCO_3
 10
0
 20
0
 30
0
 70
128
 71
145
 72
146
 73
149
 74
148
 0
VERTEX
 8
DISCO_3
 10
0
 20
0
 30
0
 70
128
 71
146
 72
147
 73
150
 74
149
 0
VERTEX
 8
DISCO_3
 10
0
 20
0
 30
0
 70
128
 71
148
 72
149
 73
152
 74
151
 0
VERTEX
 8
DISCO_3
 10
0
 20
0
 30
0
 70
128
 71
149
 72
150
 73
153
 74
152
 0
VERTEX
 8
DISCO_3
 10
0
 20
0
 30
0
 70
128
 71
151
 72
152
 73
155
 74
154
 0
VERTEX
 8
DISCO_3
 10
0
 20
0
 30
0
 70
128
 71
152
 72
153
 73
156
 74
155
 0
VERTEX
 8
DISCO_3
 10
0
 20
0
 30
0
 70
128
 71
154
 72
155
 73
158
 74
157
 0
VERTEX
 8
DISCO_3
 10
0
 20
0
 30
0
 70
128
 71
155
 72
156
 73
159
 74
158
 0
VERTEX
 8
DISCO_3
 10
0
 20
0
 30
0
 70
128
 71
157
 72
158
 73
161
 74
160
 0
VERTEX
 8
DISCO_3
 10
0
 20
0
 30
0
 70
128
 71
158
 72
159
 73
162
 74
161
 0
VERTEX
 8
DISCO_3
 10
0
 20
0
 30
0
 70
128
 71
160
 72
161
 73
164
 74
163
 0
VERTEX
 8
DISCO_3
 10
0
 20
0
 30
0
 70
128
 71
161
 72
162
 73
165
 74
164
 0
VERTEX
 8
DISCO_3
 10
0
 20
0
 30
0
 70
128
 71
163
 72
164
 73
167
 74
166
 0
VERTEX
 8
DISCO_3
 10
0
 20
0
 30
0
 70
128
 71
164
 72
165
 73
168
 74
167
 0
VERTEX
 8
DISCO_3
 10
0
 20
0
 30
0
 70
128
 71
166
 72
167
 73
170
 74
169
 0
VERTEX
 8
DISCO_3
 10
0
 20
0
 30
0
 70
128
 71
167
 72
168
 73
171
 74
170
 0
VERTEX
 8
DISCO_3
 10
0
 20
0
 30
0
 70
128
 71
169
 72
170
 73
173
 74
172
 0
VERTEX
 8
DISCO_3
 10
0
 20
0
 30
0
 70
128
 71
170
 72
171
 73
174
 74
173
 0
VERTEX
 8
DISCO_3
 10
0
 20
0
 30
0
 70
128
 71
172
 72
173
 73
176
 74
175
 0
VERTEX
 8
DISCO_3
 10
0
 20
0
 30
0
 70
128
 71
173
 72
174
 73
177
 74
176
 0
VERTEX
 8
DISCO_3
 10
0
 20
0
 30
0
 70
128
 71
175
 72
176
 73
179
 74
178
 0
VERTEX
 8
DISCO_3
 10
0
 20
0
 30
0
 70
128
 71
176
 72
177
 73
180
 74
179
 0
VERTEX
 8
DISCO_3
 10
0
 20
0
 30
0
 70
128
 71
178
 72
179
 73
182
 74
181
 0
VERTEX
 8
DISCO_3
 10
0
 20
0
 30
0
 70
128
 71
179
 72
180
 73
183
 74
182
 0
VERTEX
 8
DISCO_3
 10
0
 20
0
 30
0
 70
128
 71
181
 72
182
 73
185
 74
184
 0
VERTEX
 8
DISCO_3
 10
0
 20
0
 30
0
 70
128
 71
182
 72
183
 73
186
 74
185
 0
VERTEX
 8
DISCO_3
 10
0
 20
0
 30
0
 70
128
 71
184
 72
185
 73
188
 74
187
 0
VERTEX
 8
DISCO_3
 10
0
 20
0
 30
0
 70
128
 71
185
 72
186
 73
189
 74
188
 0
VERTEX
 8
DISCO_3
 10
0
 20
0
 30
0
 70
128
 71
187
 72
188
 73
191
 74
190
 0
VERTEX
 8
DISCO_3
 10
0
 20
0
 30
0
 70
128
 71
188
 72
189
 73
192
 74
191
 0
VERTEX
 8
DISCO_3
 10
0
 20
0
 30
0
 70
128
 71
190
 72
191
 73
194
 74
193
 0
VERTEX
 8
DISCO_3
 10
0
 20
0
 30
0
 70
128
 71
191
 72
192
 73
195
 74
194
 0
VERTEX
 8
DISCO_3
 10
0
 20
0
 30
0
 70
128
 71
193
 72
194
 73
197
 74
196
 0
VERTEX
 8
DISCO_3
 10
0
 20
0
 30
0
 70
128
 71
194
 72
195
 73
198
 74
197
 0
VERTEX
 8
DISCO_3
 10
0
 20
0
 30
0
 70
128
 71
196
 72
197
 73
200
 74
199
 0
VERTEX
 8
DISCO_3
 10
0
 20
0
 30
0
 70
128
 71
197
 72
198
 73
201
 74
200
 0
VERTEX
 8
DISCO_3
 10
0
 20
0
 30
0
 70
128
 71
199
 72
200
 73
203
 74
202
 0
VERTEX
 8
DISCO_3
 10
0
 20
0
 30
0
 70
128
 71
200
 72
201
 73
204
 74
203
 0
VERTEX
 8
DISCO_3
 10
0
 20
0
 30
0
 70
128
 71
202
 72
203
 73
206
 74
205
 0
VERTEX
 8
DISCO_3
 10
0
 20
0
 30
0
 70
128
 71
203
 72
204
 73
207
 74
206
 0
VERTEX
 8
DISCO_3
 10
0
 20
0
 30
0
 70
128
 71
205
 72
206
 73
209
 74
208
 0
VERTEX
 8
DISCO_3
 10
0
 20
0
 30
0
 70
128
 71
206
 72
207
 73
210
 74
209
 0
VERTEX
 8
DISCO_3
 10
0
 20
0
 30
0
 70
128
 71
208
 72
209
 73
212
 74
211
 0
VERTEX
 8
DISCO_3
 10
0
 20
0
 30
0
 70
128
 71
209
 72
210
 73
213
 74
212
 0
VERTEX
 8
DISCO_3
 10
0
 20
0
 30
0
 70
128
 71
211
 72
212
 73
215
 74
214
 0
VERTEX
 8
DISCO_3
 10
0
 20
0
 30
0
 70
128
 71
212
 72
213
 73
216
 74
215
 0
VERTEX
 8
DISCO_3
 10
0
 20
0
 30
0
 70
128
 71
214
 72
215
 73
218
 74
217
 0
VERTEX
 8
DISCO_3
 10
0
 20
0
 30
0
 70
128
 71
215
 72
216
 73
219
 74
218
 0
VERTEX
 8
DISCO_3
 10
0
 20
0
 30
0
 70
128
 71
217
 72
218
 73
221
 74
220
 0
VERTEX
 8
DISCO_3
 10
0
 20
0
 30
0
 70
128
 71
218
 72
219
 73
222
 74
221
 0
VERTEX
 8
DISCO_3
 10
0
 20
0
 30
0
 70
128
 71
220
 72
221
 73
224
 74
223
 0
VERTEX
 8
DISCO_3
 10
0
 20
0
 30
0
 70
128
 71
221
 72
222
 73
225
 74
224
 0
VERTEX
 8
DISCO_3
 10
0
 20
0
 30
0
 70
128
 71
223
 72
224
 73
227
 74
226
 0
VERTEX
 8
DISCO_3
 10
0
 20
0
 30
0
 70
128
 71
224
 72
225
 73
228
 74
227
 0
VERTEX
 8
DISCO_3
 10
0
 20
0
 30
0
 70
128
 71
226
 72
227
 73
230
 74
229
 0
VERTEX
 8
DISCO_3
 10
0
 20
0
 30
0
 70
128
 71
227
 72
228
 73
231
 74
230
 0
VERTEX
 8
DISCO_3
 10
0
 20
0
 30
0
 70
128
 71
229
 72
230
 73
233
 74
232
 0
VERTEX
 8
DISCO_3
 10
0
 20
0
 30
0
 70
128
 71
230
 72
231
 73
234
 74
233
 0
VERTEX
 8
DISCO_3
 10
0
 20
0
 30
0
 70
128
 71
232
 72
233
 73
236
 74
235
 0
VERTEX
 8
DISCO_3
 10
0
 20
0
 30
0
 70
128
 71
233
 72
234
 73
237
 74
236
 0
VERTEX
 8
DISCO_3
 10
0
 20
0
 30
0
 70
128
 71
235
 72
236
 73
239
 74
238
 0
VERTEX
 8
DISCO_3
 10
0
 20
0
 30
0
 70
128
 71
236
 72
237
 73
240
 74
239
 0
VERTEX
 8
DISCO_3
 10
0
 20
0
 30
0
 70
128
 71
238
 72
239
 73
242
 74
241
 0
VERTEX
 8
DISCO_3
 10
0
 20
0
 30
0
 70
128
 71
239
 72
240
 73
243
 74
242
 0
VERTEX
 8
DISCO_3
 10
0
 20
0
 30
0
 70
128
 71
241
 72
242
 73
245
 74
244
 0
VERTEX
 8
DISCO_3
 10
0
 20
0
 30
0
 70
128
 71
242
 72
243
 73
246
 74
245
 0
VERTEX
 8
DISCO_3
 10
0
 20
0
 30
0
 70
128
 71
244
 72
245
 73
248
 74
247
 0
VERTEX
 8
DISCO_3
 10
0
 20
0
 30
0
 70
128
 71
245
 72
246
 73
249
 74
248
 0
VERTEX
 8
DISCO_3
 10
0
 20
0
 30
0
 70
128
 71
247
 72
248
 73
251
 74
250
 0
VERTEX
 8
DISCO_3
 10
0
 20
0
 30
0
 70
128
 71
248
 72
249
 73
252
 74
251
 0
VERTEX
 8
DISCO_3
 10
0
 20
0
 30
0
 70
128
 71
250
 72
251
 73
254
 74
253
 0
VERTEX
 8
DISCO_3
 10
0
 20
0
 30
0
 70
128
 71
251
 72
252
 73
255
 74
254
 0
VERTEX
 8
DISCO_3
 10
0
 20
0
 30
0
 70
128
 71
253
 72
254
 73
257
 74
256
 0
VERTEX
 8
DISCO_3
 10
0
 20
0
 30
0
 70
128
 71
254
 72
255
 73
258
 74
257
 0
VERTEX
 8
DISCO_3
 10
0
 20
0
 30
0
 70
128
 71
256
 72
257
 73
260
 74
259
 0
VERTEX
 8
DISCO_3
 10
0
 20
0
 30
0
 70
128
 71
257
 72
258
 73
261
 74
260
 0
VERTEX
 8
DISCO_3
 10
0
 20
0
 30
0
 70
128
 71
259
 72
260
 73
263
 74
262
 0
VERTEX
 8
DISCO_3
 10
0
 20
0
 30
0
 70
128
 71
260
 72
261
 73
264
 74
263
 0
VERTEX
 8
DISCO_3
 10
0
 20
0
 30
0
 70
128
 71
262
 72
263
 73
266
 74
265
 0
VERTEX
 8
DISCO_3
 10
0
 20
0
 30
0
 70
128
 71
263
 72
264
 73
267
 74
266
 0
VERTEX
 8
DISCO_3
 10
0
 20
0
 30
0
 70
128
 71
265
 72
266
 73
269
 74
268
 0
VERTEX
 8
DISCO_3
 10
0
 20
0
 30
0
 70
128
 71
266
 72
267
 73
270
 74
269
 0
VERTEX
 8
DISCO_3
 10
0
 20
0
 30
0
 70
128
 71
268
 72
269
 73
272
 74
271
 0
VERTEX
 8
DISCO_3
 10
0
 20
0
 30
0
 70
128
 71
269
 72
270
 73
273
 74
272
 0
VERTEX
 8
DISCO_3
 10
0
 20
0
 30
0
 70
128
 71
271
 72
272
 73
275
 74
274
 0
VERTEX
 8
DISCO_3
 10
0
 20
0
 30
0
 70
128
 71
272
 72
273
 73
276
 74
275
 0
VERTEX
 8
DISCO_3
 10
0
 20
0
 30
0
 70
128
 71
274
 72
275
 73
278
 74
277
 0
VERTEX
 8
DISCO_3
 10
0
 20
0
 30
0
 70
128
 71
275
 72
276
 73
279
 74
278
 0
VERTEX
 8
DISCO_3
 10
0
 20
0
 30
0
 70
128
 71
277
 72
278
 73
281
 74
280
 0
VERTEX
 8
DISCO_3
 10
0
 20
0
 30
0
 70
128
 71
278
 72
279
 73
282
 74
281
 0
VERTEX
 8
DISCO_3
 10
0
 20
0
 30
0
 70
128
 71
280
 72
281
 73
284
 74
283
 0
VERTEX
 8
DISCO_3
 10
0
 20
0
 30
0
 70
128
 71
281
 72
282
 73
285
 74
284
 0
VERTEX
 8
DISCO_3
 10
0
 20
0
 30
0
 70
128
 71
283
 72
284
 73
287
 74
286
 0
VERTEX
 8
DISCO_3
 10
0
 20
0
 30
0
 70
128
 71
284
 72
285
 73
288
 74
287
 0
VERTEX
 8
DISCO_3
 10
0
 20
0
 30
0
 70
128
 71
286
 72
287
 73
2
 74
1
 0
VERTEX
 8
DISCO_3
 10
0
 20
0
 30
0
 70
128
 71
287
 72
288
 73
3
 74
2
 0
SEQEND
 0
POLYLINE
 8
DISCO_2
 66
1
 10
0.0
 20
0.0
 30
0.0
 70
64
 71
288
 72
192
 0
VERTEX
 8
DISCO_2
 10
-6.8377
 20
-9.5694
 30
0.4501
 70
192
 0
VERTEX
 8
DISCO_2
 10
-6.8876
 20
-9.5694
 30
0.4501
 70
192
 0
VERTEX
 8
DISCO_2
 10
-6.9376
 20
-9.5694
 30
0.4501
 70
192
 0
VERTEX
 8
DISCO_2
 10
-6.8507
 20
-9.1709
 30
0.4501
 70
192
 0
VERTEX
 8
DISCO_2
 10
-6.9006
 20
-9.1742
 30
0.4501
 70
192
 0
VERTEX
 8
DISCO_2
 10
-6.9505
 20
-9.1774
 30
0.4501
 70
192
 0
VERTEX
 8
DISCO_2
 10
-6.8898
 20
-8.7741
 30
0.4501
 70
192
 0
VERTEX
 8
DISCO_2
 10
-6.9393
 20
-8.7806
 30
0.4501
 70
192
 0
VERTEX
 8
DISCO_2
 10
-6.9889
 20
-8.7871
 30
0.4501
 70
192
 0
VERTEX
 8
DISCO_2
 10
-6.9547
 20
-8.3807
 30
0.4501
 70
192
 0
VERTEX
 8
DISCO_2
 10
-7.0038
 20
-8.3905
 30
0.4501
 70
192
 0
VERTEX
 8
DISCO_2
 10
-7.0528
 20
-8.4002
 30
0.4501
 70
192
 0
VERTEX
 8
DISCO_2
 10
-7.0453
 20
-7.9924
 30
0.4501
 70
192
 0
VERTEX
 8
DISCO_2
 10
-7.0936
 20
-8.0053
 30
0.4501
 70
192
 0
VERTEX
 8
DISCO_2
 10
-7.1418
 20
-8.0183
 30
0.4501
 70
192
 0
VERTEX
 8
DISCO_2
 10
-7.161
 20
-7.6109
 30
0.4501
 70
192
 0
VERTEX
 8
DISCO_2
 10
-7.2083
 20
-7.6269
 30
0.4501
 70
192
 0
VERTEX
 8
DISCO_2
 10
-7.2557
 20
-7.643
 30
0.4501
 70
192
 0
VERTEX
 8
DISCO_2
 10
-7.3015
 20
-7.2377
 30
0.4501
 70
192
 0
VERTEX
 8
DISCO_2
 10
-7.3476
 20
-7.2568
 30
0.4501
 70
192
 0
VERTEX
 8
DISCO_2
 10
-7.3938
 20
-7.276
 30
0.4501
 70
192
 0
VERTEX
 8
DISCO_2
 10
-7.466
 20
-6.8745
 30
0.4501
 70
192
 0
VERTEX
 8
DISCO_2
 10
-7.5108
 20
-6.8966
 30
0.4501
 70
192
 0
VERTEX
 8
DISCO_2
 10
-7.5557
 20
-6.9188
 30
0.4501
 70
192
 0
VERTEX
 8
DISCO_2
 10
-7.654
 20
-6.5229
 30
0.4501
 70
192
 0
VERTEX
 8
DISCO_2
 10
-7.6973
 20
-6.5479
 30
0.4501
 70
192
 0
VERTEX
 8
DISCO_2
 10
-7.7405
 20
-6.5729
 30
0.4501
 70
192
 0
VERTEX
 8
DISCO_2
 10
-7.8645
 20
-6.1843
 30
0.4501
 70
192
 0
VERTEX
 8
DISCO_2
 10
-7.9061
 20
-6.2121
 30
0.4501
 70
192
 0
VERTEX
 8
DISCO_2
 10
-7.9476
 20
-6.2399
 30
0.4501
 70
192
 0
VERTEX
 8
DISCO_2
 10
-8.0968
 20
-5.8602
 30
0.4501
 70
192
 0
VERTEX
 8
DISCO_2
 10
-8.1364
 20
-5.8907
 30
0.4501
 70
192
 0
VERTEX
 8
DISCO_2
 10
-8.1761
 20
-5.9211
 30
0.4501
 70
192
 0
VERTEX
 8
DISCO_2
 10
-8.3497
 20
-5.552
 30
0.4501
 70
192
 0
VERTEX
 8
DISCO_2
 10
-8.3873
 20
-5.585
 30
0.4501
 70
192
 0
VERTEX
 8
DISCO_2
 10
-8.4249
 20
-5.6179
 30
0.4501
 70
192
 0
VERTEX
 8
DISCO_2
 10
-8.6223
 20
-5.261
 30
0.4501
 70
192
 0
VERTEX
 8
DISCO_2
 10
-8.6576
 20
-5.2964
 30
0.4501
 70
192
 0
VERTEX
 8
DISCO_2
 10
-8.6929
 20
-5.3317
 30
0.4501
 70
192
 0
VERTEX
 8
DISCO_2
 10
-8.9133
 20
-4.9885
 30
0.4501
 70
192
 0
VERTEX
 8
DISCO_2
 10
-8.9462
 20
-5.026
 30
0.4501
 70
192
 0
VERTEX
 8
DISCO_2
 10
-8.9792
 20
-5.0636
 30
0.4501
 70
192
 0
VERTEX
 8
DISCO_2
 10
-9.2215
 20
-4.7355
 30
0.4501
 70
192
 0
VERTEX
 8
DISCO_2
 10
-9.2519
 20
-4.7752
 30
0.4501
 70
192
 0
VERTEX
 8
DISCO_2
 10
-9.2823
 20
-4.8148
 30
0.4501
 70
192
 0
VERTEX
 8
DISCO_2
 10
-9.5456
 20
-4.5033
 30
0.4501
 70
192
 0
VERTEX
 8
DISCO_2
 10
-9.5733
 20
-4.5448
 30
0.4501
 70
192
 0
VERTEX
 8
DISCO_2
 10
-9.6011
 20
-4.5864
 30
0.4501
 70
192
 0
VERTEX
 8
DISCO_2
 10
-9.8841
 20
-4.2927
 30
0.4501
 70
192
 0
VERTEX
 8
DISCO_2
 10
-9.9091
 20
-4.336
 30
0.4501
 70
192
 0
VERTEX
 8
DISCO_2
 10
-9.9341
 20
-4.3793
 30
0.4501
 70
192
 0
VERTEX
 8
DISCO_2
 10
-10.2358
 20
-4.1048
 30
0.4501
 70
192
 0
VERTEX
 8
DISCO_2
 10
-10.2579
 20
-4.1496
 30
0.4501
 70
192
 0
VERTEX
 8
DISCO_2
 10
-10.28
 20
-4.1944
 30
0.4501
 70
192
 0
VERTEX
 8
DISCO_2
 10
-10.599
 20
-3.9402
 30
0.4501
 70
192
 0
VERTEX
 8
DISCO_2
 10
-10.6181
 20
-3.9864
 30
0.4501
 70
192
 0
VERTEX
 8
DISCO_2
 10
-10.6372
 20
-4.0326
 30
0.4501
 70
192
 0
VERTEX
 8
DISCO_2
 10
-10.9721
 20
-3.7998
 30
0.4501
 70
192
 0
VERTEX
 8
DISCO_2
 10
-10.9882
 20
-3.8471
 30
0.4501
 70
192
 0
VERTEX
 8
DISCO_2
 10
-11.0042
 20
-3.8944
 30
0.4501
 70
192
 0
VERTEX
 8
DISCO_2
 10
-11.3537
 20
-3.684
 30
0.4501
 70
192
 0
VERTEX
 8
DISCO_2
 10
-11.3666
 20
-3.7323
 30
0.4501
 70
192
 0
VERTEX
 8
DISCO_2
 10
-11.3795
 20
-3.7806
 30
0.4501
 70
192
 0
VERTEX
 8
DISCO_2
 10
-11.742
 20
-3.5935
 30
0.4501
 70
192
 0
VERTEX
 8
DISCO_2
 10
-11.7517
 20
-3.6425
 30
0.4501
 70
192
 0
VERTEX
 8
DISCO_2
 10
-11.7615
 20
-3.6915
 30
0.4501
 70
192
 0
VERTEX
 8
DISCO_2
 10
-12.1353
 20
-3.5285
 30
0.4501
 70
192
 0
VERTEX
 8
DISCO_2
 10
-12.1419
 20
-3.5781
 30
0.4501
 70
192
 0
VERTEX
 8
DISCO_2
 10
-12.1484
 20
-3.6277
 30
0.4501
 70
192
 0
VERTEX
 8
DISCO_2
 10
-12.5321
 20
-3.4895
 30
0.4501
 70
192
 0
VERTEX
 8
DISCO_2
 10
-12.5354
 20
-3.5393
 30
0.4501
 70
192
 0
VERTEX
 8
DISCO_2
 10
-12.5387
 20
-3.5892
 30
0.4501
 70
192
 0
VERTEX
 8
DISCO_2
 10
-12.9306
 20
-3.4764
 30
0.4501
 70
192
 0
VERTEX
 8
DISCO_2
 10
-12.9306
 20
-3.5264
 30
0.4501
 70
192
 0
VERTEX
 8
DISCO_2
 10
-12.9306
 20
-3.5764
 30
0.4501
 70
192
 0
VERTEX
 8
DISCO_2
 10
-13.3291
 20
-3.4895
 30
0.4501
 70
192
 0
VERTEX
 8
DISCO_2
 10
-13.3259
 20
-3.5393
 30
0.4501
 70
192
 0
VERTEX
 8
DISCO_2
 10
-13.3226
 20
-3.5892
 30
0.4501
 70
192
 0
VERTEX
 8
DISCO_2
 10
-13.7259
 20
-3.5285
 30
0.4501
 70
192
 0
VERTEX
 8
DISCO_2
 10
-13.7194
 20
-3.5781
 30
0.4501
 70
192
 0
VERTEX
 8
DISCO_2
 10
-13.7129
 20
-3.6277
 30
0.4501
 70
192
 0
VERTEX
 8
DISCO_2
 10
-14.1193
 20
-3.5935
 30
0.4501
 70
192
 0
VERTEX
 8
DISCO_2
 10
-14.1096
 20
-3.6425
 30
0.4501
 70
192
 0
VERTEX
 8
DISCO_2
 10
-14.0998
 20
-3.6915
 30
0.4501
 70
192
 0
VERTEX
 8
DISCO_2
 10
-14.5076
 20
-3.684
 30
0.4501
 70
192
 0
VERTEX
 8
DISCO_2
 10
-14.4947
 20
-3.7323
 30
0.4501
 70
192
 0
VERTEX
 8
DISCO_2
 10
-14.4817
 20
-3.7806
 30
0.4501
 70
192
 0
VERTEX
 8
DISCO_2
 10
-14.8892
 20
-3.7998
 30
0.4501
 70
192
 0
VERTEX
 8
DISCO_2
 10
-14.8731
 20
-3.8471
 30
0.4501
 70
192
 0
VERTEX
 8
DISCO_2
 10
-14.857
 20
-3.8944
 30
0.4501
 70
192
 0
VERTEX
 8
DISCO_2
 10
-15.2623
 20
-3.9402
 30
0.4501
 70
192
 0
VERTEX
 8
DISCO_2
 10
-15.2432
 20
-3.9864
 30
0.4501
 70
192
 0
VERTEX
 8
DISCO_2
 10
-15.2241
 20
-4.0326
 30
0.4501
 70
192
 0
VERTEX
 8
DISCO_2
 10
-15.6255
 20
-4.1048
 30
0.4501
 70
192
 0
VERTEX
 8
DISCO_2
 10
-15.6034
 20
-4.1496
 30
0.4501
 70
192
 0
VERTEX
 8
DISCO_2
 10
-15.5813
 20
-4.1944
 30
0.4501
 70
192
 0
VERTEX
 8
DISCO_2
 10
-15.9771
 20
-4.2927
 30
0.4501
 70
192
 0
VERTEX
 8
DISCO_2
 10
-15.9521
 20
-4.336
 30
0.4501
 70
192
 0
VERTEX
 8
DISCO_2
 10
-15.9271
 20
-4.3793
 30
0.4501
 70
192
 0
VERTEX
 8
DISCO_2
 10
-16.3157
 20
-4.5033
 30
0.4501
 70
192
 0
VERTEX
 8
DISCO_2
 10
-16.2879
 20
-4.5448
 30
0.4501
 70
192
 0
VERTEX
 8
DISCO_2
 10
-16.2602
 20
-4.5864
 30
0.4501
 70
192
 0
VERTEX
 8
DISCO_2
 10
-16.6398
 20
-4.7355
 30
0.4501
 70
192
 0
VERTEX
 8
DISCO_2
 10
-16.6094
 20
-4.7752
 30
0.4501
 70
192
 0
VERTEX
 8
DISCO_2
 10
-16.5789
 20
-4.8148
 30
0.4501
 70
192
 0
VERTEX
 8
DISCO_2
 10
-16.948
 20
-4.9885
 30
0.4501
 70
192
 0
VERTEX
 8
DISCO_2
 10
-16.9151
 20
-5.026
 30
0.4501
 70
192
 0
VERTEX
 8
DISCO_2
 10
-16.8821
 20
-5.0636
 30
0.4501
 70
192
 0
VERTEX
 8
DISCO_2
 10
-17.239
 20
-5.261
 30
0.4501
 70
192
 0
VERTEX
 8
DISCO_2
 10
-17.2037
 20
-5.2964
 30
0.4501
 70
192
 0
VERTEX
 8
DISCO_2
 10
-17.1683
 20
-5.3317
 30
0.4501
 70
192
 0
VERTEX
 8
DISCO_2
 10
-17.5116
 20
-5.552
 30
0.4501
 70
192
 0
VERTEX
 8
DISCO_2
 10
-17.474
 20
-5.585
 30
0.4501
 70
192
 0
VERTEX
 8
DISCO_2
 10
-17.4364
 20
-5.6179
 30
0.4501
 70
192
 0
VERTEX
 8
DISCO_2
 10
-17.7645
 20
-5.8602
 30
0.4501
 70
192
 0
VERTEX
 8
DISCO_2
 10
-17.7249
 20
-5.8907
 30
0.4501
 70
192
 0
VERTEX
 8
DISCO_2
 10
-17.6852
 20
-5.9211
 30
0.4501
 70
192
 0
VERTEX
 8
DISCO_2
 10
-17.9968
 20
-6.1843
 30
0.4501
 70
192
 0
VERTEX
 8
DISCO_2
 10
-17.9552
 20
-6.2121
 30
0.4501
 70
192
 0
VERTEX
 8
DISCO_2
 10
-17.9136
 20
-6.2399
 30
0.4501
 70
192
 0
VERTEX
 8
DISCO_2
 10
-18.2073
 20
-6.5229
 30
0.4501
 70
192
 0
VERTEX
 8
DISCO_2
 10
-18.164
 20
-6.5479
 30
0.4501
 70
192
 0
VERTEX
 8
DISCO_2
 10
-18.1207
 20
-6.5729
 30
0.4501
 70
192
 0
VERTEX
 8
DISCO_2
 10
-18.3953
 20
-6.8745
 30
0.4501
 70
192
 0
VERTEX
 8
DISCO_2
 10
-18.3504
 20
-6.8966
 30
0.4501
 70
192
 0
VERTEX
 8
DISCO_2
 10
-18.3056
 20
-6.9188
 30
0.4501
 70
192
 0
VERTEX
 8
DISCO_2
 10
-18.5598
 20
-7.2377
 30
0.4501
 70
192
 0
VERTEX
 8
DISCO_2
 10
-18.5136
 20
-7.2568
 30
0.4501
 70
192
 0
VERTEX
 8
DISCO_2
 10
-18.4674
 20
-7.276
 30
0.4501
 70
192
 0
VERTEX
 8
DISCO_2
 10
-18.7003
 20
-7.6109
 30
0.4501
 70
192
 0
VERTEX
 8
DISCO_2
 10
-18.6529
 20
-7.6269
 30
0.4501
 70
192
 0
VERTEX
 8
DISCO_2
 10
-18.6056
 20
-7.643
 30
0.4501
 70
192
 0
VERTEX
 8
DISCO_2
 10
-18.816
 20
-7.9924
 30
0.4501
 70
192
 0
VERTEX
 8
DISCO_2
 10
-18.7677
 20
-8.0053
 30
0.4501
 70
192
 0
VERTEX
 8
DISCO_2
 10
-18.7194
 20
-8.0183
 30
0.4501
 70
192
 0
VERTEX
 8
DISCO_2
 10
-18.9065
 20
-8.3807
 30
0.4501
 70
192
 0
VERTEX
 8
DISCO_2
 10
-18.8575
 20
-8.3905
 30
0.4501
 70
192
 0
VERTEX
 8
DISCO_2
 10
-18.8085
 20
-8.4002
 30
0.4501
 70
192
 0
VERTEX
 8
DISCO_2
 10
-18.9715
 20
-8.7741
 30
0.4501
 70
192
 0
VERTEX
 8
DISCO_2
 10
-18.9219
 20
-8.7806
 30
0.4501
 70
192
 0
VERTEX
 8
DISCO_2
 10
-18.8724
 20
-8.7871
 30
0.4501
 70
192
 0
VERTEX
 8
DISCO_2
 10
-19.0106
 20
-9.1709
 30
0.4501
 70
192
 0
VERTEX
 8
DISCO_2
 10
-18.9607
 20
-9.1742
 30
0.4501
 70
192
 0
VERTEX
 8
DISCO_2
 10
-18.9108
 20
-9.1774
 30
0.4501
 70
192
 0
VERTEX
 8
DISCO_2
 10
-19.0236
 20
-9.5694
 30
0.4501
 70
192
 0
VERTEX
 8
DISCO_2
 10
-18.9736
 20
-9.5694
 30
0.4501
 70
192
 0
VERTEX
 8
DISCO_2
 10
-18.9236
 20
-9.5694
 30
0.4501
 70
192
 0
VERTEX
 8
DISCO_2
 10
-19.0106
 20
-9.9679
 30
0.4501
 70
192
 0
VERTEX
 8
DISCO_2
 10
-18.9607
 20
-9.9646
 30
0.4501
 70
192
 0
VERTEX
 8
DISCO_2
 10
-18.9108
 20
-9.9613
 30
0.4501
 70
192
 0
VERTEX
 8
DISCO_2
 10
-18.9715
 20
-10.3647
 30
0.4501
 70
192
 0
VERTEX
 8
DISCO_2
 10
-18.9219
 20
-10.3582
 30
0.4501
 70
192
 0
VERTEX
 8
DISCO_2
 10
-18.8724
 20
-10.3516
 30
0.4501
 70
192
 0
VERTEX
 8
DISCO_2
 10
-18.9065
 20
-10.7581
 30
0.4501
 70
192
 0
VERTEX
 8
DISCO_2
 10
-18.8575
 20
-10.7483
 30
0.4501
 70
192
 0
VERTEX
 8
DISCO_2
 10
-18.8085
 20
-10.7386
 30
0.4501
 70
192
 0
VERTEX
 8
DISCO_2
 10
-18.816
 20
-11.1464
 30
0.4501
 70
192
 0
VERTEX
 8
DISCO_2
 10
-18.7677
 20
-11.1334
 30
0.4501
 70
192
 0
VERTEX
 8
DISCO_2
 10
-18.7194
 20
-11.1205
 30
0.4501
 70
192
 0
VERTEX
 8
DISCO_2
 10
-18.7003
 20
-11.5279
 30
0.4501
 70
192
 0
VERTEX
 8
DISCO_2
 10
-18.6529
 20
-11.5118
 30
0.4501
 70
192
 0
VERTEX
 8
DISCO_2
 10
-18.6056
 20
-11.4958
 30
0.4501
 70
192
 0
VERTEX
 8
DISCO_2
 10
-18.5598
 20
-11.9011
 30
0.4501
 70
192
 0
VERTEX
 8
DISCO_2
 10
-18.5136
 20
-11.8819
 30
0.4501
 70
192
 0
VERTEX
 8
DISCO_2
 10
-18.4674
 20
-11.8628
 30
0.4501
 70
192
 0
VERTEX
 8
DISCO_2
 10
-18.3953
 20
-12.2642
 30
0.4501
 70
192
 0
VERTEX
 8
DISCO_2
 10
-18.3504
 20
-12.2421
 30
0.4501
 70
192
 0
VERTEX
 8
DISCO_2
 10
-18.3056
 20
-12.22
 30
0.4501
 70
192
 0
VERTEX
 8
DISCO_2
 10
-18.2073
 20
-12.6159
 30
0.4501
 70
192
 0
VERTEX
 8
DISCO_2
 10
-18.164
 20
-12.5909
 30
0.4501
 70
192
 0
VERTEX
 8
DISCO_2
 10
-18.1207
 20
-12.5659
 30
0.4501
 70
192
 0
VERTEX
 8
DISCO_2
 10
-17.9968
 20
-12.9545
 30
0.4501
 70
192
 0
VERTEX
 8
DISCO_2
 10
-17.9552
 20
-12.9267
 30
0.4501
 70
192
 0
VERTEX
 8
DISCO_2
 10
-17.9136
 20
-12.8989
 30
0.4501
 70
192
 0
VERTEX
 8
DISCO_2
 10
-17.7645
 20
-13.2786
 30
0.4501
 70
192
 0
VERTEX
 8
DISCO_2
 10
-17.7249
 20
-13.2481
 30
0.4501
 70
192
 0
VERTEX
 8
DISCO_2
 10
-17.6852
 20
-13.2177
 30
0.4501
 70
192
 0
VERTEX
 8
DISCO_2
 10
-17.5116
 20
-13.5868
 30
0.4501
 70
192
 0
VERTEX
 8
DISCO_2
 10
-17.474
 20
-13.5538
 30
0.4501
 70
192
 0
VERTEX
 8
DISCO_2
 10
-17.4364
 20
-13.5208
 30
0.4501
 70
192
 0
VERTEX
 8
DISCO_2
 10
-17.239
 20
-13.8778
 30
0.4501
 70
192
 0
VERTEX
 8
DISCO_2
 10
-17.2037
 20
-13.8424
 30
0.4501
 70
192
 0
VERTEX
 8
DISCO_2
 10
-17.1683
 20
-13.8071
 30
0.4501
 70
192
 0
VERTEX
 8
DISCO_2
 10
-16.948
 20
-14.1503
 30
0.4501
 70
192
 0
VERTEX
 8
DISCO_2
 10
-16.9151
 20
-14.1127
 30
0.4501
 70
192
 0
VERTEX
 8
DISCO_2
 10
-16.8821
 20
-14.0752
 30
0.4501
 70
192
 0
VERTEX
 8
DISCO_2
 10
-16.6398
 20
-14.4033
 30
0.4501
 70
192
 0
VERTEX
 8
DISCO_2
 10
-16.6094
 20
-14.3636
 30
0.4501
 70
192
 0
VERTEX
 8
DISCO_2
 10
-16.5789
 20
-14.324
 30
0.4501
 70
192
 0
VERTEX
 8
DISCO_2
 10
-16.3157
 20
-14.6355
 30
0.4501
 70
192
 0
VERTEX
 8
DISCO_2
 10
-16.2879
 20
-14.5939
 30
0.4501
 70
192
 0
VERTEX
 8
DISCO_2
 10
-16.2602
 20
-14.5524
 30
0.4501
 70
192
 0
VERTEX
 8
DISCO_2
 10
-15.9771
 20
-14.8461
 30
0.4501
 70
192
 0
VERTEX
 8
DISCO_2
 10
-15.9521
 20
-14.8028
 30
0.4501
 70
192
 0
VERTEX
 8
DISCO_2
 10
-15.9271
 20
-14.7595
 30
0.4501
 70
192
 0
VERTEX
 8
DISCO_2
 10
-15.6255
 20
-15.034
 30
0.4501
 70
192
 0
VERTEX
 8
DISCO_2
 10
-15.6034
 20
-14.9892
 30
0.4501
 70
192
 0
VERTEX
 8
DISCO_2
 10
-15.5813
 20
-14.9443
 30
0.4501
 70
192
 0
VERTEX
 8
DISCO_2
 10
-15.2623
 20
-15.1986
 30
0.4501
 70
192
 0
VERTEX
 8
DISCO_2
 10
-15.2432
 20
-15.1524
 30
0.4501
 70
192
 0
VERTEX
 8
DISCO_2
 10
-15.2241
 20
-15.1062
 30
0.4501
 70
192
 0
VERTEX
 8
DISCO_2
 10
-14.8892
 20
-15.339
 30
0.4501
 70
192
 0
VERTEX
 8
DISCO_2
 10
-14.8731
 20
-15.2917
 30
0.4501
 70
192
 0
VERTEX
 8
DISCO_2
 10
-14.857
 20
-15.2443
 30
0.4501
 70
192
 0
VERTEX
 8
DISCO_2
 10
-14.5076
 20
-15.4547
 30
0.4501
 70
192
 0
VERTEX
 8
DISCO_2
 10
-14.4947
 20
-15.4065
 30
0.4501
 70
192
 0
VERTEX
 8
DISCO_2
 10
-14.4817
 20
-15.3582
 30
0.4501
 70
192
 0
VERTEX
 8
DISCO_2
 10
-14.1193
 20
-15.5453
 30
0.4501
 70
192
 0
VERTEX
 8
DISCO_2
 10
-14.1096
 20
-15.4963
 30
0.4501
 70
192
 0
VERTEX
 8
DISCO_2
 10
-14.0998
 20
-15.4472
 30
0.4501
 70
192
 0
VERTEX
 8
DISCO_2
 10
-13.7259
 20
-15.6102
 30
0.4501
 70
192
 0
VERTEX
 8
DISCO_2
 10
-13.7194
 20
-15.5607
 30
0.4501
 70
192
 0
VERTEX
 8
DISCO_2
 10
-13.7129
 20
-15.5111
 30
0.4501
 70
192
 0
VERTEX
 8
DISCO_2
 10
-13.3291
 20
-15.6493
 30
0.4501
 70
192
 0
VERTEX
 8
DISCO_2
 10
-13.3259
 20
-15.5994
 30
0.4501
 70
192
 0
VERTEX
 8
DISCO_2
 10
-13.3226
 20
-15.5496
 30
0.4501
 70
192
 0
VERTEX
 8
DISCO_2
 10
-12.9306
 20
-15.6624
 30
0.4501
 70
192
 0
VERTEX
 8
DISCO_2
 10
-12.9306
 20
-15.6124
 30
0.4501
 70
192
 0
VERTEX
 8
DISCO_2
 10
-12.9306
 20
-15.5624
 30
0.4501
 70
192
 0
VERTEX
 8
DISCO_2
 10
-12.5321
 20
-15.6493
 30
0.4501
 70
192
 0
VERTEX
 8
DISCO_2
 10
-12.5354
 20
-15.5994
 30
0.4501
 70
192
 0
VERTEX
 8
DISCO_2
 10
-12.5387
 20
-15.5496
 30
0.4501
 70
192
 0
VERTEX
 8
DISCO_2
 10
-12.1353
 20
-15.6102
 30
0.4501
 70
192
 0
VERTEX
 8
DISCO_2
 10
-12.1419
 20
-15.5607
 30
0.4501
 70
192
 0
VERTEX
 8
DISCO_2
 10
-12.1484
 20
-15.5111
 30
0.4501
 70
192
 0
VERTEX
 8
DISCO_2
 10
-11.742
 20
-15.5453
 30
0.4501
 70
192
 0
VERTEX
 8
DISCO_2
 10
-11.7517
 20
-15.4963
 30
0.4501
 70
192
 0
VERTEX
 8
DISCO_2
 10
-11.7615
 20
-15.4472
 30
0.4501
 70
192
 0
VERTEX
 8
DISCO_2
 10
-11.3537
 20
-15.4547
 30
0.4501
 70
192
 0
VERTEX
 8
DISCO_2
 10
-11.3666
 20
-15.4065
 30
0.4501
 70
192
 0
VERTEX
 8
DISCO_2
 10
-11.3795
 20
-15.3582
 30
0.4501
 70
192
 0
VERTEX
 8
DISCO_2
 10
-10.9721
 20
-15.339
 30
0.4501
 70
192
 0
VERTEX
 8
DISCO_2
 10
-10.9882
 20
-15.2917
 30
0.4501
 70
192
 0
VERTEX
 8
DISCO_2
 10
-11.0042
 20
-15.2443
 30
0.4501
 70
192
 0
VERTEX
 8
DISCO_2
 10
-10.599
 20
-15.1986
 30
0.4501
 70
192
 0
VERTEX
 8
DISCO_2
 10
-10.6181
 20
-15.1524
 30
0.4501
 70
192
 0
VERTEX
 8
DISCO_2
 10
-10.6372
 20
-15.1062
 30
0.4501
 70
192
 0
VERTEX
 8
DISCO_2
 10
-10.2358
 20
-15.034
 30
0.4501
 70
192
 0
VERTEX
 8
DISCO_2
 10
-10.2579
 20
-14.9892
 30
0.4501
 70
192
 0
VERTEX
 8
DISCO_2
 10
-10.28
 20
-14.9443
 30
0.4501
 70
192
 0
VERTEX
 8
DISCO_2
 10
-9.8841
 20
-14.8461
 30
0.4501
 70
192
 0
VERTEX
 8
DISCO_2
 10
-9.9091
 20
-14.8028
 30
0.4501
 70
192
 0
VERTEX
 8
DISCO_2
 10
-9.9341
 20
-14.7595
 30
0.4501
 70
192
 0
VERTEX
 8
DISCO_2
 10
-9.5456
 20
-14.6355
 30
0.4501
 70
192
 0
VERTEX
 8
DISCO_2
 10
-9.5733
 20
-14.5939
 30
0.4501
 70
192
 0
VERTEX
 8
DISCO_2
 10
-9.6011
 20
-14.5524
 30
0.4501
 70
192
 0
VERTEX
 8
DISCO_2
 10
-9.2215
 20
-14.4033
 30
0.4501
 70
192
 0
VERTEX
 8
DISCO_2
 10
-9.2519
 20
-14.3636
 30
0.4501
 70
192
 0
VERTEX
 8
DISCO_2
 10
-9.2823
 20
-14.324
 30
0.4501
 70
192
 0
VERTEX
 8
DISCO_2
 10
-8.9133
 20
-14.1503
 30
0.4501
 70
192
 0
VERTEX
 8
DISCO_2
 10
-8.9462
 20
-14.1127
 30
0.4501
 70
192
 0
VERTEX
 8
DISCO_2
 10
-8.9792
 20
-14.0752
 30
0.4501
 70
192
 0
VERTEX
 8
DISCO_2
 10
-8.6223
 20
-13.8778
 30
0.4501
 70
192
 0
VERTEX
 8
DISCO_2
 10
-8.6576
 20
-13.8424
 30
0.4501
 70
192
 0
VERTEX
 8
DISCO_2
 10
-8.6929
 20
-13.8071
 30
0.4501
 70
192
 0
VERTEX
 8
DISCO_2
 10
-8.3497
 20
-13.5868
 30
0.4501
 70
192
 0
VERTEX
 8
DISCO_2
 10
-8.3873
 20
-13.5538
 30
0.4501
 70
192
 0
VERTEX
 8
DISCO_2
 10
-8.4249
 20
-13.5208
 30
0.4501
 70
192
 0
VERTEX
 8
DISCO_2
 10
-8.0968
 20
-13.2786
 30
0.4501
 70
192
 0
VERTEX
 8
DISCO_2
 10
-8.1364
 20
-13.2481
 30
0.4501
 70
192
 0
VERTEX
 8
DISCO_2
 10
-8.1761
 20
-13.2177
 30
0.4501
 70
192
 0
VERTEX
 8
DISCO_2
 10
-7.8645
 20
-12.9545
 30
0.4501
 70
192
 0
VERTEX
 8
DISCO_2
 10
-7.9061
 20
-12.9267
 30
0.4501
 70
192
 0
VERTEX
 8
DISCO_2
 10
-7.9476
 20
-12.8989
 30
0.4501
 70
192
 0
VERTEX
 8
DISCO_2
 10
-7.654
 20
-12.6159
 30
0.4501
 70
192
 0
VERTEX
 8
DISCO_2
 10
-7.6973
 20
-12.5909
 30
0.4501
 70
192
 0
VERTEX
 8
DISCO_2
 10
-7.7405
 20
-12.5659
 30
0.4501
 70
192
 0
VERTEX
 8
DISCO_2
 10
-7.466
 20
-12.2642
 30
0.4501
 70
192
 0
VERTEX
 8
DISCO_2
 10
-7.5108
 20
-12.2421
 30
0.4501
 70
192
 0
VERTEX
 8
DISCO_2
 10
-7.5557
 20
-12.22
 30
0.4501
 70
192
 0
VERTEX
 8
DISCO_2
 10
-7.3015
 20
-11.9011
 30
0.4501
 70
192
 0
VERTEX
 8
DISCO_2
 10
-7.3476
 20
-11.8819
 30
0.4501
 70
192
 0
VERTEX
 8
DISCO_2
 10
-7.3938
 20
-11.8628
 30
0.4501
 70
192
 0
VERTEX
 8
DISCO_2
 10
-7.161
 20
-11.5279
 30
0.4501
 70
192
 0
VERTEX
 8
DISCO_2
 10
-7.2083
 20
-11.5118
 30
0.4501
 70
192
 0
VERTEX
 8
DISCO_2
 10
-7.2557
 20
-11.4958
 30
0.4501
 70
192
 0
VERTEX
 8
DISCO_2
 10
-7.0453
 20
-11.1464
 30
0.4501
 70
192
 0
VERTEX
 8
DISCO_2
 10
-7.0936
 20
-11.1334
 30
0.4501
 70
192
 0
VERTEX
 8
DISCO_2
 10
-7.1418
 20
-11.1205
 30
0.4501
 70
192
 0
VERTEX
 8
DISCO_2
 10
-6.9547
 20
-10.7581
 30
0.4501
 70
192
 0
VERTEX
 8
DISCO_2
 10
-7.0038
 20
-10.7483
 30
0.4501
 70
192
 0
VERTEX
 8
DISCO_2
 10
-7.0528
 20
-10.7386
 30
0.4501
 70
192
 0
VERTEX
 8
DISCO_2
 10
-6.8898
 20
-10.3647
 30
0.4501
 70
192
 0
VERTEX
 8
DISCO_2
 10
-6.9393
 20
-10.3582
 30
0.4501
 70
192
 0
VERTEX
 8
DISCO_2
 10
-6.9889
 20
-10.3516
 30
0.4501
 70
192
 0
VERTEX
 8
DISCO_2
 10
-6.8507
 20
-9.9679
 30
0.4501
 70
192
 0
VERTEX
 8
DISCO_2
 10
-6.9006
 20
-9.9646
 30
0.4501
 70
192
 0
VERTEX
 8
DISCO_2
 10
-6.9505
 20
-9.9613
 30
0.4501
 70
192
 0
VERTEX
 8
DISCO_2
 10
0
 20
0
 30
0
 70
128
 71
1
 72
2
 73
5
 74
4
 0
VERTEX
 8
DISCO_2
 10
0
 20
0
 30
0
 70
128
 71
2
 72
3
 73
6
 74
5
 0
VERTEX
 8
DISCO_2
 10
0
 20
0
 30
0
 70
128
 71
4
 72
5
 73
8
 74
7
 0
VERTEX
 8
DISCO_2
 10
0
 20
0
 30
0
 70
128
 71
5
 72
6
 73
9
 74
8
 0
VERTEX
 8
DISCO_2
 10
0
 20
0
 30
0
 70
128
 71
7
 72
8
 73
11
 74
10
 0
VERTEX
 8
DISCO_2
 10
0
 20
0
 30
0
 70
128
 71
8
 72
9
 73
12
 74
11
 0
VERTEX
 8
DISCO_2
 10
0
 20
0
 30
0
 70
128
 71
10
 72
11
 73
14
 74
13
 0
VERTEX
 8
DISCO_2
 10
0
 20
0
 30
0
 70
128
 71
11
 72
12
 73
15
 74
14
 0
VERTEX
 8
DISCO_2
 10
0
 20
0
 30
0
 70
128
 71
13
 72
14
 73
17
 74
16
 0
VERTEX
 8
DISCO_2
 10
0
 20
0
 30
0
 70
128
 71
14
 72
15
 73
18
 74
17
 0
VERTEX
 8
DISCO_2
 10
0
 20
0
 30
0
 70
128
 71
16
 72
17
 73
20
 74
19
 0
VERTEX
 8
DISCO_2
 10
0
 20
0
 30
0
 70
128
 71
17
 72
18
 73
21
 74
20
 0
VERTEX
 8
DISCO_2
 10
0
 20
0
 30
0
 70
128
 71
19
 72
20
 73
23
 74
22
 0
VERTEX
 8
DISCO_2
 10
0
 20
0
 30
0
 70
128
 71
20
 72
21
 73
24
 74
23
 0
VERTEX
 8
DISCO_2
 10
0
 20
0
 30
0
 70
128
 71
22
 72
23
 73
26
 74
25
 0
VERTEX
 8
DISCO_2
 10
0
 20
0
 30
0
 70
128
 71
23
 72
24
 73
27
 74
26
 0
VERTEX
 8
DISCO_2
 10
0
 20
0
 30
0
 70
128
 71
25
 72
26
 73
29
 74
28
 0
VERTEX
 8
DISCO_2
 10
0
 20
0
 30
0
 70
128
 71
26
 72
27
 73
30
 74
29
 0
VERTEX
 8
DISCO_2
 10
0
 20
0
 30
0
 70
128
 71
28
 72
29
 73
32
 74
31
 0
VERTEX
 8
DISCO_2
 10
0
 20
0
 30
0
 70
128
 71
29
 72
30
 73
33
 74
32
 0
VERTEX
 8
DISCO_2
 10
0
 20
0
 30
0
 70
128
 71
31
 72
32
 73
35
 74
34
 0
VERTEX
 8
DISCO_2
 10
0
 20
0
 30
0
 70
128
 71
32
 72
33
 73
36
 74
35
 0
VERTEX
 8
DISCO_2
 10
0
 20
0
 30
0
 70
128
 71
34
 72
35
 73
38
 74
37
 0
VERTEX
 8
DISCO_2
 10
0
 20
0
 30
0
 70
128
 71
35
 72
36
 73
39
 74
38
 0
VERTEX
 8
DISCO_2
 10
0
 20
0
 30
0
 70
128
 71
37
 72
38
 73
41
 74
40
 0
VERTEX
 8
DISCO_2
 10
0
 20
0
 30
0
 70
128
 71
38
 72
39
 73
42
 74
41
 0
VERTEX
 8
DISCO_2
 10
0
 20
0
 30
0
 70
128
 71
40
 72
41
 73
44
 74
43
 0
VERTEX
 8
DISCO_2
 10
0
 20
0
 30
0
 70
128
 71
41
 72
42
 73
45
 74
44
 0
VERTEX
 8
DISCO_2
 10
0
 20
0
 30
0
 70
128
 71
43
 72
44
 73
47
 74
46
 0
VERTEX
 8
DISCO_2
 10
0
 20
0
 30
0
 70
128
 71
44
 72
45
 73
48
 74
47
 0
VERTEX
 8
DISCO_2
 10
0
 20
0
 30
0
 70
128
 71
46
 72
47
 73
50
 74
49
 0
VERTEX
 8
DISCO_2
 10
0
 20
0
 30
0
 70
128
 71
47
 72
48
 73
51
 74
50
 0
VERTEX
 8
DISCO_2
 10
0
 20
0
 30
0
 70
128
 71
49
 72
50
 73
53
 74
52
 0
VERTEX
 8
DISCO_2
 10
0
 20
0
 30
0
 70
128
 71
50
 72
51
 73
54
 74
53
 0
VERTEX
 8
DISCO_2
 10
0
 20
0
 30
0
 70
128
 71
52
 72
53
 73
56
 74
55
 0
VERTEX
 8
DISCO_2
 10
0
 20
0
 30
0
 70
128
 71
53
 72
54
 73
57
 74
56
 0
VERTEX
 8
DISCO_2
 10
0
 20
0
 30
0
 70
128
 71
55
 72
56
 73
59
 74
58
 0
VERTEX
 8
DISCO_2
 10
0
 20
0
 30
0
 70
128
 71
56
 72
57
 73
60
 74
59
 0
VERTEX
 8
DISCO_2
 10
0
 20
0
 30
0
 70
128
 71
58
 72
59
 73
62
 74
61
 0
VERTEX
 8
DISCO_2
 10
0
 20
0
 30
0
 70
128
 71
59
 72
60
 73
63
 74
62
 0
VERTEX
 8
DISCO_2
 10
0
 20
0
 30
0
 70
128
 71
61
 72
62
 73
65
 74
64
 0
VERTEX
 8
DISCO_2
 10
0
 20
0
 30
0
 70
128
 71
62
 72
63
 73
66
 74
65
 0
VERTEX
 8
DISCO_2
 10
0
 20
0
 30
0
 70
128
 71
64
 72
65
 73
68
 74
67
 0
VERTEX
 8
DISCO_2
 10
0
 20
0
 30
0
 70
128
 71
65
 72
66
 73
69
 74
68
 0
VERTEX
 8
DISCO_2
 10
0
 20
0
 30
0
 70
128
 71
67
 72
68
 73
71
 74
70
 0
VERTEX
 8
DISCO_2
 10
0
 20
0
 30
0
 70
128
 71
68
 72
69
 73
72
 74
71
 0
VERTEX
 8
DISCO_2
 10
0
 20
0
 30
0
 70
128
 71
70
 72
71
 73
74
 74
73
 0
VERTEX
 8
DISCO_2
 10
0
 20
0
 30
0
 70
128
 71
71
 72
72
 73
75
 74
74
 0
VERTEX
 8
DISCO_2
 10
0
 20
0
 30
0
 70
128
 71
73
 72
74
 73
77
 74
76
 0
VERTEX
 8
DISCO_2
 10
0
 20
0
 30
0
 70
128
 71
74
 72
75
 73
78
 74
77
 0
VERTEX
 8
DISCO_2
 10
0
 20
0
 30
0
 70
128
 71
76
 72
77
 73
80
 74
79
 0
VERTEX
 8
DISCO_2
 10
0
 20
0
 30
0
 70
128
 71
77
 72
78
 73
81
 74
80
 0
VERTEX
 8
DISCO_2
 10
0
 20
0
 30
0
 70
128
 71
79
 72
80
 73
83
 74
82
 0
VERTEX
 8
DISCO_2
 10
0
 20
0
 30
0
 70
128
 71
80
 72
81
 73
84
 74
83
 0
VERTEX
 8
DISCO_2
 10
0
 20
0
 30
0
 70
128
 71
82
 72
83
 73
86
 74
85
 0
VERTEX
 8
DISCO_2
 10
0
 20
0
 30
0
 70
128
 71
83
 72
84
 73
87
 74
86
 0
VERTEX
 8
DISCO_2
 10
0
 20
0
 30
0
 70
128
 71
85
 72
86
 73
89
 74
88
 0
VERTEX
 8
DISCO_2
 10
0
 20
0
 30
0
 70
128
 71
86
 72
87
 73
90
 74
89
 0
VERTEX
 8
DISCO_2
 10
0
 20
0
 30
0
 70
128
 71
88
 72
89
 73
92
 74
91
 0
VERTEX
 8
DISCO_2
 10
0
 20
0
 30
0
 70
128
 71
89
 72
90
 73
93
 74
92
 0
VERTEX
 8
DISCO_2
 10
0
 20
0
 30
0
 70
128
 71
91
 72
92
 73
95
 74
94
 0
VERTEX
 8
DISCO_2
 10
0
 20
0
 30
0
 70
128
 71
92
 72
93
 73
96
 74
95
 0
VERTEX
 8
DISCO_2
 10
0
 20
0
 30
0
 70
128
 71
94
 72
95
 73
98
 74
97
 0
VERTEX
 8
DISCO_2
 10
0
 20
0
 30
0
 70
128
 71
95
 72
96
 73
99
 74
98
 0
VERTEX
 8
DISCO_2
 10
0
 20
0
 30
0
 70
128
 71
97
 72
98
 73
101
 74
100
 0
VERTEX
 8
DISCO_2
 10
0
 20
0
 30
0
 70
128
 71
98
 72
99
 73
102
 74
101
 0
VERTEX
 8
DISCO_2
 10
0
 20
0
 30
0
 70
128
 71
100
 72
101
 73
104
 74
103
 0
VERTEX
 8
DISCO_2
 10
0
 20
0
 30
0
 70
128
 71
101
 72
102
 73
105
 74
104
 0
VERTEX
 8
DISCO_2
 10
0
 20
0
 30
0
 70
128
 71
103
 72
104
 73
107
 74
106
 0
VERTEX
 8
DISCO_2
 10
0
 20
0
 30
0
 70
128
 71
104
 72
105
 73
108
 74
107
 0
VERTEX
 8
DISCO_2
 10
0
 20
0
 30
0
 70
128
 71
106
 72
107
 73
110
 74
109
 0
VERTEX
 8
DISCO_2
 10
0
 20
0
 30
0
 70
128
 71
107
 72
108
 73
111
 74
110
 0
VERTEX
 8
DISCO_2
 10
0
 20
0
 30
0
 70
128
 71
109
 72
110
 73
113
 74
112
 0
VERTEX
 8
DISCO_2
 10
0
 20
0
 30
0
 70
128
 71
110
 72
111
 73
114
 74
113
 0
VERTEX
 8
DISCO_2
 10
0
 20
0
 30
0
 70
128
 71
112
 72
113
 73
116
 74
115
 0
VERTEX
 8
DISCO_2
 10
0
 20
0
 30
0
 70
128
 71
113
 72
114
 73
117
 74
116
 0
VERTEX
 8
DISCO_2
 10
0
 20
0
 30
0
 70
128
 71
115
 72
116
 73
119
 74
118
 0
VERTEX
 8
DISCO_2
 10
0
 20
0
 30
0
 70
128
 71
116
 72
117
 73
120
 74
119
 0
VERTEX
 8
DISCO_2
 10
0
 20
0
 30
0
 70
128
 71
118
 72
119
 73
122
 74
121
 0
VERTEX
 8
DISCO_2
 10
0
 20
0
 30
0
 70
128
 71
119
 72
120
 73
123
 74
122
 0
VERTEX
 8
DISCO_2
 10
0
 20
0
 30
0
 70
128
 71
121
 72
122
 73
125
 74
124
 0
VERTEX
 8
DISCO_2
 10
0
 20
0
 30
0
 70
128
 71
122
 72
123
 73
126
 74
125
 0
VERTEX
 8
DISCO_2
 10
0
 20
0
 30
0
 70
128
 71
124
 72
125
 73
128
 74
127
 0
VERTEX
 8
DISCO_2
 10
0
 20
0
 30
0
 70
128
 71
125
 72
126
 73
129
 74
128
 0
VERTEX
 8
DISCO_2
 10
0
 20
0
 30
0
 70
128
 71
127
 72
128
 73
131
 74
130
 0
VERTEX
 8
DISCO_2
 10
0
 20
0
 30
0
 70
128
 71
128
 72
129
 73
132
 74
131
 0
VERTEX
 8
DISCO_2
 10
0
 20
0
 30
0
 70
128
 71
130
 72
131
 73
134
 74
133
 0
VERTEX
 8
DISCO_2
 10
0
 20
0
 30
0
 70
128
 71
131
 72
132
 73
135
 74
134
 0
VERTEX
 8
DISCO_2
 10
0
 20
0
 30
0
 70
128
 71
133
 72
134
 73
137
 74
136
 0
VERTEX
 8
DISCO_2
 10
0
 20
0
 30
0
 70
128
 71
134
 72
135
 73
138
 74
137
 0
VERTEX
 8
DISCO_2
 10
0
 20
0
 30
0
 70
128
 71
136
 72
137
 73
140
 74
139
 0
VERTEX
 8
DISCO_2
 10
0
 20
0
 30
0
 70
128
 71
137
 72
138
 73
141
 74
140
 0
VERTEX
 8
DISCO_2
 10
0
 20
0
 30
0
 70
128
 71
139
 72
140
 73
143
 74
142
 0
VERTEX
 8
DISCO_2
 10
0
 20
0
 30
0
 70
128
 71
140
 72
141
 73
144
 74
143
 0
VERTEX
 8
DISCO_2
 10
0
 20
0
 30
0
 70
128
 71
142
 72
143
 73
146
 74
145
 0
VERTEX
 8
DISCO_2
 10
0
 20
0
 30
0
 70
128
 71
143
 72
144
 73
147
 74
146
 0
VERTEX
 8
DISCO_2
 10
0
 20
0
 30
0
 70
128
 71
145
 72
146
 73
149
 74
148
 0
VERTEX
 8
DISCO_2
 10
0
 20
0
 30
0
 70
128
 71
146
 72
147
 73
150
 74
149
 0
VERTEX
 8
DISCO_2
 10
0
 20
0
 30
0
 70
128
 71
148
 72
149
 73
152
 74
151
 0
VERTEX
 8
DISCO_2
 10
0
 20
0
 30
0
 70
128
 71
149
 72
150
 73
153
 74
152
 0
VERTEX
 8
DISCO_2
 10
0
 20
0
 30
0
 70
128
 71
151
 72
152
 73
155
 74
154
 0
VERTEX
 8
DISCO_2
 10
0
 20
0
 30
0
 70
128
 71
152
 72
153
 73
156
 74
155
 0
VERTEX
 8
DISCO_2
 10
0
 20
0
 30
0
 70
128
 71
154
 72
155
 73
158
 74
157
 0
VERTEX
 8
DISCO_2
 10
0
 20
0
 30
0
 70
128
 71
155
 72
156
 73
159
 74
158
 0
VERTEX
 8
DISCO_2
 10
0
 20
0
 30
0
 70
128
 71
157
 72
158
 73
161
 74
160
 0
VERTEX
 8
DISCO_2
 10
0
 20
0
 30
0
 70
128
 71
158
 72
159
 73
162
 74
161
 0
VERTEX
 8
DISCO_2
 10
0
 20
0
 30
0
 70
128
 71
160
 72
161
 73
164
 74
163
 0
VERTEX
 8
DISCO_2
 10
0
 20
0
 30
0
 70
128
 71
161
 72
162
 73
165
 74
164
 0
VERTEX
 8
DISCO_2
 10
0
 20
0
 30
0
 70
128
 71
163
 72
164
 73
167
 74
166
 0
VERTEX
 8
DISCO_2
 10
0
 20
0
 30
0
 70
128
 71
164
 72
165
 73
168
 74
167
 0
VERTEX
 8
DISCO_2
 10
0
 20
0
 30
0
 70
128
 71
166
 72
167
 73
170
 74
169
 0
VERTEX
 8
DISCO_2
 10
0
 20
0
 30
0
 70
128
 71
167
 72
168
 73
171
 74
170
 0
VERTEX
 8
DISCO_2
 10
0
 20
0
 30
0
 70
128
 71
169
 72
170
 73
173
 74
172
 0
VERTEX
 8
DISCO_2
 10
0
 20
0
 30
0
 70
128
 71
170
 72
171
 73
174
 74
173
 0
VERTEX
 8
DISCO_2
 10
0
 20
0
 30
0
 70
128
 71
172
 72
173
 73
176
 74
175
 0
VERTEX
 8
DISCO_2
 10
0
 20
0
 30
0
 70
128
 71
173
 72
174
 73
177
 74
176
 0
VERTEX
 8
DISCO_2
 10
0
 20
0
 30
0
 70
128
 71
175
 72
176
 73
179
 74
178
 0
VERTEX
 8
DISCO_2
 10
0
 20
0
 30
0
 70
128
 71
176
 72
177
 73
180
 74
179
 0
VERTEX
 8
DISCO_2
 10
0
 20
0
 30
0
 70
128
 71
178
 72
179
 73
182
 74
181
 0
VERTEX
 8
DISCO_2
 10
0
 20
0
 30
0
 70
128
 71
179
 72
180
 73
183
 74
182
 0
VERTEX
 8
DISCO_2
 10
0
 20
0
 30
0
 70
128
 71
181
 72
182
 73
185
 74
184
 0
VERTEX
 8
DISCO_2
 10
0
 20
0
 30
0
 70
128
 71
182
 72
183
 73
186
 74
185
 0
VERTEX
 8
DISCO_2
 10
0
 20
0
 30
0
 70
128
 71
184
 72
185
 73
188
 74
187
 0
VERTEX
 8
DISCO_2
 10
0
 20
0
 30
0
 70
128
 71
185
 72
186
 73
189
 74
188
 0
VERTEX
 8
DISCO_2
 10
0
 20
0
 30
0
 70
128
 71
187
 72
188
 73
191
 74
190
 0
VERTEX
 8
DISCO_2
 10
0
 20
0
 30
0
 70
128
 71
188
 72
189
 73
192
 74
191
 0
VERTEX
 8
DISCO_2
 10
0
 20
0
 30
0
 70
128
 71
190
 72
191
 73
194
 74
193
 0
VERTEX
 8
DISCO_2
 10
0
 20
0
 30
0
 70
128
 71
191
 72
192
 73
195
 74
194
 0
VERTEX
 8
DISCO_2
 10
0
 20
0
 30
0
 70
128
 71
193
 72
194
 73
197
 74
196
 0
VERTEX
 8
DISCO_2
 10
0
 20
0
 30
0
 70
128
 71
194
 72
195
 73
198
 74
197
 0
VERTEX
 8
DISCO_2
 10
0
 20
0
 30
0
 70
128
 71
196
 72
197
 73
200
 74
199
 0
VERTEX
 8
DISCO_2
 10
0
 20
0
 30
0
 70
128
 71
197
 72
198
 73
201
 74
200
 0
VERTEX
 8
DISCO_2
 10
0
 20
0
 30
0
 70
128
 71
199
 72
200
 73
203
 74
202
 0
VERTEX
 8
DISCO_2
 10
0
 20
0
 30
0
 70
128
 71
200
 72
201
 73
204
 74
203
 0
VERTEX
 8
DISCO_2
 10
0
 20
0
 30
0
 70
128
 71
202
 72
203
 73
206
 74
205
 0
VERTEX
 8
DISCO_2
 10
0
 20
0
 30
0
 70
128
 71
203
 72
204
 73
207
 74
206
 0
VERTEX
 8
DISCO_2
 10
0
 20
0
 30
0
 70
128
 71
205
 72
206
 73
209
 74
208
 0
VERTEX
 8
DISCO_2
 10
0
 20
0
 30
0
 70
128
 71
206
 72
207
 73
210
 74
209
 0
VERTEX
 8
DISCO_2
 10
0
 20
0
 30
0
 70
128
 71
208
 72
209
 73
212
 74
211
 0
VERTEX
 8
DISCO_2
 10
0
 20
0
 30
0
 70
128
 71
209
 72
210
 73
213
 74
212
 0
VERTEX
 8
DISCO_2
 10
0
 20
0
 30
0
 70
128
 71
211
 72
212
 73
215
 74
214
 0
VERTEX
 8
DISCO_2
 10
0
 20
0
 30
0
 70
128
 71
212
 72
213
 73
216
 74
215
 0
VERTEX
 8
DISCO_2
 10
0
 20
0
 30
0
 70
128
 71
214
 72
215
 73
218
 74
217
 0
VERTEX
 8
DISCO_2
 10
0
 20
0
 30
0
 70
128
 71
215
 72
216
 73
219
 74
218
 0
VERTEX
 8
DISCO_2
 10
0
 20
0
 30
0
 70
128
 71
217
 72
218
 73
221
 74
220
 0
VERTEX
 8
DISCO_2
 10
0
 20
0
 30
0
 70
128
 71
218
 72
219
 73
222
 74
221
 0
VERTEX
 8
DISCO_2
 10
0
 20
0
 30
0
 70
128
 71
220
 72
221
 73
224
 74
223
 0
VERTEX
 8
DISCO_2
 10
0
 20
0
 30
0
 70
128
 71
221
 72
222
 73
225
 74
224
 0
VERTEX
 8
DISCO_2
 10
0
 20
0
 30
0
 70
128
 71
223
 72
224
 73
227
 74
226
 0
VERTEX
 8
DISCO_2
 10
0
 20
0
 30
0
 70
128
 71
224
 72
225
 73
228
 74
227
 0
VERTEX
 8
DISCO_2
 10
0
 20
0
 30
0
 70
128
 71
226
 72
227
 73
230
 74
229
 0
VERTEX
 8
DISCO_2
 10
0
 20
0
 30
0
 70
128
 71
227
 72
228
 73
231
 74
230
 0
VERTEX
 8
DISCO_2
 10
0
 20
0
 30
0
 70
128
 71
229
 72
230
 73
233
 74
232
 0
VERTEX
 8
DISCO_2
 10
0
 20
0
 30
0
 70
128
 71
230
 72
231
 73
234
 74
233
 0
VERTEX
 8
DISCO_2
 10
0
 20
0
 30
0
 70
128
 71
232
 72
233
 73
236
 74
235
 0
VERTEX
 8
DISCO_2
 10
0
 20
0
 30
0
 70
128
 71
233
 72
234
 73
237
 74
236
 0
VERTEX
 8
DISCO_2
 10
0
 20
0
 30
0
 70
128
 71
235
 72
236
 73
239
 74
238
 0
VERTEX
 8
DISCO_2
 10
0
 20
0
 30
0
 70
128
 71
236
 72
237
 73
240
 74
239
 0
VERTEX
 8
DISCO_2
 10
0
 20
0
 30
0
 70
128
 71
238
 72
239
 73
242
 74
241
 0
VERTEX
 8
DISCO_2
 10
0
 20
0
 30
0
 70
128
 71
239
 72
240
 73
243
 74
242
 0
VERTEX
 8
DISCO_2
 10
0
 20
0
 30
0
 70
128
 71
241
 72
242
 73
245
 74
244
 0
VERTEX
 8
DISCO_2
 10
0
 20
0
 30
0
 70
128
 71
242
 72
243
 73
246
 74
245
 0
VERTEX
 8
DISCO_2
 10
0
 20
0
 30
0
 70
128
 71
244
 72
245
 73
248
 74
247
 0
VERTEX
 8
DISCO_2
 10
0
 20
0
 30
0
 70
128
 71
245
 72
246
 73
249
 74
248
 0
VERTEX
 8
DISCO_2
 10
0
 20
0
 30
0
 70
128
 71
247
 72
248
 73
251
 74
250
 0
VERTEX
 8
DISCO_2
 10
0
 20
0
 30
0
 70
128
 71
248
 72
249
 73
252
 74
251
 0
VERTEX
 8
DISCO_2
 10
0
 20
0
 30
0
 70
128
 71
250
 72
251
 73
254
 74
253
 0
VERTEX
 8
DISCO_2
 10
0
 20
0
 30
0
 70
128
 71
251
 72
252
 73
255
 74
254
 0
VERTEX
 8
DISCO_2
 10
0
 20
0
 30
0
 70
128
 71
253
 72
254
 73
257
 74
256
 0
VERTEX
 8
DISCO_2
 10
0
 20
0
 30
0
 70
128
 71
254
 72
255
 73
258
 74
257
 0
VERTEX
 8
DISCO_2
 10
0
 20
0
 30
0
 70
128
 71
256
 72
257
 73
260
 74
259
 0
VERTEX
 8
DISCO_2
 10
0
 20
0
 30
0
 70
128
 71
257
 72
258
 73
261
 74
260
 0
VERTEX
 8
DISCO_2
 10
0
 20
0
 30
0
 70
128
 71
259
 72
260
 73
263
 74
262
 0
VERTEX
 8
DISCO_2
 10
0
 20
0
 30
0
 70
128
 71
260
 72
261
 73
264
 74
263
 0
VERTEX
 8
DISCO_2
 10
0
 20
0
 30
0
 70
128
 71
262
 72
263
 73
266
 74
265
 0
VERTEX
 8
DISCO_2
 10
0
 20
0
 30
0
 70
128
 71
263
 72
264
 73
267
 74
266
 0
VERTEX
 8
DISCO_2
 10
0
 20
0
 30
0
 70
128
 71
265
 72
266
 73
269
 74
268
 0
VERTEX
 8
DISCO_2
 10
0
 20
0
 30
0
 70
128
 71
266
 72
267
 73
270
 74
269
 0
VERTEX
 8
DISCO_2
 10
0
 20
0
 30
0
 70
128
 71
268
 72
269
 73
272
 74
271
 0
VERTEX
 8
DISCO_2
 10
0
 20
0
 30
0
 70
128
 71
269
 72
270
 73
273
 74
272
 0
VERTEX
 8
DISCO_2
 10
0
 20
0
 30
0
 70
128
 71
271
 72
272
 73
275
 74
274
 0
VERTEX
 8
DISCO_2
 10
0
 20
0
 30
0
 70
128
 71
272
 72
273
 73
276
 74
275
 0
VERTEX
 8
DISCO_2
 10
0
 20
0
 30
0
 70
128
 71
274
 72
275
 73
278
 74
277
 0
VERTEX
 8
DISCO_2
 10
0
 20
0
 30
0
 70
128
 71
275
 72
276
 73
279
 74
278
 0
VERTEX
 8
DISCO_2
 10
0
 20
0
 30
0
 70
128
 71
277
 72
278
 73
281
 74
280
 0
VERTEX
 8
DISCO_2
 10
0
 20
0
 30
0
 70
128
 71
278
 72
279
 73
282
 74
281
 0
VERTEX
 8
DISCO_2
 10
0
 20
0
 30
0
 70
128
 71
280
 72
281
 73
284
 74
283
 0
VERTEX
 8
DISCO_2
 10
0
 20
0
 30
0
 70
128
 71
281
 72
282
 73
285
 74
284
 0
VERTEX
 8
DISCO_2
 10
0
 20
0
 30
0
 70
128
 71
283
 72
284
 73
287
 74
286
 0
VERTEX
 8
DISCO_2
 10
0
 20
0
 30
0
 70
128
 71
284
 72
285
 73
288
 74
287
 0
VERTEX
 8
DISCO_2
 10
0
 20
0
 30
0
 70
128
 71
286
 72
287
 73
2
 74
1
 0
VERTEX
 8
DISCO_2
 10
0
 20
0
 30
0
 70
128
 71
287
 72
288
 73
3
 74
2
 0
SEQEND
 0
POLYLINE
 8
DISCO_1
 66
1
 10
0.0
 20
0.0
 30
0.0
 70
64
 71
288
 72
192
 0
VERTEX
 8
DISCO_1
 10
32.8168
 20
12.989
 30
0.4501
 70
192
 0
VERTEX
 8
DISCO_1
 10
32.7668
 20
12.989
 30
0.4501
 70
192
 0
VERTEX
 8
DISCO_1
 10
32.7168
 20
12.989
 30
0.4501
 70
192
 0
VERTEX
 8
DISCO_1
 10
32.7999
 20
13.5038
 30
0.4501
 70
192
 0
VERTEX
 8
DISCO_1
 10
32.75
 20
13.5006
 30
0.4501
 70
192
 0
VERTEX
 8
DISCO_1
 10
32.7002
 20
13.4973
 30
0.4501
 70
192
 0
VERTEX
 8
DISCO_1
 10
32.7494
 20
14.0165
 30
0.4501
 70
192
 0
VERTEX
 8
DISCO_1
 10
32.6999
 20
14.01
 30
0.4501
 70
192
 0
VERTEX
 8
DISCO_1
 10
32.6503
 20
14.0035
 30
0.4501
 70
192
 0
VERTEX
 8
DISCO_1
 10
32.6655
 20
14.5248
 30
0.4501
 70
192
 0
VERTEX
 8
DISCO_1
 10
32.6165
 20
14.5151
 30
0.4501
 70
192
 0
VERTEX
 8
DISCO_1
 10
32.5675
 20
14.5053
 30
0.4501
 70
192
 0
VERTEX
 8
DISCO_1
 10
32.5485
 20
15.0265
 30
0.4501
 70
192
 0
VERTEX
 8
DISCO_1
 10
32.5003
 20
15.0136
 30
0.4501
 70
192
 0
VERTEX
 8
DISCO_1
 10
32.452
 20
15.0006
 30
0.4501
 70
192
 0
VERTEX
 8
DISCO_1
 10
32.399
 20
15.5195
 30
0.4501
 70
192
 0
VERTEX
 8
DISCO_1
 10
32.3517
 20
15.5034
 30
0.4501
 70
192
 0
VERTEX
 8
DISCO_1
 10
32.3043
 20
15.4874
 30
0.4501
 70
192
 0
VERTEX
 8
DISCO_1
 10
32.2175
 20
16.0016
 30
0.4501
 70
192
 0
VERTEX
 8
DISCO_1
 10
32.1713
 20
15.9825
 30
0.4501
 70
192
 0
VERTEX
 8
DISCO_1
 10
32.1252
 20
15.9634
 30
0.4501
 70
192
 0
VERTEX
 8
DISCO_1
 10
32.0049
 20
16.4709
 30
0.4501
 70
192
 0
VERTEX
 8
DISCO_1
 10
31.9601
 20
16.4488
 30
0.4501
 70
192
 0
VERTEX
 8
DISCO_1
 10
31.9153
 20
16.4267
 30
0.4501
 70
192
 0
VERTEX
 8
DISCO_1
 10
31.7621
 20
16.9252
 30
0.4501
 70
192
 0
VERTEX
 8
DISCO_1
 10
31.7188
 20
16.9002
 30
0.4501
 70
192
 0
VERTEX
 8
DISCO_1
 10
31.6755
 20
16.8752
 30
0.4501
 70
192
 0
VERTEX
 8
DISCO_1
 10
31.49
 20
17.3627
 30
0.4501
 70
192
 0
VERTEX
 8
DISCO_1
 10
31.4485
 20
17.3349
 30
0.4501
 70
192
 0
VERTEX
 8
DISCO_1
 10
31.4069
 20
17.3071
 30
0.4501
 70
192
 0
VERTEX
 8
DISCO_1
 10
31.19
 20
17.7814
 30
0.4501
 70
192
 0
VERTEX
 8
DISCO_1
 10
31.1503
 20
17.751
 30
0.4501
 70
192
 0
VERTEX
 8
DISCO_1
 10
31.1107
 20
17.7206
 30
0.4501
 70
192
 0
VERTEX
 8
DISCO_1
 10
30.8631
 20
18.1796
 30
0.4501
 70
192
 0
VERTEX
 8
DISCO_1
 10
30.8256
 20
18.1467
 30
0.4501
 70
192
 0
VERTEX
 8
DISCO_1
 10
30.788
 20
18.1137
 30
0.4501
 70
192
 0
VERTEX
 8
DISCO_1
 10
30.511
 20
18.5556
 30
0.4501
 70
192
 0
VERTEX
 8
DISCO_1
 10
30.4756
 20
18.5203
 30
0.4501
 70
192
 0
VERTEX
 8
DISCO_1
 10
30.4403
 20
18.4849
 30
0.4501
 70
192
 0
VERTEX
 8
DISCO_1
 10
30.135
 20
18.9078
 30
0.4501
 70
192
 0
VERTEX
 8
DISCO_1
 10
30.102
 20
18.8702
 30
0.4501
 70
192
 0
VERTEX
 8
DISCO_1
 10
30.0691
 20
18.8326
 30
0.4501
 70
192
 0
VERTEX
 8
DISCO_1
 10
29.7368
 20
19.2346
 30
0.4501
 70
192
 0
VERTEX
 8
DISCO_1
 10
29.7063
 20
19.195
 30
0.4501
 70
192
 0
VERTEX
 8
DISCO_1
 10
29.6759
 20
19.1553
 30
0.4501
 70
192
 0
VERTEX
 8
DISCO_1
 10
29.318
 20
19.5347
 30
0.4501
 70
192
 0
VERTEX
 8
DISCO_1
 10
29.2903
 20
19.4931
 30
0.4501
 70
192
 0
VERTEX
 8
DISCO_1
 10
29.2625
 20
19.4516
 30
0.4501
 70
192
 0
VERTEX
 8
DISCO_1
 10
28.8805
 20
19.8067
 30
0.4501
 70
192
 0
VERTEX
 8
DISCO_1
 10
28.8556
 20
19.7634
 30
0.4501
 70
192
 0
VERTEX
 8
DISCO_1
 10
28.8306
 20
19.7201
 30
0.4501
 70
192
 0
VERTEX
 8
DISCO_1
 10
28.4262
 20
20.0496
 30
0.4501
 70
192
 0
VERTEX
 8
DISCO_1
 10
28.4041
 20
20.0047
 30
0.4501
 70
192
 0
VERTEX
 8
DISCO_1
 10
28.382
 20
19.9599
 30
0.4501
 70
192
 0
VERTEX
 8
DISCO_1
 10
27.957
 20
20.2622
 30
0.4501
 70
192
 0
VERTEX
 8
DISCO_1
 10
27.9378
 20
20.216
 30
0.4501
 70
192
 0
VERTEX
 8
DISCO_1
 10
27.9187
 20
20.1698
 30
0.4501
 70
192
 0
VERTEX
 8
DISCO_1
 10
27.4748
 20
20.4436
 30
0.4501
 70
192
 0
VERTEX
 8
DISCO_1
 10
27.4588
 20
20.3963
 30
0.4501
 70
192
 0
VERTEX
 8
DISCO_1
 10
27.4427
 20
20.349
 30
0.4501
 70
192
 0
VERTEX
 8
DISCO_1
 10
26.9819
 20
20.5932
 30
0.4501
 70
192
 0
VERTEX
 8
DISCO_1
 10
26.9689
 20
20.5449
 30
0.4501
 70
192
 0
VERTEX
 8
DISCO_1
 10
26.956
 20
20.4966
 30
0.4501
 70
192
 0
VERTEX
 8
DISCO_1
 10
26.4802
 20
20.7102
 30
0.4501
 70
192
 0
VERTEX
 8
DISCO_1
 10
26.4704
 20
20.6611
 30
0.4501
 70
192
 0
VERTEX
 8
DISCO_1
 10
26.4607
 20
20.6121
 30
0.4501
 70
192
 0
VERTEX
 8
DISCO_1
 10
25.9719
 20
20.7941
 30
0.4501
 70
192
 0
VERTEX
 8
DISCO_1
 10
25.9654
 20
20.7445
 30
0.4501
 70
192
 0
VERTEX
 8
DISCO_1
 10
25.9588
 20
20.695
 30
0.4501
 70
192
 0
VERTEX
 8
DISCO_1
 10
25.4592
 20
20.8446
 30
0.4501
 70
192
 0
VERTEX
 8
DISCO_1
 10
25.4559
 20
20.7947
 30
0.4501
 70
192
 0
VERTEX
 8
DISCO_1
 10
25.4527
 20
20.7448
 30
0.4501
 70
192
 0
VERTEX
 8
DISCO_1
 10
24.9443
 20
20.8614
 30
0.4501
 70
192
 0
VERTEX
 8
DISCO_1
 10
24.9443
 20
20.8114
 30
0.4501
 70
192
 0
VERTEX
 8
DISCO_1
 10
24.9443
 20
20.7615
 30
0.4501
 70
192
 0
VERTEX
 8
DISCO_1
 10
24.4294
 20
20.8446
 30
0.4501
 70
192
 0
VERTEX
 8
DISCO_1
 10
24.4327
 20
20.7947
 30
0.4501
 70
192
 0
VERTEX
 8
DISCO_1
 10
24.436
 20
20.7448
 30
0.4501
 70
192
 0
VERTEX
 8
DISCO_1
 10
23.9168
 20
20.7941
 30
0.4501
 70
192
 0
VERTEX
 8
DISCO_1
 10
23.9233
 20
20.7445
 30
0.4501
 70
192
 0
VERTEX
 8
DISCO_1
 10
23.9298
 20
20.695
 30
0.4501
 70
192
 0
VERTEX
 8
DISCO_1
 10
23.4085
 20
20.7102
 30
0.4501
 70
192
 0
VERTEX
 8
DISCO_1
 10
23.4182
 20
20.6611
 30
0.4501
 70
192
 0
VERTEX
 8
DISCO_1
 10
23.428
 20
20.6121
 30
0.4501
 70
192
 0
VERTEX
 8
DISCO_1
 10
22.9068
 20
20.5932
 30
0.4501
 70
192
 0
VERTEX
 8
DISCO_1
 10
22.9197
 20
20.5449
 30
0.4501
 70
192
 0
VERTEX
 8
DISCO_1
 10
22.9326
 20
20.4966
 30
0.4501
 70
192
 0
VERTEX
 8
DISCO_1
 10
22.4138
 20
20.4436
 30
0.4501
 70
192
 0
VERTEX
 8
DISCO_1
 10
22.4299
 20
20.3963
 30
0.4501
 70
192
 0
VERTEX
 8
DISCO_1
 10
22.4459
 20
20.349
 30
0.4501
 70
192
 0
VERTEX
 8
DISCO_1
 10
21.9317
 20
20.2622
 30
0.4501
 70
192
 0
VERTEX
 8
DISCO_1
 10
21.9508
 20
20.216
 30
0.4501
 70
192
 0
VERTEX
 8
DISCO_1
 10
21.9699
 20
20.1698
 30
0.4501
 70
192
 0
VERTEX
 8
DISCO_1
 10
21.4624
 20
20.0496
 30
0.4501
 70
192
 0
VERTEX
 8
DISCO_1
 10
21.4845
 20
20.0047
 30
0.4501
 70
192
 0
VERTEX
 8
DISCO_1
 10
21.5066
 20
19.9599
 30
0.4501
 70
192
 0
VERTEX
 8
DISCO_1
 10
21.0081
 20
19.8067
 30
0.4501
 70
192
 0
VERTEX
 8
DISCO_1
 10
21.0331
 20
19.7634
 30
0.4501
 70
192
 0
VERTEX
 8
DISCO_1
 10
21.0581
 20
19.7201
 30
0.4501
 70
192
 0
VERTEX
 8
DISCO_1
 10
20.5706
 20
19.5347
 30
0.4501
 70
192
 0
VERTEX
 8
DISCO_1
 10
20.5984
 20
19.4931
 30
0.4501
 70
192
 0
VERTEX
 8
DISCO_1
 10
20.6261
 20
19.4516
 30
0.4501
 70
192
 0
VERTEX
 8
DISCO_1
 10
20.1519
 20
19.2346
 30
0.4501
 70
192
 0
VERTEX
 8
DISCO_1
 10
20.1823
 20
19.195
 30
0.4501
 70
192
 0
VERTEX
 8
DISCO_1
 10
20.2127
 20
19.1553
 30
0.4501
 70
192
 0
VERTEX
 8
DISCO_1
 10
19.7536
 20
18.9078
 30
0.4501
 70
192
 0
VERTEX
 8
DISCO_1
 10
19.7866
 20
18.8702
 30
0.4501
 70
192
 0
VERTEX
 8
DISCO_1
 10
19.8196
 20
18.8326
 30
0.4501
 70
192
 0
VERTEX
 8
DISCO_1
 10
19.3776
 20
18.5556
 30
0.4501
 70
192
 0
VERTEX
 8
DISCO_1
 10
19.413
 20
18.5203
 30
0.4501
 70
192
 0
VERTEX
 8
DISCO_1
 10
19.4483
 20
18.4849
 30
0.4501
 70
192
 0
VERTEX
 8
DISCO_1
 10
19.0255
 20
18.1796
 30
0.4501
 70
192
 0
VERTEX
 8
DISCO_1
 10
19.0631
 20
18.1467
 30
0.4501
 70
192
 0
VERTEX
 8
DISCO_1
 10
19.1006
 20
18.1137
 30
0.4501
 70
192
 0
VERTEX
 8
DISCO_1
 10
18.6987
 20
17.7814
 30
0.4501
 70
192
 0
VERTEX
 8
DISCO_1
 10
18.7383
 20
17.751
 30
0.4501
 70
192
 0
VERTEX
 8
DISCO_1
 10
18.778
 20
17.7206
 30
0.4501
 70
192
 0
VERTEX
 8
DISCO_1
 10
18.3986
 20
17.3627
 30
0.4501
 70
192
 0
VERTEX
 8
DISCO_1
 10
18.4402
 20
17.3349
 30
0.4501
 70
192
 0
VERTEX
 8
DISCO_1
 10
18.4817
 20
17.3071
 30
0.4501
 70
192
 0
VERTEX
 8
DISCO_1
 10
18.1266
 20
16.9252
 30
0.4501
 70
192
 0
VERTEX
 8
DISCO_1
 10
18.1699
 20
16.9002
 30
0.4501
 70
192
 0
VERTEX
 8
DISCO_1
 10
18.2131
 20
16.8752
 30
0.4501
 70
192
 0
VERTEX
 8
DISCO_1
 10
17.8837
 20
16.4709
 30
0.4501
 70
192
 0
VERTEX
 8
DISCO_1
 10
17.9285
 20
16.4488
 30
0.4501
 70
192
 0
VERTEX
 8
DISCO_1
 10
17.9734
 20
16.4267
 30
0.4501
 70
192
 0
VERTEX
 8
DISCO_1
 10
17.6711
 20
16.0016
 30
0.4501
 70
192
 0
VERTEX
 8
DISCO_1
 10
17.7173
 20
15.9825
 30
0.4501
 70
192
 0
VERTEX
 8
DISCO_1
 10
17.7635
 20
15.9634
 30
0.4501
 70
192
 0
VERTEX
 8
DISCO_1
 10
17.4896
 20
15.5195
 30
0.4501
 70
192
 0
VERTEX
 8
DISCO_1
 10
17.537
 20
15.5034
 30
0.4501
 70
192
 0
VERTEX
 8
DISCO_1
 10
17.5843
 20
15.4874
 30
0.4501
 70
192
 0
VERTEX
 8
DISCO_1
 10
17.3401
 20
15.0265
 30
0.4501
 70
192
 0
VERTEX
 8
DISCO_1
 10
17.3884
 20
15.0136
 30
0.4501
 70
192
 0
VERTEX
 8
DISCO_1
 10
17.4367
 20
15.0006
 30
0.4501
 70
192
 0
VERTEX
 8
DISCO_1
 10
17.2231
 20
14.5248
 30
0.4501
 70
192
 0
VERTEX
 8
DISCO_1
 10
17.2721
 20
14.5151
 30
0.4501
 70
192
 0
VERTEX
 8
DISCO_1
 10
17.3212
 20
14.5053
 30
0.4501
 70
192
 0
VERTEX
 8
DISCO_1
 10
17.1392
 20
14.0165
 30
0.4501
 70
192
 0
VERTEX
 8
DISCO_1
 10
17.1888
 20
14.01
 30
0.4501
 70
192
 0
VERTEX
 8
DISCO_1
 10
17.2383
 20
14.0035
 30
0.4501
 70
192
 0
VERTEX
 8
DISCO_1
 10
17.0887
 20
13.5038
 30
0.4501
 70
192
 0
VERTEX
 8
DISCO_1
 10
17.1386
 20
13.5006
 30
0.4501
 70
192
 0
VERTEX
 8
DISCO_1
 10
17.1885
 20
13.4973
 30
0.4501
 70
192
 0
VERTEX
 8
DISCO_1
 10
17.0719
 20
12.989
 30
0.4501
 70
192
 0
VERTEX
 8
DISCO_1
 10
17.1218
 20
12.989
 30
0.4501
 70
192
 0
VERTEX
 8
DISCO_1
 10
17.1718
 20
12.989
 30
0.4501
 70
192
 0
VERTEX
 8
DISCO_1
 10
17.0887
 20
12.4741
 30
0.4501
 70
192
 0
VERTEX
 8
DISCO_1
 10
17.1386
 20
12.4773
 30
0.4501
 70
192
 0
VERTEX
 8
DISCO_1
 10
17.1885
 20
12.4806
 30
0.4501
 70
192
 0
VERTEX
 8
DISCO_1
 10
17.1392
 20
11.9614
 30
0.4501
 70
192
 0
VERTEX
 8
DISCO_1
 10
17.1888
 20
11.9679
 30
0.4501
 70
192
 0
VERTEX
 8
DISCO_1
 10
17.2383
 20
11.9744
 30
0.4501
 70
192
 0
VERTEX
 8
DISCO_1
 10
17.2231
 20
11.4531
 30
0.4501
 70
192
 0
VERTEX
 8
DISCO_1
 10
17.2721
 20
11.4629
 30
0.4501
 70
192
 0
VERTEX
 8
DISCO_1
 10
17.3212
 20
11.4726
 30
0.4501
 70
192
 0
VERTEX
 8
DISCO_1
 10
17.3401
 20
10.9514
 30
0.4501
 70
192
 0
VERTEX
 8
DISCO_1
 10
17.3884
 20
10.9644
 30
0.4501
 70
192
 0
VERTEX
 8
DISCO_1
 10
17.4367
 20
10.9773
 30
0.4501
 70
192
 0
VERTEX
 8
DISCO_1
 10
17.4896
 20
10.4584
 30
0.4501
 70
192
 0
VERTEX
 8
DISCO_1
 10
17.537
 20
10.4745
 30
0.4501
 70
192
 0
VERTEX
 8
DISCO_1
 10
17.5843
 20
10.4906
 30
0.4501
 70
192
 0
VERTEX
 8
DISCO_1
 10
17.6711
 20
9.9763
 30
0.4501
 70
192
 0
VERTEX
 8
DISCO_1
 10
17.7173
 20
9.9954
 30
0.4501
 70
192
 0
VERTEX
 8
DISCO_1
 10
17.7635
 20
10.0146
 30
0.4501
 70
192
 0
VERTEX
 8
DISCO_1
 10
17.8837
 20
9.5071
 30
0.4501
 70
192
 0
VERTEX
 8
DISCO_1
 10
17.9285
 20
9.5292
 30
0.4501
 70
192
 0
VERTEX
 8
DISCO_1
 10
17.9734
 20
9.5513
 30
0.4501
 70
192
 0
VERTEX
 8
DISCO_1
 10
18.1266
 20
9.0527
 30
0.4501
 70
192
 0
VERTEX
 8
DISCO_1
 10
18.1699
 20
9.0777
 30
0.4501
 70
192
 0
VERTEX
 8
DISCO_1
 10
18.2131
 20
9.1027
 30
0.4501
 70
192
 0
VERTEX
 8
DISCO_1
 10
18.3986
 20
8.6153
 30
0.4501
 70
192
 0
VERTEX
 8
DISCO_1
 10
18.4402
 20
8.643
 30
0.4501
 70
192
 0
VERTEX
 8
DISCO_1
 10
18.4817
 20
8.6708
 30
0.4501
 70
192
 0
VERTEX
 8
DISCO_1
 10
18.6987
 20
8.1965
 30
0.4501
 70
192
 0
VERTEX
 8
DISCO_1
 10
18.7383
 20
8.2269
 30
0.4501
 70
192
 0
VERTEX
 8
DISCO_1
 10
18.778
 20
8.2574
 30
0.4501
 70
192
 0
VERTEX
 8
DISCO_1
 10
19.0255
 20
7.7983
 30
0.4501
 70
192
 0
VERTEX
 8
DISCO_1
 10
19.0631
 20
7.8312
 30
0.4501
 70
192
 0
VERTEX
 8
DISCO_1
 10
19.1006
 20
7.8642
 30
0.4501
 70
192
 0
VERTEX
 8
DISCO_1
 10
19.3776
 20
7.4223
 30
0.4501
 70
192
 0
VERTEX
 8
DISCO_1
 10
19.413
 20
7.4576
 30
0.4501
 70
192
 0
VERTEX
 8
DISCO_1
 10
19.4483
 20
7.493
 30
0.4501
 70
192
 0
VERTEX
 8
DISCO_1
 10
19.7536
 20
7.0701
 30
0.4501
 70
192
 0
VERTEX
 8
DISCO_1
 10
19.7866
 20
7.1077
 30
0.4501
 70
192
 0
VERTEX
 8
DISCO_1
 10
19.8196
 20
7.1453
 30
0.4501
 70
192
 0
VERTEX
 8
DISCO_1
 10
20.1519
 20
6.7433
 30
0.4501
 70
192
 0
VERTEX
 8
DISCO_1
 10
20.1823
 20
6.783
 30
0.4501
 70
192
 0
VERTEX
 8
DISCO_1
 10
20.2127
 20
6.8226
 30
0.4501
 70
192
 0
VERTEX
 8
DISCO_1
 10
20.5706
 20
6.4433
 30
0.4501
 70
192
 0
VERTEX
 8
DISCO_1
 10
20.5984
 20
6.4848
 30
0.4501
 70
192
 0
VERTEX
 8
DISCO_1
 10
20.6261
 20
6.5264
 30
0.4501
 70
192
 0
VERTEX
 8
DISCO_1
 10
21.0081
 20
6.1712
 30
0.4501
 70
192
 0
VERTEX
 8
DISCO_1
 10
21.0331
 20
6.2145
 30
0.4501
 70
192
 0
VERTEX
 8
DISCO_1
 10
21.0581
 20
6.2578
 30
0.4501
 70
192
 0
VERTEX
 8
DISCO_1
 10
21.4624
 20
5.9284
 30
0.4501
 70
192
 0
VERTEX
 8
DISCO_1
 10
21.4845
 20
5.9732
 30
0.4501
 70
192
 0
VERTEX
 8
DISCO_1
 10
21.5066
 20
6.018
 30
0.4501
 70
192
 0
VERTEX
 8
DISCO_1
 10
21.9317
 20
5.7158
 30
0.4501
 70
192
 0
VERTEX
 8
DISCO_1
 10
21.9508
 20
5.7619
 30
0.4501
 70
192
 0
VERTEX
 8
DISCO_1
 10
21.9699
 20
5.8081
 30
0.4501
 70
192
 0
VERTEX
 8
DISCO_1
 10
22.4138
 20
5.5343
 30
0.4501
 70
192
 0
VERTEX
 8
DISCO_1
 10
22.4299
 20
5.5816
 30
0.4501
 70
192
 0
VERTEX
 8
DISCO_1
 10
22.4459
 20
5.6289
 30
0.4501
 70
192
 0
VERTEX
 8
DISCO_1
 10
22.9068
 20
5.3848
 30
0.4501
 70
192
 0
VERTEX
 8
DISCO_1
 10
22.9197
 20
5.433
 30
0.4501
 70
192
 0
VERTEX
 8
DISCO_1
 10
22.9326
 20
5.4813
 30
0.4501
 70
192
 0
VERTEX
 8
DISCO_1
 10
23.4085
 20
5.2678
 30
0.4501
 70
192
 0
VERTEX
 8
DISCO_1
 10
23.4182
 20
5.3168
 30
0.4501
 70
192
 0
VERTEX
 8
DISCO_1
 10
23.428
 20
5.3658
 30
0.4501
 70
192
 0
VERTEX
 8
DISCO_1
 10
23.9168
 20
5.1839
 30
0.4501
 70
192
 0
VERTEX
 8
DISCO_1
 10
23.9233
 20
5.2334
 30
0.4501
 70
192
 0
VERTEX
 8
DISCO_1
 10
23.9298
 20
5.283
 30
0.4501
 70
192
 0
VERTEX
 8
DISCO_1
 10
24.4294
 20
5.1334
 30
0.4501
 70
192
 0
VERTEX
 8
DISCO_1
 10
24.4327
 20
5.1832
 30
0.4501
 70
192
 0
VERTEX
 8
DISCO_1
 10
24.436
 20
5.2331
 30
0.4501
 70
192
 0
VERTEX
 8
DISCO_1
 10
24.9443
 20
5.1165
 30
0.4501
 70
192
 0
VERTEX
 8
DISCO_1
 10
24.9443
 20
5.1665
 30
0.4501
 70
192
 0
VERTEX
 8
DISCO_1
 10
24.9443
 20
5.2165
 30
0.4501
 70
192
 0
VERTEX
 8
DISCO_1
 10
25.4592
 20
5.1334
 30
0.4501
 70
192
 0
VERTEX
 8
DISCO_1
 10
25.4559
 20
5.1832
 30
0.4501
 70
192
 0
VERTEX
 8
DISCO_1
 10
25.4527
 20
5.2331
 30
0.4501
 70
192
 0
VERTEX
 8
DISCO_1
 10
25.9719
 20
5.1839
 30
0.4501
 70
192
 0
VERTEX
 8
DISCO_1
 10
25.9654
 20
5.2334
 30
0.4501
 70
192
 0
VERTEX
 8
DISCO_1
 10
25.9588
 20
5.283
 30
0.4501
 70
192
 0
VERTEX
 8
DISCO_1
 10
26.4802
 20
5.2678
 30
0.4501
 70
192
 0
VERTEX
 8
DISCO_1
 10
26.4704
 20
5.3168
 30
0.4501
 70
192
 0
VERTEX
 8
DISCO_1
 10
26.4607
 20
5.3658
 30
0.4501
 70
192
 0
VERTEX
 8
DISCO_1
 10
26.9819
 20
5.3848
 30
0.4501
 70
192
 0
VERTEX
 8
DISCO_1
 10
26.9689
 20
5.433
 30
0.4501
 70
192
 0
VERTEX
 8
DISCO_1
 10
26.956
 20
5.4813
 30
0.4501
 70
192
 0
VERTEX
 8
DISCO_1
 10
27.4748
 20
5.5343
 30
0.4501
 70
192
 0
VERTEX
 8
DISCO_1
 10
27.4588
 20
5.5816
 30
0.4501
 70
192
 0
VERTEX
 8
DISCO_1
 10
27.4427
 20
5.6289
 30
0.4501
 70
192
 0
VERTEX
 8
DISCO_1
 10
27.957
 20
5.7158
 30
0.4501
 70
192
 0
VERTEX
 8
DISCO_1
 10
27.9378
 20
5.7619
 30
0.4501
 70
192
 0
VERTEX
 8
DISCO_1
 10
27.9187
 20
5.8081
 30
0.4501
 70
192
 0
VERTEX
 8
DISCO_1
 10
28.4262
 20
5.9284
 30
0.4501
 70
192
 0
VERTEX
 8
DISCO_1
 10
28.4041
 20
5.9732
 30
0.4501
 70
192
 0
VERTEX
 8
DISCO_1
 10
28.382
 20
6.018
 30
0.4501
 70
192
 0
VERTEX
 8
DISCO_1
 10
28.8805
 20
6.1712
 30
0.4501
 70
192
 0
VERTEX
 8
DISCO_1
 10
28.8556
 20
6.2145
 30
0.4501
 70
192
 0
VERTEX
 8
DISCO_1
 10
28.8306
 20
6.2578
 30
0.4501
 70
192
 0
VERTEX
 8
DISCO_1
 10
29.318
 20
6.4433
 30
0.4501
 70
192
 0
VERTEX
 8
DISCO_1
 10
29.2903
 20
6.4848
 30
0.4501
 70
192
 0
VERTEX
 8
DISCO_1
 10
29.2625
 20
6.5264
 30
0.4501
 70
192
 0
VERTEX
 8
DISCO_1
 10
29.7368
 20
6.7433
 30
0.4501
 70
192
 0
VERTEX
 8
DISCO_1
 10
29.7063
 20
6.783
 30
0.4501
 70
192
 0
VERTEX
 8
DISCO_1
 10
29.6759
 20
6.8226
 30
0.4501
 70
192
 0
VERTEX
 8
DISCO_1
 10
30.135
 20
7.0701
 30
0.4501
 70
192
 0
VERTEX
 8
DISCO_1
 10
30.102
 20
7.1077
 30
0.4501
 70
192
 0
VERTEX
 8
DISCO_1
 10
30.0691
 20
7.1453
 30
0.4501
 70
192
 0
VERTEX
 8
DISCO_1
 10
30.511
 20
7.4223
 30
0.4501
 70
192
 0
VERTEX
 8
DISCO_1
 10
30.4756
 20
7.4576
 30
0.4501
 70
192
 0
VERTEX
 8
DISCO_1
 10
30.4403
 20
7.493
 30
0.4501
 70
192
 0
VERTEX
 8
DISCO_1
 10
30.8631
 20
7.7983
 30
0.4501
 70
192
 0
VERTEX
 8
DISCO_1
 10
30.8256
 20
7.8312
 30
0.4501
 70
192
 0
VERTEX
 8
DISCO_1
 10
30.788
 20
7.8642
 30
0.4501
 70
192
 0
VERTEX
 8
DISCO_1
 10
31.19
 20
8.1965
 30
0.4501
 70
192
 0
VERTEX
 8
DISCO_1
 10
31.1503
 20
8.2269
 30
0.4501
 70
192
 0
VERTEX
 8
DISCO_1
 10
31.1107
 20
8.2574
 30
0.4501
 70
192
 0
VERTEX
 8
DISCO_1
 10
31.49
 20
8.6153
 30
0.4501
 70
192
 0
VERTEX
 8
DISCO_1
 10
31.4485
 20
8.643
 30
0.4501
 70
192
 0
VERTEX
 8
DISCO_1
 10
31.4069
 20
8.6708
 30
0.4501
 70
192
 0
VERTEX
 8
DISCO_1
 10
31.7621
 20
9.0527
 30
0.4501
 70
192
 0
VERTEX
 8
DISCO_1
 10
31.7188
 20
9.0777
 30
0.4501
 70
192
 0
VERTEX
 8
DISCO_1
 10
31.6755
 20
9.1027
 30
0.4501
 70
192
 0
VERTEX
 8
DISCO_1
 10
32.0049
 20
9.5071
 30
0.4501
 70
192
 0
VERTEX
 8
DISCO_1
 10
31.9601
 20
9.5292
 30
0.4501
 70
192
 0
VERTEX
 8
DISCO_1
 10
31.9153
 20
9.5513
 30
0.4501
 70
192
 0
VERTEX
 8
DISCO_1
 10
32.2175
 20
9.9763
 30
0.4501
 70
192
 0
VERTEX
 8
DISCO_1
 10
32.1713
 20
9.9954
 30
0.4501
 70
192
 0
VERTEX
 8
DISCO_1
 10
32.1252
 20
10.0146
 30
0.4501
 70
192
 0
VERTEX
 8
DISCO_1
 10
32.399
 20
10.4584
 30
0.4501
 70
192
 0
VERTEX
 8
DISCO_1
 10
32.3517
 20
10.4745
 30
0.4501
 70
192
 0
VERTEX
 8
DISCO_1
 10
32.3043
 20
10.4906
 30
0.4501
 70
192
 0
VERTEX
 8
DISCO_1
 10
32.5485
 20
10.9514
 30
0.4501
 70
192
 0
VERTEX
 8
DISCO_1
 10
32.5003
 20
10.9644
 30
0.4501
 70
192
 0
VERTEX
 8
DISCO_1
 10
32.452
 20
10.9773
 30
0.4501
 70
192
 0
VERTEX
 8
DISCO_1
 10
32.6655
 20
11.4531
 30
0.4501
 70
192
 0
VERTEX
 8
DISCO_1
 10
32.6165
 20
11.4629
 30
0.4501
 70
192
 0
VERTEX
 8
DISCO_1
 10
32.5675
 20
11.4726
 30
0.4501
 70
192
 0
VERTEX
 8
DISCO_1
 10
32.7494
 20
11.9614
 30
0.4501
 70
192
 0
VERTEX
 8
DISCO_1
 10
32.6999
 20
11.9679
 30
0.4501
 70
192
 0
VERTEX
 8
DISCO_1
 10
32.6503
 20
11.9744
 30
0.4501
 70
192
 0
VERTEX
 8
DISCO_1
 10
32.7999
 20
12.4741
 30
0.4501
 70
192
 0
VERTEX
 8
DISCO_1
 10
32.75
 20
12.4773
 30
0.4501
 70
192
 0
VERTEX
 8
DISCO_1
 10
32.7002
 20
12.4806
 30
0.4501
 70
192
 0
VERTEX
 8
DISCO_1
 10
0
 20
0
 30
0
 70
128
 71
1
 72
2
 73
5
 74
4
 0
VERTEX
 8
DISCO_1
 10
0
 20
0
 30
0
 70
128
 71
2
 72
3
 73
6
 74
5
 0
VERTEX
 8
DISCO_1
 10
0
 20
0
 30
0
 70
128
 71
4
 72
5
 73
8
 74
7
 0
VERTEX
 8
DISCO_1
 10
0
 20
0
 30
0
 70
128
 71
5
 72
6
 73
9
 74
8
 0
VERTEX
 8
DISCO_1
 10
0
 20
0
 30
0
 70
128
 71
7
 72
8
 73
11
 74
10
 0
VERTEX
 8
DISCO_1
 10
0
 20
0
 30
0
 70
128
 71
8
 72
9
 73
12
 74
11
 0
VERTEX
 8
DISCO_1
 10
0
 20
0
 30
0
 70
128
 71
10
 72
11
 73
14
 74
13
 0
VERTEX
 8
DISCO_1
 10
0
 20
0
 30
0
 70
128
 71
11
 72
12
 73
15
 74
14
 0
VERTEX
 8
DISCO_1
 10
0
 20
0
 30
0
 70
128
 71
13
 72
14
 73
17
 74
16
 0
VERTEX
 8
DISCO_1
 10
0
 20
0
 30
0
 70
128
 71
14
 72
15
 73
18
 74
17
 0
VERTEX
 8
DISCO_1
 10
0
 20
0
 30
0
 70
128
 71
16
 72
17
 73
20
 74
19
 0
VERTEX
 8
DISCO_1
 10
0
 20
0
 30
0
 70
128
 71
17
 72
18
 73
21
 74
20
 0
VERTEX
 8
DISCO_1
 10
0
 20
0
 30
0
 70
128
 71
19
 72
20
 73
23
 74
22
 0
VERTEX
 8
DISCO_1
 10
0
 20
0
 30
0
 70
128
 71
20
 72
21
 73
24
 74
23
 0
VERTEX
 8
DISCO_1
 10
0
 20
0
 30
0
 70
128
 71
22
 72
23
 73
26
 74
25
 0
VERTEX
 8
DISCO_1
 10
0
 20
0
 30
0
 70
128
 71
23
 72
24
 73
27
 74
26
 0
VERTEX
 8
DISCO_1
 10
0
 20
0
 30
0
 70
128
 71
25
 72
26
 73
29
 74
28
 0
VERTEX
 8
DISCO_1
 10
0
 20
0
 30
0
 70
128
 71
26
 72
27
 73
30
 74
29
 0
VERTEX
 8
DISCO_1
 10
0
 20
0
 30
0
 70
128
 71
28
 72
29
 73
32
 74
31
 0
VERTEX
 8
DISCO_1
 10
0
 20
0
 30
0
 70
128
 71
29
 72
30
 73
33
 74
32
 0
VERTEX
 8
DISCO_1
 10
0
 20
0
 30
0
 70
128
 71
31
 72
32
 73
35
 74
34
 0
VERTEX
 8
DISCO_1
 10
0
 20
0
 30
0
 70
128
 71
32
 72
33
 73
36
 74
35
 0
VERTEX
 8
DISCO_1
 10
0
 20
0
 30
0
 70
128
 71
34
 72
35
 73
38
 74
37
 0
VERTEX
 8
DISCO_1
 10
0
 20
0
 30
0
 70
128
 71
35
 72
36
 73
39
 74
38
 0
VERTEX
 8
DISCO_1
 10
0
 20
0
 30
0
 70
128
 71
37
 72
38
 73
41
 74
40
 0
VERTEX
 8
DISCO_1
 10
0
 20
0
 30
0
 70
128
 71
38
 72
39
 73
42
 74
41
 0
VERTEX
 8
DISCO_1
 10
0
 20
0
 30
0
 70
128
 71
40
 72
41
 73
44
 74
43
 0
VERTEX
 8
DISCO_1
 10
0
 20
0
 30
0
 70
128
 71
41
 72
42
 73
45
 74
44
 0
VERTEX
 8
DISCO_1
 10
0
 20
0
 30
0
 70
128
 71
43
 72
44
 73
47
 74
46
 0
VERTEX
 8
DISCO_1
 10
0
 20
0
 30
0
 70
128
 71
44
 72
45
 73
48
 74
47
 0
VERTEX
 8
DISCO_1
 10
0
 20
0
 30
0
 70
128
 71
46
 72
47
 73
50
 74
49
 0
VERTEX
 8
DISCO_1
 10
0
 20
0
 30
0
 70
128
 71
47
 72
48
 73
51
 74
50
 0
VERTEX
 8
DISCO_1
 10
0
 20
0
 30
0
 70
128
 71
49
 72
50
 73
53
 74
52
 0
VERTEX
 8
DISCO_1
 10
0
 20
0
 30
0
 70
128
 71
50
 72
51
 73
54
 74
53
 0
VERTEX
 8
DISCO_1
 10
0
 20
0
 30
0
 70
128
 71
52
 72
53
 73
56
 74
55
 0
VERTEX
 8
DISCO_1
 10
0
 20
0
 30
0
 70
128
 71
53
 72
54
 73
57
 74
56
 0
VERTEX
 8
DISCO_1
 10
0
 20
0
 30
0
 70
128
 71
55
 72
56
 73
59
 74
58
 0
VERTEX
 8
DISCO_1
 10
0
 20
0
 30
0
 70
128
 71
56
 72
57
 73
60
 74
59
 0
VERTEX
 8
DISCO_1
 10
0
 20
0
 30
0
 70
128
 71
58
 72
59
 73
62
 74
61
 0
VERTEX
 8
DISCO_1
 10
0
 20
0
 30
0
 70
128
 71
59
 72
60
 73
63
 74
62
 0
VERTEX
 8
DISCO_1
 10
0
 20
0
 30
0
 70
128
 71
61
 72
62
 73
65
 74
64
 0
VERTEX
 8
DISCO_1
 10
0
 20
0
 30
0
 70
128
 71
62
 72
63
 73
66
 74
65
 0
VERTEX
 8
DISCO_1
 10
0
 20
0
 30
0
 70
128
 71
64
 72
65
 73
68
 74
67
 0
VERTEX
 8
DISCO_1
 10
0
 20
0
 30
0
 70
128
 71
65
 72
66
 73
69
 74
68
 0
VERTEX
 8
DISCO_1
 10
0
 20
0
 30
0
 70
128
 71
67
 72
68
 73
71
 74
70
 0
VERTEX
 8
DISCO_1
 10
0
 20
0
 30
0
 70
128
 71
68
 72
69
 73
72
 74
71
 0
VERTEX
 8
DISCO_1
 10
0
 20
0
 30
0
 70
128
 71
70
 72
71
 73
74
 74
73
 0
VERTEX
 8
DISCO_1
 10
0
 20
0
 30
0
 70
128
 71
71
 72
72
 73
75
 74
74
 0
VERTEX
 8
DISCO_1
 10
0
 20
0
 30
0
 70
128
 71
73
 72
74
 73
77
 74
76
 0
VERTEX
 8
DISCO_1
 10
0
 20
0
 30
0
 70
128
 71
74
 72
75
 73
78
 74
77
 0
VERTEX
 8
DISCO_1
 10
0
 20
0
 30
0
 70
128
 71
76
 72
77
 73
80
 74
79
 0
VERTEX
 8
DISCO_1
 10
0
 20
0
 30
0
 70
128
 71
77
 72
78
 73
81
 74
80
 0
VERTEX
 8
DISCO_1
 10
0
 20
0
 30
0
 70
128
 71
79
 72
80
 73
83
 74
82
 0
VERTEX
 8
DISCO_1
 10
0
 20
0
 30
0
 70
128
 71
80
 72
81
 73
84
 74
83
 0
VERTEX
 8
DISCO_1
 10
0
 20
0
 30
0
 70
128
 71
82
 72
83
 73
86
 74
85
 0
VERTEX
 8
DISCO_1
 10
0
 20
0
 30
0
 70
128
 71
83
 72
84
 73
87
 74
86
 0
VERTEX
 8
DISCO_1
 10
0
 20
0
 30
0
 70
128
 71
85
 72
86
 73
89
 74
88
 0
VERTEX
 8
DISCO_1
 10
0
 20
0
 30
0
 70
128
 71
86
 72
87
 73
90
 74
89
 0
VERTEX
 8
DISCO_1
 10
0
 20
0
 30
0
 70
128
 71
88
 72
89
 73
92
 74
91
 0
VERTEX
 8
DISCO_1
 10
0
 20
0
 30
0
 70
128
 71
89
 72
90
 73
93
 74
92
 0
VERTEX
 8
DISCO_1
 10
0
 20
0
 30
0
 70
128
 71
91
 72
92
 73
95
 74
94
 0
VERTEX
 8
DISCO_1
 10
0
 20
0
 30
0
 70
128
 71
92
 72
93
 73
96
 74
95
 0
VERTEX
 8
DISCO_1
 10
0
 20
0
 30
0
 70
128
 71
94
 72
95
 73
98
 74
97
 0
VERTEX
 8
DISCO_1
 10
0
 20
0
 30
0
 70
128
 71
95
 72
96
 73
99
 74
98
 0
VERTEX
 8
DISCO_1
 10
0
 20
0
 30
0
 70
128
 71
97
 72
98
 73
101
 74
100
 0
VERTEX
 8
DISCO_1
 10
0
 20
0
 30
0
 70
128
 71
98
 72
99
 73
102
 74
101
 0
VERTEX
 8
DISCO_1
 10
0
 20
0
 30
0
 70
128
 71
100
 72
101
 73
104
 74
103
 0
VERTEX
 8
DISCO_1
 10
0
 20
0
 30
0
 70
128
 71
101
 72
102
 73
105
 74
104
 0
VERTEX
 8
DISCO_1
 10
0
 20
0
 30
0
 70
128
 71
103
 72
104
 73
107
 74
106
 0
VERTEX
 8
DISCO_1
 10
0
 20
0
 30
0
 70
128
 71
104
 72
105
 73
108
 74
107
 0
VERTEX
 8
DISCO_1
 10
0
 20
0
 30
0
 70
128
 71
106
 72
107
 73
110
 74
109
 0
VERTEX
 8
DISCO_1
 10
0
 20
0
 30
0
 70
128
 71
107
 72
108
 73
111
 74
110
 0
VERTEX
 8
DISCO_1
 10
0
 20
0
 30
0
 70
128
 71
109
 72
110
 73
113
 74
112
 0
VERTEX
 8
DISCO_1
 10
0
 20
0
 30
0
 70
128
 71
110
 72
111
 73
114
 74
113
 0
VERTEX
 8
DISCO_1
 10
0
 20
0
 30
0
 70
128
 71
112
 72
113
 73
116
 74
115
 0
VERTEX
 8
DISCO_1
 10
0
 20
0
 30
0
 70
128
 71
113
 72
114
 73
117
 74
116
 0
VERTEX
 8
DISCO_1
 10
0
 20
0
 30
0
 70
128
 71
115
 72
116
 73
119
 74
118
 0
VERTEX
 8
DISCO_1
 10
0
 20
0
 30
0
 70
128
 71
116
 72
117
 73
120
 74
119
 0
VERTEX
 8
DISCO_1
 10
0
 20
0
 30
0
 70
128
 71
118
 72
119
 73
122
 74
121
 0
VERTEX
 8
DISCO_1
 10
0
 20
0
 30
0
 70
128
 71
119
 72
120
 73
123
 74
122
 0
VERTEX
 8
DISCO_1
 10
0
 20
0
 30
0
 70
128
 71
121
 72
122
 73
125
 74
124
 0
VERTEX
 8
DISCO_1
 10
0
 20
0
 30
0
 70
128
 71
122
 72
123
 73
126
 74
125
 0
VERTEX
 8
DISCO_1
 10
0
 20
0
 30
0
 70
128
 71
124
 72
125
 73
128
 74
127
 0
VERTEX
 8
DISCO_1
 10
0
 20
0
 30
0
 70
128
 71
125
 72
126
 73
129
 74
128
 0
VERTEX
 8
DISCO_1
 10
0
 20
0
 30
0
 70
128
 71
127
 72
128
 73
131
 74
130
 0
VERTEX
 8
DISCO_1
 10
0
 20
0
 30
0
 70
128
 71
128
 72
129
 73
132
 74
131
 0
VERTEX
 8
DISCO_1
 10
0
 20
0
 30
0
 70
128
 71
130
 72
131
 73
134
 74
133
 0
VERTEX
 8
DISCO_1
 10
0
 20
0
 30
0
 70
128
 71
131
 72
132
 73
135
 74
134
 0
VERTEX
 8
DISCO_1
 10
0
 20
0
 30
0
 70
128
 71
133
 72
134
 73
137
 74
136
 0
VERTEX
 8
DISCO_1
 10
0
 20
0
 30
0
 70
128
 71
134
 72
135
 73
138
 74
137
 0
VERTEX
 8
DISCO_1
 10
0
 20
0
 30
0
 70
128
 71
136
 72
137
 73
140
 74
139
 0
VERTEX
 8
DISCO_1
 10
0
 20
0
 30
0
 70
128
 71
137
 72
138
 73
141
 74
140
 0
VERTEX
 8
DISCO_1
 10
0
 20
0
 30
0
 70
128
 71
139
 72
140
 73
143
 74
142
 0
VERTEX
 8
DISCO_1
 10
0
 20
0
 30
0
 70
128
 71
140
 72
141
 73
144
 74
143
 0
VERTEX
 8
DISCO_1
 10
0
 20
0
 30
0
 70
128
 71
142
 72
143
 73
146
 74
145
 0
VERTEX
 8
DISCO_1
 10
0
 20
0
 30
0
 70
128
 71
143
 72
144
 73
147
 74
146
 0
VERTEX
 8
DISCO_1
 10
0
 20
0
 30
0
 70
128
 71
145
 72
146
 73
149
 74
148
 0
VERTEX
 8
DISCO_1
 10
0
 20
0
 30
0
 70
128
 71
146
 72
147
 73
150
 74
149
 0
VERTEX
 8
DISCO_1
 10
0
 20
0
 30
0
 70
128
 71
148
 72
149
 73
152
 74
151
 0
VERTEX
 8
DISCO_1
 10
0
 20
0
 30
0
 70
128
 71
149
 72
150
 73
153
 74
152
 0
VERTEX
 8
DISCO_1
 10
0
 20
0
 30
0
 70
128
 71
151
 72
152
 73
155
 74
154
 0
VERTEX
 8
DISCO_1
 10
0
 20
0
 30
0
 70
128
 71
152
 72
153
 73
156
 74
155
 0
VERTEX
 8
DISCO_1
 10
0
 20
0
 30
0
 70
128
 71
154
 72
155
 73
158
 74
157
 0
VERTEX
 8
DISCO_1
 10
0
 20
0
 30
0
 70
128
 71
155
 72
156
 73
159
 74
158
 0
VERTEX
 8
DISCO_1
 10
0
 20
0
 30
0
 70
128
 71
157
 72
158
 73
161
 74
160
 0
VERTEX
 8
DISCO_1
 10
0
 20
0
 30
0
 70
128
 71
158
 72
159
 73
162
 74
161
 0
VERTEX
 8
DISCO_1
 10
0
 20
0
 30
0
 70
128
 71
160
 72
161
 73
164
 74
163
 0
VERTEX
 8
DISCO_1
 10
0
 20
0
 30
0
 70
128
 71
161
 72
162
 73
165
 74
164
 0
VERTEX
 8
DISCO_1
 10
0
 20
0
 30
0
 70
128
 71
163
 72
164
 73
167
 74
166
 0
VERTEX
 8
DISCO_1
 10
0
 20
0
 30
0
 70
128
 71
164
 72
165
 73
168
 74
167
 0
VERTEX
 8
DISCO_1
 10
0
 20
0
 30
0
 70
128
 71
166
 72
167
 73
170
 74
169
 0
VERTEX
 8
DISCO_1
 10
0
 20
0
 30
0
 70
128
 71
167
 72
168
 73
171
 74
170
 0
VERTEX
 8
DISCO_1
 10
0
 20
0
 30
0
 70
128
 71
169
 72
170
 73
173
 74
172
 0
VERTEX
 8
DISCO_1
 10
0
 20
0
 30
0
 70
128
 71
170
 72
171
 73
174
 74
173
 0
VERTEX
 8
DISCO_1
 10
0
 20
0
 30
0
 70
128
 71
172
 72
173
 73
176
 74
175
 0
VERTEX
 8
DISCO_1
 10
0
 20
0
 30
0
 70
128
 71
173
 72
174
 73
177
 74
176
 0
VERTEX
 8
DISCO_1
 10
0
 20
0
 30
0
 70
128
 71
175
 72
176
 73
179
 74
178
 0
VERTEX
 8
DISCO_1
 10
0
 20
0
 30
0
 70
128
 71
176
 72
177
 73
180
 74
179
 0
VERTEX
 8
DISCO_1
 10
0
 20
0
 30
0
 70
128
 71
178
 72
179
 73
182
 74
181
 0
VERTEX
 8
DISCO_1
 10
0
 20
0
 30
0
 70
128
 71
179
 72
180
 73
183
 74
182
 0
VERTEX
 8
DISCO_1
 10
0
 20
0
 30
0
 70
128
 71
181
 72
182
 73
185
 74
184
 0
VERTEX
 8
DISCO_1
 10
0
 20
0
 30
0
 70
128
 71
182
 72
183
 73
186
 74
185
 0
VERTEX
 8
DISCO_1
 10
0
 20
0
 30
0
 70
128
 71
184
 72
185
 73
188
 74
187
 0
VERTEX
 8
DISCO_1
 10
0
 20
0
 30
0
 70
128
 71
185
 72
186
 73
189
 74
188
 0
VERTEX
 8
DISCO_1
 10
0
 20
0
 30
0
 70
128
 71
187
 72
188
 73
191
 74
190
 0
VERTEX
 8
DISCO_1
 10
0
 20
0
 30
0
 70
128
 71
188
 72
189
 73
192
 74
191
 0
VERTEX
 8
DISCO_1
 10
0
 20
0
 30
0
 70
128
 71
190
 72
191
 73
194
 74
193
 0
VERTEX
 8
DISCO_1
 10
0
 20
0
 30
0
 70
128
 71
191
 72
192
 73
195
 74
194
 0
VERTEX
 8
DISCO_1
 10
0
 20
0
 30
0
 70
128
 71
193
 72
194
 73
197
 74
196
 0
VERTEX
 8
DISCO_1
 10
0
 20
0
 30
0
 70
128
 71
194
 72
195
 73
198
 74
197
 0
VERTEX
 8
DISCO_1
 10
0
 20
0
 30
0
 70
128
 71
196
 72
197
 73
200
 74
199
 0
VERTEX
 8
DISCO_1
 10
0
 20
0
 30
0
 70
128
 71
197
 72
198
 73
201
 74
200
 0
VERTEX
 8
DISCO_1
 10
0
 20
0
 30
0
 70
128
 71
199
 72
200
 73
203
 74
202
 0
VERTEX
 8
DISCO_1
 10
0
 20
0
 30
0
 70
128
 71
200
 72
201
 73
204
 74
203
 0
VERTEX
 8
DISCO_1
 10
0
 20
0
 30
0
 70
128
 71
202
 72
203
 73
206
 74
205
 0
VERTEX
 8
DISCO_1
 10
0
 20
0
 30
0
 70
128
 71
203
 72
204
 73
207
 74
206
 0
VERTEX
 8
DISCO_1
 10
0
 20
0
 30
0
 70
128
 71
205
 72
206
 73
209
 74
208
 0
VERTEX
 8
DISCO_1
 10
0
 20
0
 30
0
 70
128
 71
206
 72
207
 73
210
 74
209
 0
VERTEX
 8
DISCO_1
 10
0
 20
0
 30
0
 70
128
 71
208
 72
209
 73
212
 74
211
 0
VERTEX
 8
DISCO_1
 10
0
 20
0
 30
0
 70
128
 71
209
 72
210
 73
213
 74
212
 0
VERTEX
 8
DISCO_1
 10
0
 20
0
 30
0
 70
128
 71
211
 72
212
 73
215
 74
214
 0
VERTEX
 8
DISCO_1
 10
0
 20
0
 30
0
 70
128
 71
212
 72
213
 73
216
 74
215
 0
VERTEX
 8
DISCO_1
 10
0
 20
0
 30
0
 70
128
 71
214
 72
215
 73
218
 74
217
 0
VERTEX
 8
DISCO_1
 10
0
 20
0
 30
0
 70
128
 71
215
 72
216
 73
219
 74
218
 0
VERTEX
 8
DISCO_1
 10
0
 20
0
 30
0
 70
128
 71
217
 72
218
 73
221
 74
220
 0
VERTEX
 8
DISCO_1
 10
0
 20
0
 30
0
 70
128
 71
218
 72
219
 73
222
 74
221
 0
VERTEX
 8
DISCO_1
 10
0
 20
0
 30
0
 70
128
 71
220
 72
221
 73
224
 74
223
 0
VERTEX
 8
DISCO_1
 10
0
 20
0
 30
0
 70
128
 71
221
 72
222
 73
225
 74
224
 0
VERTEX
 8
DISCO_1
 10
0
 20
0
 30
0
 70
128
 71
223
 72
224
 73
227
 74
226
 0
VERTEX
 8
DISCO_1
 10
0
 20
0
 30
0
 70
128
 71
224
 72
225
 73
228
 74
227
 0
VERTEX
 8
DISCO_1
 10
0
 20
0
 30
0
 70
128
 71
226
 72
227
 73
230
 74
229
 0
VERTEX
 8
DISCO_1
 10
0
 20
0
 30
0
 70
128
 71
227
 72
228
 73
231
 74
230
 0
VERTEX
 8
DISCO_1
 10
0
 20
0
 30
0
 70
128
 71
229
 72
230
 73
233
 74
232
 0
VERTEX
 8
DISCO_1
 10
0
 20
0
 30
0
 70
128
 71
230
 72
231
 73
234
 74
233
 0
VERTEX
 8
DISCO_1
 10
0
 20
0
 30
0
 70
128
 71
232
 72
233
 73
236
 74
235
 0
VERTEX
 8
DISCO_1
 10
0
 20
0
 30
0
 70
128
 71
233
 72
234
 73
237
 74
236
 0
VERTEX
 8
DISCO_1
 10
0
 20
0
 30
0
 70
128
 71
235
 72
236
 73
239
 74
238
 0
VERTEX
 8
DISCO_1
 10
0
 20
0
 30
0
 70
128
 71
236
 72
237
 73
240
 74
239
 0
VERTEX
 8
DISCO_1
 10
0
 20
0
 30
0
 70
128
 71
238
 72
239
 73
242
 74
241
 0
VERTEX
 8
DISCO_1
 10
0
 20
0
 30
0
 70
128
 71
239
 72
240
 73
243
 74
242
 0
VERTEX
 8
DISCO_1
 10
0
 20
0
 30
0
 70
128
 71
241
 72
242
 73
245
 74
244
 0
VERTEX
 8
DISCO_1
 10
0
 20
0
 30
0
 70
128
 71
242
 72
243
 73
246
 74
245
 0
VERTEX
 8
DISCO_1
 10
0
 20
0
 30
0
 70
128
 71
244
 72
245
 73
248
 74
247
 0
VERTEX
 8
DISCO_1
 10
0
 20
0
 30
0
 70
128
 71
245
 72
246
 73
249
 74
248
 0
VERTEX
 8
DISCO_1
 10
0
 20
0
 30
0
 70
128
 71
247
 72
248
 73
251
 74
250
 0
VERTEX
 8
DISCO_1
 10
0
 20
0
 30
0
 70
128
 71
248
 72
249
 73
252
 74
251
 0
VERTEX
 8
DISCO_1
 10
0
 20
0
 30
0
 70
128
 71
250
 72
251
 73
254
 74
253
 0
VERTEX
 8
DISCO_1
 10
0
 20
0
 30
0
 70
128
 71
251
 72
252
 73
255
 74
254
 0
VERTEX
 8
DISCO_1
 10
0
 20
0
 30
0
 70
128
 71
253
 72
254
 73
257
 74
256
 0
VERTEX
 8
DISCO_1
 10
0
 20
0
 30
0
 70
128
 71
254
 72
255
 73
258
 74
257
 0
VERTEX
 8
DISCO_1
 10
0
 20
0
 30
0
 70
128
 71
256
 72
257
 73
260
 74
259
 0
VERTEX
 8
DISCO_1
 10
0
 20
0
 30
0
 70
128
 71
257
 72
258
 73
261
 74
260
 0
VERTEX
 8
DISCO_1
 10
0
 20
0
 30
0
 70
128
 71
259
 72
260
 73
263
 74
262
 0
VERTEX
 8
DISCO_1
 10
0
 20
0
 30
0
 70
128
 71
260
 72
261
 73
264
 74
263
 0
VERTEX
 8
DISCO_1
 10
0
 20
0
 30
0
 70
128
 71
262
 72
263
 73
266
 74
265
 0
VERTEX
 8
DISCO_1
 10
0
 20
0
 30
0
 70
128
 71
263
 72
264
 73
267
 74
266
 0
VERTEX
 8
DISCO_1
 10
0
 20
0
 30
0
 70
128
 71
265
 72
266
 73
269
 74
268
 0
VERTEX
 8
DISCO_1
 10
0
 20
0
 30
0
 70
128
 71
266
 72
267
 73
270
 74
269
 0
VERTEX
 8
DISCO_1
 10
0
 20
0
 30
0
 70
128
 71
268
 72
269
 73
272
 74
271
 0
VERTEX
 8
DISCO_1
 10
0
 20
0
 30
0
 70
128
 71
269
 72
270
 73
273
 74
272
 0
VERTEX
 8
DISCO_1
 10
0
 20
0
 30
0
 70
128
 71
271
 72
272
 73
275
 74
274
 0
VERTEX
 8
DISCO_1
 10
0
 20
0
 30
0
 70
128
 71
272
 72
273
 73
276
 74
275
 0
VERTEX
 8
DISCO_1
 10
0
 20
0
 30
0
 70
128
 71
274
 72
275
 73
278
 74
277
 0
VERTEX
 8
DISCO_1
 10
0
 20
0
 30
0
 70
128
 71
275
 72
276
 73
279
 74
278
 0
VERTEX
 8
DISCO_1
 10
0
 20
0
 30
0
 70
128
 71
277
 72
278
 73
281
 74
280
 0
VERTEX
 8
DISCO_1
 10
0
 20
0
 30
0
 70
128
 71
278
 72
279
 73
282
 74
281
 0
VERTEX
 8
DISCO_1
 10
0
 20
0
 30
0
 70
128
 71
280
 72
281
 73
284
 74
283
 0
VERTEX
 8
DISCO_1
 10
0
 20
0
 30
0
 70
128
 71
281
 72
282
 73
285
 74
284
 0
VERTEX
 8
DISCO_1
 10
0
 20
0
 30
0
 70
128
 71
283
 72
284
 73
287
 74
286
 0
VERTEX
 8
DISCO_1
 10
0
 20
0
 30
0
 70
128
 71
284
 72
285
 73
288
 74
287
 0
VERTEX
 8
DISCO_1
 10
0
 20
0
 30
0
 70
128
 71
286
 72
287
 73
2
 74
1
 0
VERTEX
 8
DISCO_1
 10
0
 20
0
 30
0
 70
128
 71
287
 72
288
 73
3
 74
2
 0
SEQEND
 0
POLYLINE
 8
DISCO
 66
1
 10
0.0
 20
0.0
 30
0.0
 70
64
 71
288
 72
192
 0
VERTEX
 8
DISCO
 10
-17.0816
 20
12.989
 30
0.4501
 70
192
 0
VERTEX
 8
DISCO
 10
-17.1316
 20
12.989
 30
0.4501
 70
192
 0
VERTEX
 8
DISCO
 10
-17.1815
 20
12.989
 30
0.4501
 70
192
 0
VERTEX
 8
DISCO
 10
-17.0984
 20
13.5038
 30
0.4501
 70
192
 0
VERTEX
 8
DISCO
 10
-17.1483
 20
13.5006
 30
0.4501
 70
192
 0
VERTEX
 8
DISCO
 10
-17.1982
 20
13.4973
 30
0.4501
 70
192
 0
VERTEX
 8
DISCO
 10
-17.1489
 20
14.0165
 30
0.4501
 70
192
 0
VERTEX
 8
DISCO
 10
-17.1985
 20
14.01
 30
0.4501
 70
192
 0
VERTEX
 8
DISCO
 10
-17.248
 20
14.0035
 30
0.4501
 70
192
 0
VERTEX
 8
DISCO
 10
-17.2329
 20
14.5248
 30
0.4501
 70
192
 0
VERTEX
 8
DISCO
 10
-17.2819
 20
14.5151
 30
0.4501
 70
192
 0
VERTEX
 8
DISCO
 10
-17.3309
 20
14.5053
 30
0.4501
 70
192
 0
VERTEX
 8
DISCO
 10
-17.3498
 20
15.0265
 30
0.4501
 70
192
 0
VERTEX
 8
DISCO
 10
-17.3981
 20
15.0136
 30
0.4501
 70
192
 0
VERTEX
 8
DISCO
 10
-17.4464
 20
15.0006
 30
0.4501
 70
192
 0
VERTEX
 8
DISCO
 10
-17.4994
 20
15.5195
 30
0.4501
 70
192
 0
VERTEX
 8
DISCO
 10
-17.5467
 20
15.5034
 30
0.4501
 70
192
 0
VERTEX
 8
DISCO
 10
-17.594
 20
15.4874
 30
0.4501
 70
192
 0
VERTEX
 8
DISCO
 10
-17.6808
 20
16.0016
 30
0.4501
 70
192
 0
VERTEX
 8
DISCO
 10
-17.727
 20
15.9825
 30
0.4501
 70
192
 0
VERTEX
 8
DISCO
 10
-17.7732
 20
15.9634
 30
0.4501
 70
192
 0
VERTEX
 8
DISCO
 10
-17.8935
 20
16.4709
 30
0.4501
 70
192
 0
VERTEX
 8
DISCO
 10
-17.9383
 20
16.4488
 30
0.4501
 70
192
 0
VERTEX
 8
DISCO
 10
-17.9831
 20
16.4267
 30
0.4501
 70
192
 0
VERTEX
 8
DISCO
 10
-18.1363
 20
16.9252
 30
0.4501
 70
192
 0
VERTEX
 8
DISCO
 10
-18.1796
 20
16.9002
 30
0.4501
 70
192
 0
VERTEX
 8
DISCO
 10
-18.2229
 20
16.8752
 30
0.4501
 70
192
 0
VERTEX
 8
DISCO
 10
-18.4083
 20
17.3627
 30
0.4501
 70
192
 0
VERTEX
 8
DISCO
 10
-18.4499
 20
17.3349
 30
0.4501
 70
192
 0
VERTEX
 8
DISCO
 10
-18.4915
 20
17.3071
 30
0.4501
 70
192
 0
VERTEX
 8
DISCO
 10
-18.7084
 20
17.7814
 30
0.4501
 70
192
 0
VERTEX
 8
DISCO
 10
-18.7481
 20
17.751
 30
0.4501
 70
192
 0
VERTEX
 8
DISCO
 10
-18.7877
 20
17.7206
 30
0.4501
 70
192
 0
VERTEX
 8
DISCO
 10
-19.0352
 20
18.1796
 30
0.4501
 70
192
 0
VERTEX
 8
DISCO
 10
-19.0728
 20
18.1467
 30
0.4501
 70
192
 0
VERTEX
 8
DISCO
 10
-19.1104
 20
18.1137
 30
0.4501
 70
192
 0
VERTEX
 8
DISCO
 10
-19.3874
 20
18.5556
 30
0.4501
 70
192
 0
VERTEX
 8
DISCO
 10
-19.4227
 20
18.5203
 30
0.4501
 70
192
 0
VERTEX
 8
DISCO
 10
-19.4581
 20
18.4849
 30
0.4501
 70
192
 0
VERTEX
 8
DISCO
 10
-19.7634
 20
18.9078
 30
0.4501
 70
192
 0
VERTEX
 8
DISCO
 10
-19.7963
 20
18.8702
 30
0.4501
 70
192
 0
VERTEX
 8
DISCO
 10
-19.8293
 20
18.8326
 30
0.4501
 70
192
 0
VERTEX
 8
DISCO
 10
-20.1616
 20
19.2346
 30
0.4501
 70
192
 0
VERTEX
 8
DISCO
 10
-20.192
 20
19.195
 30
0.4501
 70
192
 0
VERTEX
 8
DISCO
 10
-20.2225
 20
19.1553
 30
0.4501
 70
192
 0
VERTEX
 8
DISCO
 10
-20.5803
 20
19.5347
 30
0.4501
 70
192
 0
VERTEX
 8
DISCO
 10
-20.6081
 20
19.4931
 30
0.4501
 70
192
 0
VERTEX
 8
DISCO
 10
-20.6359
 20
19.4516
 30
0.4501
 70
192
 0
VERTEX
 8
DISCO
 10
-21.0178
 20
19.8067
 30
0.4501
 70
192
 0
VERTEX
 8
DISCO
 10
-21.0428
 20
19.7634
 30
0.4501
 70
192
 0
VERTEX
 8
DISCO
 10
-21.0678
 20
19.7201
 30
0.4501
 70
192
 0
VERTEX
 8
DISCO
 10
-21.4722
 20
20.0496
 30
0.4501
 70
192
 0
VERTEX
 8
DISCO
 10
-21.4943
 20
20.0047
 30
0.4501
 70
192
 0
VERTEX
 8
DISCO
 10
-21.5164
 20
19.9599
 30
0.4501
 70
192
 0
VERTEX
 8
DISCO
 10
-21.9414
 20
20.2622
 30
0.4501
 70
192
 0
VERTEX
 8
DISCO
 10
-21.9605
 20
20.216
 30
0.4501
 70
192
 0
VERTEX
 8
DISCO
 10
-21.9796
 20
20.1698
 30
0.4501
 70
192
 0
VERTEX
 8
DISCO
 10
-22.4235
 20
20.4436
 30
0.4501
 70
192
 0
VERTEX
 8
DISCO
 10
-22.4396
 20
20.3963
 30
0.4501
 70
192
 0
VERTEX
 8
DISCO
 10
-22.4557
 20
20.349
 30
0.4501
 70
192
 0
VERTEX
 8
DISCO
 10
-22.9165
 20
20.5932
 30
0.4501
 70
192
 0
VERTEX
 8
DISCO
 10
-22.9294
 20
20.5449
 30
0.4501
 70
192
 0
VERTEX
 8
DISCO
 10
-22.9424
 20
20.4966
 30
0.4501
 70
192
 0
VERTEX
 8
DISCO
 10
-23.4182
 20
20.7102
 30
0.4501
 70
192
 0
VERTEX
 8
DISCO
 10
-23.428
 20
20.6611
 30
0.4501
 70
192
 0
VERTEX
 8
DISCO
 10
-23.4377
 20
20.6121
 30
0.4501
 70
192
 0
VERTEX
 8
DISCO
 10
-23.9265
 20
20.7941
 30
0.4501
 70
192
 0
VERTEX
 8
DISCO
 10
-23.933
 20
20.7445
 30
0.4501
 70
192
 0
VERTEX
 8
DISCO
 10
-23.9395
 20
20.695
 30
0.4501
 70
192
 0
VERTEX
 8
DISCO
 10
-24.4392
 20
20.8446
 30
0.4501
 70
192
 0
VERTEX
 8
DISCO
 10
-24.4424
 20
20.7947
 30
0.4501
 70
192
 0
VERTEX
 8
DISCO
 10
-24.4457
 20
20.7448
 30
0.4501
 70
192
 0
VERTEX
 8
DISCO
 10
-24.954
 20
20.8614
 30
0.4501
 70
192
 0
VERTEX
 8
DISCO
 10
-24.954
 20
20.8114
 30
0.4501
 70
192
 0
VERTEX
 8
DISCO
 10
-24.954
 20
20.7615
 30
0.4501
 70
192
 0
VERTEX
 8
DISCO
 10
-25.4689
 20
20.8446
 30
0.4501
 70
192
 0
VERTEX
 8
DISCO
 10
-25.4657
 20
20.7947
 30
0.4501
 70
192
 0
VERTEX
 8
DISCO
 10
-25.4624
 20
20.7448
 30
0.4501
 70
192
 0
VERTEX
 8
DISCO
 10
-25.9816
 20
20.7941
 30
0.4501
 70
192
 0
VERTEX
 8
DISCO
 10
-25.9751
 20
20.7445
 30
0.4501
 70
192
 0
VERTEX
 8
DISCO
 10
-25.9686
 20
20.695
 30
0.4501
 70
192
 0
VERTEX
 8
DISCO
 10
-26.4899
 20
20.7102
 30
0.4501
 70
192
 0
VERTEX
 8
DISCO
 10
-26.4801
 20
20.6611
 30
0.4501
 70
192
 0
VERTEX
 8
DISCO
 10
-26.4704
 20
20.6121
 30
0.4501
 70
192
 0
VERTEX
 8
DISCO
 10
-26.9916
 20
20.5932
 30
0.4501
 70
192
 0
VERTEX
 8
DISCO
 10
-26.9787
 20
20.5449
 30
0.4501
 70
192
 0
VERTEX
 8
DISCO
 10
-26.9657
 20
20.4966
 30
0.4501
 70
192
 0
VERTEX
 8
DISCO
 10
-27.4846
 20
20.4436
 30
0.4501
 70
192
 0
VERTEX
 8
DISCO
 10
-27.4685
 20
20.3963
 30
0.4501
 70
192
 0
VERTEX
 8
DISCO
 10
-27.4524
 20
20.349
 30
0.4501
 70
192
 0
VERTEX
 8
DISCO
 10
-27.9667
 20
20.2622
 30
0.4501
 70
192
 0
VERTEX
 8
DISCO
 10
-27.9476
 20
20.216
 30
0.4501
 70
192
 0
VERTEX
 8
DISCO
 10
-27.9285
 20
20.1698
 30
0.4501
 70
192
 0
VERTEX
 8
DISCO
 10
-28.4359
 20
20.0496
 30
0.4501
 70
192
 0
VERTEX
 8
DISCO
 10
-28.4138
 20
20.0047
 30
0.4501
 70
192
 0
VERTEX
 8
DISCO
 10
-28.3917
 20
19.9599
 30
0.4501
 70
192
 0
VERTEX
 8
DISCO
 10
-28.8903
 20
19.8067
 30
0.4501
 70
192
 0
VERTEX
 8
DISCO
 10
-28.8653
 20
19.7634
 30
0.4501
 70
192
 0
VERTEX
 8
DISCO
 10
-28.8403
 20
19.7201
 30
0.4501
 70
192
 0
VERTEX
 8
DISCO
 10
-29.3278
 20
19.5347
 30
0.4501
 70
192
 0
VERTEX
 8
DISCO
 10
-29.3
 20
19.4931
 30
0.4501
 70
192
 0
VERTEX
 8
DISCO
 10
-29.2722
 20
19.4516
 30
0.4501
 70
192
 0
VERTEX
 8
DISCO
 10
-29.7465
 20
19.2346
 30
0.4501
 70
192
 0
VERTEX
 8
DISCO
 10
-29.7161
 20
19.195
 30
0.4501
 70
192
 0
VERTEX
 8
DISCO
 10
-29.6856
 20
19.1553
 30
0.4501
 70
192
 0
VERTEX
 8
DISCO
 10
-30.1447
 20
18.9078
 30
0.4501
 70
192
 0
VERTEX
 8
DISCO
 10
-30.1118
 20
18.8702
 30
0.4501
 70
192
 0
VERTEX
 8
DISCO
 10
-30.0788
 20
18.8326
 30
0.4501
 70
192
 0
VERTEX
 8
DISCO
 10
-30.5207
 20
18.5556
 30
0.4501
 70
192
 0
VERTEX
 8
DISCO
 10
-30.4854
 20
18.5203
 30
0.4501
 70
192
 0
VERTEX
 8
DISCO
 10
-30.45
 20
18.4849
 30
0.4501
 70
192
 0
VERTEX
 8
DISCO
 10
-30.8729
 20
18.1796
 30
0.4501
 70
192
 0
VERTEX
 8
DISCO
 10
-30.8353
 20
18.1467
 30
0.4501
 70
192
 0
VERTEX
 8
DISCO
 10
-30.7977
 20
18.1137
 30
0.4501
 70
192
 0
VERTEX
 8
DISCO
 10
-31.1997
 20
17.7814
 30
0.4501
 70
192
 0
VERTEX
 8
DISCO
 10
-31.16
 20
17.751
 30
0.4501
 70
192
 0
VERTEX
 8
DISCO
 10
-31.1204
 20
17.7206
 30
0.4501
 70
192
 0
VERTEX
 8
DISCO
 10
-31.4998
 20
17.3627
 30
0.4501
 70
192
 0
VERTEX
 8
DISCO
 10
-31.4582
 20
17.3349
 30
0.4501
 70
192
 0
VERTEX
 8
DISCO
 10
-31.4166
 20
17.3071
 30
0.4501
 70
192
 0
VERTEX
 8
DISCO
 10
-31.7718
 20
16.9252
 30
0.4501
 70
192
 0
VERTEX
 8
DISCO
 10
-31.7285
 20
16.9002
 30
0.4501
 70
192
 0
VERTEX
 8
DISCO
 10
-31.6852
 20
16.8752
 30
0.4501
 70
192
 0
VERTEX
 8
DISCO
 10
-32.0146
 20
16.4709
 30
0.4501
 70
192
 0
VERTEX
 8
DISCO
 10
-31.9698
 20
16.4488
 30
0.4501
 70
192
 0
VERTEX
 8
DISCO
 10
-31.925
 20
16.4267
 30
0.4501
 70
192
 0
VERTEX
 8
DISCO
 10
-32.2273
 20
16.0016
 30
0.4501
 70
192
 0
VERTEX
 8
DISCO
 10
-32.1811
 20
15.9825
 30
0.4501
 70
192
 0
VERTEX
 8
DISCO
 10
-32.1349
 20
15.9634
 30
0.4501
 70
192
 0
VERTEX
 8
DISCO
 10
-32.4087
 20
15.5195
 30
0.4501
 70
192
 0
VERTEX
 8
DISCO
 10
-32.3614
 20
15.5034
 30
0.4501
 70
192
 0
VERTEX
 8
DISCO
 10
-32.3141
 20
15.4874
 30
0.4501
 70
192
 0
VERTEX
 8
DISCO
 10
-32.5583
 20
15.0265
 30
0.4501
 70
192
 0
VERTEX
 8
DISCO
 10
-32.51
 20
15.0136
 30
0.4501
 70
192
 0
VERTEX
 8
DISCO
 10
-32.4617
 20
15.0006
 30
0.4501
 70
192
 0
VERTEX
 8
DISCO
 10
-32.6752
 20
14.5248
 30
0.4501
 70
192
 0
VERTEX
 8
DISCO
 10
-32.6262
 20
14.5151
 30
0.4501
 70
192
 0
VERTEX
 8
DISCO
 10
-32.5772
 20
14.5053
 30
0.4501
 70
192
 0
VERTEX
 8
DISCO
 10
-32.7592
 20
14.0165
 30
0.4501
 70
192
 0
VERTEX
 8
DISCO
 10
-32.7096
 20
14.01
 30
0.4501
 70
192
 0
VERTEX
 8
DISCO
 10
-32.6601
 20
14.0035
 30
0.4501
 70
192
 0
VERTEX
 8
DISCO
 10
-32.8097
 20
13.5038
 30
0.4501
 70
192
 0
VERTEX
 8
DISCO
 10
-32.7598
 20
13.5006
 30
0.4501
 70
192
 0
VERTEX
 8
DISCO
 10
-32.7099
 20
13.4973
 30
0.4501
 70
192
 0
VERTEX
 8
DISCO
 10
-32.8265
 20
12.989
 30
0.4501
 70
192
 0
VERTEX
 8
DISCO
 10
-32.7765
 20
12.989
 30
0.4501
 70
192
 0
VERTEX
 8
DISCO
 10
-32.7265
 20
12.989
 30
0.4501
 70
192
 0
VERTEX
 8
DISCO
 10
-32.8097
 20
12.4741
 30
0.4501
 70
192
 0
VERTEX
 8
DISCO
 10
-32.7598
 20
12.4773
 30
0.4501
 70
192
 0
VERTEX
 8
DISCO
 10
-32.7099
 20
12.4806
 30
0.4501
 70
192
 0
VERTEX
 8
DISCO
 10
-32.7592
 20
11.9614
 30
0.4501
 70
192
 0
VERTEX
 8
DISCO
 10
-32.7096
 20
11.9679
 30
0.4501
 70
192
 0
VERTEX
 8
DISCO
 10
-32.6601
 20
11.9744
 30
0.4501
 70
192
 0
VERTEX
 8
DISCO
 10
-32.6752
 20
11.4531
 30
0.4501
 70
192
 0
VERTEX
 8
DISCO
 10
-32.6262
 20
11.4629
 30
0.4501
 70
192
 0
VERTEX
 8
DISCO
 10
-32.5772
 20
11.4726
 30
0.4501
 70
192
 0
VERTEX
 8
DISCO
 10
-32.5583
 20
10.9514
 30
0.4501
 70
192
 0
VERTEX
 8
DISCO
 10
-32.51
 20
10.9644
 30
0.4501
 70
192
 0
VERTEX
 8
DISCO
 10
-32.4617
 20
10.9773
 30
0.4501
 70
192
 0
VERTEX
 8
DISCO
 10
-32.4087
 20
10.4584
 30
0.4501
 70
192
 0
VERTEX
 8
DISCO
 10
-32.3614
 20
10.4745
 30
0.4501
 70
192
 0
VERTEX
 8
DISCO
 10
-32.3141
 20
10.4906
 30
0.4501
 70
192
 0
VERTEX
 8
DISCO
 10
-32.2273
 20
9.9763
 30
0.4501
 70
192
 0
VERTEX
 8
DISCO
 10
-32.1811
 20
9.9954
 30
0.4501
 70
192
 0
VERTEX
 8
DISCO
 10
-32.1349
 20
10.0146
 30
0.4501
 70
192
 0
VERTEX
 8
DISCO
 10
-32.0146
 20
9.5071
 30
0.4501
 70
192
 0
VERTEX
 8
DISCO
 10
-31.9698
 20
9.5292
 30
0.4501
 70
192
 0
VERTEX
 8
DISCO
 10
-31.925
 20
9.5513
 30
0.4501
 70
192
 0
VERTEX
 8
DISCO
 10
-31.7718
 20
9.0527
 30
0.4501
 70
192
 0
VERTEX
 8
DISCO
 10
-31.7285
 20
9.0777
 30
0.4501
 70
192
 0
VERTEX
 8
DISCO
 10
-31.6852
 20
9.1027
 30
0.4501
 70
192
 0
VERTEX
 8
DISCO
 10
-31.4998
 20
8.6153
 30
0.4501
 70
192
 0
VERTEX
 8
DISCO
 10
-31.4582
 20
8.643
 30
0.4501
 70
192
 0
VERTEX
 8
DISCO
 10
-31.4166
 20
8.6708
 30
0.4501
 70
192
 0
VERTEX
 8
DISCO
 10
-31.1997
 20
8.1965
 30
0.4501
 70
192
 0
VERTEX
 8
DISCO
 10
-31.16
 20
8.2269
 30
0.4501
 70
192
 0
VERTEX
 8
DISCO
 10
-31.1204
 20
8.2574
 30
0.4501
 70
192
 0
VERTEX
 8
DISCO
 10
-30.8729
 20
7.7983
 30
0.4501
 70
192
 0
VERTEX
 8
DISCO
 10
-30.8353
 20
7.8312
 30
0.4501
 70
192
 0
VERTEX
 8
DISCO
 10
-30.7977
 20
7.8642
 30
0.4501
 70
192
 0
VERTEX
 8
DISCO
 10
-30.5207
 20
7.4223
 30
0.4501
 70
192
 0
VERTEX
 8
DISCO
 10
-30.4854
 20
7.4576
 30
0.4501
 70
192
 0
VERTEX
 8
DISCO
 10
-30.45
 20
7.493
 30
0.4501
 70
192
 0
VERTEX
 8
DISCO
 10
-30.1447
 20
7.0701
 30
0.4501
 70
192
 0
VERTEX
 8
DISCO
 10
-30.1118
 20
7.1077
 30
0.4501
 70
192
 0
VERTEX
 8
DISCO
 10
-30.0788
 20
7.1453
 30
0.4501
 70
192
 0
VERTEX
 8
DISCO
 10
-29.7465
 20
6.7433
 30
0.4501
 70
192
 0
VERTEX
 8
DISCO
 10
-29.7161
 20
6.783
 30
0.4501
 70
192
 0
VERTEX
 8
DISCO
 10
-29.6856
 20
6.8226
 30
0.4501
 70
192
 0
VERTEX
 8
DISCO
 10
-29.3278
 20
6.4433
 30
0.4501
 70
192
 0
VERTEX
 8
DISCO
 10
-29.3
 20
6.4848
 30
0.4501
 70
192
 0
VERTEX
 8
DISCO
 10
-29.2722
 20
6.5264
 30
0.4501
 70
192
 0
VERTEX
 8
DISCO
 10
-28.8903
 20
6.1712
 30
0.4501
 70
192
 0
VERTEX
 8
DISCO
 10
-28.8653
 20
6.2145
 30
0.4501
 70
192
 0
VERTEX
 8
DISCO
 10
-28.8403
 20
6.2578
 30
0.4501
 70
192
 0
VERTEX
 8
DISCO
 10
-28.4359
 20
5.9284
 30
0.4501
 70
192
 0
VERTEX
 8
DISCO
 10
-28.4138
 20
5.9732
 30
0.4501
 70
192
 0
VERTEX
 8
DISCO
 10
-28.3917
 20
6.018
 30
0.4501
 70
192
 0
VERTEX
 8
DISCO
 10
-27.9667
 20
5.7158
 30
0.4501
 70
192
 0
VERTEX
 8
DISCO
 10
-27.9476
 20
5.7619
 30
0.4501
 70
192
 0
VERTEX
 8
DISCO
 10
-27.9285
 20
5.8081
 30
0.4501
 70
192
 0
VERTEX
 8
DISCO
 10
-27.4846
 20
5.5343
 30
0.4501
 70
192
 0
VERTEX
 8
DISCO
 10
-27.4685
 20
5.5816
 30
0.4501
 70
192
 0
VERTEX
 8
DISCO
 10
-27.4524
 20
5.6289
 30
0.4501
 70
192
 0
VERTEX
 8
DISCO
 10
-26.9916
 20
5.3848
 30
0.4501
 70
192
 0
VERTEX
 8
DISCO
 10
-26.9787
 20
5.433
 30
0.4501
 70
192
 0
VERTEX
 8
DISCO
 10
-26.9657
 20
5.4813
 30
0.4501
 70
192
 0
VERTEX
 8
DISCO
 10
-26.4899
 20
5.2678
 30
0.4501
 70
192
 0
VERTEX
 8
DISCO
 10
-26.4801
 20
5.3168
 30
0.4501
 70
192
 0
VERTEX
 8
DISCO
 10
-26.4704
 20
5.3658
 30
0.4501
 70
192
 0
VERTEX
 8
DISCO
 10
-25.9816
 20
5.1839
 30
0.4501
 70
192
 0
VERTEX
 8
DISCO
 10
-25.9751
 20
5.2334
 30
0.4501
 70
192
 0
VERTEX
 8
DISCO
 10
-25.9686
 20
5.283
 30
0.4501
 70
192
 0
VERTEX
 8
DISCO
 10
-25.4689
 20
5.1334
 30
0.4501
 70
192
 0
VERTEX
 8
DISCO
 10
-25.4657
 20
5.1832
 30
0.4501
 70
192
 0
VERTEX
 8
DISCO
 10
-25.4624
 20
5.2331
 30
0.4501
 70
192
 0
VERTEX
 8
DISCO
 10
-24.954
 20
5.1165
 30
0.4501
 70
192
 0
VERTEX
 8
DISCO
 10
-24.954
 20
5.1665
 30
0.4501
 70
192
 0
VERTEX
 8
DISCO
 10
-24.954
 20
5.2165
 30
0.4501
 70
192
 0
VERTEX
 8
DISCO
 10
-24.4392
 20
5.1334
 30
0.4501
 70
192
 0
VERTEX
 8
DISCO
 10
-24.4424
 20
5.1832
 30
0.4501
 70
192
 0
VERTEX
 8
DISCO
 10
-24.4457
 20
5.2331
 30
0.4501
 70
192
 0
VERTEX
 8
DISCO
 10
-23.9265
 20
5.1839
 30
0.4501
 70
192
 0
VERTEX
 8
DISCO
 10
-23.933
 20
5.2334
 30
0.4501
 70
192
 0
VERTEX
 8
DISCO
 10
-23.9395
 20
5.283
 30
0.4501
 70
192
 0
VERTEX
 8
DISCO
 10
-23.4182
 20
5.2678
 30
0.4501
 70
192
 0
VERTEX
 8
DISCO
 10
-23.428
 20
5.3168
 30
0.4501
 70
192
 0
VERTEX
 8
DISCO
 10
-23.4377
 20
5.3658
 30
0.4501
 70
192
 0
VERTEX
 8
DISCO
 10
-22.9165
 20
5.3848
 30
0.4501
 70
192
 0
VERTEX
 8
DISCO
 10
-22.9294
 20
5.433
 30
0.4501
 70
192
 0
VERTEX
 8
DISCO
 10
-22.9424
 20
5.4813
 30
0.4501
 70
192
 0
VERTEX
 8
DISCO
 10
-22.4235
 20
5.5343
 30
0.4501
 70
192
 0
VERTEX
 8
DISCO
 10
-22.4396
 20
5.5816
 30
0.4501
 70
192
 0
VERTEX
 8
DISCO
 10
-22.4557
 20
5.6289
 30
0.4501
 70
192
 0
VERTEX
 8
DISCO
 10
-21.9414
 20
5.7158
 30
0.4501
 70
192
 0
VERTEX
 8
DISCO
 10
-21.9605
 20
5.7619
 30
0.4501
 70
192
 0
VERTEX
 8
DISCO
 10
-21.9796
 20
5.8081
 30
0.4501
 70
192
 0
VERTEX
 8
DISCO
 10
-21.4722
 20
5.9284
 30
0.4501
 70
192
 0
VERTEX
 8
DISCO
 10
-21.4943
 20
5.9732
 30
0.4501
 70
192
 0
VERTEX
 8
DISCO
 10
-21.5164
 20
6.018
 30
0.4501
 70
192
 0
VERTEX
 8
DISCO
 10
-21.0178
 20
6.1712
 30
0.4501
 70
192
 0
VERTEX
 8
DISCO
 10
-21.0428
 20
6.2145
 30
0.4501
 70
192
 0
VERTEX
 8
DISCO
 10
-21.0678
 20
6.2578
 30
0.4501
 70
192
 0
VERTEX
 8
DISCO
 10
-20.5803
 20
6.4433
 30
0.4501
 70
192
 0
VERTEX
 8
DISCO
 10
-20.6081
 20
6.4848
 30
0.4501
 70
192
 0
VERTEX
 8
DISCO
 10
-20.6359
 20
6.5264
 30
0.4501
 70
192
 0
VERTEX
 8
DISCO
 10
-20.1616
 20
6.7433
 30
0.4501
 70
192
 0
VERTEX
 8
DISCO
 10
-20.192
 20
6.783
 30
0.4501
 70
192
 0
VERTEX
 8
DISCO
 10
-20.2225
 20
6.8226
 30
0.4501
 70
192
 0
VERTEX
 8
DISCO
 10
-19.7634
 20
7.0701
 30
0.4501
 70
192
 0
VERTEX
 8
DISCO
 10
-19.7963
 20
7.1077
 30
0.4501
 70
192
 0
VERTEX
 8
DISCO
 10
-19.8293
 20
7.1453
 30
0.4501
 70
192
 0
VERTEX
 8
DISCO
 10
-19.3874
 20
7.4223
 30
0.4501
 70
192
 0
VERTEX
 8
DISCO
 10
-19.4227
 20
7.4576
 30
0.4501
 70
192
 0
VERTEX
 8
DISCO
 10
-19.4581
 20
7.493
 30
0.4501
 70
192
 0
VERTEX
 8
DISCO
 10
-19.0352
 20
7.7983
 30
0.4501
 70
192
 0
VERTEX
 8
DISCO
 10
-19.0728
 20
7.8312
 30
0.4501
 70
192
 0
VERTEX
 8
DISCO
 10
-19.1104
 20
7.8642
 30
0.4501
 70
192
 0
VERTEX
 8
DISCO
 10
-18.7084
 20
8.1965
 30
0.4501
 70
192
 0
VERTEX
 8
DISCO
 10
-18.7481
 20
8.2269
 30
0.4501
 70
192
 0
VERTEX
 8
DISCO
 10
-18.7877
 20
8.2574
 30
0.4501
 70
192
 0
VERTEX
 8
DISCO
 10
-18.4083
 20
8.6153
 30
0.4501
 70
192
 0
VERTEX
 8
DISCO
 10
-18.4499
 20
8.643
 30
0.4501
 70
192
 0
VERTEX
 8
DISCO
 10
-18.4915
 20
8.6708
 30
0.4501
 70
192
 0
VERTEX
 8
DISCO
 10
-18.1363
 20
9.0527
 30
0.4501
 70
192
 0
VERTEX
 8
DISCO
 10
-18.1796
 20
9.0777
 30
0.4501
 70
192
 0
VERTEX
 8
DISCO
 10
-18.2229
 20
9.1027
 30
0.4501
 70
192
 0
VERTEX
 8
DISCO
 10
-17.8935
 20
9.5071
 30
0.4501
 70
192
 0
VERTEX
 8
DISCO
 10
-17.9383
 20
9.5292
 30
0.4501
 70
192
 0
VERTEX
 8
DISCO
 10
-17.9831
 20
9.5513
 30
0.4501
 70
192
 0
VERTEX
 8
DISCO
 10
-17.6808
 20
9.9763
 30
0.4501
 70
192
 0
VERTEX
 8
DISCO
 10
-17.727
 20
9.9954
 30
0.4501
 70
192
 0
VERTEX
 8
DISCO
 10
-17.7732
 20
10.0146
 30
0.4501
 70
192
 0
VERTEX
 8
DISCO
 10
-17.4994
 20
10.4584
 30
0.4501
 70
192
 0
VERTEX
 8
DISCO
 10
-17.5467
 20
10.4745
 30
0.4501
 70
192
 0
VERTEX
 8
DISCO
 10
-17.594
 20
10.4906
 30
0.4501
 70
192
 0
VERTEX
 8
DISCO
 10
-17.3498
 20
10.9514
 30
0.4501
 70
192
 0
VERTEX
 8
DISCO
 10
-17.3981
 20
10.9644
 30
0.4501
 70
192
 0
VERTEX
 8
DISCO
 10
-17.4464
 20
10.9773
 30
0.4501
 70
192
 0
VERTEX
 8
DISCO
 10
-17.2329
 20
11.4531
 30
0.4501
 70
192
 0
VERTEX
 8
DISCO
 10
-17.2819
 20
11.4629
 30
0.4501
 70
192
 0
VERTEX
 8
DISCO
 10
-17.3309
 20
11.4726
 30
0.4501
 70
192
 0
VERTEX
 8
DISCO
 10
-17.1489
 20
11.9614
 30
0.4501
 70
192
 0
VERTEX
 8
DISCO
 10
-17.1985
 20
11.9679
 30
0.4501
 70
192
 0
VERTEX
 8
DISCO
 10
-17.248
 20
11.9744
 30
0.4501
 70
192
 0
VERTEX
 8
DISCO
 10
-17.0984
 20
12.4741
 30
0.4501
 70
192
 0
VERTEX
 8
DISCO
 10
-17.1483
 20
12.4773
 30
0.4501
 70
192
 0
VERTEX
 8
DISCO
 10
-17.1982
 20
12.4806
 30
0.4501
 70
192
 0
VERTEX
 8
DISCO
 10
0
 20
0
 30
0
 70
128
 71
1
 72
2
 73
5
 74
4
 0
VERTEX
 8
DISCO
 10
0
 20
0
 30
0
 70
128
 71
2
 72
3
 73
6
 74
5
 0
VERTEX
 8
DISCO
 10
0
 20
0
 30
0
 70
128
 71
4
 72
5
 73
8
 74
7
 0
VERTEX
 8
DISCO
 10
0
 20
0
 30
0
 70
128
 71
5
 72
6
 73
9
 74
8
 0
VERTEX
 8
DISCO
 10
0
 20
0
 30
0
 70
128
 71
7
 72
8
 73
11
 74
10
 0
VERTEX
 8
DISCO
 10
0
 20
0
 30
0
 70
128
 71
8
 72
9
 73
12
 74
11
 0
VERTEX
 8
DISCO
 10
0
 20
0
 30
0
 70
128
 71
10
 72
11
 73
14
 74
13
 0
VERTEX
 8
DISCO
 10
0
 20
0
 30
0
 70
128
 71
11
 72
12
 73
15
 74
14
 0
VERTEX
 8
DISCO
 10
0
 20
0
 30
0
 70
128
 71
13
 72
14
 73
17
 74
16
 0
VERTEX
 8
DISCO
 10
0
 20
0
 30
0
 70
128
 71
14
 72
15
 73
18
 74
17
 0
VERTEX
 8
DISCO
 10
0
 20
0
 30
0
 70
128
 71
16
 72
17
 73
20
 74
19
 0
VERTEX
 8
DISCO
 10
0
 20
0
 30
0
 70
128
 71
17
 72
18
 73
21
 74
20
 0
VERTEX
 8
DISCO
 10
0
 20
0
 30
0
 70
128
 71
19
 72
20
 73
23
 74
22
 0
VERTEX
 8
DISCO
 10
0
 20
0
 30
0
 70
128
 71
20
 72
21
 73
24
 74
23
 0
VERTEX
 8
DISCO
 10
0
 20
0
 30
0
 70
128
 71
22
 72
23
 73
26
 74
25
 0
VERTEX
 8
DISCO
 10
0
 20
0
 30
0
 70
128
 71
23
 72
24
 73
27
 74
26
 0
VERTEX
 8
DISCO
 10
0
 20
0
 30
0
 70
128
 71
25
 72
26
 73
29
 74
28
 0
VERTEX
 8
DISCO
 10
0
 20
0
 30
0
 70
128
 71
26
 72
27
 73
30
 74
29
 0
VERTEX
 8
DISCO
 10
0
 20
0
 30
0
 70
128
 71
28
 72
29
 73
32
 74
31
 0
VERTEX
 8
DISCO
 10
0
 20
0
 30
0
 70
128
 71
29
 72
30
 73
33
 74
32
 0
VERTEX
 8
DISCO
 10
0
 20
0
 30
0
 70
128
 71
31
 72
32
 73
35
 74
34
 0
VERTEX
 8
DISCO
 10
0
 20
0
 30
0
 70
128
 71
32
 72
33
 73
36
 74
35
 0
VERTEX
 8
DISCO
 10
0
 20
0
 30
0
 70
128
 71
34
 72
35
 73
38
 74
37
 0
VERTEX
 8
DISCO
 10
0
 20
0
 30
0
 70
128
 71
35
 72
36
 73
39
 74
38
 0
VERTEX
 8
DISCO
 10
0
 20
0
 30
0
 70
128
 71
37
 72
38
 73
41
 74
40
 0
VERTEX
 8
DISCO
 10
0
 20
0
 30
0
 70
128
 71
38
 72
39
 73
42
 74
41
 0
VERTEX
 8
DISCO
 10
0
 20
0
 30
0
 70
128
 71
40
 72
41
 73
44
 74
43
 0
VERTEX
 8
DISCO
 10
0
 20
0
 30
0
 70
128
 71
41
 72
42
 73
45
 74
44
 0
VERTEX
 8
DISCO
 10
0
 20
0
 30
0
 70
128
 71
43
 72
44
 73
47
 74
46
 0
VERTEX
 8
DISCO
 10
0
 20
0
 30
0
 70
128
 71
44
 72
45
 73
48
 74
47
 0
VERTEX
 8
DISCO
 10
0
 20
0
 30
0
 70
128
 71
46
 72
47
 73
50
 74
49
 0
VERTEX
 8
DISCO
 10
0
 20
0
 30
0
 70
128
 71
47
 72
48
 73
51
 74
50
 0
VERTEX
 8
DISCO
 10
0
 20
0
 30
0
 70
128
 71
49
 72
50
 73
53
 74
52
 0
VERTEX
 8
DISCO
 10
0
 20
0
 30
0
 70
128
 71
50
 72
51
 73
54
 74
53
 0
VERTEX
 8
DISCO
 10
0
 20
0
 30
0
 70
128
 71
52
 72
53
 73
56
 74
55
 0
VERTEX
 8
DISCO
 10
0
 20
0
 30
0
 70
128
 71
53
 72
54
 73
57
 74
56
 0
VERTEX
 8
DISCO
 10
0
 20
0
 30
0
 70
128
 71
55
 72
56
 73
59
 74
58
 0
VERTEX
 8
DISCO
 10
0
 20
0
 30
0
 70
128
 71
56
 72
57
 73
60
 74
59
 0
VERTEX
 8
DISCO
 10
0
 20
0
 30
0
 70
128
 71
58
 72
59
 73
62
 74
61
 0
VERTEX
 8
DISCO
 10
0
 20
0
 30
0
 70
128
 71
59
 72
60
 73
63
 74
62
 0
VERTEX
 8
DISCO
 10
0
 20
0
 30
0
 70
128
 71
61
 72
62
 73
65
 74
64
 0
VERTEX
 8
DISCO
 10
0
 20
0
 30
0
 70
128
 71
62
 72
63
 73
66
 74
65
 0
VERTEX
 8
DISCO
 10
0
 20
0
 30
0
 70
128
 71
64
 72
65
 73
68
 74
67
 0
VERTEX
 8
DISCO
 10
0
 20
0
 30
0
 70
128
 71
65
 72
66
 73
69
 74
68
 0
VERTEX
 8
DISCO
 10
0
 20
0
 30
0
 70
128
 71
67
 72
68
 73
71
 74
70
 0
VERTEX
 8
DISCO
 10
0
 20
0
 30
0
 70
128
 71
68
 72
69
 73
72
 74
71
 0
VERTEX
 8
DISCO
 10
0
 20
0
 30
0
 70
128
 71
70
 72
71
 73
74
 74
73
 0
VERTEX
 8
DISCO
 10
0
 20
0
 30
0
 70
128
 71
71
 72
72
 73
75
 74
74
 0
VERTEX
 8
DISCO
 10
0
 20
0
 30
0
 70
128
 71
73
 72
74
 73
77
 74
76
 0
VERTEX
 8
DISCO
 10
0
 20
0
 30
0
 70
128
 71
74
 72
75
 73
78
 74
77
 0
VERTEX
 8
DISCO
 10
0
 20
0
 30
0
 70
128
 71
76
 72
77
 73
80
 74
79
 0
VERTEX
 8
DISCO
 10
0
 20
0
 30
0
 70
128
 71
77
 72
78
 73
81
 74
80
 0
VERTEX
 8
DISCO
 10
0
 20
0
 30
0
 70
128
 71
79
 72
80
 73
83
 74
82
 0
VERTEX
 8
DISCO
 10
0
 20
0
 30
0
 70
128
 71
80
 72
81
 73
84
 74
83
 0
VERTEX
 8
DISCO
 10
0
 20
0
 30
0
 70
128
 71
82
 72
83
 73
86
 74
85
 0
VERTEX
 8
DISCO
 10
0
 20
0
 30
0
 70
128
 71
83
 72
84
 73
87
 74
86
 0
VERTEX
 8
DISCO
 10
0
 20
0
 30
0
 70
128
 71
85
 72
86
 73
89
 74
88
 0
VERTEX
 8
DISCO
 10
0
 20
0
 30
0
 70
128
 71
86
 72
87
 73
90
 74
89
 0
VERTEX
 8
DISCO
 10
0
 20
0
 30
0
 70
128
 71
88
 72
89
 73
92
 74
91
 0
VERTEX
 8
DISCO
 10
0
 20
0
 30
0
 70
128
 71
89
 72
90
 73
93
 74
92
 0
VERTEX
 8
DISCO
 10
0
 20
0
 30
0
 70
128
 71
91
 72
92
 73
95
 74
94
 0
VERTEX
 8
DISCO
 10
0
 20
0
 30
0
 70
128
 71
92
 72
93
 73
96
 74
95
 0
VERTEX
 8
DISCO
 10
0
 20
0
 30
0
 70
128
 71
94
 72
95
 73
98
 74
97
 0
VERTEX
 8
DISCO
 10
0
 20
0
 30
0
 70
128
 71
95
 72
96
 73
99
 74
98
 0
VERTEX
 8
DISCO
 10
0
 20
0
 30
0
 70
128
 71
97
 72
98
 73
101
 74
100
 0
VERTEX
 8
DISCO
 10
0
 20
0
 30
0
 70
128
 71
98
 72
99
 73
102
 74
101
 0
VERTEX
 8
DISCO
 10
0
 20
0
 30
0
 70
128
 71
100
 72
101
 73
104
 74
103
 0
VERTEX
 8
DISCO
 10
0
 20
0
 30
0
 70
128
 71
101
 72
102
 73
105
 74
104
 0
VERTEX
 8
DISCO
 10
0
 20
0
 30
0
 70
128
 71
103
 72
104
 73
107
 74
106
 0
VERTEX
 8
DISCO
 10
0
 20
0
 30
0
 70
128
 71
104
 72
105
 73
108
 74
107
 0
VERTEX
 8
DISCO
 10
0
 20
0
 30
0
 70
128
 71
106
 72
107
 73
110
 74
109
 0
VERTEX
 8
DISCO
 10
0
 20
0
 30
0
 70
128
 71
107
 72
108
 73
111
 74
110
 0
VERTEX
 8
DISCO
 10
0
 20
0
 30
0
 70
128
 71
109
 72
110
 73
113
 74
112
 0
VERTEX
 8
DISCO
 10
0
 20
0
 30
0
 70
128
 71
110
 72
111
 73
114
 74
113
 0
VERTEX
 8
DISCO
 10
0
 20
0
 30
0
 70
128
 71
112
 72
113
 73
116
 74
115
 0
VERTEX
 8
DISCO
 10
0
 20
0
 30
0
 70
128
 71
113
 72
114
 73
117
 74
116
 0
VERTEX
 8
DISCO
 10
0
 20
0
 30
0
 70
128
 71
115
 72
116
 73
119
 74
118
 0
VERTEX
 8
DISCO
 10
0
 20
0
 30
0
 70
128
 71
116
 72
117
 73
120
 74
119
 0
VERTEX
 8
DISCO
 10
0
 20
0
 30
0
 70
128
 71
118
 72
119
 73
122
 74
121
 0
VERTEX
 8
DISCO
 10
0
 20
0
 30
0
 70
128
 71
119
 72
120
 73
123
 74
122
 0
VERTEX
 8
DISCO
 10
0
 20
0
 30
0
 70
128
 71
121
 72
122
 73
125
 74
124
 0
VERTEX
 8
DISCO
 10
0
 20
0
 30
0
 70
128
 71
122
 72
123
 73
126
 74
125
 0
VERTEX
 8
DISCO
 10
0
 20
0
 30
0
 70
128
 71
124
 72
125
 73
128
 74
127
 0
VERTEX
 8
DISCO
 10
0
 20
0
 30
0
 70
128
 71
125
 72
126
 73
129
 74
128
 0
VERTEX
 8
DISCO
 10
0
 20
0
 30
0
 70
128
 71
127
 72
128
 73
131
 74
130
 0
VERTEX
 8
DISCO
 10
0
 20
0
 30
0
 70
128
 71
128
 72
129
 73
132
 74
131
 0
VERTEX
 8
DISCO
 10
0
 20
0
 30
0
 70
128
 71
130
 72
131
 73
134
 74
133
 0
VERTEX
 8
DISCO
 10
0
 20
0
 30
0
 70
128
 71
131
 72
132
 73
135
 74
134
 0
VERTEX
 8
DISCO
 10
0
 20
0
 30
0
 70
128
 71
133
 72
134
 73
137
 74
136
 0
VERTEX
 8
DISCO
 10
0
 20
0
 30
0
 70
128
 71
134
 72
135
 73
138
 74
137
 0
VERTEX
 8
DISCO
 10
0
 20
0
 30
0
 70
128
 71
136
 72
137
 73
140
 74
139
 0
VERTEX
 8
DISCO
 10
0
 20
0
 30
0
 70
128
 71
137
 72
138
 73
141
 74
140
 0
VERTEX
 8
DISCO
 10
0
 20
0
 30
0
 70
128
 71
139
 72
140
 73
143
 74
142
 0
VERTEX
 8
DISCO
 10
0
 20
0
 30
0
 70
128
 71
140
 72
141
 73
144
 74
143
 0
VERTEX
 8
DISCO
 10
0
 20
0
 30
0
 70
128
 71
142
 72
143
 73
146
 74
145
 0
VERTEX
 8
DISCO
 10
0
 20
0
 30
0
 70
128
 71
143
 72
144
 73
147
 74
146
 0
VERTEX
 8
DISCO
 10
0
 20
0
 30
0
 70
128
 71
145
 72
146
 73
149
 74
148
 0
VERTEX
 8
DISCO
 10
0
 20
0
 30
0
 70
128
 71
146
 72
147
 73
150
 74
149
 0
VERTEX
 8
DISCO
 10
0
 20
0
 30
0
 70
128
 71
148
 72
149
 73
152
 74
151
 0
VERTEX
 8
DISCO
 10
0
 20
0
 30
0
 70
128
 71
149
 72
150
 73
153
 74
152
 0
VERTEX
 8
DISCO
 10
0
 20
0
 30
0
 70
128
 71
151
 72
152
 73
155
 74
154
 0
VERTEX
 8
DISCO
 10
0
 20
0
 30
0
 70
128
 71
152
 72
153
 73
156
 74
155
 0
VERTEX
 8
DISCO
 10
0
 20
0
 30
0
 70
128
 71
154
 72
155
 73
158
 74
157
 0
VERTEX
 8
DISCO
 10
0
 20
0
 30
0
 70
128
 71
155
 72
156
 73
159
 74
158
 0
VERTEX
 8
DISCO
 10
0
 20
0
 30
0
 70
128
 71
157
 72
158
 73
161
 74
160
 0
VERTEX
 8
DISCO
 10
0
 20
0
 30
0
 70
128
 71
158
 72
159
 73
162
 74
161
 0
VERTEX
 8
DISCO
 10
0
 20
0
 30
0
 70
128
 71
160
 72
161
 73
164
 74
163
 0
VERTEX
 8
DISCO
 10
0
 20
0
 30
0
 70
128
 71
161
 72
162
 73
165
 74
164
 0
VERTEX
 8
DISCO
 10
0
 20
0
 30
0
 70
128
 71
163
 72
164
 73
167
 74
166
 0
VERTEX
 8
DISCO
 10
0
 20
0
 30
0
 70
128
 71
164
 72
165
 73
168
 74
167
 0
VERTEX
 8
DISCO
 10
0
 20
0
 30
0
 70
128
 71
166
 72
167
 73
170
 74
169
 0
VERTEX
 8
DISCO
 10
0
 20
0
 30
0
 70
128
 71
167
 72
168
 73
171
 74
170
 0
VERTEX
 8
DISCO
 10
0
 20
0
 30
0
 70
128
 71
169
 72
170
 73
173
 74
172
 0
VERTEX
 8
DISCO
 10
0
 20
0
 30
0
 70
128
 71
170
 72
171
 73
174
 74
173
 0
VERTEX
 8
DISCO
 10
0
 20
0
 30
0
 70
128
 71
172
 72
173
 73
176
 74
175
 0
VERTEX
 8
DISCO
 10
0
 20
0
 30
0
 70
128
 71
173
 72
174
 73
177
 74
176
 0
VERTEX
 8
DISCO
 10
0
 20
0
 30
0
 70
128
 71
175
 72
176
 73
179
 74
178
 0
VERTEX
 8
DISCO
 10
0
 20
0
 30
0
 70
128
 71
176
 72
177
 73
180
 74
179
 0
VERTEX
 8
DISCO
 10
0
 20
0
 30
0
 70
128
 71
178
 72
179
 73
182
 74
181
 0
VERTEX
 8
DISCO
 10
0
 20
0
 30
0
 70
128
 71
179
 72
180
 73
183
 74
182
 0
VERTEX
 8
DISCO
 10
0
 20
0
 30
0
 70
128
 71
181
 72
182
 73
185
 74
184
 0
VERTEX
 8
DISCO
 10
0
 20
0
 30
0
 70
128
 71
182
 72
183
 73
186
 74
185
 0
VERTEX
 8
DISCO
 10
0
 20
0
 30
0
 70
128
 71
184
 72
185
 73
188
 74
187
 0
VERTEX
 8
DISCO
 10
0
 20
0
 30
0
 70
128
 71
185
 72
186
 73
189
 74
188
 0
VERTEX
 8
DISCO
 10
0
 20
0
 30
0
 70
128
 71
187
 72
188
 73
191
 74
190
 0
VERTEX
 8
DISCO
 10
0
 20
0
 30
0
 70
128
 71
188
 72
189
 73
192
 74
191
 0
VERTEX
 8
DISCO
 10
0
 20
0
 30
0
 70
128
 71
190
 72
191
 73
194
 74
193
 0
VERTEX
 8
DISCO
 10
0
 20
0
 30
0
 70
128
 71
191
 72
192
 73
195
 74
194
 0
VERTEX
 8
DISCO
 10
0
 20
0
 30
0
 70
128
 71
193
 72
194
 73
197
 74
196
 0
VERTEX
 8
DISCO
 10
0
 20
0
 30
0
 70
128
 71
194
 72
195
 73
198
 74
197
 0
VERTEX
 8
DISCO
 10
0
 20
0
 30
0
 70
128
 71
196
 72
197
 73
200
 74
199
 0
VERTEX
 8
DISCO
 10
0
 20
0
 30
0
 70
128
 71
197
 72
198
 73
201
 74
200
 0
VERTEX
 8
DISCO
 10
0
 20
0
 30
0
 70
128
 71
199
 72
200
 73
203
 74
202
 0
VERTEX
 8
DISCO
 10
0
 20
0
 30
0
 70
128
 71
200
 72
201
 73
204
 74
203
 0
VERTEX
 8
DISCO
 10
0
 20
0
 30
0
 70
128
 71
202
 72
203
 73
206
 74
205
 0
VERTEX
 8
DISCO
 10
0
 20
0
 30
0
 70
128
 71
203
 72
204
 73
207
 74
206
 0
VERTEX
 8
DISCO
 10
0
 20
0
 30
0
 70
128
 71
205
 72
206
 73
209
 74
208
 0
VERTEX
 8
DISCO
 10
0
 20
0
 30
0
 70
128
 71
206
 72
207
 73
210
 74
209
 0
VERTEX
 8
DISCO
 10
0
 20
0
 30
0
 70
128
 71
208
 72
209
 73
212
 74
211
 0
VERTEX
 8
DISCO
 10
0
 20
0
 30
0
 70
128
 71
209
 72
210
 73
213
 74
212
 0
VERTEX
 8
DISCO
 10
0
 20
0
 30
0
 70
128
 71
211
 72
212
 73
215
 74
214
 0
VERTEX
 8
DISCO
 10
0
 20
0
 30
0
 70
128
 71
212
 72
213
 73
216
 74
215
 0
VERTEX
 8
DISCO
 10
0
 20
0
 30
0
 70
128
 71
214
 72
215
 73
218
 74
217
 0
VERTEX
 8
DISCO
 10
0
 20
0
 30
0
 70
128
 71
215
 72
216
 73
219
 74
218
 0
VERTEX
 8
DISCO
 10
0
 20
0
 30
0
 70
128
 71
217
 72
218
 73
221
 74
220
 0
VERTEX
 8
DISCO
 10
0
 20
0
 30
0
 70
128
 71
218
 72
219
 73
222
 74
221
 0
VERTEX
 8
DISCO
 10
0
 20
0
 30
0
 70
128
 71
220
 72
221
 73
224
 74
223
 0
VERTEX
 8
DISCO
 10
0
 20
0
 30
0
 70
128
 71
221
 72
222
 73
225
 74
224
 0
VERTEX
 8
DISCO
 10
0
 20
0
 30
0
 70
128
 71
223
 72
224
 73
227
 74
226
 0
VERTEX
 8
DISCO
 10
0
 20
0
 30
0
 70
128
 71
224
 72
225
 73
228
 74
227
 0
VERTEX
 8
DISCO
 10
0
 20
0
 30
0
 70
128
 71
226
 72
227
 73
230
 74
229
 0
VERTEX
 8
DISCO
 10
0
 20
0
 30
0
 70
128
 71
227
 72
228
 73
231
 74
230
 0
VERTEX
 8
DISCO
 10
0
 20
0
 30
0
 70
128
 71
229
 72
230
 73
233
 74
232
 0
VERTEX
 8
DISCO
 10
0
 20
0
 30
0
 70
128
 71
230
 72
231
 73
234
 74
233
 0
VERTEX
 8
DISCO
 10
0
 20
0
 30
0
 70
128
 71
232
 72
233
 73
236
 74
235
 0
VERTEX
 8
DISCO
 10
0
 20
0
 30
0
 70
128
 71
233
 72
234
 73
237
 74
236
 0
VERTEX
 8
DISCO
 10
0
 20
0
 30
0
 70
128
 71
235
 72
236
 73
239
 74
238
 0
VERTEX
 8
DISCO
 10
0
 20
0
 30
0
 70
128
 71
236
 72
237
 73
240
 74
239
 0
VERTEX
 8
DISCO
 10
0
 20
0
 30
0
 70
128
 71
238
 72
239
 73
242
 74
241
 0
VERTEX
 8
DISCO
 10
0
 20
0
 30
0
 70
128
 71
239
 72
240
 73
243
 74
242
 0
VERTEX
 8
DISCO
 10
0
 20
0
 30
0
 70
128
 71
241
 72
242
 73
245
 74
244
 0
VERTEX
 8
DISCO
 10
0
 20
0
 30
0
 70
128
 71
242
 72
243
 73
246
 74
245
 0
VERTEX
 8
DISCO
 10
0
 20
0
 30
0
 70
128
 71
244
 72
245
 73
248
 74
247
 0
VERTEX
 8
DISCO
 10
0
 20
0
 30
0
 70
128
 71
245
 72
246
 73
249
 74
248
 0
VERTEX
 8
DISCO
 10
0
 20
0
 30
0
 70
128
 71
247
 72
248
 73
251
 74
250
 0
VERTEX
 8
DISCO
 10
0
 20
0
 30
0
 70
128
 71
248
 72
249
 73
252
 74
251
 0
VERTEX
 8
DISCO
 10
0
 20
0
 30
0
 70
128
 71
250
 72
251
 73
254
 74
253
 0
VERTEX
 8
DISCO
 10
0
 20
0
 30
0
 70
128
 71
251
 72
252
 73
255
 74
254
 0
VERTEX
 8
DISCO
 10
0
 20
0
 30
0
 70
128
 71
253
 72
254
 73
257
 74
256
 0
VERTEX
 8
DISCO
 10
0
 20
0
 30
0
 70
128
 71
254
 72
255
 73
258
 74
257
 0
VERTEX
 8
DISCO
 10
0
 20
0
 30
0
 70
128
 71
256
 72
257
 73
260
 74
259
 0
VERTEX
 8
DISCO
 10
0
 20
0
 30
0
 70
128
 71
257
 72
258
 73
261
 74
260
 0
VERTEX
 8
DISCO
 10
0
 20
0
 30
0
 70
128
 71
259
 72
260
 73
263
 74
262
 0
VERTEX
 8
DISCO
 10
0
 20
0
 30
0
 70
128
 71
260
 72
261
 73
264
 74
263
 0
VERTEX
 8
DISCO
 10
0
 20
0
 30
0
 70
128
 71
262
 72
263
 73
266
 74
265
 0
VERTEX
 8
DISCO
 10
0
 20
0
 30
0
 70
128
 71
263
 72
264
 73
267
 74
266
 0
VERTEX
 8
DISCO
 10
0
 20
0
 30
0
 70
128
 71
265
 72
266
 73
269
 74
268
 0
VERTEX
 8
DISCO
 10
0
 20
0
 30
0
 70
128
 71
266
 72
267
 73
270
 74
269
 0
VERTEX
 8
DISCO
 10
0
 20
0
 30
0
 70
128
 71
268
 72
269
 73
272
 74
271
 0
VERTEX
 8
DISCO
 10
0
 20
0
 30
0
 70
128
 71
269
 72
270
 73
273
 74
272
 0
VERTEX
 8
DISCO
 10
0
 20
0
 30
0
 70
128
 71
271
 72
272
 73
275
 74
274
 0
VERTEX
 8
DISCO
 10
0
 20
0
 30
0
 70
128
 71
272
 72
273
 73
276
 74
275
 0
VERTEX
 8
DISCO
 10
0
 20
0
 30
0
 70
128
 71
274
 72
275
 73
278
 74
277
 0
VERTEX
 8
DISCO
 10
0
 20
0
 30
0
 70
128
 71
275
 72
276
 73
279
 74
278
 0
VERTEX
 8
DISCO
 10
0
 20
0
 30
0
 70
128
 71
277
 72
278
 73
281
 74
280
 0
VERTEX
 8
DISCO
 10
0
 20
0
 30
0
 70
128
 71
278
 72
279
 73
282
 74
281
 0
VERTEX
 8
DISCO
 10
0
 20
0
 30
0
 70
128
 71
280
 72
281
 73
284
 74
283
 0
VERTEX
 8
DISCO
 10
0
 20
0
 30
0
 70
128
 71
281
 72
282
 73
285
 74
284
 0
VERTEX
 8
DISCO
 10
0
 20
0
 30
0
 70
128
 71
283
 72
284
 73
287
 74
286
 0
VERTEX
 8
DISCO
 10
0
 20
0
 30
0
 70
128
 71
284
 72
285
 73
288
 74
287
 0
VERTEX
 8
DISCO
 10
0
 20
0
 30
0
 70
128
 71
286
 72
287
 73
2
 74
1
 0
VERTEX
 8
DISCO
 10
0
 20
0
 30
0
 70
128
 71
287
 72
288
 73
3
 74
2
 0
SEQEND
 0
POLYLINE
 8
BORDO
 66
1
 10
0.0
 20
0.0
 30
0.0
 70
64
 71
160
 72
120
 0
VERTEX
 8
BORDO
 10
-38.3735
 20
25.6727
 30
-0.1301
 70
192
 0
VERTEX
 8
BORDO
 10
-38.3735
 20
25.6727
 30
0.45
 70
192
 0
VERTEX
 8
BORDO
 10
-38.3735
 20
-25.6726
 30
0.45
 70
192
 0
VERTEX
 8
BORDO
 10
-38.3735
 20
-25.6726
 30
-0.1301
 70
192
 0
VERTEX
 8
BORDO
 10
-37.3435
 20
-26.7026
 30
-0.1301
 70
192
 0
VERTEX
 8
BORDO
 10
-37.3435
 20
-26.7026
 30
0.45
 70
192
 0
VERTEX
 8
BORDO
 10
37.345
 20
-26.7026
 30
0.45
 70
192
 0
VERTEX
 8
BORDO
 10
37.345
 20
-26.7026
 30
-0.1301
 70
192
 0
VERTEX
 8
BORDO
 10
38.375
 20
-25.6726
 30
-0.1301
 70
192
 0
VERTEX
 8
BORDO
 10
38.375
 20
-25.6726
 30
0.45
 70
192
 0
VERTEX
 8
BORDO
 10
38.375
 20
25.6727
 30
0.45
 70
192
 0
VERTEX
 8
BORDO
 10
38.375
 20
25.6727
 30
-0.1301
 70
192
 0
VERTEX
 8
BORDO
 10
37.345
 20
26.7027
 30
-0.1301
 70
192
 0
VERTEX
 8
BORDO
 10
37.345
 20
26.7027
 30
0.45
 70
192
 0
VERTEX
 8
BORDO
 10
-37.3435
 20
26.7027
 30
0.45
 70
192
 0
VERTEX
 8
BORDO
 10
-37.3435
 20
26.7027
 30
-0.1301
 70
192
 0
VERTEX
 8
BORDO
 10
-38.36
 20
25.8389
 30
-0.1301
 70
192
 0
VERTEX
 8
BORDO
 10
-38.3169
 20
26.0094
 30
-0.1301
 70
192
 0
VERTEX
 8
BORDO
 10
-38.2419
 20
26.1764
 30
-0.1301
 70
192
 0
VERTEX
 8
BORDO
 10
-38.1356
 20
26.331
 30
-0.1301
 70
192
 0
VERTEX
 8
BORDO
 10
-38.0018
 20
26.4648
 30
-0.1301
 70
192
 0
VERTEX
 8
BORDO
 10
-37.8472
 20
26.5711
 30
-0.1301
 70
192
 0
VERTEX
 8
BORDO
 10
-37.6802
 20
26.6461
 30
-0.1301
 70
192
 0
VERTEX
 8
BORDO
 10
-37.5097
 20
26.6892
 30
-0.1301
 70
192
 0
VERTEX
 8
BORDO
 10
-38.36
 20
25.8389
 30
0.45
 70
192
 0
VERTEX
 8
BORDO
 10
-38.3169
 20
26.0094
 30
0.45
 70
192
 0
VERTEX
 8
BORDO
 10
-38.2419
 20
26.1764
 30
0.45
 70
192
 0
VERTEX
 8
BORDO
 10
-38.1356
 20
26.331
 30
0.45
 70
192
 0
VERTEX
 8
BORDO
 10
-38.0018
 20
26.4648
 30
0.45
 70
192
 0
VERTEX
 8
BORDO
 10
-37.8472
 20
26.5711
 30
0.45
 70
192
 0
VERTEX
 8
BORDO
 10
-37.6802
 20
26.6461
 30
0.45
 70
192
 0
VERTEX
 8
BORDO
 10
-37.5097
 20
26.6892
 30
0.45
 70
192
 0
VERTEX
 8
BORDO
 10
-38.36
 20
-25.8388
 30
0.45
 70
192
 0
VERTEX
 8
BORDO
 10
-38.3169
 20
-26.0094
 30
0.45
 70
192
 0
VERTEX
 8
BORDO
 10
-38.2419
 20
-26.1764
 30
0.45
 70
192
 0
VERTEX
 8
BORDO
 10
-38.1356
 20
-26.331
 30
0.45
 70
192
 0
VERTEX
 8
BORDO
 10
-38.0018
 20
-26.4648
 30
0.45
 70
192
 0
VERTEX
 8
BORDO
 10
-37.8472
 20
-26.5711
 30
0.45
 70
192
 0
VERTEX
 8
BORDO
 10
-37.6802
 20
-26.6461
 30
0.45
 70
192
 0
VERTEX
 8
BORDO
 10
-37.5097
 20
-26.6891
 30
0.45
 70
192
 0
VERTEX
 8
BORDO
 10
-38.36
 20
-25.8388
 30
-0.1301
 70
192
 0
VERTEX
 8
BORDO
 10
-38.3169
 20
-26.0094
 30
-0.1301
 70
192
 0
VERTEX
 8
BORDO
 10
-38.2419
 20
-26.1764
 30
-0.1301
 70
192
 0
VERTEX
 8
BORDO
 10
-38.1356
 20
-26.331
 30
-0.1301
 70
192
 0
VERTEX
 8
BORDO
 10
-38.0018
 20
-26.4648
 30
-0.1301
 70
192
 0
VERTEX
 8
BORDO
 10
-37.8472
 20
-26.5711
 30
-0.1301
 70
192
 0
VERTEX
 8
BORDO
 10
-37.6802
 20
-26.6461
 30
-0.1301
 70
192
 0
VERTEX
 8
BORDO
 10
-37.5097
 20
-26.6891
 30
-0.1301
 70
192
 0
VERTEX
 8
BORDO
 10
37.5112
 20
-26.6891
 30
0.45
 70
192
 0
VERTEX
 8
BORDO
 10
37.6817
 20
-26.6461
 30
0.45
 70
192
 0
VERTEX
 8
BORDO
 10
37.8487
 20
-26.5711
 30
0.45
 70
192
 0
VERTEX
 8
BORDO
 10
38.0033
 20
-26.4648
 30
0.45
 70
192
 0
VERTEX
 8
BORDO
 10
38.1371
 20
-26.331
 30
0.45
 70
192
 0
VERTEX
 8
BORDO
 10
38.2434
 20
-26.1764
 30
0.45
 70
192
 0
VERTEX
 8
BORDO
 10
38.3184
 20
-26.0094
 30
0.45
 70
192
 0
VERTEX
 8
BORDO
 10
38.3615
 20
-25.8388
 30
0.45
 70
192
 0
VERTEX
 8
BORDO
 10
37.5112
 20
-26.6891
 30
-0.1301
 70
192
 0
VERTEX
 8
BORDO
 10
37.6817
 20
-26.6461
 30
-0.1301
 70
192
 0
VERTEX
 8
BORDO
 10
37.8487
 20
-26.5711
 30
-0.1301
 70
192
 0
VERTEX
 8
BORDO
 10
38.0033
 20
-26.4648
 30
-0.1301
 70
192
 0
VERTEX
 8
BORDO
 10
38.1371
 20
-26.331
 30
-0.1301
 70
192
 0
VERTEX
 8
BORDO
 10
38.2434
 20
-26.1764
 30
-0.1301
 70
192
 0
VERTEX
 8
BORDO
 10
38.3184
 20
-26.0094
 30
-0.1301
 70
192
 0
VERTEX
 8
BORDO
 10
38.3615
 20
-25.8388
 30
-0.1301
 70
192
 0
VERTEX
 8
BORDO
 10
38.3615
 20
25.8389
 30
0.45
 70
192
 0
VERTEX
 8
BORDO
 10
38.3184
 20
26.0094
 30
0.45
 70
192
 0
VERTEX
 8
BORDO
 10
38.2434
 20
26.1764
 30
0.45
 70
192
 0
VERTEX
 8
BORDO
 10
38.1371
 20
26.331
 30
0.45
 70
192
 0
VERTEX
 8
BORDO
 10
38.0033
 20
26.4648
 30
0.45
 70
192
 0
VERTEX
 8
BORDO
 10
37.8487
 20
26.5711
 30
0.45
 70
192
 0
VERTEX
 8
BORDO
 10
37.6817
 20
26.6461
 30
0.45
 70
192
 0
VERTEX
 8
BORDO
 10
37.5112
 20
26.6892
 30
0.45
 70
192
 0
VERTEX
 8
BORDO
 10
38.3615
 20
25.8389
 30
-0.1301
 70
192
 0
VERTEX
 8
BORDO
 10
38.3184
 20
26.0094
 30
-0.1301
 70
192
 0
VERTEX
 8
BORDO
 10
38.2434
 20
26.1764
 30
-0.1301
 70
192
 0
VERTEX
 8
BORDO
 10
38.1371
 20
26.331
 30
-0.1301
 70
192
 0
VERTEX
 8
BORDO
 10
38.0033
 20
26.4648
 30
-0.1301
 70
192
 0
VERTEX
 8
BORDO
 10
37.8487
 20
26.5711
 30
-0.1301
 70
192
 0
VERTEX
 8
BORDO
 10
37.6817
 20
26.6461
 30
-0.1301
 70
192
 0
VERTEX
 8
BORDO
 10
37.5112
 20
26.6892
 30
-0.1301
 70
192
 0
VERTEX
 8
BORDO
 10
-38.5735
 20
25.6808
 30
-0.1301
 70
192
 0
VERTEX
 8
BORDO
 10
-38.5735
 20
25.6808
 30
0.45
 70
192
 0
VERTEX
 8
BORDO
 10
-38.5735
 20
-25.6808
 30
0.45
 70
192
 0
VERTEX
 8
BORDO
 10
-38.5735
 20
-25.6808
 30
-0.1301
 70
192
 0
VERTEX
 8
BORDO
 10
-37.3516
 20
-26.9026
 30
-0.1301
 70
192
 0
VERTEX
 8
BORDO
 10
-37.3516
 20
-26.9026
 30
0.45
 70
192
 0
VERTEX
 8
BORDO
 10
37.3531
 20
-26.9026
 30
0.45
 70
192
 0
VERTEX
 8
BORDO
 10
37.3531
 20
-26.9026
 30
-0.1301
 70
192
 0
VERTEX
 8
BORDO
 10
38.575
 20
-25.6808
 30
-0.1301
 70
192
 0
VERTEX
 8
BORDO
 10
38.575
 20
-25.6808
 30
0.45
 70
192
 0
VERTEX
 8
BORDO
 10
38.575
 20
25.6808
 30
0.45
 70
192
 0
VERTEX
 8
BORDO
 10
38.575
 20
25.6808
 30
-0.1301
 70
192
 0
VERTEX
 8
BORDO
 10
37.3531
 20
26.9027
 30
-0.1301
 70
192
 0
VERTEX
 8
BORDO
 10
37.3531
 20
26.9027
 30
0.45
 70
192
 0
VERTEX
 8
BORDO
 10
-37.3516
 20
26.9027
 30
0.45
 70
192
 0
VERTEX
 8
BORDO
 10
-37.3516
 20
26.9027
 30
-0.1301
 70
192
 0
VERTEX
 8
BORDO
 10
-38.558
 20
25.8717
 30
-0.1301
 70
192
 0
VERTEX
 8
BORDO
 10
-38.5065
 20
26.0754
 30
-0.1301
 70
192
 0
VERTEX
 8
BORDO
 10
-38.4169
 20
26.2748
 30
-0.1301
 70
192
 0
VERTEX
 8
BORDO
 10
-38.29
 20
26.4595
 30
-0.1301
 70
192
 0
VERTEX
 8
BORDO
 10
-38.1302
 20
26.6192
 30
-0.1301
 70
192
 0
VERTEX
 8
BORDO
 10
-37.9456
 20
26.7462
 30
-0.1301
 70
192
 0
VERTEX
 8
BORDO
 10
-37.7461
 20
26.8357
 30
-0.1301
 70
192
 0
VERTEX
 8
BORDO
 10
-37.5425
 20
26.8872
 30
-0.1301
 70
192
 0
VERTEX
 8
BORDO
 10
-38.558
 20
25.8717
 30
0.45
 70
192
 0
VERTEX
 8
BORDO
 10
-38.5065
 20
26.0754
 30
0.45
 70
192
 0
VERTEX
 8
BORDO
 10
-38.4169
 20
26.2748
 30
0.45
 70
192
 0
VERTEX
 8
BORDO
 10
-38.29
 20
26.4595
 30
0.45
 70
192
 0
VERTEX
 8
BORDO
 10
-38.1302
 20
26.6192
 30
0.45
 70
192
 0
VERTEX
 8
BORDO
 10
-37.9456
 20
26.7462
 30
0.45
 70
192
 0
VERTEX
 8
BORDO
 10
-37.7461
 20
26.8357
 30
0.45
 70
192
 0
VERTEX
 8
BORDO
 10
-37.5425
 20
26.8872
 30
0.45
 70
192
 0
VERTEX
 8
BORDO
 10
-38.558
 20
-25.8717
 30
0.45
 70
192
 0
VERTEX
 8
BORDO
 10
-38.5065
 20
-26.0753
 30
0.45
 70
192
 0
VERTEX
 8
BORDO
 10
-38.4169
 20
-26.2748
 30
0.45
 70
192
 0
VERTEX
 8
BORDO
 10
-38.29
 20
-26.4594
 30
0.45
 70
192
 0
VERTEX
 8
BORDO
 10
-38.1302
 20
-26.6192
 30
0.45
 70
192
 0
VERTEX
 8
BORDO
 10
-37.9456
 20
-26.7461
 30
0.45
 70
192
 0
VERTEX
 8
BORDO
 10
-37.7461
 20
-26.8357
 30
0.45
 70
192
 0
VERTEX
 8
BORDO
 10
-37.5425
 20
-26.8871
 30
0.45
 70
192
 0
VERTEX
 8
BORDO
 10
-38.558
 20
-25.8717
 30
-0.1301
 70
192
 0
VERTEX
 8
BORDO
 10
-38.5065
 20
-26.0753
 30
-0.1301
 70
192
 0
VERTEX
 8
BORDO
 10
-38.4169
 20
-26.2748
 30
-0.1301
 70
192
 0
VERTEX
 8
BORDO
 10
-38.29
 20
-26.4594
 30
-0.1301
 70
192
 0
VERTEX
 8
BORDO
 10
-38.1302
 20
-26.6192
 30
-0.1301
 70
192
 0
VERTEX
 8
BORDO
 10
-37.9456
 20
-26.7461
 30
-0.1301
 70
192
 0
VERTEX
 8
BORDO
 10
-37.7461
 20
-26.8357
 30
-0.1301
 70
192
 0
VERTEX
 8
BORDO
 10
-37.5425
 20
-26.8871
 30
-0.1301
 70
192
 0
VERTEX
 8
BORDO
 10
37.544
 20
-26.8871
 30
0.45
 70
192
 0
VERTEX
 8
BORDO
 10
37.7476
 20
-26.8357
 30
0.45
 70
192
 0
VERTEX
 8
BORDO
 10
37.9471
 20
-26.7461
 30
0.45
 70
192
 0
VERTEX
 8
BORDO
 10
38.1317
 20
-26.6192
 30
0.45
 70
192
 0
VERTEX
 8
BORDO
 10
38.2915
 20
-26.4594
 30
0.45
 70
192
 0
VERTEX
 8
BORDO
 10
38.4184
 20
-26.2748
 30
0.45
 70
192
 0
VERTEX
 8
BORDO
 10
38.508
 20
-26.0753
 30
0.45
 70
192
 0
VERTEX
 8
BORDO
 10
38.5595
 20
-25.8717
 30
0.45
 70
192
 0
VERTEX
 8
BORDO
 10
37.544
 20
-26.8871
 30
-0.1301
 70
192
 0
VERTEX
 8
BORDO
 10
37.7476
 20
-26.8357
 30
-0.1301
 70
192
 0
VERTEX
 8
BORDO
 10
37.9471
 20
-26.7461
 30
-0.1301
 70
192
 0
VERTEX
 8
BORDO
 10
38.1317
 20
-26.6192
 30
-0.1301
 70
192
 0
VERTEX
 8
BORDO
 10
38.2915
 20
-26.4594
 30
-0.1301
 70
192
 0
VERTEX
 8
BORDO
 10
38.4184
 20
-26.2748
 30
-0.1301
 70
192
 0
VERTEX
 8
BORDO
 10
38.508
 20
-26.0753
 30
-0.1301
 70
192
 0
VERTEX
 8
BORDO
 10
38.5595
 20
-25.8717
 30
-0.1301
 70
192
 0
VERTEX
 8
BORDO
 10
38.5595
 20
25.8717
 30
0.45
 70
192
 0
VERTEX
 8
BORDO
 10
38.508
 20
26.0754
 30
0.45
 70
192
 0
VERTEX
 8
BORDO
 10
38.4184
 20
26.2748
 30
0.45
 70
192
 0
VERTEX
 8
BORDO
 10
38.2915
 20
26.4595
 30
0.45
 70
192
 0
VERTEX
 8
BORDO
 10
38.1317
 20
26.6192
 30
0.45
 70
192
 0
VERTEX
 8
BORDO
 10
37.9471
 20
26.7462
 30
0.45
 70
192
 0
VERTEX
 8
BORDO
 10
37.7476
 20
26.8357
 30
0.45
 70
192
 0
VERTEX
 8
BORDO
 10
37.544
 20
26.8872
 30
0.45
 70
192
 0
VERTEX
 8
BORDO
 10
38.5595
 20
25.8717
 30
-0.1301
 70
192
 0
VERTEX
 8
BORDO
 10
38.508
 20
26.0754
 30
-0.1301
 70
192
 0
VERTEX
 8
BORDO
 10
38.4184
 20
26.2748
 30
-0.1301
 70
192
 0
VERTEX
 8
BORDO
 10
38.2915
 20
26.4595
 30
-0.1301
 70
192
 0
VERTEX
 8
BORDO
 10
38.1317
 20
26.6192
 30
-0.1301
 70
192
 0
VERTEX
 8
BORDO
 10
37.9471
 20
26.7462
 30
-0.1301
 70
192
 0
VERTEX
 8
BORDO
 10
37.7476
 20
26.8357
 30
-0.1301
 70
192
 0
VERTEX
 8
BORDO
 10
37.544
 20
26.8872
 30
-0.1301
 70
192
 0
VERTEX
 8
BORDO
 10
0
 20
0
 30
0
 70
128
 71
85
 72
86
 73
87
 74
88
 0
VERTEX
 8
BORDO
 10
0
 20
0
 30
0
 70
128
 71
89
 72
90
 73
91
 74
92
 0
VERTEX
 8
BORDO
 10
0
 20
0
 30
0
 70
128
 71
93
 72
94
 73
95
 74
96
 0
VERTEX
 8
BORDO
 10
0
 20
0
 30
0
 70
128
 71
81
 72
82
 73
83
 74
84
 0
VERTEX
 8
BORDO
 10
0
 20
0
 30
0
 70
128
 71
143
 72
142
 73
134
 74
135
 0
VERTEX
 8
BORDO
 10
0
 20
0
 30
0
 70
128
 71
85
 72
128
 73
120
 74
86
 0
VERTEX
 8
BORDO
 10
0
 20
0
 30
0
 70
128
 71
142
 72
141
 73
133
 74
134
 0
VERTEX
 8
BORDO
 10
0
 20
0
 30
0
 70
128
 71
141
 72
140
 73
132
 74
133
 0
VERTEX
 8
BORDO
 10
0
 20
0
 30
0
 70
128
 71
140
 72
139
 73
131
 74
132
 0
VERTEX
 8
BORDO
 10
0
 20
0
 30
0
 70
128
 71
139
 72
138
 73
130
 74
131
 0
VERTEX
 8
BORDO
 10
0
 20
0
 30
0
 70
128
 71
138
 72
137
 73
129
 74
130
 0
VERTEX
 8
BORDO
 10
0
 20
0
 30
0
 70
128
 71
137
 72
88
 73
87
 74
129
 0
VERTEX
 8
BORDO
 10
0
 20
0
 30
0
 70
128
 71
160
 72
159
 73
151
 74
152
 0
VERTEX
 8
BORDO
 10
0
 20
0
 30
0
 70
128
 71
159
 72
158
 73
150
 74
151
 0
VERTEX
 8
BORDO
 10
0
 20
0
 30
0
 70
128
 71
158
 72
157
 73
149
 74
150
 0
VERTEX
 8
BORDO
 10
0
 20
0
 30
0
 70
128
 71
157
 72
156
 73
148
 74
149
 0
VERTEX
 8
BORDO
 10
0
 20
0
 30
0
 70
128
 71
156
 72
155
 73
147
 74
148
 0
VERTEX
 8
BORDO
 10
0
 20
0
 30
0
 70
128
 71
155
 72
154
 73
146
 74
147
 0
VERTEX
 8
BORDO
 10
0
 20
0
 30
0
 70
128
 71
154
 72
153
 73
145
 74
146
 0
VERTEX
 8
BORDO
 10
0
 20
0
 30
0
 70
128
 71
153
 72
92
 73
91
 74
145
 0
VERTEX
 8
BORDO
 10
0
 20
0
 30
0
 70
128
 71
97
 72
98
 73
106
 74
105
 0
VERTEX
 8
BORDO
 10
0
 20
0
 30
0
 70
128
 71
98
 72
99
 73
107
 74
106
 0
VERTEX
 8
BORDO
 10
0
 20
0
 30
0
 70
128
 71
99
 72
100
 73
108
 74
107
 0
VERTEX
 8
BORDO
 10
0
 20
0
 30
0
 70
128
 71
100
 72
101
 73
109
 74
108
 0
VERTEX
 8
BORDO
 10
0
 20
0
 30
0
 70
128
 71
101
 72
102
 73
110
 74
109
 0
VERTEX
 8
BORDO
 10
0
 20
0
 30
0
 70
128
 71
102
 72
103
 73
111
 74
110
 0
VERTEX
 8
BORDO
 10
0
 20
0
 30
0
 70
128
 71
103
 72
104
 73
112
 74
111
 0
VERTEX
 8
BORDO
 10
0
 20
0
 30
0
 70
128
 71
104
 72
96
 73
95
 74
112
 0
VERTEX
 8
BORDO
 10
0
 20
0
 30
0
 70
128
 71
89
 72
144
 73
136
 74
90
 0
VERTEX
 8
BORDO
 10
0
 20
0
 30
0
 70
128
 71
93
 72
160
 73
152
 74
94
 0
VERTEX
 8
BORDO
 10
0
 20
0
 30
0
 70
128
 71
81
 72
97
 73
105
 74
82
 0
VERTEX
 8
BORDO
 10
0
 20
0
 30
0
 70
128
 71
128
 72
127
 73
119
 74
120
 0
VERTEX
 8
BORDO
 10
0
 20
0
 30
0
 70
128
 71
127
 72
126
 73
118
 74
119
 0
VERTEX
 8
BORDO
 10
0
 20
0
 30
0
 70
128
 71
126
 72
125
 73
117
 74
118
 0
VERTEX
 8
BORDO
 10
0
 20
0
 30
0
 70
128
 71
125
 72
124
 73
116
 74
117
 0
VERTEX
 8
BORDO
 10
0
 20
0
 30
0
 70
128
 71
124
 72
123
 73
115
 74
116
 0
VERTEX
 8
BORDO
 10
0
 20
0
 30
0
 70
128
 71
123
 72
122
 73
114
 74
115
 0
VERTEX
 8
BORDO
 10
0
 20
0
 30
0
 70
128
 71
122
 72
121
 73
113
 74
114
 0
VERTEX
 8
BORDO
 10
0
 20
0
 30
0
 70
128
 71
121
 72
84
 73
83
 74
113
 0
VERTEX
 8
BORDO
 10
0
 20
0
 30
0
 70
128
 71
144
 72
143
 73
135
 74
136
 0
VERTEX
 8
BORDO
 10
0
 20
0
 30
0
 70
128
 71
5
 72
85
 73
88
 74
8
 0
VERTEX
 8
BORDO
 10
0
 20
0
 30
0
 70
128
 71
7
 72
87
 73
86
 74
6
 0
VERTEX
 8
BORDO
 10
0
 20
0
 30
0
 70
128
 71
9
 72
89
 73
92
 74
12
 0
VERTEX
 8
BORDO
 10
0
 20
0
 30
0
 70
128
 71
11
 72
91
 73
90
 74
10
 0
VERTEX
 8
BORDO
 10
0
 20
0
 30
0
 70
128
 71
13
 72
93
 73
96
 74
16
 0
VERTEX
 8
BORDO
 10
0
 20
0
 30
0
 70
128
 71
15
 72
95
 73
94
 74
14
 0
VERTEX
 8
BORDO
 10
0
 20
0
 30
0
 70
128
 71
1
 72
81
 73
84
 74
4
 0
VERTEX
 8
BORDO
 10
0
 20
0
 30
0
 70
128
 71
3
 72
83
 73
82
 74
2
 0
VERTEX
 8
BORDO
 10
0
 20
0
 30
0
 70
128
 71
55
 72
135
 73
134
 74
54
 0
VERTEX
 8
BORDO
 10
0
 20
0
 30
0
 70
128
 71
62
 72
142
 73
143
 74
63
 0
VERTEX
 8
BORDO
 10
0
 20
0
 30
0
 70
128
 71
6
 72
86
 73
120
 74
40
 0
VERTEX
 8
BORDO
 10
0
 20
0
 30
0
 70
128
 71
48
 72
128
 73
85
 74
5
 0
VERTEX
 8
BORDO
 10
0
 20
0
 30
0
 70
128
 71
54
 72
134
 73
133
 74
53
 0
VERTEX
 8
BORDO
 10
0
 20
0
 30
0
 70
128
 71
61
 72
141
 73
142
 74
62
 0
VERTEX
 8
BORDO
 10
0
 20
0
 30
0
 70
128
 71
53
 72
133
 73
132
 74
52
 0
VERTEX
 8
BORDO
 10
0
 20
0
 30
0
 70
128
 71
60
 72
140
 73
141
 74
61
 0
VERTEX
 8
BORDO
 10
0
 20
0
 30
0
 70
128
 71
52
 72
132
 73
131
 74
51
 0
VERTEX
 8
BORDO
 10
0
 20
0
 30
0
 70
128
 71
59
 72
139
 73
140
 74
60
 0
VERTEX
 8
BORDO
 10
0
 20
0
 30
0
 70
128
 71
51
 72
131
 73
130
 74
50
 0
VERTEX
 8
BORDO
 10
0
 20
0
 30
0
 70
128
 71
58
 72
138
 73
139
 74
59
 0
VERTEX
 8
BORDO
 10
0
 20
0
 30
0
 70
128
 71
50
 72
130
 73
129
 74
49
 0
VERTEX
 8
BORDO
 10
0
 20
0
 30
0
 70
128
 71
57
 72
137
 73
138
 74
58
 0
VERTEX
 8
BORDO
 10
0
 20
0
 30
0
 70
128
 71
49
 72
129
 73
87
 74
7
 0
VERTEX
 8
BORDO
 10
0
 20
0
 30
0
 70
128
 71
8
 72
88
 73
137
 74
57
 0
VERTEX
 8
BORDO
 10
0
 20
0
 30
0
 70
128
 71
72
 72
152
 73
151
 74
71
 0
VERTEX
 8
BORDO
 10
0
 20
0
 30
0
 70
128
 71
79
 72
159
 73
160
 74
80
 0
VERTEX
 8
BORDO
 10
0
 20
0
 30
0
 70
128
 71
71
 72
151
 73
150
 74
70
 0
VERTEX
 8
BORDO
 10
0
 20
0
 30
0
 70
128
 71
78
 72
158
 73
159
 74
79
 0
VERTEX
 8
BORDO
 10
0
 20
0
 30
0
 70
128
 71
70
 72
150
 73
149
 74
69
 0
VERTEX
 8
BORDO
 10
0
 20
0
 30
0
 70
128
 71
77
 72
157
 73
158
 74
78
 0
VERTEX
 8
BORDO
 10
0
 20
0
 30
0
 70
128
 71
69
 72
149
 73
148
 74
68
 0
VERTEX
 8
BORDO
 10
0
 20
0
 30
0
 70
128
 71
76
 72
156
 73
157
 74
77
 0
VERTEX
 8
BORDO
 10
0
 20
0
 30
0
 70
128
 71
68
 72
148
 73
147
 74
67
 0
VERTEX
 8
BORDO
 10
0
 20
0
 30
0
 70
128
 71
75
 72
155
 73
156
 74
76
 0
VERTEX
 8
BORDO
 10
0
 20
0
 30
0
 70
128
 71
67
 72
147
 73
146
 74
66
 0
VERTEX
 8
BORDO
 10
0
 20
0
 30
0
 70
128
 71
74
 72
154
 73
155
 74
75
 0
VERTEX
 8
BORDO
 10
0
 20
0
 30
0
 70
128
 71
66
 72
146
 73
145
 74
65
 0
VERTEX
 8
BORDO
 10
0
 20
0
 30
0
 70
128
 71
73
 72
153
 73
154
 74
74
 0
VERTEX
 8
BORDO
 10
0
 20
0
 30
0
 70
128
 71
65
 72
145
 73
91
 74
11
 0
VERTEX
 8
BORDO
 10
0
 20
0
 30
0
 70
128
 71
12
 72
92
 73
153
 74
73
 0
VERTEX
 8
BORDO
 10
0
 20
0
 30
0
 70
128
 71
25
 72
105
 73
106
 74
26
 0
VERTEX
 8
BORDO
 10
0
 20
0
 30
0
 70
128
 71
18
 72
98
 73
97
 74
17
 0
VERTEX
 8
BORDO
 10
0
 20
0
 30
0
 70
128
 71
26
 72
106
 73
107
 74
27
 0
VERTEX
 8
BORDO
 10
0
 20
0
 30
0
 70
128
 71
19
 72
99
 73
98
 74
18
 0
VERTEX
 8
BORDO
 10
0
 20
0
 30
0
 70
128
 71
27
 72
107
 73
108
 74
28
 0
VERTEX
 8
BORDO
 10
0
 20
0
 30
0
 70
128
 71
20
 72
100
 73
99
 74
19
 0
VERTEX
 8
BORDO
 10
0
 20
0
 30
0
 70
128
 71
28
 72
108
 73
109
 74
29
 0
VERTEX
 8
BORDO
 10
0
 20
0
 30
0
 70
128
 71
21
 72
101
 73
100
 74
20
 0
VERTEX
 8
BORDO
 10
0
 20
0
 30
0
 70
128
 71
29
 72
109
 73
110
 74
30
 0
VERTEX
 8
BORDO
 10
0
 20
0
 30
0
 70
128
 71
22
 72
102
 73
101
 74
21
 0
VERTEX
 8
BORDO
 10
0
 20
0
 30
0
 70
128
 71
30
 72
110
 73
111
 74
31
 0
VERTEX
 8
BORDO
 10
0
 20
0
 30
0
 70
128
 71
23
 72
103
 73
102
 74
22
 0
VERTEX
 8
BORDO
 10
0
 20
0
 30
0
 70
128
 71
31
 72
111
 73
112
 74
32
 0
VERTEX
 8
BORDO
 10
0
 20
0
 30
0
 70
128
 71
24
 72
104
 73
103
 74
23
 0
VERTEX
 8
BORDO
 10
0
 20
0
 30
0
 70
128
 71
32
 72
112
 73
95
 74
15
 0
VERTEX
 8
BORDO
 10
0
 20
0
 30
0
 70
128
 71
16
 72
96
 73
104
 74
24
 0
VERTEX
 8
BORDO
 10
0
 20
0
 30
0
 70
128
 71
10
 72
90
 73
136
 74
56
 0
VERTEX
 8
BORDO
 10
0
 20
0
 30
0
 70
128
 71
64
 72
144
 73
89
 74
9
 0
VERTEX
 8
BORDO
 10
0
 20
0
 30
0
 70
128
 71
14
 72
94
 73
152
 74
72
 0
VERTEX
 8
BORDO
 10
0
 20
0
 30
0
 70
128
 71
80
 72
160
 73
93
 74
13
 0
VERTEX
 8
BORDO
 10
0
 20
0
 30
0
 70
128
 71
2
 72
82
 73
105
 74
25
 0
VERTEX
 8
BORDO
 10
0
 20
0
 30
0
 70
128
 71
17
 72
97
 73
81
 74
1
 0
VERTEX
 8
BORDO
 10
0
 20
0
 30
0
 70
128
 71
40
 72
120
 73
119
 74
39
 0
VERTEX
 8
BORDO
 10
0
 20
0
 30
0
 70
128
 71
47
 72
127
 73
128
 74
48
 0
VERTEX
 8
BORDO
 10
0
 20
0
 30
0
 70
128
 71
39
 72
119
 73
118
 74
38
 0
VERTEX
 8
BORDO
 10
0
 20
0
 30
0
 70
128
 71
46
 72
126
 73
127
 74
47
 0
VERTEX
 8
BORDO
 10
0
 20
0
 30
0
 70
128
 71
38
 72
118
 73
117
 74
37
 0
VERTEX
 8
BORDO
 10
0
 20
0
 30
0
 70
128
 71
45
 72
125
 73
126
 74
46
 0
VERTEX
 8
BORDO
 10
0
 20
0
 30
0
 70
128
 71
37
 72
117
 73
116
 74
36
 0
VERTEX
 8
BORDO
 10
0
 20
0
 30
0
 70
128
 71
44
 72
124
 73
125
 74
45
 0
VERTEX
 8
BORDO
 10
0
 20
0
 30
0
 70
128
 71
36
 72
116
 73
115
 74
35
 0
VERTEX
 8
BORDO
 10
0
 20
0
 30
0
 70
128
 71
43
 72
123
 73
124
 74
44
 0
VERTEX
 8
BORDO
 10
0
 20
0
 30
0
 70
128
 71
35
 72
115
 73
114
 74
34
 0
VERTEX
 8
BORDO
 10
0
 20
0
 30
0
 70
128
 71
42
 72
122
 73
123
 74
43
 0
VERTEX
 8
BORDO
 10
0
 20
0
 30
0
 70
128
 71
34
 72
114
 73
113
 74
33
 0
VERTEX
 8
BORDO
 10
0
 20
0
 30
0
 70
128
 71
41
 72
121
 73
122
 74
42
 0
VERTEX
 8
BORDO
 10
0
 20
0
 30
0
 70
128
 71
33
 72
113
 73
83
 74
3
 0
VERTEX
 8
BORDO
 10
0
 20
0
 30
0
 70
128
 71
4
 72
84
 73
121
 74
41
 0
VERTEX
 8
BORDO
 10
0
 20
0
 30
0
 70
128
 71
56
 72
136
 73
135
 74
55
 0
VERTEX
 8
BORDO
 10
0
 20
0
 30
0
 70
128
 71
63
 72
143
 73
144
 74
64
 0
SEQEND
 0
POLYLINE
 8
PIANO
 66
1
 10
0.0
 20
0.0
 30
0.0
 70
64
 71
116
 72
154
 0
VERTEX
 8
PIANO
 10
-38.3735
 20
25.6727
 30
-0.1301
 70
192
 0
VERTEX
 8
PIANO
 10
-38.3735
 20
25.6727
 30
0.45
 70
192
 0
VERTEX
 8
PIANO
 10
-38.3735
 20
-25.6726
 30
0.45
 70
192
 0
VERTEX
 8
PIANO
 10
-38.3735
 20
-25.6726
 30
-0.1301
 70
192
 0
VERTEX
 8
PIANO
 10
-37.3435
 20
-26.7026
 30
-0.1301
 70
192
 0
VERTEX
 8
PIANO
 10
-37.3435
 20
-26.7026
 30
0.45
 70
192
 0
VERTEX
 8
PIANO
 10
37.345
 20
-26.7026
 30
0.45
 70
192
 0
VERTEX
 8
PIANO
 10
37.345
 20
-26.7026
 30
-0.1301
 70
192
 0
VERTEX
 8
PIANO
 10
38.375
 20
-25.6726
 30
-0.1301
 70
192
 0
VERTEX
 8
PIANO
 10
38.375
 20
-25.6726
 30
0.45
 70
192
 0
VERTEX
 8
PIANO
 10
38.375
 20
25.6727
 30
0.45
 70
192
 0
VERTEX
 8
PIANO
 10
38.375
 20
25.6727
 30
-0.1301
 70
192
 0
VERTEX
 8
PIANO
 10
37.345
 20
26.7027
 30
-0.1301
 70
192
 0
VERTEX
 8
PIANO
 10
37.345
 20
26.7027
 30
0.45
 70
192
 0
VERTEX
 8
PIANO
 10
-37.3435
 20
26.7027
 30
0.45
 70
192
 0
VERTEX
 8
PIANO
 10
-37.3435
 20
26.7027
 30
-0.1301
 70
192
 0
VERTEX
 8
PIANO
 10
-38.36
 20
25.8389
 30
-0.1301
 70
192
 0
VERTEX
 8
PIANO
 10
-38.3169
 20
26.0094
 30
-0.1301
 70
192
 0
VERTEX
 8
PIANO
 10
-38.2419
 20
26.1764
 30
-0.1301
 70
192
 0
VERTEX
 8
PIANO
 10
-38.1356
 20
26.331
 30
-0.1301
 70
192
 0
VERTEX
 8
PIANO
 10
-38.0018
 20
26.4648
 30
-0.1301
 70
192
 0
VERTEX
 8
PIANO
 10
-37.8472
 20
26.5711
 30
-0.1301
 70
192
 0
VERTEX
 8
PIANO
 10
-37.6802
 20
26.6461
 30
-0.1301
 70
192
 0
VERTEX
 8
PIANO
 10
-37.5097
 20
26.6892
 30
-0.1301
 70
192
 0
VERTEX
 8
PIANO
 10
-38.36
 20
25.8389
 30
0.45
 70
192
 0
VERTEX
 8
PIANO
 10
-38.3169
 20
26.0094
 30
0.45
 70
192
 0
VERTEX
 8
PIANO
 10
-38.2419
 20
26.1764
 30
0.45
 70
192
 0
VERTEX
 8
PIANO
 10
-38.1356
 20
26.331
 30
0.45
 70
192
 0
VERTEX
 8
PIANO
 10
-38.0018
 20
26.4648
 30
0.45
 70
192
 0
VERTEX
 8
PIANO
 10
-37.8472
 20
26.5711
 30
0.45
 70
192
 0
VERTEX
 8
PIANO
 10
-37.6802
 20
26.6461
 30
0.45
 70
192
 0
VERTEX
 8
PIANO
 10
-37.5097
 20
26.6892
 30
0.45
 70
192
 0
VERTEX
 8
PIANO
 10
-38.36
 20
-25.8388
 30
0.45
 70
192
 0
VERTEX
 8
PIANO
 10
-38.3169
 20
-26.0094
 30
0.45
 70
192
 0
VERTEX
 8
PIANO
 10
-38.2419
 20
-26.1764
 30
0.45
 70
192
 0
VERTEX
 8
PIANO
 10
-38.1356
 20
-26.331
 30
0.45
 70
192
 0
VERTEX
 8
PIANO
 10
-38.0018
 20
-26.4648
 30
0.45
 70
192
 0
VERTEX
 8
PIANO
 10
-37.8472
 20
-26.5711
 30
0.45
 70
192
 0
VERTEX
 8
PIANO
 10
-37.6802
 20
-26.6461
 30
0.45
 70
192
 0
VERTEX
 8
PIANO
 10
-37.5097
 20
-26.6891
 30
0.45
 70
192
 0
VERTEX
 8
PIANO
 10
-38.36
 20
-25.8388
 30
-0.1301
 70
192
 0
VERTEX
 8
PIANO
 10
-38.3169
 20
-26.0094
 30
-0.1301
 70
192
 0
VERTEX
 8
PIANO
 10
-38.2419
 20
-26.1764
 30
-0.1301
 70
192
 0
VERTEX
 8
PIANO
 10
-38.1356
 20
-26.331
 30
-0.1301
 70
192
 0
VERTEX
 8
PIANO
 10
-38.0018
 20
-26.4648
 30
-0.1301
 70
192
 0
VERTEX
 8
PIANO
 10
-37.8472
 20
-26.5711
 30
-0.1301
 70
192
 0
VERTEX
 8
PIANO
 10
-37.6802
 20
-26.6461
 30
-0.1301
 70
192
 0
VERTEX
 8
PIANO
 10
-37.5097
 20
-26.6891
 30
-0.1301
 70
192
 0
VERTEX
 8
PIANO
 10
37.5112
 20
-26.6891
 30
0.45
 70
192
 0
VERTEX
 8
PIANO
 10
37.6817
 20
-26.6461
 30
0.45
 70
192
 0
VERTEX
 8
PIANO
 10
37.8487
 20
-26.5711
 30
0.45
 70
192
 0
VERTEX
 8
PIANO
 10
38.0033
 20
-26.4648
 30
0.45
 70
192
 0
VERTEX
 8
PIANO
 10
38.1371
 20
-26.331
 30
0.45
 70
192
 0
VERTEX
 8
PIANO
 10
38.2434
 20
-26.1764
 30
0.45
 70
192
 0
VERTEX
 8
PIANO
 10
38.3184
 20
-26.0094
 30
0.45
 70
192
 0
VERTEX
 8
PIANO
 10
38.3615
 20
-25.8388
 30
0.45
 70
192
 0
VERTEX
 8
PIANO
 10
37.5112
 20
-26.6891
 30
-0.1301
 70
192
 0
VERTEX
 8
PIANO
 10
37.6817
 20
-26.6461
 30
-0.1301
 70
192
 0
VERTEX
 8
PIANO
 10
37.8487
 20
-26.5711
 30
-0.1301
 70
192
 0
VERTEX
 8
PIANO
 10
38.0033
 20
-26.4648
 30
-0.1301
 70
192
 0
VERTEX
 8
PIANO
 10
38.1371
 20
-26.331
 30
-0.1301
 70
192
 0
VERTEX
 8
PIANO
 10
38.2434
 20
-26.1764
 30
-0.1301
 70
192
 0
VERTEX
 8
PIANO
 10
38.3184
 20
-26.0094
 30
-0.1301
 70
192
 0
VERTEX
 8
PIANO
 10
38.3615
 20
-25.8388
 30
-0.1301
 70
192
 0
VERTEX
 8
PIANO
 10
38.3615
 20
25.8389
 30
0.45
 70
192
 0
VERTEX
 8
PIANO
 10
38.3184
 20
26.0094
 30
0.45
 70
192
 0
VERTEX
 8
PIANO
 10
38.2434
 20
26.1764
 30
0.45
 70
192
 0
VERTEX
 8
PIANO
 10
38.1371
 20
26.331
 30
0.45
 70
192
 0
VERTEX
 8
PIANO
 10
38.0033
 20
26.4648
 30
0.45
 70
192
 0
VERTEX
 8
PIANO
 10
37.8487
 20
26.5711
 30
0.45
 70
192
 0
VERTEX
 8
PIANO
 10
37.6817
 20
26.6461
 30
0.45
 70
192
 0
VERTEX
 8
PIANO
 10
37.5112
 20
26.6892
 30
0.45
 70
192
 0
VERTEX
 8
PIANO
 10
38.3615
 20
25.8389
 30
-0.1301
 70
192
 0
VERTEX
 8
PIANO
 10
38.3184
 20
26.0094
 30
-0.1301
 70
192
 0
VERTEX
 8
PIANO
 10
38.2434
 20
26.1764
 30
-0.1301
 70
192
 0
VERTEX
 8
PIANO
 10
38.1371
 20
26.331
 30
-0.1301
 70
192
 0
VERTEX
 8
PIANO
 10
38.0033
 20
26.4648
 30
-0.1301
 70
192
 0
VERTEX
 8
PIANO
 10
37.8487
 20
26.5711
 30
-0.1301
 70
192
 0
VERTEX
 8
PIANO
 10
37.6817
 20
26.6461
 30
-0.1301
 70
192
 0
VERTEX
 8
PIANO
 10
37.5112
 20
26.6892
 30
-0.1301
 70
192
 0
VERTEX
 8
PIANO
 10
37.345
 20
-25.6726
 30
0.45
 70
192
 0
VERTEX
 8
PIANO
 10
37.345
 20
-25.6726
 30
-0.1301
 70
192
 0
VERTEX
 8
PIANO
 10
37.345
 20
-26.7026
 30
0.45
 70
192
 0
VERTEX
 8
PIANO
 10
37.345
 20
-26.7026
 30
-0.1301
 70
192
 0
VERTEX
 8
PIANO
 10
-38.3735
 20
25.6727
 30
0.45
 70
192
 0
VERTEX
 8
PIANO
 10
-38.3735
 20
25.6727
 30
-0.1301
 70
192
 0
VERTEX
 8
PIANO
 10
37.345
 20
25.6727
 30
0.45
 70
192
 0
VERTEX
 8
PIANO
 10
37.345
 20
25.6727
 30
-0.1301
 70
192
 0
VERTEX
 8
PIANO
 10
-37.3435
 20
-25.6726
 30
-0.1301
 70
192
 0
VERTEX
 8
PIANO
 10
-37.3435
 20
-25.6726
 30
0.45
 70
192
 0
VERTEX
 8
PIANO
 10
-37.3435
 20
25.6727
 30
0.45
 70
192
 0
VERTEX
 8
PIANO
 10
-37.3435
 20
25.6727
 30
-0.1301
 70
192
 0
VERTEX
 8
PIANO
 10
-37.3435
 20
26.7027
 30
0.45
 70
192
 0
VERTEX
 8
PIANO
 10
-37.3435
 20
26.7027
 30
-0.1301
 70
192
 0
VERTEX
 8
PIANO
 10
-37.5097
 20
26.6892
 30
-0.1301
 70
192
 0
VERTEX
 8
PIANO
 10
-37.5097
 20
26.6892
 30
0.45
 70
192
 0
VERTEX
 8
PIANO
 10
-37.6802
 20
26.6461
 30
0.45
 70
192
 0
VERTEX
 8
PIANO
 10
-37.6802
 20
26.6461
 30
-0.1301
 70
192
 0
VERTEX
 8
PIANO
 10
-37.6802
 20
26.6461
 30
0.45
 70
192
 0
VERTEX
 8
PIANO
 10
-37.6802
 20
26.6461
 30
-0.1301
 70
192
 0
VERTEX
 8
PIANO
 10
-37.8472
 20
26.5711
 30
0.45
 70
192
 0
VERTEX
 8
PIANO
 10
-37.8472
 20
26.5711
 30
-0.1301
 70
192
 0
VERTEX
 8
PIANO
 10
-37.8472
 20
26.5711
 30
-0.1301
 70
192
 0
VERTEX
 8
PIANO
 10
-37.8472
 20
26.5711
 30
0.45
 70
192
 0
VERTEX
 8
PIANO
 10
-38.0018
 20
26.4648
 30
-0.1301
 70
192
 0
VERTEX
 8
PIANO
 10
-38.0018
 20
26.4648
 30
0.45
 70
192
 0
VERTEX
 8
PIANO
 10
-38.1356
 20
26.331
 30
0.45
 70
192
 0
VERTEX
 8
PIANO
 10
-38.1356
 20
26.331
 30
-0.1301
 70
192
 0
VERTEX
 8
PIANO
 10
-38.1356
 20
26.331
 30
0.45
 70
192
 0
VERTEX
 8
PIANO
 10
-38.1356
 20
26.331
 30
-0.1301
 70
192
 0
VERTEX
 8
PIANO
 10
-38.2419
 20
26.1764
 30
-0.1301
 70
192
 0
VERTEX
 8
PIANO
 10
-38.2419
 20
26.1764
 30
0.45
 70
192
 0
VERTEX
 8
PIANO
 10
-38.3169
 20
26.0094
 30
0.45
 70
192
 0
VERTEX
 8
PIANO
 10
-38.3169
 20
26.0094
 30
-0.1301
 70
192
 0
VERTEX
 8
PIANO
 10
-38.36
 20
25.8389
 30
0.45
 70
192
 0
VERTEX
 8
PIANO
 10
-38.36
 20
25.8389
 30
-0.1301
 70
192
 0
VERTEX
 8
PIANO
 10
0
 20
0
 30
0
 70
128
 71
5
 72
6
 73
7
 74
8
 0
VERTEX
 8
PIANO
 10
0
 20
0
 30
0
 70
128
 71
9
 72
10
 73
11
 74
12
 0
VERTEX
 8
PIANO
 10
0
 20
0
 30
0
 70
128
 71
13
 72
14
 73
15
 74
16
 0
VERTEX
 8
PIANO
 10
0
 20
0
 30
0
 70
128
 71
1
 72
2
 73
85
 74
86
 0
VERTEX
 8
PIANO
 10
0
 20
0
 30
0
 70
128
 71
56
 72
55
 73
81
 74
81
 0
VERTEX
 8
PIANO
 10
0
 20
0
 30
0
 70
128
 71
21
 72
105
 73
106
 74
29
 0
VERTEX
 8
PIANO
 10
0
 20
0
 30
0
 70
128
 71
88
 72
78
 73
79
 74
79
 0
VERTEX
 8
PIANO
 10
0
 20
0
 30
0
 70
128
 71
2
 72
91
 73
85
 74
85
 0
VERTEX
 8
PIANO
 10
0
 20
0
 30
0
 70
128
 71
6
 72
90
 73
81
 74
7
 0
VERTEX
 8
PIANO
 10
0
 20
0
 30
0
 70
128
 71
90
 72
3
 73
85
 74
91
 0
VERTEX
 8
PIANO
 10
0
 20
0
 30
0
 70
128
 71
55
 72
54
 73
81
 74
81
 0
VERTEX
 8
PIANO
 10
0
 20
0
 30
0
 70
128
 71
63
 72
64
 73
82
 74
82
 0
VERTEX
 8
PIANO
 10
0
 20
0
 30
0
 70
128
 71
85
 72
3
 73
4
 74
86
 0
VERTEX
 8
PIANO
 10
0
 20
0
 30
0
 70
128
 71
89
 72
41
 73
42
 74
42
 0
VERTEX
 8
PIANO
 10
0
 20
0
 30
0
 70
128
 71
83
 72
7
 73
81
 74
49
 0
VERTEX
 8
PIANO
 10
0
 20
0
 30
0
 70
128
 71
81
 72
10
 73
56
 74
56
 0
VERTEX
 8
PIANO
 10
0
 20
0
 30
0
 70
128
 71
54
 72
53
 73
81
 74
81
 0
VERTEX
 8
PIANO
 10
0
 20
0
 30
0
 70
128
 71
53
 72
52
 73
81
 74
81
 0
VERTEX
 8
PIANO
 10
0
 20
0
 30
0
 70
128
 71
89
 72
43
 73
44
 74
44
 0
VERTEX
 8
PIANO
 10
0
 20
0
 30
0
 70
128
 71
89
 72
44
 73
45
 74
45
 0
VERTEX
 8
PIANO
 10
0
 20
0
 30
0
 70
128
 71
64
 72
9
 73
82
 74
82
 0
VERTEX
 8
PIANO
 10
0
 20
0
 30
0
 70
128
 71
15
 72
14
 73
87
 74
91
 0
VERTEX
 8
PIANO
 10
0
 20
0
 30
0
 70
128
 71
81
 72
90
 73
91
 74
87
 0
VERTEX
 8
PIANO
 10
0
 20
0
 30
0
 70
128
 71
11
 72
10
 73
81
 74
87
 0
VERTEX
 8
PIANO
 10
0
 20
0
 30
0
 70
128
 71
89
 72
46
 73
47
 74
47
 0
VERTEX
 8
PIANO
 10
0
 20
0
 30
0
 70
128
 71
89
 72
47
 73
48
 74
48
 0
VERTEX
 8
PIANO
 10
0
 20
0
 30
0
 70
128
 71
89
 72
4
 73
41
 74
41
 0
VERTEX
 8
PIANO
 10
0
 20
0
 30
0
 70
128
 71
90
 72
39
 73
38
 74
38
 0
VERTEX
 8
PIANO
 10
0
 20
0
 30
0
 70
128
 71
87
 72
69
 73
68
 74
68
 0
VERTEX
 8
PIANO
 10
0
 20
0
 30
0
 70
128
 71
90
 72
35
 73
34
 74
34
 0
VERTEX
 8
PIANO
 10
0
 20
0
 30
0
 70
128
 71
5
 72
8
 73
82
 74
89
 0
VERTEX
 8
PIANO
 10
0
 20
0
 30
0
 70
128
 71
33
 72
3
 73
90
 74
90
 0
VERTEX
 8
PIANO
 10
0
 20
0
 30
0
 70
128
 71
90
 72
6
 73
40
 74
40
 0
VERTEX
 8
PIANO
 10
0
 20
0
 30
0
 70
128
 71
87
 72
67
 73
66
 74
66
 0
VERTEX
 8
PIANO
 10
0
 20
0
 30
0
 70
128
 71
61
 72
62
 73
82
 74
82
 0
VERTEX
 8
PIANO
 10
0
 20
0
 30
0
 70
128
 71
8
 72
84
 73
57
 74
82
 0
VERTEX
 8
PIANO
 10
0
 20
0
 30
0
 70
128
 71
90
 72
37
 73
36
 74
36
 0
VERTEX
 8
PIANO
 10
0
 20
0
 30
0
 70
128
 71
62
 72
63
 73
82
 74
82
 0
VERTEX
 8
PIANO
 10
0
 20
0
 30
0
 70
128
 71
87
 72
66
 73
65
 74
65
 0
VERTEX
 8
PIANO
 10
0
 20
0
 30
0
 70
128
 71
57
 72
58
 73
82
 74
82
 0
VERTEX
 8
PIANO
 10
0
 20
0
 30
0
 70
128
 71
58
 72
59
 73
82
 74
82
 0
VERTEX
 8
PIANO
 10
0
 20
0
 30
0
 70
128
 71
52
 72
51
 73
81
 74
81
 0
VERTEX
 8
PIANO
 10
0
 20
0
 30
0
 70
128
 71
91
 72
30
 73
104
 74
104
 0
VERTEX
 8
PIANO
 10
0
 20
0
 30
0
 70
128
 71
91
 72
32
 73
96
 74
96
 0
VERTEX
 8
PIANO
 10
0
 20
0
 30
0
 70
128
 71
89
 72
82
 73
88
 74
92
 0
VERTEX
 8
PIANO
 10
0
 20
0
 30
0
 70
128
 71
9
 72
12
 73
88
 74
82
 0
VERTEX
 8
PIANO
 10
0
 20
0
 30
0
 70
128
 71
87
 72
70
 73
69
 74
69
 0
VERTEX
 8
PIANO
 10
0
 20
0
 30
0
 70
128
 71
87
 72
14
 73
72
 74
72
 0
VERTEX
 8
PIANO
 10
0
 20
0
 30
0
 70
128
 71
87
 72
72
 73
71
 74
71
 0
VERTEX
 8
PIANO
 10
0
 20
0
 30
0
 70
128
 71
91
 72
31
 73
99
 74
32
 0
VERTEX
 8
PIANO
 10
0
 20
0
 30
0
 70
128
 71
93
 72
15
 73
91
 74
91
 0
VERTEX
 8
PIANO
 10
0
 20
0
 30
0
 70
128
 71
88
 72
13
 73
16
 74
92
 0
VERTEX
 8
PIANO
 10
0
 20
0
 30
0
 70
128
 71
5
 72
48
 73
40
 74
6
 0
VERTEX
 8
PIANO
 10
0
 20
0
 30
0
 70
128
 71
9
 72
64
 73
56
 74
10
 0
VERTEX
 8
PIANO
 10
0
 20
0
 30
0
 70
128
 71
13
 72
80
 73
72
 74
14
 0
VERTEX
 8
PIANO
 10
0
 20
0
 30
0
 70
128
 71
1
 72
17
 73
25
 74
2
 0
VERTEX
 8
PIANO
 10
0
 20
0
 30
0
 70
128
 71
48
 72
47
 73
39
 74
40
 0
VERTEX
 8
PIANO
 10
0
 20
0
 30
0
 70
128
 71
47
 72
46
 73
38
 74
39
 0
VERTEX
 8
PIANO
 10
0
 20
0
 30
0
 70
128
 71
46
 72
45
 73
37
 74
38
 0
VERTEX
 8
PIANO
 10
0
 20
0
 30
0
 70
128
 71
45
 72
44
 73
36
 74
37
 0
VERTEX
 8
PIANO
 10
0
 20
0
 30
0
 70
128
 71
44
 72
43
 73
35
 74
36
 0
VERTEX
 8
PIANO
 10
0
 20
0
 30
0
 70
128
 71
43
 72
42
 73
34
 74
35
 0
VERTEX
 8
PIANO
 10
0
 20
0
 30
0
 70
128
 71
42
 72
41
 73
33
 74
34
 0
VERTEX
 8
PIANO
 10
0
 20
0
 30
0
 70
128
 71
41
 72
4
 73
3
 74
33
 0
VERTEX
 8
PIANO
 10
0
 20
0
 30
0
 70
128
 71
64
 72
63
 73
55
 74
56
 0
VERTEX
 8
PIANO
 10
0
 20
0
 30
0
 70
128
 71
63
 72
62
 73
54
 74
55
 0
VERTEX
 8
PIANO
 10
0
 20
0
 30
0
 70
128
 71
62
 72
61
 73
53
 74
54
 0
VERTEX
 8
PIANO
 10
0
 20
0
 30
0
 70
128
 71
61
 72
60
 73
52
 74
53
 0
VERTEX
 8
PIANO
 10
0
 20
0
 30
0
 70
128
 71
60
 72
59
 73
51
 74
52
 0
VERTEX
 8
PIANO
 10
0
 20
0
 30
0
 70
128
 71
59
 72
58
 73
50
 74
51
 0
VERTEX
 8
PIANO
 10
0
 20
0
 30
0
 70
128
 71
58
 72
57
 73
49
 74
50
 0
VERTEX
 8
PIANO
 10
0
 20
0
 30
0
 70
128
 71
84
 72
8
 73
7
 74
83
 0
VERTEX
 8
PIANO
 10
0
 20
0
 30
0
 70
128
 71
80
 72
79
 73
71
 74
72
 0
VERTEX
 8
PIANO
 10
0
 20
0
 30
0
 70
128
 71
79
 72
78
 73
70
 74
71
 0
VERTEX
 8
PIANO
 10
0
 20
0
 30
0
 70
128
 71
78
 72
77
 73
69
 74
70
 0
VERTEX
 8
PIANO
 10
0
 20
0
 30
0
 70
128
 71
77
 72
76
 73
68
 74
69
 0
VERTEX
 8
PIANO
 10
0
 20
0
 30
0
 70
128
 71
76
 72
75
 73
67
 74
68
 0
VERTEX
 8
PIANO
 10
0
 20
0
 30
0
 70
128
 71
75
 72
74
 73
66
 74
67
 0
VERTEX
 8
PIANO
 10
0
 20
0
 30
0
 70
128
 71
74
 72
73
 73
65
 74
66
 0
VERTEX
 8
PIANO
 10
0
 20
0
 30
0
 70
128
 71
73
 72
12
 73
11
 74
65
 0
VERTEX
 8
PIANO
 10
0
 20
0
 30
0
 70
128
 71
116
 72
18
 73
26
 74
115
 0
VERTEX
 8
PIANO
 10
0
 20
0
 30
0
 70
128
 71
114
 72
19
 73
27
 74
113
 0
VERTEX
 8
PIANO
 10
0
 20
0
 30
0
 70
128
 71
19
 72
111
 73
112
 74
27
 0
VERTEX
 8
PIANO
 10
0
 20
0
 30
0
 70
128
 71
110
 72
21
 73
29
 74
109
 0
VERTEX
 8
PIANO
 10
0
 20
0
 30
0
 70
128
 71
88
 72
80
 73
13
 74
13
 0
VERTEX
 8
PIANO
 10
0
 20
0
 30
0
 70
128
 71
22
 72
103
 73
104
 74
30
 0
VERTEX
 8
PIANO
 10
0
 20
0
 30
0
 70
128
 71
100
 72
24
 73
32
 74
99
 0
VERTEX
 8
PIANO
 10
0
 20
0
 30
0
 70
128
 71
24
 72
95
 73
96
 74
32
 0
VERTEX
 8
PIANO
 10
0
 20
0
 30
0
 70
128
 71
91
 72
96
 73
93
 74
93
 0
VERTEX
 8
PIANO
 10
0
 20
0
 30
0
 70
128
 71
88
 72
73
 73
74
 74
74
 0
VERTEX
 8
PIANO
 10
0
 20
0
 30
0
 70
128
 71
86
 72
4
 73
89
 74
89
 0
VERTEX
 8
PIANO
 10
0
 20
0
 30
0
 70
128
 71
83
 72
49
 73
57
 74
84
 0
VERTEX
 8
PIANO
 10
0
 20
0
 30
0
 70
128
 71
74
 72
75
 73
88
 74
88
 0
VERTEX
 8
PIANO
 10
0
 20
0
 30
0
 70
128
 71
88
 72
75
 73
76
 74
76
 0
VERTEX
 8
PIANO
 10
0
 20
0
 30
0
 70
128
 71
88
 72
77
 73
78
 74
78
 0
VERTEX
 8
PIANO
 10
0
 20
0
 30
0
 70
128
 71
88
 72
79
 73
80
 74
80
 0
VERTEX
 8
PIANO
 10
0
 20
0
 30
0
 70
128
 71
88
 72
12
 73
73
 74
73
 0
VERTEX
 8
PIANO
 10
0
 20
0
 30
0
 70
128
 71
89
 72
92
 73
1
 74
1
 0
VERTEX
 8
PIANO
 10
0
 20
0
 30
0
 70
128
 71
1
 72
86
 73
89
 74
89
 0
VERTEX
 8
PIANO
 10
0
 20
0
 30
0
 70
128
 71
95
 72
24
 73
92
 74
92
 0
VERTEX
 8
PIANO
 10
0
 20
0
 30
0
 70
128
 71
95
 72
94
 73
15
 74
15
 0
VERTEX
 8
PIANO
 10
0
 20
0
 30
0
 70
128
 71
92
 72
16
 73
94
 74
94
 0
VERTEX
 8
PIANO
 10
0
 20
0
 30
0
 70
128
 71
95
 72
15
 73
93
 74
93
 0
VERTEX
 8
PIANO
 10
0
 20
0
 30
0
 70
128
 71
94
 72
95
 73
92
 74
92
 0
VERTEX
 8
PIANO
 10
0
 20
0
 30
0
 70
128
 71
93
 72
96
 73
95
 74
95
 0
VERTEX
 8
PIANO
 10
0
 20
0
 30
0
 70
128
 71
94
 72
16
 73
15
 74
15
 0
VERTEX
 8
PIANO
 10
0
 20
0
 30
0
 70
128
 71
91
 72
97
 73
31
 74
31
 0
VERTEX
 8
PIANO
 10
0
 20
0
 30
0
 70
128
 71
91
 72
104
 73
97
 74
97
 0
VERTEX
 8
PIANO
 10
0
 20
0
 30
0
 70
128
 71
100
 72
23
 73
92
 74
24
 0
VERTEX
 8
PIANO
 10
0
 20
0
 30
0
 70
128
 71
90
 72
38
 73
37
 74
37
 0
VERTEX
 8
PIANO
 10
0
 20
0
 30
0
 70
128
 71
99
 72
31
 73
23
 74
100
 0
VERTEX
 8
PIANO
 10
0
 20
0
 30
0
 70
128
 71
90
 72
34
 73
33
 74
33
 0
VERTEX
 8
PIANO
 10
0
 20
0
 30
0
 70
128
 71
90
 72
40
 73
39
 74
39
 0
VERTEX
 8
PIANO
 10
0
 20
0
 30
0
 70
128
 71
90
 72
36
 73
35
 74
35
 0
VERTEX
 8
PIANO
 10
0
 20
0
 30
0
 70
128
 71
89
 72
42
 73
43
 74
43
 0
VERTEX
 8
PIANO
 10
0
 20
0
 30
0
 70
128
 71
89
 72
45
 73
46
 74
46
 0
VERTEX
 8
PIANO
 10
0
 20
0
 30
0
 70
128
 71
97
 72
104
 73
103
 74
98
 0
VERTEX
 8
PIANO
 10
0
 20
0
 30
0
 70
128
 71
98
 72
23
 73
31
 74
31
 0
VERTEX
 8
PIANO
 10
0
 20
0
 30
0
 70
128
 71
98
 72
31
 73
97
 74
97
 0
VERTEX
 8
PIANO
 10
0
 20
0
 30
0
 70
128
 71
91
 72
29
 73
106
 74
106
 0
VERTEX
 8
PIANO
 10
0
 20
0
 30
0
 70
128
 71
91
 72
101
 73
30
 74
30
 0
VERTEX
 8
PIANO
 10
0
 20
0
 30
0
 70
128
 71
102
 72
30
 73
101
 74
101
 0
VERTEX
 8
PIANO
 10
0
 20
0
 30
0
 70
128
 71
102
 72
22
 73
30
 74
30
 0
VERTEX
 8
PIANO
 10
0
 20
0
 30
0
 70
128
 71
91
 72
106
 73
101
 74
101
 0
VERTEX
 8
PIANO
 10
0
 20
0
 30
0
 70
128
 71
101
 72
106
 73
105
 74
102
 0
VERTEX
 8
PIANO
 10
0
 20
0
 30
0
 70
128
 71
89
 72
48
 73
5
 74
5
 0
VERTEX
 8
PIANO
 10
0
 20
0
 30
0
 70
128
 71
108
 72
28
 73
107
 74
107
 0
VERTEX
 8
PIANO
 10
0
 20
0
 30
0
 70
128
 71
91
 72
28
 73
109
 74
29
 0
VERTEX
 8
PIANO
 10
0
 20
0
 30
0
 70
128
 71
51
 72
50
 73
81
 74
81
 0
VERTEX
 8
PIANO
 10
0
 20
0
 30
0
 70
128
 71
109
 72
28
 73
20
 74
110
 0
VERTEX
 8
PIANO
 10
0
 20
0
 30
0
 70
128
 71
50
 72
49
 73
81
 74
81
 0
VERTEX
 8
PIANO
 10
0
 20
0
 30
0
 70
128
 71
108
 72
20
 73
28
 74
28
 0
VERTEX
 8
PIANO
 10
0
 20
0
 30
0
 70
128
 71
91
 72
26
 73
113
 74
27
 0
VERTEX
 8
PIANO
 10
0
 20
0
 30
0
 70
128
 71
107
 72
112
 73
111
 74
108
 0
VERTEX
 8
PIANO
 10
0
 20
0
 30
0
 70
128
 71
107
 72
28
 73
91
 74
91
 0
VERTEX
 8
PIANO
 10
0
 20
0
 30
0
 70
128
 71
91
 72
27
 73
112
 74
112
 0
VERTEX
 8
PIANO
 10
0
 20
0
 30
0
 70
128
 71
91
 72
112
 73
107
 74
107
 0
VERTEX
 8
PIANO
 10
0
 20
0
 30
0
 70
128
 71
113
 72
26
 73
18
 74
114
 0
VERTEX
 8
PIANO
 10
0
 20
0
 30
0
 70
128
 71
91
 72
2
 73
25
 74
25
 0
VERTEX
 8
PIANO
 10
0
 20
0
 30
0
 70
128
 71
59
 72
60
 73
82
 74
82
 0
VERTEX
 8
PIANO
 10
0
 20
0
 30
0
 70
128
 71
60
 72
61
 73
82
 74
82
 0
VERTEX
 8
PIANO
 10
0
 20
0
 30
0
 70
128
 71
115
 72
25
 73
17
 74
116
 0
VERTEX
 8
PIANO
 10
0
 20
0
 30
0
 70
128
 71
25
 72
115
 73
26
 74
91
 0
VERTEX
 8
PIANO
 10
0
 20
0
 30
0
 70
128
 71
87
 72
68
 73
67
 74
67
 0
VERTEX
 8
PIANO
 10
0
 20
0
 30
0
 70
128
 71
87
 72
65
 73
11
 74
11
 0
VERTEX
 8
PIANO
 10
0
 20
0
 30
0
 70
128
 71
87
 72
71
 73
70
 74
70
 0
VERTEX
 8
PIANO
 10
0
 20
0
 30
0
 70
128
 71
88
 72
76
 73
77
 74
77
 0
VERTEX
 8
PIANO
 10
0
 20
0
 30
0
 70
128
 71
103
 72
92
 73
23
 74
98
 0
VERTEX
 8
PIANO
 10
0
 20
0
 30
0
 70
128
 71
102
 72
105
 73
92
 74
103
 0
VERTEX
 8
PIANO
 10
0
 20
0
 30
0
 70
128
 71
21
 72
110
 73
92
 74
105
 0
VERTEX
 8
PIANO
 10
0
 20
0
 30
0
 70
128
 71
17
 72
1
 73
92
 74
92
 0
VERTEX
 8
PIANO
 10
0
 20
0
 30
0
 70
128
 71
116
 72
17
 73
92
 74
18
 0
VERTEX
 8
PIANO
 10
0
 20
0
 30
0
 70
128
 71
114
 72
18
 73
92
 74
19
 0
VERTEX
 8
PIANO
 10
0
 20
0
 30
0
 70
128
 71
108
 72
111
 73
19
 74
92
 0
SEQEND
 0
POLYLINE
 8
BASE
 66
1
 10
0.0
 20
0.0
 30
0.0
 70
64
 71
8
 72
6
 0
VERTEX
 8
BASE
 10
-35.5493
 20
-23.7817
 30
-7.5002
 70
192
 0
VERTEX
 8
BASE
 10
-35.5493
 20
-23.7817
 30
-0.13
 70
192
 0
VERTEX
 8
BASE
 10
35.5519
 20
-23.7817
 30
-7.5002
 70
192
 0
VERTEX
 8
BASE
 10
35.5519
 20
-23.7817
 30
-0.13
 70
192
 0
VERTEX
 8
BASE
 10
35.5519
 20
23.7822
 30
-7.5002
 70
192
 0
VERTEX
 8
BASE
 10
35.5519
 20
23.7822
 30
-0.13
 70
192
 0
VERTEX
 8
BASE
 10
-35.5493
 20
23.7822
 30
-7.5002
 70
192
 0
VERTEX
 8
BASE
 10
-35.5493
 20
23.7822
 30
-0.13
 70
192
 0
VERTEX
 8
BASE
 10
0
 20
0
 30
0
 70
128
 71
1
 72
2
 73
4
 74
3
 0
VERTEX
 8
BASE
 10
0
 20
0
 30
0
 70
128
 71
3
 72
4
 73
6
 74
5
 0
VERTEX
 8
BASE
 10
0
 20
0
 30
0
 70
128
 71
5
 72
6
 73
8
 74
7
 0
VERTEX
 8
BASE
 10
0
 20
0
 30
0
 70
128
 71
7
 72
8
 73
2
 74
1
 0
VERTEX
 8
BASE
 10
0
 20
0
 30
0
 70
128
 71
2
 72
8
 73
6
 74
4
 0
VERTEX
 8
BASE
 10
0
 20
0
 30
0
 70
128
 71
7
 72
1
 73
3
 74
5
 0
SEQEND
 0
ENDSEC
 0
EOF
