 0
SECTION
 2
HEADER
 9
$ACADVER
 1
AC1009
 0
ENDSEC
 0
SECTION
 2
TABLES
 0
TABLE
 2
LTYPE
 70
1
 0
LTYPE
 2
CONTINUOUS
 70
64
 3
solid line
 72
65
 73
0
 40
0.0
 0
ENDTAB
 0
TABLE
 2
LAYER
 70
6
 0
LAYER
 2
0
 70
0
 62
7
 6
CONTINUOUS
 0
LAYER
 2
F6DW24FI1
 70
64
 62
7
 6
CONTINUOUS
 0
LAYER
 2
CILINDRO_7
 70
64
 62
253
 6
CONTINUOUS
 0
LAYER
 2
CILINDRO_6
 70
64
 62
253
 6
CONTINUOUS
 0
LAYER
 2
CILINDRO_5
 70
64
 62
253
 6
CONTINUOUS
 0
LAYER
 2
CILINDRO_4
 70
64
 62
253
 6
CONTINUOUS
 0
LAYER
 2
CILINDRO_3
 70
64
 62
253
 6
CONTINUOUS
 0
LAYER
 2
CILINDRO_2
 70
64
 62
253
 6
CONTINUOUS
 0
LAYER
 2
CILINDRO_1
 70
64
 62
253
 6
CONTINUOUS
 0
LAYER
 2
CILINDRO
 70
64
 62
253
 6
CONTINUOUS
 0
LAYER
 2
CUBO_2
 70
64
 62
253
 6
CONTINUOUS
 0
LAYER
 2
CUBO_1
 70
64
 62
7
 6
CONTINUOUS
 0
LAYER
 2
CUBO
 70
64
 62
253
 6
CONTINUOUS
 0
ENDTAB
 0
ENDSEC
 0
SECTION
 2
BLOCKS
 0
ENDSEC
 0
SECTION
 2
ENTITIES
 0
POLYLINE
 8
CILINDRO_7
 66
1
 10
0.0
 20
0.0
 30
0.0
 70
64
 71
146
 72
108
 0
VERTEX
 8
CILINDRO_7
 10
-19.5038
 20
-23
 30
1.5076
 70
192
 0
VERTEX
 8
CILINDRO_7
 10
-19.5038
 20
-23
 30
5.487
 70
192
 0
VERTEX
 8
CILINDRO_7
 10
-18.5089
 20
-23
 30
1.5076
 70
192
 0
VERTEX
 8
CILINDRO_7
 10
-18.5089
 20
-23
 30
1.5076
 70
192
 0
VERTEX
 8
CILINDRO_7
 10
-18.5089
 20
-23
 30
5.487
 70
192
 0
VERTEX
 8
CILINDRO_7
 10
-18.5089
 20
-23
 30
5.487
 70
192
 0
VERTEX
 8
CILINDRO_7
 10
-18.524
 20
-22.8273
 30
1.5076
 70
192
 0
VERTEX
 8
CILINDRO_7
 10
-18.524
 20
-22.8273
 30
1.5076
 70
192
 0
VERTEX
 8
CILINDRO_7
 10
-18.524
 20
-22.8273
 30
5.487
 70
192
 0
VERTEX
 8
CILINDRO_7
 10
-18.524
 20
-22.8273
 30
5.487
 70
192
 0
VERTEX
 8
CILINDRO_7
 10
-18.5689
 20
-22.6598
 30
1.5076
 70
192
 0
VERTEX
 8
CILINDRO_7
 10
-18.5689
 20
-22.6598
 30
1.5076
 70
192
 0
VERTEX
 8
CILINDRO_7
 10
-18.5689
 20
-22.6598
 30
5.487
 70
192
 0
VERTEX
 8
CILINDRO_7
 10
-18.5689
 20
-22.6598
 30
5.487
 70
192
 0
VERTEX
 8
CILINDRO_7
 10
-18.6422
 20
-22.5026
 30
1.5076
 70
192
 0
VERTEX
 8
CILINDRO_7
 10
-18.6422
 20
-22.5026
 30
1.5076
 70
192
 0
VERTEX
 8
CILINDRO_7
 10
-18.6422
 20
-22.5026
 30
5.487
 70
192
 0
VERTEX
 8
CILINDRO_7
 10
-18.6422
 20
-22.5026
 30
5.487
 70
192
 0
VERTEX
 8
CILINDRO_7
 10
-18.7417
 20
-22.3605
 30
1.5076
 70
192
 0
VERTEX
 8
CILINDRO_7
 10
-18.7417
 20
-22.3605
 30
1.5076
 70
192
 0
VERTEX
 8
CILINDRO_7
 10
-18.7417
 20
-22.3605
 30
5.487
 70
192
 0
VERTEX
 8
CILINDRO_7
 10
-18.7417
 20
-22.3605
 30
5.487
 70
192
 0
VERTEX
 8
CILINDRO_7
 10
-18.8643
 20
-22.2379
 30
1.5076
 70
192
 0
VERTEX
 8
CILINDRO_7
 10
-18.8643
 20
-22.2379
 30
1.5076
 70
192
 0
VERTEX
 8
CILINDRO_7
 10
-18.8643
 20
-22.2379
 30
5.487
 70
192
 0
VERTEX
 8
CILINDRO_7
 10
-18.8643
 20
-22.2379
 30
5.487
 70
192
 0
VERTEX
 8
CILINDRO_7
 10
-19.0063
 20
-22.1385
 30
1.5076
 70
192
 0
VERTEX
 8
CILINDRO_7
 10
-19.0063
 20
-22.1385
 30
1.5076
 70
192
 0
VERTEX
 8
CILINDRO_7
 10
-19.0063
 20
-22.1385
 30
5.487
 70
192
 0
VERTEX
 8
CILINDRO_7
 10
-19.0063
 20
-22.1385
 30
5.487
 70
192
 0
VERTEX
 8
CILINDRO_7
 10
-19.1635
 20
-22.0652
 30
1.5076
 70
192
 0
VERTEX
 8
CILINDRO_7
 10
-19.1635
 20
-22.0652
 30
1.5076
 70
192
 0
VERTEX
 8
CILINDRO_7
 10
-19.1635
 20
-22.0652
 30
5.487
 70
192
 0
VERTEX
 8
CILINDRO_7
 10
-19.1635
 20
-22.0652
 30
5.487
 70
192
 0
VERTEX
 8
CILINDRO_7
 10
-19.331
 20
-22.0203
 30
1.5076
 70
192
 0
VERTEX
 8
CILINDRO_7
 10
-19.331
 20
-22.0203
 30
1.5076
 70
192
 0
VERTEX
 8
CILINDRO_7
 10
-19.331
 20
-22.0203
 30
5.487
 70
192
 0
VERTEX
 8
CILINDRO_7
 10
-19.331
 20
-22.0203
 30
5.487
 70
192
 0
VERTEX
 8
CILINDRO_7
 10
-19.5038
 20
-22.0052
 30
1.5076
 70
192
 0
VERTEX
 8
CILINDRO_7
 10
-19.5038
 20
-22.0052
 30
1.5076
 70
192
 0
VERTEX
 8
CILINDRO_7
 10
-19.5038
 20
-22.0052
 30
5.487
 70
192
 0
VERTEX
 8
CILINDRO_7
 10
-19.5038
 20
-22.0052
 30
5.487
 70
192
 0
VERTEX
 8
CILINDRO_7
 10
-19.6765
 20
-22.0203
 30
1.5076
 70
192
 0
VERTEX
 8
CILINDRO_7
 10
-19.6765
 20
-22.0203
 30
1.5076
 70
192
 0
VERTEX
 8
CILINDRO_7
 10
-19.6765
 20
-22.0203
 30
5.487
 70
192
 0
VERTEX
 8
CILINDRO_7
 10
-19.6765
 20
-22.0203
 30
5.487
 70
192
 0
VERTEX
 8
CILINDRO_7
 10
-19.844
 20
-22.0652
 30
1.5076
 70
192
 0
VERTEX
 8
CILINDRO_7
 10
-19.844
 20
-22.0652
 30
1.5076
 70
192
 0
VERTEX
 8
CILINDRO_7
 10
-19.844
 20
-22.0652
 30
5.487
 70
192
 0
VERTEX
 8
CILINDRO_7
 10
-19.844
 20
-22.0652
 30
5.487
 70
192
 0
VERTEX
 8
CILINDRO_7
 10
-20.0012
 20
-22.1385
 30
1.5076
 70
192
 0
VERTEX
 8
CILINDRO_7
 10
-20.0012
 20
-22.1385
 30
1.5076
 70
192
 0
VERTEX
 8
CILINDRO_7
 10
-20.0012
 20
-22.1385
 30
5.487
 70
192
 0
VERTEX
 8
CILINDRO_7
 10
-20.0012
 20
-22.1385
 30
5.487
 70
192
 0
VERTEX
 8
CILINDRO_7
 10
-20.1432
 20
-22.2379
 30
1.5076
 70
192
 0
VERTEX
 8
CILINDRO_7
 10
-20.1432
 20
-22.2379
 30
1.5076
 70
192
 0
VERTEX
 8
CILINDRO_7
 10
-20.1432
 20
-22.2379
 30
5.487
 70
192
 0
VERTEX
 8
CILINDRO_7
 10
-20.1432
 20
-22.2379
 30
5.487
 70
192
 0
VERTEX
 8
CILINDRO_7
 10
-20.2659
 20
-22.3605
 30
1.5076
 70
192
 0
VERTEX
 8
CILINDRO_7
 10
-20.2659
 20
-22.3605
 30
1.5076
 70
192
 0
VERTEX
 8
CILINDRO_7
 10
-20.2659
 20
-22.3605
 30
5.487
 70
192
 0
VERTEX
 8
CILINDRO_7
 10
-20.2659
 20
-22.3605
 30
5.487
 70
192
 0
VERTEX
 8
CILINDRO_7
 10
-20.3653
 20
-22.5026
 30
1.5076
 70
192
 0
VERTEX
 8
CILINDRO_7
 10
-20.3653
 20
-22.5026
 30
1.5076
 70
192
 0
VERTEX
 8
CILINDRO_7
 10
-20.3653
 20
-22.5026
 30
5.487
 70
192
 0
VERTEX
 8
CILINDRO_7
 10
-20.3653
 20
-22.5026
 30
5.487
 70
192
 0
VERTEX
 8
CILINDRO_7
 10
-20.4386
 20
-22.6598
 30
1.5076
 70
192
 0
VERTEX
 8
CILINDRO_7
 10
-20.4386
 20
-22.6598
 30
1.5076
 70
192
 0
VERTEX
 8
CILINDRO_7
 10
-20.4386
 20
-22.6598
 30
5.487
 70
192
 0
VERTEX
 8
CILINDRO_7
 10
-20.4386
 20
-22.6598
 30
5.487
 70
192
 0
VERTEX
 8
CILINDRO_7
 10
-20.4835
 20
-22.8273
 30
1.5076
 70
192
 0
VERTEX
 8
CILINDRO_7
 10
-20.4835
 20
-22.8273
 30
1.5076
 70
192
 0
VERTEX
 8
CILINDRO_7
 10
-20.4835
 20
-22.8273
 30
5.487
 70
192
 0
VERTEX
 8
CILINDRO_7
 10
-20.4835
 20
-22.8273
 30
5.487
 70
192
 0
VERTEX
 8
CILINDRO_7
 10
-20.4986
 20
-23
 30
1.5076
 70
192
 0
VERTEX
 8
CILINDRO_7
 10
-20.4986
 20
-23
 30
1.5076
 70
192
 0
VERTEX
 8
CILINDRO_7
 10
-20.4986
 20
-23
 30
5.487
 70
192
 0
VERTEX
 8
CILINDRO_7
 10
-20.4986
 20
-23
 30
5.487
 70
192
 0
VERTEX
 8
CILINDRO_7
 10
-20.4835
 20
-23.1728
 30
1.5076
 70
192
 0
VERTEX
 8
CILINDRO_7
 10
-20.4835
 20
-23.1728
 30
1.5076
 70
192
 0
VERTEX
 8
CILINDRO_7
 10
-20.4835
 20
-23.1728
 30
5.487
 70
192
 0
VERTEX
 8
CILINDRO_7
 10
-20.4835
 20
-23.1728
 30
5.487
 70
192
 0
VERTEX
 8
CILINDRO_7
 10
-20.4386
 20
-23.3403
 30
1.5076
 70
192
 0
VERTEX
 8
CILINDRO_7
 10
-20.4386
 20
-23.3403
 30
1.5076
 70
192
 0
VERTEX
 8
CILINDRO_7
 10
-20.4386
 20
-23.3403
 30
5.487
 70
192
 0
VERTEX
 8
CILINDRO_7
 10
-20.4386
 20
-23.3403
 30
5.487
 70
192
 0
VERTEX
 8
CILINDRO_7
 10
-20.3653
 20
-23.4974
 30
1.5076
 70
192
 0
VERTEX
 8
CILINDRO_7
 10
-20.3653
 20
-23.4974
 30
1.5076
 70
192
 0
VERTEX
 8
CILINDRO_7
 10
-20.3653
 20
-23.4974
 30
5.487
 70
192
 0
VERTEX
 8
CILINDRO_7
 10
-20.3653
 20
-23.4974
 30
5.487
 70
192
 0
VERTEX
 8
CILINDRO_7
 10
-20.2659
 20
-23.6395
 30
1.5076
 70
192
 0
VERTEX
 8
CILINDRO_7
 10
-20.2659
 20
-23.6395
 30
1.5076
 70
192
 0
VERTEX
 8
CILINDRO_7
 10
-20.2659
 20
-23.6395
 30
5.487
 70
192
 0
VERTEX
 8
CILINDRO_7
 10
-20.2659
 20
-23.6395
 30
5.487
 70
192
 0
VERTEX
 8
CILINDRO_7
 10
-20.1432
 20
-23.7621
 30
1.5076
 70
192
 0
VERTEX
 8
CILINDRO_7
 10
-20.1432
 20
-23.7621
 30
1.5076
 70
192
 0
VERTEX
 8
CILINDRO_7
 10
-20.1432
 20
-23.7621
 30
5.487
 70
192
 0
VERTEX
 8
CILINDRO_7
 10
-20.1432
 20
-23.7621
 30
5.487
 70
192
 0
VERTEX
 8
CILINDRO_7
 10
-20.0012
 20
-23.8616
 30
1.5076
 70
192
 0
VERTEX
 8
CILINDRO_7
 10
-20.0012
 20
-23.8616
 30
1.5076
 70
192
 0
VERTEX
 8
CILINDRO_7
 10
-20.0012
 20
-23.8616
 30
5.487
 70
192
 0
VERTEX
 8
CILINDRO_7
 10
-20.0012
 20
-23.8616
 30
5.487
 70
192
 0
VERTEX
 8
CILINDRO_7
 10
-19.844
 20
-23.9349
 30
1.5076
 70
192
 0
VERTEX
 8
CILINDRO_7
 10
-19.844
 20
-23.9349
 30
1.5076
 70
192
 0
VERTEX
 8
CILINDRO_7
 10
-19.844
 20
-23.9349
 30
5.487
 70
192
 0
VERTEX
 8
CILINDRO_7
 10
-19.844
 20
-23.9349
 30
5.487
 70
192
 0
VERTEX
 8
CILINDRO_7
 10
-19.6765
 20
-23.9798
 30
1.5076
 70
192
 0
VERTEX
 8
CILINDRO_7
 10
-19.6765
 20
-23.9798
 30
1.5076
 70
192
 0
VERTEX
 8
CILINDRO_7
 10
-19.6765
 20
-23.9798
 30
5.487
 70
192
 0
VERTEX
 8
CILINDRO_7
 10
-19.6765
 20
-23.9798
 30
5.487
 70
192
 0
VERTEX
 8
CILINDRO_7
 10
-19.5038
 20
-23.9949
 30
1.5076
 70
192
 0
VERTEX
 8
CILINDRO_7
 10
-19.5038
 20
-23.9949
 30
1.5076
 70
192
 0
VERTEX
 8
CILINDRO_7
 10
-19.5038
 20
-23.9949
 30
5.487
 70
192
 0
VERTEX
 8
CILINDRO_7
 10
-19.5038
 20
-23.9949
 30
5.487
 70
192
 0
VERTEX
 8
CILINDRO_7
 10
-19.331
 20
-23.9798
 30
1.5076
 70
192
 0
VERTEX
 8
CILINDRO_7
 10
-19.331
 20
-23.9798
 30
1.5076
 70
192
 0
VERTEX
 8
CILINDRO_7
 10
-19.331
 20
-23.9798
 30
5.487
 70
192
 0
VERTEX
 8
CILINDRO_7
 10
-19.331
 20
-23.9798
 30
5.487
 70
192
 0
VERTEX
 8
CILINDRO_7
 10
-19.1635
 20
-23.9349
 30
1.5076
 70
192
 0
VERTEX
 8
CILINDRO_7
 10
-19.1635
 20
-23.9349
 30
1.5076
 70
192
 0
VERTEX
 8
CILINDRO_7
 10
-19.1635
 20
-23.9349
 30
5.487
 70
192
 0
VERTEX
 8
CILINDRO_7
 10
-19.1635
 20
-23.9349
 30
5.487
 70
192
 0
VERTEX
 8
CILINDRO_7
 10
-19.0063
 20
-23.8616
 30
1.5076
 70
192
 0
VERTEX
 8
CILINDRO_7
 10
-19.0063
 20
-23.8616
 30
1.5076
 70
192
 0
VERTEX
 8
CILINDRO_7
 10
-19.0063
 20
-23.8616
 30
5.487
 70
192
 0
VERTEX
 8
CILINDRO_7
 10
-19.0063
 20
-23.8616
 30
5.487
 70
192
 0
VERTEX
 8
CILINDRO_7
 10
-18.8643
 20
-23.7621
 30
1.5076
 70
192
 0
VERTEX
 8
CILINDRO_7
 10
-18.8643
 20
-23.7621
 30
1.5076
 70
192
 0
VERTEX
 8
CILINDRO_7
 10
-18.8643
 20
-23.7621
 30
5.487
 70
192
 0
VERTEX
 8
CILINDRO_7
 10
-18.8643
 20
-23.7621
 30
5.487
 70
192
 0
VERTEX
 8
CILINDRO_7
 10
-18.7417
 20
-23.6395
 30
1.5076
 70
192
 0
VERTEX
 8
CILINDRO_7
 10
-18.7417
 20
-23.6395
 30
1.5076
 70
192
 0
VERTEX
 8
CILINDRO_7
 10
-18.7417
 20
-23.6395
 30
5.487
 70
192
 0
VERTEX
 8
CILINDRO_7
 10
-18.7417
 20
-23.6395
 30
5.487
 70
192
 0
VERTEX
 8
CILINDRO_7
 10
-18.6422
 20
-23.4974
 30
1.5076
 70
192
 0
VERTEX
 8
CILINDRO_7
 10
-18.6422
 20
-23.4974
 30
1.5076
 70
192
 0
VERTEX
 8
CILINDRO_7
 10
-18.6422
 20
-23.4974
 30
5.487
 70
192
 0
VERTEX
 8
CILINDRO_7
 10
-18.6422
 20
-23.4974
 30
5.487
 70
192
 0
VERTEX
 8
CILINDRO_7
 10
-18.5689
 20
-23.3403
 30
1.5076
 70
192
 0
VERTEX
 8
CILINDRO_7
 10
-18.5689
 20
-23.3403
 30
1.5076
 70
192
 0
VERTEX
 8
CILINDRO_7
 10
-18.5689
 20
-23.3403
 30
5.487
 70
192
 0
VERTEX
 8
CILINDRO_7
 10
-18.5689
 20
-23.3403
 30
5.487
 70
192
 0
VERTEX
 8
CILINDRO_7
 10
-18.524
 20
-23.1728
 30
1.5076
 70
192
 0
VERTEX
 8
CILINDRO_7
 10
-18.524
 20
-23.1728
 30
1.5076
 70
192
 0
VERTEX
 8
CILINDRO_7
 10
-18.524
 20
-23.1728
 30
5.487
 70
192
 0
VERTEX
 8
CILINDRO_7
 10
-18.524
 20
-23.1728
 30
5.487
 70
192
 0
VERTEX
 8
CILINDRO_7
 10
0
 20
0
 30
0
 70
128
 71
1
 72
3
 73
7
 74
7
 0
VERTEX
 8
CILINDRO_7
 10
0
 20
0
 30
0
 70
128
 71
4
 72
5
 73
9
 74
8
 0
VERTEX
 8
CILINDRO_7
 10
0
 20
0
 30
0
 70
128
 71
6
 72
2
 73
10
 74
10
 0
VERTEX
 8
CILINDRO_7
 10
0
 20
0
 30
0
 70
128
 71
1
 72
7
 73
11
 74
11
 0
VERTEX
 8
CILINDRO_7
 10
0
 20
0
 30
0
 70
128
 71
8
 72
9
 73
13
 74
12
 0
VERTEX
 8
CILINDRO_7
 10
0
 20
0
 30
0
 70
128
 71
10
 72
2
 73
14
 74
14
 0
VERTEX
 8
CILINDRO_7
 10
0
 20
0
 30
0
 70
128
 71
1
 72
11
 73
15
 74
15
 0
VERTEX
 8
CILINDRO_7
 10
0
 20
0
 30
0
 70
128
 71
12
 72
13
 73
17
 74
16
 0
VERTEX
 8
CILINDRO_7
 10
0
 20
0
 30
0
 70
128
 71
14
 72
2
 73
18
 74
18
 0
VERTEX
 8
CILINDRO_7
 10
0
 20
0
 30
0
 70
128
 71
1
 72
15
 73
19
 74
19
 0
VERTEX
 8
CILINDRO_7
 10
0
 20
0
 30
0
 70
128
 71
16
 72
17
 73
21
 74
20
 0
VERTEX
 8
CILINDRO_7
 10
0
 20
0
 30
0
 70
128
 71
18
 72
2
 73
22
 74
22
 0
VERTEX
 8
CILINDRO_7
 10
0
 20
0
 30
0
 70
128
 71
1
 72
19
 73
23
 74
23
 0
VERTEX
 8
CILINDRO_7
 10
0
 20
0
 30
0
 70
128
 71
20
 72
21
 73
25
 74
24
 0
VERTEX
 8
CILINDRO_7
 10
0
 20
0
 30
0
 70
128
 71
22
 72
2
 73
26
 74
26
 0
VERTEX
 8
CILINDRO_7
 10
0
 20
0
 30
0
 70
128
 71
1
 72
23
 73
27
 74
27
 0
VERTEX
 8
CILINDRO_7
 10
0
 20
0
 30
0
 70
128
 71
24
 72
25
 73
29
 74
28
 0
VERTEX
 8
CILINDRO_7
 10
0
 20
0
 30
0
 70
128
 71
26
 72
2
 73
30
 74
30
 0
VERTEX
 8
CILINDRO_7
 10
0
 20
0
 30
0
 70
128
 71
1
 72
27
 73
31
 74
31
 0
VERTEX
 8
CILINDRO_7
 10
0
 20
0
 30
0
 70
128
 71
28
 72
29
 73
33
 74
32
 0
VERTEX
 8
CILINDRO_7
 10
0
 20
0
 30
0
 70
128
 71
30
 72
2
 73
34
 74
34
 0
VERTEX
 8
CILINDRO_7
 10
0
 20
0
 30
0
 70
128
 71
1
 72
31
 73
35
 74
35
 0
VERTEX
 8
CILINDRO_7
 10
0
 20
0
 30
0
 70
128
 71
32
 72
33
 73
37
 74
36
 0
VERTEX
 8
CILINDRO_7
 10
0
 20
0
 30
0
 70
128
 71
34
 72
2
 73
38
 74
38
 0
VERTEX
 8
CILINDRO_7
 10
0
 20
0
 30
0
 70
128
 71
1
 72
35
 73
39
 74
39
 0
VERTEX
 8
CILINDRO_7
 10
0
 20
0
 30
0
 70
128
 71
36
 72
37
 73
41
 74
40
 0
VERTEX
 8
CILINDRO_7
 10
0
 20
0
 30
0
 70
128
 71
38
 72
2
 73
42
 74
42
 0
VERTEX
 8
CILINDRO_7
 10
0
 20
0
 30
0
 70
128
 71
1
 72
39
 73
43
 74
43
 0
VERTEX
 8
CILINDRO_7
 10
0
 20
0
 30
0
 70
128
 71
40
 72
41
 73
45
 74
44
 0
VERTEX
 8
CILINDRO_7
 10
0
 20
0
 30
0
 70
128
 71
42
 72
2
 73
46
 74
46
 0
VERTEX
 8
CILINDRO_7
 10
0
 20
0
 30
0
 70
128
 71
1
 72
43
 73
47
 74
47
 0
VERTEX
 8
CILINDRO_7
 10
0
 20
0
 30
0
 70
128
 71
44
 72
45
 73
49
 74
48
 0
VERTEX
 8
CILINDRO_7
 10
0
 20
0
 30
0
 70
128
 71
46
 72
2
 73
50
 74
50
 0
VERTEX
 8
CILINDRO_7
 10
0
 20
0
 30
0
 70
128
 71
1
 72
47
 73
51
 74
51
 0
VERTEX
 8
CILINDRO_7
 10
0
 20
0
 30
0
 70
128
 71
48
 72
49
 73
53
 74
52
 0
VERTEX
 8
CILINDRO_7
 10
0
 20
0
 30
0
 70
128
 71
50
 72
2
 73
54
 74
54
 0
VERTEX
 8
CILINDRO_7
 10
0
 20
0
 30
0
 70
128
 71
1
 72
51
 73
55
 74
55
 0
VERTEX
 8
CILINDRO_7
 10
0
 20
0
 30
0
 70
128
 71
52
 72
53
 73
57
 74
56
 0
VERTEX
 8
CILINDRO_7
 10
0
 20
0
 30
0
 70
128
 71
54
 72
2
 73
58
 74
58
 0
VERTEX
 8
CILINDRO_7
 10
0
 20
0
 30
0
 70
128
 71
1
 72
55
 73
59
 74
59
 0
VERTEX
 8
CILINDRO_7
 10
0
 20
0
 30
0
 70
128
 71
56
 72
57
 73
61
 74
60
 0
VERTEX
 8
CILINDRO_7
 10
0
 20
0
 30
0
 70
128
 71
58
 72
2
 73
62
 74
62
 0
VERTEX
 8
CILINDRO_7
 10
0
 20
0
 30
0
 70
128
 71
1
 72
59
 73
63
 74
63
 0
VERTEX
 8
CILINDRO_7
 10
0
 20
0
 30
0
 70
128
 71
60
 72
61
 73
65
 74
64
 0
VERTEX
 8
CILINDRO_7
 10
0
 20
0
 30
0
 70
128
 71
62
 72
2
 73
66
 74
66
 0
VERTEX
 8
CILINDRO_7
 10
0
 20
0
 30
0
 70
128
 71
1
 72
63
 73
67
 74
67
 0
VERTEX
 8
CILINDRO_7
 10
0
 20
0
 30
0
 70
128
 71
64
 72
65
 73
69
 74
68
 0
VERTEX
 8
CILINDRO_7
 10
0
 20
0
 30
0
 70
128
 71
66
 72
2
 73
70
 74
70
 0
VERTEX
 8
CILINDRO_7
 10
0
 20
0
 30
0
 70
128
 71
1
 72
67
 73
71
 74
71
 0
VERTEX
 8
CILINDRO_7
 10
0
 20
0
 30
0
 70
128
 71
68
 72
69
 73
73
 74
72
 0
VERTEX
 8
CILINDRO_7
 10
0
 20
0
 30
0
 70
128
 71
70
 72
2
 73
74
 74
74
 0
VERTEX
 8
CILINDRO_7
 10
0
 20
0
 30
0
 70
128
 71
1
 72
71
 73
75
 74
75
 0
VERTEX
 8
CILINDRO_7
 10
0
 20
0
 30
0
 70
128
 71
72
 72
73
 73
77
 74
76
 0
VERTEX
 8
CILINDRO_7
 10
0
 20
0
 30
0
 70
128
 71
74
 72
2
 73
78
 74
78
 0
VERTEX
 8
CILINDRO_7
 10
0
 20
0
 30
0
 70
128
 71
1
 72
75
 73
79
 74
79
 0
VERTEX
 8
CILINDRO_7
 10
0
 20
0
 30
0
 70
128
 71
76
 72
77
 73
81
 74
80
 0
VERTEX
 8
CILINDRO_7
 10
0
 20
0
 30
0
 70
128
 71
78
 72
2
 73
82
 74
82
 0
VERTEX
 8
CILINDRO_7
 10
0
 20
0
 30
0
 70
128
 71
1
 72
79
 73
83
 74
83
 0
VERTEX
 8
CILINDRO_7
 10
0
 20
0
 30
0
 70
128
 71
80
 72
81
 73
85
 74
84
 0
VERTEX
 8
CILINDRO_7
 10
0
 20
0
 30
0
 70
128
 71
82
 72
2
 73
86
 74
86
 0
VERTEX
 8
CILINDRO_7
 10
0
 20
0
 30
0
 70
128
 71
1
 72
83
 73
87
 74
87
 0
VERTEX
 8
CILINDRO_7
 10
0
 20
0
 30
0
 70
128
 71
84
 72
85
 73
89
 74
88
 0
VERTEX
 8
CILINDRO_7
 10
0
 20
0
 30
0
 70
128
 71
86
 72
2
 73
90
 74
90
 0
VERTEX
 8
CILINDRO_7
 10
0
 20
0
 30
0
 70
128
 71
1
 72
87
 73
91
 74
91
 0
VERTEX
 8
CILINDRO_7
 10
0
 20
0
 30
0
 70
128
 71
88
 72
89
 73
93
 74
92
 0
VERTEX
 8
CILINDRO_7
 10
0
 20
0
 30
0
 70
128
 71
90
 72
2
 73
94
 74
94
 0
VERTEX
 8
CILINDRO_7
 10
0
 20
0
 30
0
 70
128
 71
1
 72
91
 73
95
 74
95
 0
VERTEX
 8
CILINDRO_7
 10
0
 20
0
 30
0
 70
128
 71
92
 72
93
 73
97
 74
96
 0
VERTEX
 8
CILINDRO_7
 10
0
 20
0
 30
0
 70
128
 71
94
 72
2
 73
98
 74
98
 0
VERTEX
 8
CILINDRO_7
 10
0
 20
0
 30
0
 70
128
 71
1
 72
95
 73
99
 74
99
 0
VERTEX
 8
CILINDRO_7
 10
0
 20
0
 30
0
 70
128
 71
96
 72
97
 73
101
 74
100
 0
VERTEX
 8
CILINDRO_7
 10
0
 20
0
 30
0
 70
128
 71
98
 72
2
 73
102
 74
102
 0
VERTEX
 8
CILINDRO_7
 10
0
 20
0
 30
0
 70
128
 71
1
 72
99
 73
103
 74
103
 0
VERTEX
 8
CILINDRO_7
 10
0
 20
0
 30
0
 70
128
 71
100
 72
101
 73
105
 74
104
 0
VERTEX
 8
CILINDRO_7
 10
0
 20
0
 30
0
 70
128
 71
102
 72
2
 73
106
 74
106
 0
VERTEX
 8
CILINDRO_7
 10
0
 20
0
 30
0
 70
128
 71
1
 72
103
 73
107
 74
107
 0
VERTEX
 8
CILINDRO_7
 10
0
 20
0
 30
0
 70
128
 71
104
 72
105
 73
109
 74
108
 0
VERTEX
 8
CILINDRO_7
 10
0
 20
0
 30
0
 70
128
 71
106
 72
2
 73
110
 74
110
 0
VERTEX
 8
CILINDRO_7
 10
0
 20
0
 30
0
 70
128
 71
1
 72
107
 73
111
 74
111
 0
VERTEX
 8
CILINDRO_7
 10
0
 20
0
 30
0
 70
128
 71
108
 72
109
 73
113
 74
112
 0
VERTEX
 8
CILINDRO_7
 10
0
 20
0
 30
0
 70
128
 71
110
 72
2
 73
114
 74
114
 0
VERTEX
 8
CILINDRO_7
 10
0
 20
0
 30
0
 70
128
 71
1
 72
111
 73
115
 74
115
 0
VERTEX
 8
CILINDRO_7
 10
0
 20
0
 30
0
 70
128
 71
112
 72
113
 73
117
 74
116
 0
VERTEX
 8
CILINDRO_7
 10
0
 20
0
 30
0
 70
128
 71
114
 72
2
 73
118
 74
118
 0
VERTEX
 8
CILINDRO_7
 10
0
 20
0
 30
0
 70
128
 71
1
 72
115
 73
119
 74
119
 0
VERTEX
 8
CILINDRO_7
 10
0
 20
0
 30
0
 70
128
 71
116
 72
117
 73
121
 74
120
 0
VERTEX
 8
CILINDRO_7
 10
0
 20
0
 30
0
 70
128
 71
118
 72
2
 73
122
 74
122
 0
VERTEX
 8
CILINDRO_7
 10
0
 20
0
 30
0
 70
128
 71
1
 72
119
 73
123
 74
123
 0
VERTEX
 8
CILINDRO_7
 10
0
 20
0
 30
0
 70
128
 71
120
 72
121
 73
125
 74
124
 0
VERTEX
 8
CILINDRO_7
 10
0
 20
0
 30
0
 70
128
 71
122
 72
2
 73
126
 74
126
 0
VERTEX
 8
CILINDRO_7
 10
0
 20
0
 30
0
 70
128
 71
1
 72
123
 73
127
 74
127
 0
VERTEX
 8
CILINDRO_7
 10
0
 20
0
 30
0
 70
128
 71
124
 72
125
 73
129
 74
128
 0
VERTEX
 8
CILINDRO_7
 10
0
 20
0
 30
0
 70
128
 71
126
 72
2
 73
130
 74
130
 0
VERTEX
 8
CILINDRO_7
 10
0
 20
0
 30
0
 70
128
 71
1
 72
127
 73
131
 74
131
 0
VERTEX
 8
CILINDRO_7
 10
0
 20
0
 30
0
 70
128
 71
128
 72
129
 73
133
 74
132
 0
VERTEX
 8
CILINDRO_7
 10
0
 20
0
 30
0
 70
128
 71
130
 72
2
 73
134
 74
134
 0
VERTEX
 8
CILINDRO_7
 10
0
 20
0
 30
0
 70
128
 71
1
 72
131
 73
135
 74
135
 0
VERTEX
 8
CILINDRO_7
 10
0
 20
0
 30
0
 70
128
 71
132
 72
133
 73
137
 74
136
 0
VERTEX
 8
CILINDRO_7
 10
0
 20
0
 30
0
 70
128
 71
134
 72
2
 73
138
 74
138
 0
VERTEX
 8
CILINDRO_7
 10
0
 20
0
 30
0
 70
128
 71
1
 72
135
 73
139
 74
139
 0
VERTEX
 8
CILINDRO_7
 10
0
 20
0
 30
0
 70
128
 71
136
 72
137
 73
141
 74
140
 0
VERTEX
 8
CILINDRO_7
 10
0
 20
0
 30
0
 70
128
 71
138
 72
2
 73
142
 74
142
 0
VERTEX
 8
CILINDRO_7
 10
0
 20
0
 30
0
 70
128
 71
1
 72
139
 73
143
 74
143
 0
VERTEX
 8
CILINDRO_7
 10
0
 20
0
 30
0
 70
128
 71
140
 72
141
 73
145
 74
144
 0
VERTEX
 8
CILINDRO_7
 10
0
 20
0
 30
0
 70
128
 71
142
 72
2
 73
146
 74
146
 0
VERTEX
 8
CILINDRO_7
 10
0
 20
0
 30
0
 70
128
 71
1
 72
143
 73
3
 74
3
 0
VERTEX
 8
CILINDRO_7
 10
0
 20
0
 30
0
 70
128
 71
144
 72
145
 73
5
 74
4
 0
VERTEX
 8
CILINDRO_7
 10
0
 20
0
 30
0
 70
128
 71
146
 72
2
 73
6
 74
6
 0
SEQEND
 0
POLYLINE
 8
CILINDRO_6
 66
1
 10
0.0
 20
0.0
 30
0.0
 70
64
 71
290
 72
324
 0
VERTEX
 8
CILINDRO_6
 10
-19.5038
 20
-22.9998
 30
0.0067
 70
192
 0
VERTEX
 8
CILINDRO_6
 10
-19.5038
 20
-22.9998
 30
1.5059
 70
192
 0
VERTEX
 8
CILINDRO_6
 10
-16.4909
 20
-22.9998
 30
1.5059
 70
192
 0
VERTEX
 8
CILINDRO_6
 10
-16.5366
 20
-22.4767
 30
1.5059
 70
192
 0
VERTEX
 8
CILINDRO_6
 10
-16.6726
 20
-21.9694
 30
1.5059
 70
192
 0
VERTEX
 8
CILINDRO_6
 10
-16.8945
 20
-21.4934
 30
1.5059
 70
192
 0
VERTEX
 8
CILINDRO_6
 10
-17.1957
 20
-21.0632
 30
1.5059
 70
192
 0
VERTEX
 8
CILINDRO_6
 10
-17.5671
 20
-20.6918
 30
1.5059
 70
192
 0
VERTEX
 8
CILINDRO_6
 10
-17.9973
 20
-20.3906
 30
1.5059
 70
192
 0
VERTEX
 8
CILINDRO_6
 10
-18.4733
 20
-20.1686
 30
1.5059
 70
192
 0
VERTEX
 8
CILINDRO_6
 10
-18.9806
 20
-20.0327
 30
1.5059
 70
192
 0
VERTEX
 8
CILINDRO_6
 10
-19.5038
 20
-19.9869
 30
1.5059
 70
192
 0
VERTEX
 8
CILINDRO_6
 10
-20.0269
 20
-20.0327
 30
1.5059
 70
192
 0
VERTEX
 8
CILINDRO_6
 10
-20.5342
 20
-20.1686
 30
1.5059
 70
192
 0
VERTEX
 8
CILINDRO_6
 10
-21.0102
 20
-20.3906
 30
1.5059
 70
192
 0
VERTEX
 8
CILINDRO_6
 10
-21.4404
 20
-20.6918
 30
1.5059
 70
192
 0
VERTEX
 8
CILINDRO_6
 10
-21.8118
 20
-21.0632
 30
1.5059
 70
192
 0
VERTEX
 8
CILINDRO_6
 10
-22.113
 20
-21.4934
 30
1.5059
 70
192
 0
VERTEX
 8
CILINDRO_6
 10
-22.335
 20
-21.9694
 30
1.5059
 70
192
 0
VERTEX
 8
CILINDRO_6
 10
-22.4709
 20
-22.4767
 30
1.5059
 70
192
 0
VERTEX
 8
CILINDRO_6
 10
-22.5167
 20
-22.9998
 30
1.5059
 70
192
 0
VERTEX
 8
CILINDRO_6
 10
-22.4709
 20
-23.523
 30
1.5059
 70
192
 0
VERTEX
 8
CILINDRO_6
 10
-22.335
 20
-24.0303
 30
1.5059
 70
192
 0
VERTEX
 8
CILINDRO_6
 10
-22.113
 20
-24.5063
 30
1.5059
 70
192
 0
VERTEX
 8
CILINDRO_6
 10
-21.8118
 20
-24.9365
 30
1.5059
 70
192
 0
VERTEX
 8
CILINDRO_6
 10
-21.4404
 20
-25.3079
 30
1.5059
 70
192
 0
VERTEX
 8
CILINDRO_6
 10
-21.0102
 20
-25.6091
 30
1.5059
 70
192
 0
VERTEX
 8
CILINDRO_6
 10
-20.5342
 20
-25.831
 30
1.5059
 70
192
 0
VERTEX
 8
CILINDRO_6
 10
-20.0269
 20
-25.967
 30
1.5059
 70
192
 0
VERTEX
 8
CILINDRO_6
 10
-19.5038
 20
-26.0127
 30
1.5059
 70
192
 0
VERTEX
 8
CILINDRO_6
 10
-18.9806
 20
-25.967
 30
1.5059
 70
192
 0
VERTEX
 8
CILINDRO_6
 10
-18.4733
 20
-25.831
 30
1.5059
 70
192
 0
VERTEX
 8
CILINDRO_6
 10
-17.9973
 20
-25.6091
 30
1.5059
 70
192
 0
VERTEX
 8
CILINDRO_6
 10
-17.5671
 20
-25.3079
 30
1.5059
 70
192
 0
VERTEX
 8
CILINDRO_6
 10
-17.1957
 20
-24.9365
 30
1.5059
 70
192
 0
VERTEX
 8
CILINDRO_6
 10
-16.8945
 20
-24.5063
 30
1.5059
 70
192
 0
VERTEX
 8
CILINDRO_6
 10
-16.6726
 20
-24.0303
 30
1.5059
 70
192
 0
VERTEX
 8
CILINDRO_6
 10
-16.5366
 20
-23.523
 30
1.5059
 70
192
 0
VERTEX
 8
CILINDRO_6
 10
-17.0309
 20
-22.5638
 30
0.0067
 70
192
 0
VERTEX
 8
CILINDRO_6
 10
-16.4909
 20
-22.9998
 30
0.5067
 70
192
 0
VERTEX
 8
CILINDRO_6
 10
-17.1442
 20
-22.141
 30
0.0067
 70
192
 0
VERTEX
 8
CILINDRO_6
 10
-16.5366
 20
-22.4767
 30
0.5067
 70
192
 0
VERTEX
 8
CILINDRO_6
 10
-17.3292
 20
-21.7443
 30
0.0067
 70
192
 0
VERTEX
 8
CILINDRO_6
 10
-16.6726
 20
-21.9694
 30
0.5067
 70
192
 0
VERTEX
 8
CILINDRO_6
 10
-17.5802
 20
-21.3858
 30
0.0067
 70
192
 0
VERTEX
 8
CILINDRO_6
 10
-16.8945
 20
-21.4934
 30
0.5067
 70
192
 0
VERTEX
 8
CILINDRO_6
 10
-17.8897
 20
-21.0763
 30
0.0067
 70
192
 0
VERTEX
 8
CILINDRO_6
 10
-17.1957
 20
-21.0632
 30
0.5067
 70
192
 0
VERTEX
 8
CILINDRO_6
 10
-18.2483
 20
-20.8253
 30
0.0067
 70
192
 0
VERTEX
 8
CILINDRO_6
 10
-17.5671
 20
-20.6918
 30
0.5067
 70
192
 0
VERTEX
 8
CILINDRO_6
 10
-17.9973
 20
-20.3906
 30
0.5067
 70
192
 0
VERTEX
 8
CILINDRO_6
 10
-18.645
 20
-20.6403
 30
0.0067
 70
192
 0
VERTEX
 8
CILINDRO_6
 10
-19.0677
 20
-20.527
 30
0.0067
 70
192
 0
VERTEX
 8
CILINDRO_6
 10
-18.4733
 20
-20.1686
 30
0.5067
 70
192
 0
VERTEX
 8
CILINDRO_6
 10
-18.9806
 20
-20.0327
 30
0.5067
 70
192
 0
VERTEX
 8
CILINDRO_6
 10
-19.5038
 20
-20.4888
 30
0.0067
 70
192
 0
VERTEX
 8
CILINDRO_6
 10
-19.9398
 20
-20.527
 30
0.0067
 70
192
 0
VERTEX
 8
CILINDRO_6
 10
-19.5038
 20
-19.9869
 30
0.5067
 70
192
 0
VERTEX
 8
CILINDRO_6
 10
-20.0269
 20
-20.0327
 30
0.5067
 70
192
 0
VERTEX
 8
CILINDRO_6
 10
-20.3626
 20
-20.6403
 30
0.0067
 70
192
 0
VERTEX
 8
CILINDRO_6
 10
-20.5342
 20
-20.1686
 30
0.5067
 70
192
 0
VERTEX
 8
CILINDRO_6
 10
-20.7593
 20
-20.8253
 30
0.0067
 70
192
 0
VERTEX
 8
CILINDRO_6
 10
-21.4273
 20
-21.3858
 30
0.0067
 70
192
 0
VERTEX
 8
CILINDRO_6
 10
-21.1178
 20
-21.0763
 30
0.0067
 70
192
 0
VERTEX
 8
CILINDRO_6
 10
-21.0102
 20
-20.3906
 30
0.5067
 70
192
 0
VERTEX
 8
CILINDRO_6
 10
-21.6783
 20
-21.7443
 30
0.0067
 70
192
 0
VERTEX
 8
CILINDRO_6
 10
-21.8118
 20
-21.0632
 30
0.5067
 70
192
 0
VERTEX
 8
CILINDRO_6
 10
-21.4404
 20
-20.6918
 30
0.5067
 70
192
 0
VERTEX
 8
CILINDRO_6
 10
-22.113
 20
-21.4934
 30
0.5067
 70
192
 0
VERTEX
 8
CILINDRO_6
 10
-16.5366
 20
-23.523
 30
0.5067
 70
192
 0
VERTEX
 8
CILINDRO_6
 10
-21.8633
 20
-22.141
 30
0.0067
 70
192
 0
VERTEX
 8
CILINDRO_6
 10
-16.9928
 20
-22.9998
 30
0.0067
 70
192
 0
VERTEX
 8
CILINDRO_6
 10
-22.0148
 20
-22.9998
 30
0.0067
 70
192
 0
VERTEX
 8
CILINDRO_6
 10
-22.335
 20
-21.9694
 30
0.5067
 70
192
 0
VERTEX
 8
CILINDRO_6
 10
-21.9766
 20
-22.5638
 30
0.0067
 70
192
 0
VERTEX
 8
CILINDRO_6
 10
-22.5167
 20
-22.9998
 30
0.5067
 70
192
 0
VERTEX
 8
CILINDRO_6
 10
-21.9766
 20
-23.4359
 30
0.0067
 70
192
 0
VERTEX
 8
CILINDRO_6
 10
-22.4709
 20
-22.4767
 30
0.5067
 70
192
 0
VERTEX
 8
CILINDRO_6
 10
-22.4709
 20
-23.523
 30
0.5067
 70
192
 0
VERTEX
 8
CILINDRO_6
 10
-21.8633
 20
-23.8586
 30
0.0067
 70
192
 0
VERTEX
 8
CILINDRO_6
 10
-22.335
 20
-24.0303
 30
0.5067
 70
192
 0
VERTEX
 8
CILINDRO_6
 10
-21.6783
 20
-24.2553
 30
0.0067
 70
192
 0
VERTEX
 8
CILINDRO_6
 10
-22.113
 20
-24.5063
 30
0.5067
 70
192
 0
VERTEX
 8
CILINDRO_6
 10
-21.4273
 20
-24.6139
 30
0.0067
 70
192
 0
VERTEX
 8
CILINDRO_6
 10
-21.8118
 20
-24.9365
 30
0.5067
 70
192
 0
VERTEX
 8
CILINDRO_6
 10
-21.1178
 20
-24.9234
 30
0.0067
 70
192
 0
VERTEX
 8
CILINDRO_6
 10
-21.4404
 20
-25.3079
 30
0.5067
 70
192
 0
VERTEX
 8
CILINDRO_6
 10
-20.7593
 20
-25.1744
 30
0.0067
 70
192
 0
VERTEX
 8
CILINDRO_6
 10
-21.0102
 20
-25.6091
 30
0.5067
 70
192
 0
VERTEX
 8
CILINDRO_6
 10
-20.3626
 20
-25.3594
 30
0.0067
 70
192
 0
VERTEX
 8
CILINDRO_6
 10
-20.5342
 20
-25.831
 30
0.5067
 70
192
 0
VERTEX
 8
CILINDRO_6
 10
-19.9398
 20
-25.4727
 30
0.0067
 70
192
 0
VERTEX
 8
CILINDRO_6
 10
-20.0269
 20
-25.967
 30
0.5067
 70
192
 0
VERTEX
 8
CILINDRO_6
 10
-19.5038
 20
-25.5108
 30
0.0067
 70
192
 0
VERTEX
 8
CILINDRO_6
 10
-19.5038
 20
-26.0127
 30
0.5067
 70
192
 0
VERTEX
 8
CILINDRO_6
 10
-19.0677
 20
-25.4727
 30
0.0067
 70
192
 0
VERTEX
 8
CILINDRO_6
 10
-18.9806
 20
-25.967
 30
0.5067
 70
192
 0
VERTEX
 8
CILINDRO_6
 10
-18.645
 20
-25.3594
 30
0.0067
 70
192
 0
VERTEX
 8
CILINDRO_6
 10
-18.4733
 20
-25.831
 30
0.5067
 70
192
 0
VERTEX
 8
CILINDRO_6
 10
-18.2483
 20
-25.1744
 30
0.0067
 70
192
 0
VERTEX
 8
CILINDRO_6
 10
-17.9973
 20
-25.6091
 30
0.5067
 70
192
 0
VERTEX
 8
CILINDRO_6
 10
-17.8897
 20
-24.9234
 30
0.0067
 70
192
 0
VERTEX
 8
CILINDRO_6
 10
-17.5671
 20
-25.3079
 30
0.5067
 70
192
 0
VERTEX
 8
CILINDRO_6
 10
-17.5802
 20
-24.6139
 30
0.0067
 70
192
 0
VERTEX
 8
CILINDRO_6
 10
-17.1957
 20
-24.9365
 30
0.5067
 70
192
 0
VERTEX
 8
CILINDRO_6
 10
-17.3292
 20
-24.2553
 30
0.0067
 70
192
 0
VERTEX
 8
CILINDRO_6
 10
-16.8945
 20
-24.5063
 30
0.5067
 70
192
 0
VERTEX
 8
CILINDRO_6
 10
-17.1442
 20
-23.8586
 30
0.0067
 70
192
 0
VERTEX
 8
CILINDRO_6
 10
-16.6726
 20
-24.0303
 30
0.5067
 70
192
 0
VERTEX
 8
CILINDRO_6
 10
-17.0309
 20
-23.4359
 30
0.0067
 70
192
 0
VERTEX
 8
CILINDRO_6
 10
-16.6868
 20
-24.0251
 30
0.3847
 70
192
 0
VERTEX
 8
CILINDRO_6
 10
-16.7328
 20
-24.0084
 30
0.2622
 70
192
 0
VERTEX
 8
CILINDRO_6
 10
-16.8107
 20
-23.98
 30
0.1531
 70
192
 0
VERTEX
 8
CILINDRO_6
 10
-16.9136
 20
-23.9426
 30
0.0705
 70
192
 0
VERTEX
 8
CILINDRO_6
 10
-17.0291
 20
-23.9005
 30
0.0218
 70
192
 0
VERTEX
 8
CILINDRO_6
 10
-16.8703
 20
-22.9998
 30
0.0218
 70
192
 0
VERTEX
 8
CILINDRO_6
 10
-16.7473
 20
-22.9998
 30
0.0705
 70
192
 0
VERTEX
 8
CILINDRO_6
 10
-16.6379
 20
-22.9998
 30
0.1531
 70
192
 0
VERTEX
 8
CILINDRO_6
 10
-16.555
 20
-22.9998
 30
0.2622
 70
192
 0
VERTEX
 8
CILINDRO_6
 10
-16.506
 20
-22.9998
 30
0.3847
 70
192
 0
VERTEX
 8
CILINDRO_6
 10
-17.5769
 20
-25.2962
 30
0.3847
 70
192
 0
VERTEX
 8
CILINDRO_6
 10
-17.6083
 20
-25.2587
 30
0.2622
 70
192
 0
VERTEX
 8
CILINDRO_6
 10
-17.6616
 20
-25.1952
 30
0.1531
 70
192
 0
VERTEX
 8
CILINDRO_6
 10
-17.732
 20
-25.1114
 30
0.0705
 70
192
 0
VERTEX
 8
CILINDRO_6
 10
-17.811
 20
-25.0172
 30
0.0218
 70
192
 0
VERTEX
 8
CILINDRO_6
 10
-16.9103
 20
-22.5425
 30
0.0218
 70
192
 0
VERTEX
 8
CILINDRO_6
 10
-16.7892
 20
-22.5212
 30
0.0705
 70
192
 0
VERTEX
 8
CILINDRO_6
 10
-16.6814
 20
-22.5022
 30
0.1531
 70
192
 0
VERTEX
 8
CILINDRO_6
 10
-16.5998
 20
-22.4878
 30
0.2622
 70
192
 0
VERTEX
 8
CILINDRO_6
 10
-16.5516
 20
-22.4793
 30
0.3847
 70
192
 0
VERTEX
 8
CILINDRO_6
 10
-17.2074
 20
-24.9267
 30
0.3847
 70
192
 0
VERTEX
 8
CILINDRO_6
 10
-17.2449
 20
-24.8953
 30
0.2622
 70
192
 0
VERTEX
 8
CILINDRO_6
 10
-17.3084
 20
-24.842
 30
0.1531
 70
192
 0
VERTEX
 8
CILINDRO_6
 10
-17.3922
 20
-24.7716
 30
0.0705
 70
192
 0
VERTEX
 8
CILINDRO_6
 10
-17.4864
 20
-24.6926
 30
0.0218
 70
192
 0
VERTEX
 8
CILINDRO_6
 10
-17.0291
 20
-22.0991
 30
0.0218
 70
192
 0
VERTEX
 8
CILINDRO_6
 10
-16.9136
 20
-22.0571
 30
0.0705
 70
192
 0
VERTEX
 8
CILINDRO_6
 10
-16.8107
 20
-22.0196
 30
0.1531
 70
192
 0
VERTEX
 8
CILINDRO_6
 10
-16.7328
 20
-21.9913
 30
0.2622
 70
192
 0
VERTEX
 8
CILINDRO_6
 10
-16.6868
 20
-21.9746
 30
0.3847
 70
192
 0
VERTEX
 8
CILINDRO_6
 10
-17.2231
 20
-21.6831
 30
0.0218
 70
192
 0
VERTEX
 8
CILINDRO_6
 10
-17.1166
 20
-21.6216
 30
0.0705
 70
192
 0
VERTEX
 8
CILINDRO_6
 10
-17.0218
 20
-21.5669
 30
0.1531
 70
192
 0
VERTEX
 8
CILINDRO_6
 10
-16.95
 20
-21.5254
 30
0.2622
 70
192
 0
VERTEX
 8
CILINDRO_6
 10
-16.9077
 20
-21.501
 30
0.3847
 70
192
 0
VERTEX
 8
CILINDRO_6
 10
-17.4864
 20
-21.3071
 30
0.0218
 70
192
 0
VERTEX
 8
CILINDRO_6
 10
-17.3922
 20
-21.228
 30
0.0705
 70
192
 0
VERTEX
 8
CILINDRO_6
 10
-17.3084
 20
-21.1577
 30
0.1531
 70
192
 0
VERTEX
 8
CILINDRO_6
 10
-17.2449
 20
-21.1044
 30
0.2622
 70
192
 0
VERTEX
 8
CILINDRO_6
 10
-17.2074
 20
-21.0729
 30
0.3847
 70
192
 0
VERTEX
 8
CILINDRO_6
 10
-16.5516
 20
-23.5204
 30
0.3847
 70
192
 0
VERTEX
 8
CILINDRO_6
 10
-16.5998
 20
-23.5119
 30
0.2622
 70
192
 0
VERTEX
 8
CILINDRO_6
 10
-16.6814
 20
-23.4975
 30
0.1531
 70
192
 0
VERTEX
 8
CILINDRO_6
 10
-16.7892
 20
-23.4785
 30
0.0705
 70
192
 0
VERTEX
 8
CILINDRO_6
 10
-16.9103
 20
-23.4571
 30
0.0218
 70
192
 0
VERTEX
 8
CILINDRO_6
 10
-17.811
 20
-20.9825
 30
0.0218
 70
192
 0
VERTEX
 8
CILINDRO_6
 10
-17.732
 20
-20.8883
 30
0.0705
 70
192
 0
VERTEX
 8
CILINDRO_6
 10
-17.6616
 20
-20.8044
 30
0.1531
 70
192
 0
VERTEX
 8
CILINDRO_6
 10
-17.6083
 20
-20.7409
 30
0.2622
 70
192
 0
VERTEX
 8
CILINDRO_6
 10
-17.5769
 20
-20.7034
 30
0.3847
 70
192
 0
VERTEX
 8
CILINDRO_6
 10
-18.187
 20
-20.7192
 30
0.0218
 70
192
 0
VERTEX
 8
CILINDRO_6
 10
-18.1255
 20
-20.6127
 30
0.0705
 70
192
 0
VERTEX
 8
CILINDRO_6
 10
-18.0708
 20
-20.5179
 30
0.1531
 70
192
 0
VERTEX
 8
CILINDRO_6
 10
-18.0294
 20
-20.4461
 30
0.2622
 70
192
 0
VERTEX
 8
CILINDRO_6
 10
-18.0049
 20
-20.4037
 30
0.3847
 70
192
 0
VERTEX
 8
CILINDRO_6
 10
-18.4785
 20
-20.1829
 30
0.3847
 70
192
 0
VERTEX
 8
CILINDRO_6
 10
-18.4952
 20
-20.2289
 30
0.2622
 70
192
 0
VERTEX
 8
CILINDRO_6
 10
-18.5236
 20
-20.3068
 30
0.1531
 70
192
 0
VERTEX
 8
CILINDRO_6
 10
-18.561
 20
-20.4096
 30
0.0705
 70
192
 0
VERTEX
 8
CILINDRO_6
 10
-18.6031
 20
-20.5252
 30
0.0218
 70
192
 0
VERTEX
 8
CILINDRO_6
 10
-19.0465
 20
-20.4064
 30
0.0218
 70
192
 0
VERTEX
 8
CILINDRO_6
 10
-19.0251
 20
-20.2853
 30
0.0705
 70
192
 0
VERTEX
 8
CILINDRO_6
 10
-19.0061
 20
-20.1775
 30
0.1531
 70
192
 0
VERTEX
 8
CILINDRO_6
 10
-18.9917
 20
-20.0958
 30
0.2622
 70
192
 0
VERTEX
 8
CILINDRO_6
 10
-18.9832
 20
-20.0477
 30
0.3847
 70
192
 0
VERTEX
 8
CILINDRO_6
 10
-19.5038
 20
-20.0021
 30
0.3847
 70
192
 0
VERTEX
 8
CILINDRO_6
 10
-19.5038
 20
-20.051
 30
0.2622
 70
192
 0
VERTEX
 8
CILINDRO_6
 10
-19.5038
 20
-20.1339
 30
0.1531
 70
192
 0
VERTEX
 8
CILINDRO_6
 10
-19.5038
 20
-20.2434
 30
0.0705
 70
192
 0
VERTEX
 8
CILINDRO_6
 10
-19.5038
 20
-20.3664
 30
0.0218
 70
192
 0
VERTEX
 8
CILINDRO_6
 10
-19.9611
 20
-20.4064
 30
0.0218
 70
192
 0
VERTEX
 8
CILINDRO_6
 10
-19.9824
 20
-20.2853
 30
0.0705
 70
192
 0
VERTEX
 8
CILINDRO_6
 10
-20.0014
 20
-20.1775
 30
0.1531
 70
192
 0
VERTEX
 8
CILINDRO_6
 10
-20.0158
 20
-20.0958
 30
0.2622
 70
192
 0
VERTEX
 8
CILINDRO_6
 10
-20.0243
 20
-20.0477
 30
0.3847
 70
192
 0
VERTEX
 8
CILINDRO_6
 10
-20.529
 20
-20.1829
 30
0.3847
 70
192
 0
VERTEX
 8
CILINDRO_6
 10
-20.5123
 20
-20.2289
 30
0.2622
 70
192
 0
VERTEX
 8
CILINDRO_6
 10
-20.484
 20
-20.3068
 30
0.1531
 70
192
 0
VERTEX
 8
CILINDRO_6
 10
-20.4465
 20
-20.4096
 30
0.0705
 70
192
 0
VERTEX
 8
CILINDRO_6
 10
-20.4045
 20
-20.5252
 30
0.0218
 70
192
 0
VERTEX
 8
CILINDRO_6
 10
-21.0026
 20
-20.4037
 30
0.3847
 70
192
 0
VERTEX
 8
CILINDRO_6
 10
-20.9782
 20
-20.4461
 30
0.2622
 70
192
 0
VERTEX
 8
CILINDRO_6
 10
-20.9367
 20
-20.5179
 30
0.1531
 70
192
 0
VERTEX
 8
CILINDRO_6
 10
-20.882
 20
-20.6127
 30
0.0705
 70
192
 0
VERTEX
 8
CILINDRO_6
 10
-20.8205
 20
-20.7192
 30
0.0218
 70
192
 0
VERTEX
 8
CILINDRO_6
 10
-21.1965
 20
-20.9825
 30
0.0218
 70
192
 0
VERTEX
 8
CILINDRO_6
 10
-21.2756
 20
-20.8883
 30
0.0705
 70
192
 0
VERTEX
 8
CILINDRO_6
 10
-21.3459
 20
-20.8044
 30
0.1531
 70
192
 0
VERTEX
 8
CILINDRO_6
 10
-21.3992
 20
-20.7409
 30
0.2622
 70
192
 0
VERTEX
 8
CILINDRO_6
 10
-21.4307
 20
-20.7034
 30
0.3847
 70
192
 0
VERTEX
 8
CILINDRO_6
 10
-21.5211
 20
-21.3071
 30
0.0218
 70
192
 0
VERTEX
 8
CILINDRO_6
 10
-21.6153
 20
-21.228
 30
0.0705
 70
192
 0
VERTEX
 8
CILINDRO_6
 10
-21.6992
 20
-21.1577
 30
0.1531
 70
192
 0
VERTEX
 8
CILINDRO_6
 10
-21.7627
 20
-21.1044
 30
0.2622
 70
192
 0
VERTEX
 8
CILINDRO_6
 10
-21.8002
 20
-21.0729
 30
0.3847
 70
192
 0
VERTEX
 8
CILINDRO_6
 10
-21.7844
 20
-21.6831
 30
0.0218
 70
192
 0
VERTEX
 8
CILINDRO_6
 10
-21.8909
 20
-21.6216
 30
0.0705
 70
192
 0
VERTEX
 8
CILINDRO_6
 10
-21.9857
 20
-21.5669
 30
0.1531
 70
192
 0
VERTEX
 8
CILINDRO_6
 10
-22.0575
 20
-21.5254
 30
0.2622
 70
192
 0
VERTEX
 8
CILINDRO_6
 10
-22.0999
 20
-21.501
 30
0.3847
 70
192
 0
VERTEX
 8
CILINDRO_6
 10
-22.3207
 20
-21.9746
 30
0.3847
 70
192
 0
VERTEX
 8
CILINDRO_6
 10
-22.2747
 20
-21.9913
 30
0.2622
 70
192
 0
VERTEX
 8
CILINDRO_6
 10
-22.1968
 20
-22.0196
 30
0.1531
 70
192
 0
VERTEX
 8
CILINDRO_6
 10
-22.094
 20
-22.0571
 30
0.0705
 70
192
 0
VERTEX
 8
CILINDRO_6
 10
-21.9784
 20
-22.0991
 30
0.0218
 70
192
 0
VERTEX
 8
CILINDRO_6
 10
-22.0972
 20
-22.5425
 30
0.0218
 70
192
 0
VERTEX
 8
CILINDRO_6
 10
-22.2183
 20
-22.5212
 30
0.0705
 70
192
 0
VERTEX
 8
CILINDRO_6
 10
-22.3261
 20
-22.5022
 30
0.1531
 70
192
 0
VERTEX
 8
CILINDRO_6
 10
-22.4078
 20
-22.4878
 30
0.2622
 70
192
 0
VERTEX
 8
CILINDRO_6
 10
-22.4559
 20
-22.4793
 30
0.3847
 70
192
 0
VERTEX
 8
CILINDRO_6
 10
-22.1372
 20
-22.9998
 30
0.0218
 70
192
 0
VERTEX
 8
CILINDRO_6
 10
-22.2602
 20
-22.9998
 30
0.0705
 70
192
 0
VERTEX
 8
CILINDRO_6
 10
-22.3697
 20
-22.9998
 30
0.1531
 70
192
 0
VERTEX
 8
CILINDRO_6
 10
-22.4525
 20
-22.9998
 30
0.2622
 70
192
 0
VERTEX
 8
CILINDRO_6
 10
-22.5015
 20
-22.9998
 30
0.3847
 70
192
 0
VERTEX
 8
CILINDRO_6
 10
-22.4559
 20
-23.5204
 30
0.3847
 70
192
 0
VERTEX
 8
CILINDRO_6
 10
-22.4078
 20
-23.5119
 30
0.2622
 70
192
 0
VERTEX
 8
CILINDRO_6
 10
-22.3261
 20
-23.4975
 30
0.1531
 70
192
 0
VERTEX
 8
CILINDRO_6
 10
-22.2183
 20
-23.4785
 30
0.0705
 70
192
 0
VERTEX
 8
CILINDRO_6
 10
-22.0972
 20
-23.4571
 30
0.0218
 70
192
 0
VERTEX
 8
CILINDRO_6
 10
-22.3207
 20
-24.0251
 30
0.3847
 70
192
 0
VERTEX
 8
CILINDRO_6
 10
-22.2747
 20
-24.0084
 30
0.2622
 70
192
 0
VERTEX
 8
CILINDRO_6
 10
-22.1968
 20
-23.98
 30
0.1531
 70
192
 0
VERTEX
 8
CILINDRO_6
 10
-22.094
 20
-23.9426
 30
0.0705
 70
192
 0
VERTEX
 8
CILINDRO_6
 10
-21.9784
 20
-23.9005
 30
0.0218
 70
192
 0
VERTEX
 8
CILINDRO_6
 10
-22.0999
 20
-24.4987
 30
0.3847
 70
192
 0
VERTEX
 8
CILINDRO_6
 10
-22.0575
 20
-24.4742
 30
0.2622
 70
192
 0
VERTEX
 8
CILINDRO_6
 10
-21.9857
 20
-24.4328
 30
0.1531
 70
192
 0
VERTEX
 8
CILINDRO_6
 10
-21.8909
 20
-24.3781
 30
0.0705
 70
192
 0
VERTEX
 8
CILINDRO_6
 10
-21.7844
 20
-24.3166
 30
0.0218
 70
192
 0
VERTEX
 8
CILINDRO_6
 10
-21.8002
 20
-24.9267
 30
0.3847
 70
192
 0
VERTEX
 8
CILINDRO_6
 10
-21.7627
 20
-24.8953
 30
0.2622
 70
192
 0
VERTEX
 8
CILINDRO_6
 10
-21.6992
 20
-24.842
 30
0.1531
 70
192
 0
VERTEX
 8
CILINDRO_6
 10
-21.6153
 20
-24.7716
 30
0.0705
 70
192
 0
VERTEX
 8
CILINDRO_6
 10
-21.5211
 20
-24.6926
 30
0.0218
 70
192
 0
VERTEX
 8
CILINDRO_6
 10
-21.4307
 20
-25.2962
 30
0.3847
 70
192
 0
VERTEX
 8
CILINDRO_6
 10
-21.3992
 20
-25.2587
 30
0.2622
 70
192
 0
VERTEX
 8
CILINDRO_6
 10
-21.3459
 20
-25.1952
 30
0.1531
 70
192
 0
VERTEX
 8
CILINDRO_6
 10
-21.2756
 20
-25.1114
 30
0.0705
 70
192
 0
VERTEX
 8
CILINDRO_6
 10
-21.1965
 20
-25.0172
 30
0.0218
 70
192
 0
VERTEX
 8
CILINDRO_6
 10
-21.0026
 20
-25.5959
 30
0.3847
 70
192
 0
VERTEX
 8
CILINDRO_6
 10
-20.9782
 20
-25.5536
 30
0.2622
 70
192
 0
VERTEX
 8
CILINDRO_6
 10
-20.9367
 20
-25.4818
 30
0.1531
 70
192
 0
VERTEX
 8
CILINDRO_6
 10
-20.882
 20
-25.387
 30
0.0705
 70
192
 0
VERTEX
 8
CILINDRO_6
 10
-20.8205
 20
-25.2805
 30
0.0218
 70
192
 0
VERTEX
 8
CILINDRO_6
 10
-20.529
 20
-25.8168
 30
0.3847
 70
192
 0
VERTEX
 8
CILINDRO_6
 10
-20.5123
 20
-25.7708
 30
0.2622
 70
192
 0
VERTEX
 8
CILINDRO_6
 10
-20.484
 20
-25.6929
 30
0.1531
 70
192
 0
VERTEX
 8
CILINDRO_6
 10
-20.4465
 20
-25.59
 30
0.0705
 70
192
 0
VERTEX
 8
CILINDRO_6
 10
-20.4045
 20
-25.4745
 30
0.0218
 70
192
 0
VERTEX
 8
CILINDRO_6
 10
-20.0243
 20
-25.952
 30
0.3847
 70
192
 0
VERTEX
 8
CILINDRO_6
 10
-20.0158
 20
-25.9038
 30
0.2622
 70
192
 0
VERTEX
 8
CILINDRO_6
 10
-20.0014
 20
-25.8222
 30
0.1531
 70
192
 0
VERTEX
 8
CILINDRO_6
 10
-19.9824
 20
-25.7144
 30
0.0705
 70
192
 0
VERTEX
 8
CILINDRO_6
 10
-19.9611
 20
-25.5933
 30
0.0218
 70
192
 0
VERTEX
 8
CILINDRO_6
 10
-19.5038
 20
-25.9976
 30
0.3847
 70
192
 0
VERTEX
 8
CILINDRO_6
 10
-19.5038
 20
-25.9486
 30
0.2622
 70
192
 0
VERTEX
 8
CILINDRO_6
 10
-19.5038
 20
-25.8657
 30
0.1531
 70
192
 0
VERTEX
 8
CILINDRO_6
 10
-19.5038
 20
-25.7563
 30
0.0705
 70
192
 0
VERTEX
 8
CILINDRO_6
 10
-19.5038
 20
-25.6333
 30
0.0218
 70
192
 0
VERTEX
 8
CILINDRO_6
 10
-18.9832
 20
-25.952
 30
0.3847
 70
192
 0
VERTEX
 8
CILINDRO_6
 10
-18.9917
 20
-25.9038
 30
0.2622
 70
192
 0
VERTEX
 8
CILINDRO_6
 10
-19.0061
 20
-25.8222
 30
0.1531
 70
192
 0
VERTEX
 8
CILINDRO_6
 10
-19.0251
 20
-25.7144
 30
0.0705
 70
192
 0
VERTEX
 8
CILINDRO_6
 10
-19.0465
 20
-25.5933
 30
0.0218
 70
192
 0
VERTEX
 8
CILINDRO_6
 10
-18.4785
 20
-25.8168
 30
0.3847
 70
192
 0
VERTEX
 8
CILINDRO_6
 10
-18.4952
 20
-25.7708
 30
0.2622
 70
192
 0
VERTEX
 8
CILINDRO_6
 10
-18.5236
 20
-25.6929
 30
0.1531
 70
192
 0
VERTEX
 8
CILINDRO_6
 10
-18.561
 20
-25.59
 30
0.0705
 70
192
 0
VERTEX
 8
CILINDRO_6
 10
-18.6031
 20
-25.4745
 30
0.0218
 70
192
 0
VERTEX
 8
CILINDRO_6
 10
-18.0049
 20
-25.5959
 30
0.3847
 70
192
 0
VERTEX
 8
CILINDRO_6
 10
-18.0294
 20
-25.5536
 30
0.2622
 70
192
 0
VERTEX
 8
CILINDRO_6
 10
-18.0708
 20
-25.4818
 30
0.1531
 70
192
 0
VERTEX
 8
CILINDRO_6
 10
-18.1255
 20
-25.387
 30
0.0705
 70
192
 0
VERTEX
 8
CILINDRO_6
 10
-18.187
 20
-25.2805
 30
0.0218
 70
192
 0
VERTEX
 8
CILINDRO_6
 10
-16.9077
 20
-24.4987
 30
0.3847
 70
192
 0
VERTEX
 8
CILINDRO_6
 10
-16.95
 20
-24.4742
 30
0.2622
 70
192
 0
VERTEX
 8
CILINDRO_6
 10
-17.0218
 20
-24.4328
 30
0.1531
 70
192
 0
VERTEX
 8
CILINDRO_6
 10
-17.1166
 20
-24.3781
 30
0.0705
 70
192
 0
VERTEX
 8
CILINDRO_6
 10
-17.2231
 20
-24.3166
 30
0.0218
 70
192
 0
VERTEX
 8
CILINDRO_6
 10
0
 20
0
 30
0
 70
128
 71
1
 72
72
 73
39
 74
39
 0
VERTEX
 8
CILINDRO_6
 10
0
 20
0
 30
0
 70
128
 71
40
 72
3
 73
4
 74
42
 0
VERTEX
 8
CILINDRO_6
 10
0
 20
0
 30
0
 70
128
 71
3
 72
2
 73
4
 74
4
 0
VERTEX
 8
CILINDRO_6
 10
0
 20
0
 30
0
 70
128
 71
1
 72
39
 73
41
 74
41
 0
VERTEX
 8
CILINDRO_6
 10
0
 20
0
 30
0
 70
128
 71
42
 72
4
 73
5
 74
44
 0
VERTEX
 8
CILINDRO_6
 10
0
 20
0
 30
0
 70
128
 71
4
 72
2
 73
5
 74
5
 0
VERTEX
 8
CILINDRO_6
 10
0
 20
0
 30
0
 70
128
 71
1
 72
41
 73
43
 74
43
 0
VERTEX
 8
CILINDRO_6
 10
0
 20
0
 30
0
 70
128
 71
44
 72
5
 73
6
 74
46
 0
VERTEX
 8
CILINDRO_6
 10
0
 20
0
 30
0
 70
128
 71
5
 72
2
 73
6
 74
6
 0
VERTEX
 8
CILINDRO_6
 10
0
 20
0
 30
0
 70
128
 71
1
 72
43
 73
45
 74
45
 0
VERTEX
 8
CILINDRO_6
 10
0
 20
0
 30
0
 70
128
 71
46
 72
6
 73
7
 74
48
 0
VERTEX
 8
CILINDRO_6
 10
0
 20
0
 30
0
 70
128
 71
6
 72
2
 73
7
 74
7
 0
VERTEX
 8
CILINDRO_6
 10
0
 20
0
 30
0
 70
128
 71
1
 72
45
 73
47
 74
47
 0
VERTEX
 8
CILINDRO_6
 10
0
 20
0
 30
0
 70
128
 71
48
 72
7
 73
8
 74
50
 0
VERTEX
 8
CILINDRO_6
 10
0
 20
0
 30
0
 70
128
 71
7
 72
2
 73
8
 74
8
 0
VERTEX
 8
CILINDRO_6
 10
0
 20
0
 30
0
 70
128
 71
1
 72
47
 73
49
 74
49
 0
VERTEX
 8
CILINDRO_6
 10
0
 20
0
 30
0
 70
128
 71
50
 72
8
 73
9
 74
51
 0
VERTEX
 8
CILINDRO_6
 10
0
 20
0
 30
0
 70
128
 71
8
 72
2
 73
9
 74
9
 0
VERTEX
 8
CILINDRO_6
 10
0
 20
0
 30
0
 70
128
 71
1
 72
49
 73
52
 74
52
 0
VERTEX
 8
CILINDRO_6
 10
0
 20
0
 30
0
 70
128
 71
51
 72
9
 73
10
 74
54
 0
VERTEX
 8
CILINDRO_6
 10
0
 20
0
 30
0
 70
128
 71
9
 72
2
 73
10
 74
10
 0
VERTEX
 8
CILINDRO_6
 10
0
 20
0
 30
0
 70
128
 71
1
 72
52
 73
53
 74
53
 0
VERTEX
 8
CILINDRO_6
 10
0
 20
0
 30
0
 70
128
 71
54
 72
10
 73
11
 74
55
 0
VERTEX
 8
CILINDRO_6
 10
0
 20
0
 30
0
 70
128
 71
10
 72
2
 73
11
 74
11
 0
VERTEX
 8
CILINDRO_6
 10
0
 20
0
 30
0
 70
128
 71
1
 72
53
 73
56
 74
56
 0
VERTEX
 8
CILINDRO_6
 10
0
 20
0
 30
0
 70
128
 71
55
 72
11
 73
12
 74
58
 0
VERTEX
 8
CILINDRO_6
 10
0
 20
0
 30
0
 70
128
 71
11
 72
2
 73
12
 74
12
 0
VERTEX
 8
CILINDRO_6
 10
0
 20
0
 30
0
 70
128
 71
1
 72
56
 73
57
 74
57
 0
VERTEX
 8
CILINDRO_6
 10
0
 20
0
 30
0
 70
128
 71
58
 72
12
 73
13
 74
59
 0
VERTEX
 8
CILINDRO_6
 10
0
 20
0
 30
0
 70
128
 71
12
 72
2
 73
13
 74
13
 0
VERTEX
 8
CILINDRO_6
 10
0
 20
0
 30
0
 70
128
 71
1
 72
57
 73
60
 74
60
 0
VERTEX
 8
CILINDRO_6
 10
0
 20
0
 30
0
 70
128
 71
59
 72
13
 73
14
 74
61
 0
VERTEX
 8
CILINDRO_6
 10
0
 20
0
 30
0
 70
128
 71
13
 72
2
 73
14
 74
14
 0
VERTEX
 8
CILINDRO_6
 10
0
 20
0
 30
0
 70
128
 71
1
 72
60
 73
62
 74
62
 0
VERTEX
 8
CILINDRO_6
 10
0
 20
0
 30
0
 70
128
 71
61
 72
14
 73
15
 74
65
 0
VERTEX
 8
CILINDRO_6
 10
0
 20
0
 30
0
 70
128
 71
14
 72
2
 73
15
 74
15
 0
VERTEX
 8
CILINDRO_6
 10
0
 20
0
 30
0
 70
128
 71
1
 72
62
 73
64
 74
64
 0
VERTEX
 8
CILINDRO_6
 10
0
 20
0
 30
0
 70
128
 71
65
 72
15
 73
16
 74
68
 0
VERTEX
 8
CILINDRO_6
 10
0
 20
0
 30
0
 70
128
 71
15
 72
2
 73
16
 74
16
 0
VERTEX
 8
CILINDRO_6
 10
0
 20
0
 30
0
 70
128
 71
1
 72
64
 73
63
 74
63
 0
VERTEX
 8
CILINDRO_6
 10
0
 20
0
 30
0
 70
128
 71
68
 72
16
 73
17
 74
67
 0
VERTEX
 8
CILINDRO_6
 10
0
 20
0
 30
0
 70
128
 71
16
 72
2
 73
17
 74
17
 0
VERTEX
 8
CILINDRO_6
 10
0
 20
0
 30
0
 70
128
 71
1
 72
63
 73
66
 74
66
 0
VERTEX
 8
CILINDRO_6
 10
0
 20
0
 30
0
 70
128
 71
67
 72
17
 73
18
 74
69
 0
VERTEX
 8
CILINDRO_6
 10
0
 20
0
 30
0
 70
128
 71
17
 72
2
 73
18
 74
18
 0
VERTEX
 8
CILINDRO_6
 10
0
 20
0
 30
0
 70
128
 71
1
 72
66
 73
71
 74
71
 0
VERTEX
 8
CILINDRO_6
 10
0
 20
0
 30
0
 70
128
 71
69
 72
18
 73
19
 74
74
 0
VERTEX
 8
CILINDRO_6
 10
0
 20
0
 30
0
 70
128
 71
18
 72
2
 73
19
 74
19
 0
VERTEX
 8
CILINDRO_6
 10
0
 20
0
 30
0
 70
128
 71
1
 72
71
 73
75
 74
75
 0
VERTEX
 8
CILINDRO_6
 10
0
 20
0
 30
0
 70
128
 71
74
 72
19
 73
20
 74
78
 0
VERTEX
 8
CILINDRO_6
 10
0
 20
0
 30
0
 70
128
 71
19
 72
2
 73
20
 74
20
 0
VERTEX
 8
CILINDRO_6
 10
0
 20
0
 30
0
 70
128
 71
1
 72
75
 73
73
 74
73
 0
VERTEX
 8
CILINDRO_6
 10
0
 20
0
 30
0
 70
128
 71
78
 72
20
 73
21
 74
76
 0
VERTEX
 8
CILINDRO_6
 10
0
 20
0
 30
0
 70
128
 71
20
 72
2
 73
21
 74
21
 0
VERTEX
 8
CILINDRO_6
 10
0
 20
0
 30
0
 70
128
 71
1
 72
73
 73
77
 74
77
 0
VERTEX
 8
CILINDRO_6
 10
0
 20
0
 30
0
 70
128
 71
76
 72
21
 73
22
 74
79
 0
VERTEX
 8
CILINDRO_6
 10
0
 20
0
 30
0
 70
128
 71
21
 72
2
 73
22
 74
22
 0
VERTEX
 8
CILINDRO_6
 10
0
 20
0
 30
0
 70
128
 71
1
 72
77
 73
80
 74
80
 0
VERTEX
 8
CILINDRO_6
 10
0
 20
0
 30
0
 70
128
 71
79
 72
22
 73
23
 74
81
 0
VERTEX
 8
CILINDRO_6
 10
0
 20
0
 30
0
 70
128
 71
22
 72
2
 73
23
 74
23
 0
VERTEX
 8
CILINDRO_6
 10
0
 20
0
 30
0
 70
128
 71
1
 72
80
 73
82
 74
82
 0
VERTEX
 8
CILINDRO_6
 10
0
 20
0
 30
0
 70
128
 71
81
 72
23
 73
24
 74
83
 0
VERTEX
 8
CILINDRO_6
 10
0
 20
0
 30
0
 70
128
 71
23
 72
2
 73
24
 74
24
 0
VERTEX
 8
CILINDRO_6
 10
0
 20
0
 30
0
 70
128
 71
1
 72
82
 73
84
 74
84
 0
VERTEX
 8
CILINDRO_6
 10
0
 20
0
 30
0
 70
128
 71
83
 72
24
 73
25
 74
85
 0
VERTEX
 8
CILINDRO_6
 10
0
 20
0
 30
0
 70
128
 71
24
 72
2
 73
25
 74
25
 0
VERTEX
 8
CILINDRO_6
 10
0
 20
0
 30
0
 70
128
 71
1
 72
84
 73
86
 74
86
 0
VERTEX
 8
CILINDRO_6
 10
0
 20
0
 30
0
 70
128
 71
85
 72
25
 73
26
 74
87
 0
VERTEX
 8
CILINDRO_6
 10
0
 20
0
 30
0
 70
128
 71
25
 72
2
 73
26
 74
26
 0
VERTEX
 8
CILINDRO_6
 10
0
 20
0
 30
0
 70
128
 71
1
 72
86
 73
88
 74
88
 0
VERTEX
 8
CILINDRO_6
 10
0
 20
0
 30
0
 70
128
 71
87
 72
26
 73
27
 74
89
 0
VERTEX
 8
CILINDRO_6
 10
0
 20
0
 30
0
 70
128
 71
26
 72
2
 73
27
 74
27
 0
VERTEX
 8
CILINDRO_6
 10
0
 20
0
 30
0
 70
128
 71
1
 72
88
 73
90
 74
90
 0
VERTEX
 8
CILINDRO_6
 10
0
 20
0
 30
0
 70
128
 71
89
 72
27
 73
28
 74
91
 0
VERTEX
 8
CILINDRO_6
 10
0
 20
0
 30
0
 70
128
 71
27
 72
2
 73
28
 74
28
 0
VERTEX
 8
CILINDRO_6
 10
0
 20
0
 30
0
 70
128
 71
1
 72
90
 73
92
 74
92
 0
VERTEX
 8
CILINDRO_6
 10
0
 20
0
 30
0
 70
128
 71
91
 72
28
 73
29
 74
93
 0
VERTEX
 8
CILINDRO_6
 10
0
 20
0
 30
0
 70
128
 71
28
 72
2
 73
29
 74
29
 0
VERTEX
 8
CILINDRO_6
 10
0
 20
0
 30
0
 70
128
 71
1
 72
92
 73
94
 74
94
 0
VERTEX
 8
CILINDRO_6
 10
0
 20
0
 30
0
 70
128
 71
93
 72
29
 73
30
 74
95
 0
VERTEX
 8
CILINDRO_6
 10
0
 20
0
 30
0
 70
128
 71
29
 72
2
 73
30
 74
30
 0
VERTEX
 8
CILINDRO_6
 10
0
 20
0
 30
0
 70
128
 71
1
 72
94
 73
96
 74
96
 0
VERTEX
 8
CILINDRO_6
 10
0
 20
0
 30
0
 70
128
 71
95
 72
30
 73
31
 74
97
 0
VERTEX
 8
CILINDRO_6
 10
0
 20
0
 30
0
 70
128
 71
30
 72
2
 73
31
 74
31
 0
VERTEX
 8
CILINDRO_6
 10
0
 20
0
 30
0
 70
128
 71
1
 72
96
 73
98
 74
98
 0
VERTEX
 8
CILINDRO_6
 10
0
 20
0
 30
0
 70
128
 71
97
 72
31
 73
32
 74
99
 0
VERTEX
 8
CILINDRO_6
 10
0
 20
0
 30
0
 70
128
 71
31
 72
2
 73
32
 74
32
 0
VERTEX
 8
CILINDRO_6
 10
0
 20
0
 30
0
 70
128
 71
1
 72
98
 73
100
 74
100
 0
VERTEX
 8
CILINDRO_6
 10
0
 20
0
 30
0
 70
128
 71
99
 72
32
 73
33
 74
101
 0
VERTEX
 8
CILINDRO_6
 10
0
 20
0
 30
0
 70
128
 71
32
 72
2
 73
33
 74
33
 0
VERTEX
 8
CILINDRO_6
 10
0
 20
0
 30
0
 70
128
 71
1
 72
100
 73
102
 74
102
 0
VERTEX
 8
CILINDRO_6
 10
0
 20
0
 30
0
 70
128
 71
101
 72
33
 73
34
 74
103
 0
VERTEX
 8
CILINDRO_6
 10
0
 20
0
 30
0
 70
128
 71
33
 72
2
 73
34
 74
34
 0
VERTEX
 8
CILINDRO_6
 10
0
 20
0
 30
0
 70
128
 71
1
 72
102
 73
104
 74
104
 0
VERTEX
 8
CILINDRO_6
 10
0
 20
0
 30
0
 70
128
 71
103
 72
34
 73
35
 74
105
 0
VERTEX
 8
CILINDRO_6
 10
0
 20
0
 30
0
 70
128
 71
34
 72
2
 73
35
 74
35
 0
VERTEX
 8
CILINDRO_6
 10
0
 20
0
 30
0
 70
128
 71
1
 72
104
 73
106
 74
106
 0
VERTEX
 8
CILINDRO_6
 10
0
 20
0
 30
0
 70
128
 71
105
 72
35
 73
36
 74
107
 0
VERTEX
 8
CILINDRO_6
 10
0
 20
0
 30
0
 70
128
 71
35
 72
2
 73
36
 74
36
 0
VERTEX
 8
CILINDRO_6
 10
0
 20
0
 30
0
 70
128
 71
1
 72
106
 73
108
 74
108
 0
VERTEX
 8
CILINDRO_6
 10
0
 20
0
 30
0
 70
128
 71
107
 72
36
 73
37
 74
109
 0
VERTEX
 8
CILINDRO_6
 10
0
 20
0
 30
0
 70
128
 71
36
 72
2
 73
37
 74
37
 0
VERTEX
 8
CILINDRO_6
 10
0
 20
0
 30
0
 70
128
 71
1
 72
108
 73
110
 74
110
 0
VERTEX
 8
CILINDRO_6
 10
0
 20
0
 30
0
 70
128
 71
109
 72
37
 73
38
 74
70
 0
VERTEX
 8
CILINDRO_6
 10
0
 20
0
 30
0
 70
128
 71
37
 72
2
 73
38
 74
38
 0
VERTEX
 8
CILINDRO_6
 10
0
 20
0
 30
0
 70
128
 71
1
 72
110
 73
72
 74
72
 0
VERTEX
 8
CILINDRO_6
 10
0
 20
0
 30
0
 70
128
 71
70
 72
38
 73
3
 74
40
 0
VERTEX
 8
CILINDRO_6
 10
0
 20
0
 30
0
 70
128
 71
38
 72
2
 73
3
 74
3
 0
VERTEX
 8
CILINDRO_6
 10
0
 20
0
 30
0
 70
128
 71
42
 72
130
 73
120
 74
40
 0
VERTEX
 8
CILINDRO_6
 10
0
 20
0
 30
0
 70
128
 71
44
 72
140
 73
130
 74
42
 0
VERTEX
 8
CILINDRO_6
 10
0
 20
0
 30
0
 70
128
 71
46
 72
145
 73
140
 74
44
 0
VERTEX
 8
CILINDRO_6
 10
0
 20
0
 30
0
 70
128
 71
48
 72
150
 73
145
 74
46
 0
VERTEX
 8
CILINDRO_6
 10
0
 20
0
 30
0
 70
128
 71
50
 72
160
 73
150
 74
48
 0
VERTEX
 8
CILINDRO_6
 10
0
 20
0
 30
0
 70
128
 71
51
 72
165
 73
160
 74
50
 0
VERTEX
 8
CILINDRO_6
 10
0
 20
0
 30
0
 70
128
 71
54
 72
166
 73
165
 74
51
 0
VERTEX
 8
CILINDRO_6
 10
0
 20
0
 30
0
 70
128
 71
55
 72
175
 73
166
 74
54
 0
VERTEX
 8
CILINDRO_6
 10
0
 20
0
 30
0
 70
128
 71
58
 72
176
 73
175
 74
55
 0
VERTEX
 8
CILINDRO_6
 10
0
 20
0
 30
0
 70
128
 71
59
 72
185
 73
176
 74
58
 0
VERTEX
 8
CILINDRO_6
 10
0
 20
0
 30
0
 70
128
 71
61
 72
186
 73
185
 74
59
 0
VERTEX
 8
CILINDRO_6
 10
0
 20
0
 30
0
 70
128
 71
65
 72
191
 73
186
 74
61
 0
VERTEX
 8
CILINDRO_6
 10
0
 20
0
 30
0
 70
128
 71
68
 72
200
 73
191
 74
65
 0
VERTEX
 8
CILINDRO_6
 10
0
 20
0
 30
0
 70
128
 71
67
 72
205
 73
200
 74
68
 0
VERTEX
 8
CILINDRO_6
 10
0
 20
0
 30
0
 70
128
 71
69
 72
210
 73
205
 74
67
 0
VERTEX
 8
CILINDRO_6
 10
0
 20
0
 30
0
 70
128
 71
74
 72
211
 73
210
 74
69
 0
VERTEX
 8
CILINDRO_6
 10
0
 20
0
 30
0
 70
128
 71
78
 72
220
 73
211
 74
74
 0
VERTEX
 8
CILINDRO_6
 10
0
 20
0
 30
0
 70
128
 71
76
 72
225
 73
220
 74
78
 0
VERTEX
 8
CILINDRO_6
 10
0
 20
0
 30
0
 70
128
 71
79
 72
226
 73
225
 74
76
 0
VERTEX
 8
CILINDRO_6
 10
0
 20
0
 30
0
 70
128
 71
81
 72
231
 73
226
 74
79
 0
VERTEX
 8
CILINDRO_6
 10
0
 20
0
 30
0
 70
128
 71
83
 72
236
 73
231
 74
81
 0
VERTEX
 8
CILINDRO_6
 10
0
 20
0
 30
0
 70
128
 71
85
 72
241
 73
236
 74
83
 0
VERTEX
 8
CILINDRO_6
 10
0
 20
0
 30
0
 70
128
 71
87
 72
246
 73
241
 74
85
 0
VERTEX
 8
CILINDRO_6
 10
0
 20
0
 30
0
 70
128
 71
89
 72
251
 73
246
 74
87
 0
VERTEX
 8
CILINDRO_6
 10
0
 20
0
 30
0
 70
128
 71
91
 72
256
 73
251
 74
89
 0
VERTEX
 8
CILINDRO_6
 10
0
 20
0
 30
0
 70
128
 71
93
 72
261
 73
256
 74
91
 0
VERTEX
 8
CILINDRO_6
 10
0
 20
0
 30
0
 70
128
 71
95
 72
266
 73
261
 74
93
 0
VERTEX
 8
CILINDRO_6
 10
0
 20
0
 30
0
 70
128
 71
97
 72
271
 73
266
 74
95
 0
VERTEX
 8
CILINDRO_6
 10
0
 20
0
 30
0
 70
128
 71
99
 72
276
 73
271
 74
97
 0
VERTEX
 8
CILINDRO_6
 10
0
 20
0
 30
0
 70
128
 71
101
 72
281
 73
276
 74
99
 0
VERTEX
 8
CILINDRO_6
 10
0
 20
0
 30
0
 70
128
 71
103
 72
121
 73
281
 74
101
 0
VERTEX
 8
CILINDRO_6
 10
0
 20
0
 30
0
 70
128
 71
105
 72
131
 73
121
 74
103
 0
VERTEX
 8
CILINDRO_6
 10
0
 20
0
 30
0
 70
128
 71
107
 72
286
 73
131
 74
105
 0
VERTEX
 8
CILINDRO_6
 10
0
 20
0
 30
0
 70
128
 71
109
 72
111
 73
286
 74
107
 0
VERTEX
 8
CILINDRO_6
 10
0
 20
0
 30
0
 70
128
 71
70
 72
151
 73
111
 74
109
 0
VERTEX
 8
CILINDRO_6
 10
0
 20
0
 30
0
 70
128
 71
40
 72
120
 73
151
 74
70
 0
VERTEX
 8
CILINDRO_6
 10
0
 20
0
 30
0
 70
128
 71
130
 72
129
 73
119
 74
120
 0
VERTEX
 8
CILINDRO_6
 10
0
 20
0
 30
0
 70
128
 71
129
 72
128
 73
118
 74
119
 0
VERTEX
 8
CILINDRO_6
 10
0
 20
0
 30
0
 70
128
 71
128
 72
127
 73
117
 74
118
 0
VERTEX
 8
CILINDRO_6
 10
0
 20
0
 30
0
 70
128
 71
127
 72
126
 73
116
 74
117
 0
VERTEX
 8
CILINDRO_6
 10
0
 20
0
 30
0
 70
128
 71
126
 72
39
 73
72
 74
116
 0
VERTEX
 8
CILINDRO_6
 10
0
 20
0
 30
0
 70
128
 71
140
 72
139
 73
129
 74
130
 0
VERTEX
 8
CILINDRO_6
 10
0
 20
0
 30
0
 70
128
 71
139
 72
138
 73
128
 74
129
 0
VERTEX
 8
CILINDRO_6
 10
0
 20
0
 30
0
 70
128
 71
138
 72
137
 73
127
 74
128
 0
VERTEX
 8
CILINDRO_6
 10
0
 20
0
 30
0
 70
128
 71
137
 72
136
 73
126
 74
127
 0
VERTEX
 8
CILINDRO_6
 10
0
 20
0
 30
0
 70
128
 71
136
 72
41
 73
39
 74
126
 0
VERTEX
 8
CILINDRO_6
 10
0
 20
0
 30
0
 70
128
 71
145
 72
144
 73
139
 74
140
 0
VERTEX
 8
CILINDRO_6
 10
0
 20
0
 30
0
 70
128
 71
144
 72
143
 73
138
 74
139
 0
VERTEX
 8
CILINDRO_6
 10
0
 20
0
 30
0
 70
128
 71
143
 72
142
 73
137
 74
138
 0
VERTEX
 8
CILINDRO_6
 10
0
 20
0
 30
0
 70
128
 71
142
 72
141
 73
136
 74
137
 0
VERTEX
 8
CILINDRO_6
 10
0
 20
0
 30
0
 70
128
 71
141
 72
43
 73
41
 74
136
 0
VERTEX
 8
CILINDRO_6
 10
0
 20
0
 30
0
 70
128
 71
150
 72
149
 73
144
 74
145
 0
VERTEX
 8
CILINDRO_6
 10
0
 20
0
 30
0
 70
128
 71
149
 72
148
 73
143
 74
144
 0
VERTEX
 8
CILINDRO_6
 10
0
 20
0
 30
0
 70
128
 71
148
 72
147
 73
142
 74
143
 0
VERTEX
 8
CILINDRO_6
 10
0
 20
0
 30
0
 70
128
 71
147
 72
146
 73
141
 74
142
 0
VERTEX
 8
CILINDRO_6
 10
0
 20
0
 30
0
 70
128
 71
146
 72
45
 73
43
 74
141
 0
VERTEX
 8
CILINDRO_6
 10
0
 20
0
 30
0
 70
128
 71
160
 72
159
 73
149
 74
150
 0
VERTEX
 8
CILINDRO_6
 10
0
 20
0
 30
0
 70
128
 71
159
 72
158
 73
148
 74
149
 0
VERTEX
 8
CILINDRO_6
 10
0
 20
0
 30
0
 70
128
 71
158
 72
157
 73
147
 74
148
 0
VERTEX
 8
CILINDRO_6
 10
0
 20
0
 30
0
 70
128
 71
157
 72
156
 73
146
 74
147
 0
VERTEX
 8
CILINDRO_6
 10
0
 20
0
 30
0
 70
128
 71
156
 72
47
 73
45
 74
146
 0
VERTEX
 8
CILINDRO_6
 10
0
 20
0
 30
0
 70
128
 71
165
 72
164
 73
159
 74
160
 0
VERTEX
 8
CILINDRO_6
 10
0
 20
0
 30
0
 70
128
 71
164
 72
163
 73
158
 74
159
 0
VERTEX
 8
CILINDRO_6
 10
0
 20
0
 30
0
 70
128
 71
163
 72
162
 73
157
 74
158
 0
VERTEX
 8
CILINDRO_6
 10
0
 20
0
 30
0
 70
128
 71
162
 72
161
 73
156
 74
157
 0
VERTEX
 8
CILINDRO_6
 10
0
 20
0
 30
0
 70
128
 71
161
 72
49
 73
47
 74
156
 0
VERTEX
 8
CILINDRO_6
 10
0
 20
0
 30
0
 70
128
 71
166
 72
167
 73
164
 74
165
 0
VERTEX
 8
CILINDRO_6
 10
0
 20
0
 30
0
 70
128
 71
167
 72
168
 73
163
 74
164
 0
VERTEX
 8
CILINDRO_6
 10
0
 20
0
 30
0
 70
128
 71
168
 72
169
 73
162
 74
163
 0
VERTEX
 8
CILINDRO_6
 10
0
 20
0
 30
0
 70
128
 71
169
 72
170
 73
161
 74
162
 0
VERTEX
 8
CILINDRO_6
 10
0
 20
0
 30
0
 70
128
 71
170
 72
52
 73
49
 74
161
 0
VERTEX
 8
CILINDRO_6
 10
0
 20
0
 30
0
 70
128
 71
175
 72
174
 73
167
 74
166
 0
VERTEX
 8
CILINDRO_6
 10
0
 20
0
 30
0
 70
128
 71
174
 72
173
 73
168
 74
167
 0
VERTEX
 8
CILINDRO_6
 10
0
 20
0
 30
0
 70
128
 71
173
 72
172
 73
169
 74
168
 0
VERTEX
 8
CILINDRO_6
 10
0
 20
0
 30
0
 70
128
 71
172
 72
171
 73
170
 74
169
 0
VERTEX
 8
CILINDRO_6
 10
0
 20
0
 30
0
 70
128
 71
171
 72
53
 73
52
 74
170
 0
VERTEX
 8
CILINDRO_6
 10
0
 20
0
 30
0
 70
128
 71
176
 72
177
 73
174
 74
175
 0
VERTEX
 8
CILINDRO_6
 10
0
 20
0
 30
0
 70
128
 71
177
 72
178
 73
173
 74
174
 0
VERTEX
 8
CILINDRO_6
 10
0
 20
0
 30
0
 70
128
 71
178
 72
179
 73
172
 74
173
 0
VERTEX
 8
CILINDRO_6
 10
0
 20
0
 30
0
 70
128
 71
179
 72
180
 73
171
 74
172
 0
VERTEX
 8
CILINDRO_6
 10
0
 20
0
 30
0
 70
128
 71
180
 72
56
 73
53
 74
171
 0
VERTEX
 8
CILINDRO_6
 10
0
 20
0
 30
0
 70
128
 71
185
 72
184
 73
177
 74
176
 0
VERTEX
 8
CILINDRO_6
 10
0
 20
0
 30
0
 70
128
 71
184
 72
183
 73
178
 74
177
 0
VERTEX
 8
CILINDRO_6
 10
0
 20
0
 30
0
 70
128
 71
183
 72
182
 73
179
 74
178
 0
VERTEX
 8
CILINDRO_6
 10
0
 20
0
 30
0
 70
128
 71
182
 72
181
 73
180
 74
179
 0
VERTEX
 8
CILINDRO_6
 10
0
 20
0
 30
0
 70
128
 71
181
 72
57
 73
56
 74
180
 0
VERTEX
 8
CILINDRO_6
 10
0
 20
0
 30
0
 70
128
 71
186
 72
187
 73
184
 74
185
 0
VERTEX
 8
CILINDRO_6
 10
0
 20
0
 30
0
 70
128
 71
187
 72
188
 73
183
 74
184
 0
VERTEX
 8
CILINDRO_6
 10
0
 20
0
 30
0
 70
128
 71
188
 72
189
 73
182
 74
183
 0
VERTEX
 8
CILINDRO_6
 10
0
 20
0
 30
0
 70
128
 71
189
 72
190
 73
181
 74
182
 0
VERTEX
 8
CILINDRO_6
 10
0
 20
0
 30
0
 70
128
 71
190
 72
60
 73
57
 74
181
 0
VERTEX
 8
CILINDRO_6
 10
0
 20
0
 30
0
 70
128
 71
191
 72
192
 73
187
 74
186
 0
VERTEX
 8
CILINDRO_6
 10
0
 20
0
 30
0
 70
128
 71
192
 72
193
 73
188
 74
187
 0
VERTEX
 8
CILINDRO_6
 10
0
 20
0
 30
0
 70
128
 71
193
 72
194
 73
189
 74
188
 0
VERTEX
 8
CILINDRO_6
 10
0
 20
0
 30
0
 70
128
 71
194
 72
195
 73
190
 74
189
 0
VERTEX
 8
CILINDRO_6
 10
0
 20
0
 30
0
 70
128
 71
195
 72
62
 73
60
 74
190
 0
VERTEX
 8
CILINDRO_6
 10
0
 20
0
 30
0
 70
128
 71
200
 72
199
 73
192
 74
191
 0
VERTEX
 8
CILINDRO_6
 10
0
 20
0
 30
0
 70
128
 71
199
 72
198
 73
193
 74
192
 0
VERTEX
 8
CILINDRO_6
 10
0
 20
0
 30
0
 70
128
 71
198
 72
197
 73
194
 74
193
 0
VERTEX
 8
CILINDRO_6
 10
0
 20
0
 30
0
 70
128
 71
197
 72
196
 73
195
 74
194
 0
VERTEX
 8
CILINDRO_6
 10
0
 20
0
 30
0
 70
128
 71
196
 72
64
 73
62
 74
195
 0
VERTEX
 8
CILINDRO_6
 10
0
 20
0
 30
0
 70
128
 71
205
 72
204
 73
199
 74
200
 0
VERTEX
 8
CILINDRO_6
 10
0
 20
0
 30
0
 70
128
 71
204
 72
203
 73
198
 74
199
 0
VERTEX
 8
CILINDRO_6
 10
0
 20
0
 30
0
 70
128
 71
203
 72
202
 73
197
 74
198
 0
VERTEX
 8
CILINDRO_6
 10
0
 20
0
 30
0
 70
128
 71
202
 72
201
 73
196
 74
197
 0
VERTEX
 8
CILINDRO_6
 10
0
 20
0
 30
0
 70
128
 71
201
 72
63
 73
64
 74
196
 0
VERTEX
 8
CILINDRO_6
 10
0
 20
0
 30
0
 70
128
 71
210
 72
209
 73
204
 74
205
 0
VERTEX
 8
CILINDRO_6
 10
0
 20
0
 30
0
 70
128
 71
209
 72
208
 73
203
 74
204
 0
VERTEX
 8
CILINDRO_6
 10
0
 20
0
 30
0
 70
128
 71
208
 72
207
 73
202
 74
203
 0
VERTEX
 8
CILINDRO_6
 10
0
 20
0
 30
0
 70
128
 71
207
 72
206
 73
201
 74
202
 0
VERTEX
 8
CILINDRO_6
 10
0
 20
0
 30
0
 70
128
 71
206
 72
66
 73
63
 74
201
 0
VERTEX
 8
CILINDRO_6
 10
0
 20
0
 30
0
 70
128
 71
211
 72
212
 73
209
 74
210
 0
VERTEX
 8
CILINDRO_6
 10
0
 20
0
 30
0
 70
128
 71
212
 72
213
 73
208
 74
209
 0
VERTEX
 8
CILINDRO_6
 10
0
 20
0
 30
0
 70
128
 71
213
 72
214
 73
207
 74
208
 0
VERTEX
 8
CILINDRO_6
 10
0
 20
0
 30
0
 70
128
 71
214
 72
215
 73
206
 74
207
 0
VERTEX
 8
CILINDRO_6
 10
0
 20
0
 30
0
 70
128
 71
215
 72
71
 73
66
 74
206
 0
VERTEX
 8
CILINDRO_6
 10
0
 20
0
 30
0
 70
128
 71
220
 72
219
 73
212
 74
211
 0
VERTEX
 8
CILINDRO_6
 10
0
 20
0
 30
0
 70
128
 71
219
 72
218
 73
213
 74
212
 0
VERTEX
 8
CILINDRO_6
 10
0
 20
0
 30
0
 70
128
 71
218
 72
217
 73
214
 74
213
 0
VERTEX
 8
CILINDRO_6
 10
0
 20
0
 30
0
 70
128
 71
217
 72
216
 73
215
 74
214
 0
VERTEX
 8
CILINDRO_6
 10
0
 20
0
 30
0
 70
128
 71
216
 72
75
 73
71
 74
215
 0
VERTEX
 8
CILINDRO_6
 10
0
 20
0
 30
0
 70
128
 71
225
 72
224
 73
219
 74
220
 0
VERTEX
 8
CILINDRO_6
 10
0
 20
0
 30
0
 70
128
 71
224
 72
223
 73
218
 74
219
 0
VERTEX
 8
CILINDRO_6
 10
0
 20
0
 30
0
 70
128
 71
223
 72
222
 73
217
 74
218
 0
VERTEX
 8
CILINDRO_6
 10
0
 20
0
 30
0
 70
128
 71
222
 72
221
 73
216
 74
217
 0
VERTEX
 8
CILINDRO_6
 10
0
 20
0
 30
0
 70
128
 71
221
 72
73
 73
75
 74
216
 0
VERTEX
 8
CILINDRO_6
 10
0
 20
0
 30
0
 70
128
 71
226
 72
227
 73
224
 74
225
 0
VERTEX
 8
CILINDRO_6
 10
0
 20
0
 30
0
 70
128
 71
227
 72
228
 73
223
 74
224
 0
VERTEX
 8
CILINDRO_6
 10
0
 20
0
 30
0
 70
128
 71
228
 72
229
 73
222
 74
223
 0
VERTEX
 8
CILINDRO_6
 10
0
 20
0
 30
0
 70
128
 71
229
 72
230
 73
221
 74
222
 0
VERTEX
 8
CILINDRO_6
 10
0
 20
0
 30
0
 70
128
 71
230
 72
77
 73
73
 74
221
 0
VERTEX
 8
CILINDRO_6
 10
0
 20
0
 30
0
 70
128
 71
231
 72
232
 73
227
 74
226
 0
VERTEX
 8
CILINDRO_6
 10
0
 20
0
 30
0
 70
128
 71
232
 72
233
 73
228
 74
227
 0
VERTEX
 8
CILINDRO_6
 10
0
 20
0
 30
0
 70
128
 71
233
 72
234
 73
229
 74
228
 0
VERTEX
 8
CILINDRO_6
 10
0
 20
0
 30
0
 70
128
 71
234
 72
235
 73
230
 74
229
 0
VERTEX
 8
CILINDRO_6
 10
0
 20
0
 30
0
 70
128
 71
235
 72
80
 73
77
 74
230
 0
VERTEX
 8
CILINDRO_6
 10
0
 20
0
 30
0
 70
128
 71
236
 72
237
 73
232
 74
231
 0
VERTEX
 8
CILINDRO_6
 10
0
 20
0
 30
0
 70
128
 71
237
 72
238
 73
233
 74
232
 0
VERTEX
 8
CILINDRO_6
 10
0
 20
0
 30
0
 70
128
 71
238
 72
239
 73
234
 74
233
 0
VERTEX
 8
CILINDRO_6
 10
0
 20
0
 30
0
 70
128
 71
239
 72
240
 73
235
 74
234
 0
VERTEX
 8
CILINDRO_6
 10
0
 20
0
 30
0
 70
128
 71
240
 72
82
 73
80
 74
235
 0
VERTEX
 8
CILINDRO_6
 10
0
 20
0
 30
0
 70
128
 71
241
 72
242
 73
237
 74
236
 0
VERTEX
 8
CILINDRO_6
 10
0
 20
0
 30
0
 70
128
 71
242
 72
243
 73
238
 74
237
 0
VERTEX
 8
CILINDRO_6
 10
0
 20
0
 30
0
 70
128
 71
243
 72
244
 73
239
 74
238
 0
VERTEX
 8
CILINDRO_6
 10
0
 20
0
 30
0
 70
128
 71
244
 72
245
 73
240
 74
239
 0
VERTEX
 8
CILINDRO_6
 10
0
 20
0
 30
0
 70
128
 71
245
 72
84
 73
82
 74
240
 0
VERTEX
 8
CILINDRO_6
 10
0
 20
0
 30
0
 70
128
 71
246
 72
247
 73
242
 74
241
 0
VERTEX
 8
CILINDRO_6
 10
0
 20
0
 30
0
 70
128
 71
247
 72
248
 73
243
 74
242
 0
VERTEX
 8
CILINDRO_6
 10
0
 20
0
 30
0
 70
128
 71
248
 72
249
 73
244
 74
243
 0
VERTEX
 8
CILINDRO_6
 10
0
 20
0
 30
0
 70
128
 71
249
 72
250
 73
245
 74
244
 0
VERTEX
 8
CILINDRO_6
 10
0
 20
0
 30
0
 70
128
 71
250
 72
86
 73
84
 74
245
 0
VERTEX
 8
CILINDRO_6
 10
0
 20
0
 30
0
 70
128
 71
251
 72
252
 73
247
 74
246
 0
VERTEX
 8
CILINDRO_6
 10
0
 20
0
 30
0
 70
128
 71
252
 72
253
 73
248
 74
247
 0
VERTEX
 8
CILINDRO_6
 10
0
 20
0
 30
0
 70
128
 71
253
 72
254
 73
249
 74
248
 0
VERTEX
 8
CILINDRO_6
 10
0
 20
0
 30
0
 70
128
 71
254
 72
255
 73
250
 74
249
 0
VERTEX
 8
CILINDRO_6
 10
0
 20
0
 30
0
 70
128
 71
255
 72
88
 73
86
 74
250
 0
VERTEX
 8
CILINDRO_6
 10
0
 20
0
 30
0
 70
128
 71
256
 72
257
 73
252
 74
251
 0
VERTEX
 8
CILINDRO_6
 10
0
 20
0
 30
0
 70
128
 71
257
 72
258
 73
253
 74
252
 0
VERTEX
 8
CILINDRO_6
 10
0
 20
0
 30
0
 70
128
 71
258
 72
259
 73
254
 74
253
 0
VERTEX
 8
CILINDRO_6
 10
0
 20
0
 30
0
 70
128
 71
259
 72
260
 73
255
 74
254
 0
VERTEX
 8
CILINDRO_6
 10
0
 20
0
 30
0
 70
128
 71
260
 72
90
 73
88
 74
255
 0
VERTEX
 8
CILINDRO_6
 10
0
 20
0
 30
0
 70
128
 71
261
 72
262
 73
257
 74
256
 0
VERTEX
 8
CILINDRO_6
 10
0
 20
0
 30
0
 70
128
 71
262
 72
263
 73
258
 74
257
 0
VERTEX
 8
CILINDRO_6
 10
0
 20
0
 30
0
 70
128
 71
263
 72
264
 73
259
 74
258
 0
VERTEX
 8
CILINDRO_6
 10
0
 20
0
 30
0
 70
128
 71
264
 72
265
 73
260
 74
259
 0
VERTEX
 8
CILINDRO_6
 10
0
 20
0
 30
0
 70
128
 71
265
 72
92
 73
90
 74
260
 0
VERTEX
 8
CILINDRO_6
 10
0
 20
0
 30
0
 70
128
 71
266
 72
267
 73
262
 74
261
 0
VERTEX
 8
CILINDRO_6
 10
0
 20
0
 30
0
 70
128
 71
267
 72
268
 73
263
 74
262
 0
VERTEX
 8
CILINDRO_6
 10
0
 20
0
 30
0
 70
128
 71
268
 72
269
 73
264
 74
263
 0
VERTEX
 8
CILINDRO_6
 10
0
 20
0
 30
0
 70
128
 71
269
 72
270
 73
265
 74
264
 0
VERTEX
 8
CILINDRO_6
 10
0
 20
0
 30
0
 70
128
 71
270
 72
94
 73
92
 74
265
 0
VERTEX
 8
CILINDRO_6
 10
0
 20
0
 30
0
 70
128
 71
271
 72
272
 73
267
 74
266
 0
VERTEX
 8
CILINDRO_6
 10
0
 20
0
 30
0
 70
128
 71
272
 72
273
 73
268
 74
267
 0
VERTEX
 8
CILINDRO_6
 10
0
 20
0
 30
0
 70
128
 71
273
 72
274
 73
269
 74
268
 0
VERTEX
 8
CILINDRO_6
 10
0
 20
0
 30
0
 70
128
 71
274
 72
275
 73
270
 74
269
 0
VERTEX
 8
CILINDRO_6
 10
0
 20
0
 30
0
 70
128
 71
275
 72
96
 73
94
 74
270
 0
VERTEX
 8
CILINDRO_6
 10
0
 20
0
 30
0
 70
128
 71
276
 72
277
 73
272
 74
271
 0
VERTEX
 8
CILINDRO_6
 10
0
 20
0
 30
0
 70
128
 71
277
 72
278
 73
273
 74
272
 0
VERTEX
 8
CILINDRO_6
 10
0
 20
0
 30
0
 70
128
 71
278
 72
279
 73
274
 74
273
 0
VERTEX
 8
CILINDRO_6
 10
0
 20
0
 30
0
 70
128
 71
279
 72
280
 73
275
 74
274
 0
VERTEX
 8
CILINDRO_6
 10
0
 20
0
 30
0
 70
128
 71
280
 72
98
 73
96
 74
275
 0
VERTEX
 8
CILINDRO_6
 10
0
 20
0
 30
0
 70
128
 71
281
 72
282
 73
277
 74
276
 0
VERTEX
 8
CILINDRO_6
 10
0
 20
0
 30
0
 70
128
 71
282
 72
283
 73
278
 74
277
 0
VERTEX
 8
CILINDRO_6
 10
0
 20
0
 30
0
 70
128
 71
283
 72
284
 73
279
 74
278
 0
VERTEX
 8
CILINDRO_6
 10
0
 20
0
 30
0
 70
128
 71
284
 72
285
 73
280
 74
279
 0
VERTEX
 8
CILINDRO_6
 10
0
 20
0
 30
0
 70
128
 71
285
 72
100
 73
98
 74
280
 0
VERTEX
 8
CILINDRO_6
 10
0
 20
0
 30
0
 70
128
 71
121
 72
122
 73
282
 74
281
 0
VERTEX
 8
CILINDRO_6
 10
0
 20
0
 30
0
 70
128
 71
122
 72
123
 73
283
 74
282
 0
VERTEX
 8
CILINDRO_6
 10
0
 20
0
 30
0
 70
128
 71
123
 72
124
 73
284
 74
283
 0
VERTEX
 8
CILINDRO_6
 10
0
 20
0
 30
0
 70
128
 71
124
 72
125
 73
285
 74
284
 0
VERTEX
 8
CILINDRO_6
 10
0
 20
0
 30
0
 70
128
 71
125
 72
102
 73
100
 74
285
 0
VERTEX
 8
CILINDRO_6
 10
0
 20
0
 30
0
 70
128
 71
131
 72
132
 73
122
 74
121
 0
VERTEX
 8
CILINDRO_6
 10
0
 20
0
 30
0
 70
128
 71
132
 72
133
 73
123
 74
122
 0
VERTEX
 8
CILINDRO_6
 10
0
 20
0
 30
0
 70
128
 71
133
 72
134
 73
124
 74
123
 0
VERTEX
 8
CILINDRO_6
 10
0
 20
0
 30
0
 70
128
 71
134
 72
135
 73
125
 74
124
 0
VERTEX
 8
CILINDRO_6
 10
0
 20
0
 30
0
 70
128
 71
135
 72
104
 73
102
 74
125
 0
VERTEX
 8
CILINDRO_6
 10
0
 20
0
 30
0
 70
128
 71
286
 72
287
 73
132
 74
131
 0
VERTEX
 8
CILINDRO_6
 10
0
 20
0
 30
0
 70
128
 71
287
 72
288
 73
133
 74
132
 0
VERTEX
 8
CILINDRO_6
 10
0
 20
0
 30
0
 70
128
 71
288
 72
289
 73
134
 74
133
 0
VERTEX
 8
CILINDRO_6
 10
0
 20
0
 30
0
 70
128
 71
289
 72
290
 73
135
 74
134
 0
VERTEX
 8
CILINDRO_6
 10
0
 20
0
 30
0
 70
128
 71
290
 72
106
 73
104
 74
135
 0
VERTEX
 8
CILINDRO_6
 10
0
 20
0
 30
0
 70
128
 71
111
 72
112
 73
287
 74
286
 0
VERTEX
 8
CILINDRO_6
 10
0
 20
0
 30
0
 70
128
 71
112
 72
113
 73
288
 74
287
 0
VERTEX
 8
CILINDRO_6
 10
0
 20
0
 30
0
 70
128
 71
113
 72
114
 73
289
 74
288
 0
VERTEX
 8
CILINDRO_6
 10
0
 20
0
 30
0
 70
128
 71
114
 72
115
 73
290
 74
289
 0
VERTEX
 8
CILINDRO_6
 10
0
 20
0
 30
0
 70
128
 71
115
 72
108
 73
106
 74
290
 0
VERTEX
 8
CILINDRO_6
 10
0
 20
0
 30
0
 70
128
 71
151
 72
152
 73
112
 74
111
 0
VERTEX
 8
CILINDRO_6
 10
0
 20
0
 30
0
 70
128
 71
152
 72
153
 73
113
 74
112
 0
VERTEX
 8
CILINDRO_6
 10
0
 20
0
 30
0
 70
128
 71
153
 72
154
 73
114
 74
113
 0
VERTEX
 8
CILINDRO_6
 10
0
 20
0
 30
0
 70
128
 71
154
 72
155
 73
115
 74
114
 0
VERTEX
 8
CILINDRO_6
 10
0
 20
0
 30
0
 70
128
 71
155
 72
110
 73
108
 74
115
 0
VERTEX
 8
CILINDRO_6
 10
0
 20
0
 30
0
 70
128
 71
120
 72
119
 73
152
 74
151
 0
VERTEX
 8
CILINDRO_6
 10
0
 20
0
 30
0
 70
128
 71
119
 72
118
 73
153
 74
152
 0
VERTEX
 8
CILINDRO_6
 10
0
 20
0
 30
0
 70
128
 71
118
 72
117
 73
154
 74
153
 0
VERTEX
 8
CILINDRO_6
 10
0
 20
0
 30
0
 70
128
 71
117
 72
116
 73
155
 74
154
 0
VERTEX
 8
CILINDRO_6
 10
0
 20
0
 30
0
 70
128
 71
116
 72
72
 73
110
 74
155
 0
SEQEND
 0
POLYLINE
 8
CILINDRO_5
 66
1
 10
0.0
 20
0.0
 30
0.0
 70
64
 71
146
 72
108
 0
VERTEX
 8
CILINDRO_5
 10
5.4962
 20
-23
 30
1.5076
 70
192
 0
VERTEX
 8
CILINDRO_5
 10
5.4962
 20
-23
 30
5.487
 70
192
 0
VERTEX
 8
CILINDRO_5
 10
6.4911
 20
-23
 30
1.5076
 70
192
 0
VERTEX
 8
CILINDRO_5
 10
6.4911
 20
-23
 30
1.5076
 70
192
 0
VERTEX
 8
CILINDRO_5
 10
6.4911
 20
-23
 30
5.487
 70
192
 0
VERTEX
 8
CILINDRO_5
 10
6.4911
 20
-23
 30
5.487
 70
192
 0
VERTEX
 8
CILINDRO_5
 10
6.476
 20
-22.8273
 30
1.5076
 70
192
 0
VERTEX
 8
CILINDRO_5
 10
6.476
 20
-22.8273
 30
1.5076
 70
192
 0
VERTEX
 8
CILINDRO_5
 10
6.476
 20
-22.8273
 30
5.487
 70
192
 0
VERTEX
 8
CILINDRO_5
 10
6.476
 20
-22.8273
 30
5.487
 70
192
 0
VERTEX
 8
CILINDRO_5
 10
6.4311
 20
-22.6598
 30
1.5076
 70
192
 0
VERTEX
 8
CILINDRO_5
 10
6.4311
 20
-22.6598
 30
1.5076
 70
192
 0
VERTEX
 8
CILINDRO_5
 10
6.4311
 20
-22.6598
 30
5.487
 70
192
 0
VERTEX
 8
CILINDRO_5
 10
6.4311
 20
-22.6598
 30
5.487
 70
192
 0
VERTEX
 8
CILINDRO_5
 10
6.3578
 20
-22.5026
 30
1.5076
 70
192
 0
VERTEX
 8
CILINDRO_5
 10
6.3578
 20
-22.5026
 30
1.5076
 70
192
 0
VERTEX
 8
CILINDRO_5
 10
6.3578
 20
-22.5026
 30
5.487
 70
192
 0
VERTEX
 8
CILINDRO_5
 10
6.3578
 20
-22.5026
 30
5.487
 70
192
 0
VERTEX
 8
CILINDRO_5
 10
6.2583
 20
-22.3605
 30
1.5076
 70
192
 0
VERTEX
 8
CILINDRO_5
 10
6.2583
 20
-22.3605
 30
1.5076
 70
192
 0
VERTEX
 8
CILINDRO_5
 10
6.2583
 20
-22.3605
 30
5.487
 70
192
 0
VERTEX
 8
CILINDRO_5
 10
6.2583
 20
-22.3605
 30
5.487
 70
192
 0
VERTEX
 8
CILINDRO_5
 10
6.1357
 20
-22.2379
 30
1.5076
 70
192
 0
VERTEX
 8
CILINDRO_5
 10
6.1357
 20
-22.2379
 30
1.5076
 70
192
 0
VERTEX
 8
CILINDRO_5
 10
6.1357
 20
-22.2379
 30
5.487
 70
192
 0
VERTEX
 8
CILINDRO_5
 10
6.1357
 20
-22.2379
 30
5.487
 70
192
 0
VERTEX
 8
CILINDRO_5
 10
5.9937
 20
-22.1385
 30
1.5076
 70
192
 0
VERTEX
 8
CILINDRO_5
 10
5.9937
 20
-22.1385
 30
1.5076
 70
192
 0
VERTEX
 8
CILINDRO_5
 10
5.9937
 20
-22.1385
 30
5.487
 70
192
 0
VERTEX
 8
CILINDRO_5
 10
5.9937
 20
-22.1385
 30
5.487
 70
192
 0
VERTEX
 8
CILINDRO_5
 10
5.8365
 20
-22.0652
 30
1.5076
 70
192
 0
VERTEX
 8
CILINDRO_5
 10
5.8365
 20
-22.0652
 30
1.5076
 70
192
 0
VERTEX
 8
CILINDRO_5
 10
5.8365
 20
-22.0652
 30
5.487
 70
192
 0
VERTEX
 8
CILINDRO_5
 10
5.8365
 20
-22.0652
 30
5.487
 70
192
 0
VERTEX
 8
CILINDRO_5
 10
5.669
 20
-22.0203
 30
1.5076
 70
192
 0
VERTEX
 8
CILINDRO_5
 10
5.669
 20
-22.0203
 30
1.5076
 70
192
 0
VERTEX
 8
CILINDRO_5
 10
5.669
 20
-22.0203
 30
5.487
 70
192
 0
VERTEX
 8
CILINDRO_5
 10
5.669
 20
-22.0203
 30
5.487
 70
192
 0
VERTEX
 8
CILINDRO_5
 10
5.4962
 20
-22.0052
 30
1.5076
 70
192
 0
VERTEX
 8
CILINDRO_5
 10
5.4962
 20
-22.0052
 30
1.5076
 70
192
 0
VERTEX
 8
CILINDRO_5
 10
5.4962
 20
-22.0052
 30
5.487
 70
192
 0
VERTEX
 8
CILINDRO_5
 10
5.4962
 20
-22.0052
 30
5.487
 70
192
 0
VERTEX
 8
CILINDRO_5
 10
5.3235
 20
-22.0203
 30
1.5076
 70
192
 0
VERTEX
 8
CILINDRO_5
 10
5.3235
 20
-22.0203
 30
1.5076
 70
192
 0
VERTEX
 8
CILINDRO_5
 10
5.3235
 20
-22.0203
 30
5.487
 70
192
 0
VERTEX
 8
CILINDRO_5
 10
5.3235
 20
-22.0203
 30
5.487
 70
192
 0
VERTEX
 8
CILINDRO_5
 10
5.156
 20
-22.0652
 30
1.5076
 70
192
 0
VERTEX
 8
CILINDRO_5
 10
5.156
 20
-22.0652
 30
1.5076
 70
192
 0
VERTEX
 8
CILINDRO_5
 10
5.156
 20
-22.0652
 30
5.487
 70
192
 0
VERTEX
 8
CILINDRO_5
 10
5.156
 20
-22.0652
 30
5.487
 70
192
 0
VERTEX
 8
CILINDRO_5
 10
4.9988
 20
-22.1385
 30
1.5076
 70
192
 0
VERTEX
 8
CILINDRO_5
 10
4.9988
 20
-22.1385
 30
1.5076
 70
192
 0
VERTEX
 8
CILINDRO_5
 10
4.9988
 20
-22.1385
 30
5.487
 70
192
 0
VERTEX
 8
CILINDRO_5
 10
4.9988
 20
-22.1385
 30
5.487
 70
192
 0
VERTEX
 8
CILINDRO_5
 10
4.8568
 20
-22.2379
 30
1.5076
 70
192
 0
VERTEX
 8
CILINDRO_5
 10
4.8568
 20
-22.2379
 30
1.5076
 70
192
 0
VERTEX
 8
CILINDRO_5
 10
4.8568
 20
-22.2379
 30
5.487
 70
192
 0
VERTEX
 8
CILINDRO_5
 10
4.8568
 20
-22.2379
 30
5.487
 70
192
 0
VERTEX
 8
CILINDRO_5
 10
4.7341
 20
-22.3605
 30
1.5076
 70
192
 0
VERTEX
 8
CILINDRO_5
 10
4.7341
 20
-22.3605
 30
1.5076
 70
192
 0
VERTEX
 8
CILINDRO_5
 10
4.7341
 20
-22.3605
 30
5.487
 70
192
 0
VERTEX
 8
CILINDRO_5
 10
4.7341
 20
-22.3605
 30
5.487
 70
192
 0
VERTEX
 8
CILINDRO_5
 10
4.6347
 20
-22.5026
 30
1.5076
 70
192
 0
VERTEX
 8
CILINDRO_5
 10
4.6347
 20
-22.5026
 30
1.5076
 70
192
 0
VERTEX
 8
CILINDRO_5
 10
4.6347
 20
-22.5026
 30
5.487
 70
192
 0
VERTEX
 8
CILINDRO_5
 10
4.6347
 20
-22.5026
 30
5.487
 70
192
 0
VERTEX
 8
CILINDRO_5
 10
4.5614
 20
-22.6598
 30
1.5076
 70
192
 0
VERTEX
 8
CILINDRO_5
 10
4.5614
 20
-22.6598
 30
1.5076
 70
192
 0
VERTEX
 8
CILINDRO_5
 10
4.5614
 20
-22.6598
 30
5.487
 70
192
 0
VERTEX
 8
CILINDRO_5
 10
4.5614
 20
-22.6598
 30
5.487
 70
192
 0
VERTEX
 8
CILINDRO_5
 10
4.5165
 20
-22.8273
 30
1.5076
 70
192
 0
VERTEX
 8
CILINDRO_5
 10
4.5165
 20
-22.8273
 30
1.5076
 70
192
 0
VERTEX
 8
CILINDRO_5
 10
4.5165
 20
-22.8273
 30
5.487
 70
192
 0
VERTEX
 8
CILINDRO_5
 10
4.5165
 20
-22.8273
 30
5.487
 70
192
 0
VERTEX
 8
CILINDRO_5
 10
4.5014
 20
-23
 30
1.5076
 70
192
 0
VERTEX
 8
CILINDRO_5
 10
4.5014
 20
-23
 30
1.5076
 70
192
 0
VERTEX
 8
CILINDRO_5
 10
4.5014
 20
-23
 30
5.487
 70
192
 0
VERTEX
 8
CILINDRO_5
 10
4.5014
 20
-23
 30
5.487
 70
192
 0
VERTEX
 8
CILINDRO_5
 10
4.5165
 20
-23.1728
 30
1.5076
 70
192
 0
VERTEX
 8
CILINDRO_5
 10
4.5165
 20
-23.1728
 30
1.5076
 70
192
 0
VERTEX
 8
CILINDRO_5
 10
4.5165
 20
-23.1728
 30
5.487
 70
192
 0
VERTEX
 8
CILINDRO_5
 10
4.5165
 20
-23.1728
 30
5.487
 70
192
 0
VERTEX
 8
CILINDRO_5
 10
4.5614
 20
-23.3403
 30
1.5076
 70
192
 0
VERTEX
 8
CILINDRO_5
 10
4.5614
 20
-23.3403
 30
1.5076
 70
192
 0
VERTEX
 8
CILINDRO_5
 10
4.5614
 20
-23.3403
 30
5.487
 70
192
 0
VERTEX
 8
CILINDRO_5
 10
4.5614
 20
-23.3403
 30
5.487
 70
192
 0
VERTEX
 8
CILINDRO_5
 10
4.6347
 20
-23.4974
 30
1.5076
 70
192
 0
VERTEX
 8
CILINDRO_5
 10
4.6347
 20
-23.4974
 30
1.5076
 70
192
 0
VERTEX
 8
CILINDRO_5
 10
4.6347
 20
-23.4974
 30
5.487
 70
192
 0
VERTEX
 8
CILINDRO_5
 10
4.6347
 20
-23.4974
 30
5.487
 70
192
 0
VERTEX
 8
CILINDRO_5
 10
4.7341
 20
-23.6395
 30
1.5076
 70
192
 0
VERTEX
 8
CILINDRO_5
 10
4.7341
 20
-23.6395
 30
1.5076
 70
192
 0
VERTEX
 8
CILINDRO_5
 10
4.7341
 20
-23.6395
 30
5.487
 70
192
 0
VERTEX
 8
CILINDRO_5
 10
4.7341
 20
-23.6395
 30
5.487
 70
192
 0
VERTEX
 8
CILINDRO_5
 10
4.8568
 20
-23.7621
 30
1.5076
 70
192
 0
VERTEX
 8
CILINDRO_5
 10
4.8568
 20
-23.7621
 30
1.5076
 70
192
 0
VERTEX
 8
CILINDRO_5
 10
4.8568
 20
-23.7621
 30
5.487
 70
192
 0
VERTEX
 8
CILINDRO_5
 10
4.8568
 20
-23.7621
 30
5.487
 70
192
 0
VERTEX
 8
CILINDRO_5
 10
4.9988
 20
-23.8616
 30
1.5076
 70
192
 0
VERTEX
 8
CILINDRO_5
 10
4.9988
 20
-23.8616
 30
1.5076
 70
192
 0
VERTEX
 8
CILINDRO_5
 10
4.9988
 20
-23.8616
 30
5.487
 70
192
 0
VERTEX
 8
CILINDRO_5
 10
4.9988
 20
-23.8616
 30
5.487
 70
192
 0
VERTEX
 8
CILINDRO_5
 10
5.156
 20
-23.9349
 30
1.5076
 70
192
 0
VERTEX
 8
CILINDRO_5
 10
5.156
 20
-23.9349
 30
1.5076
 70
192
 0
VERTEX
 8
CILINDRO_5
 10
5.156
 20
-23.9349
 30
5.487
 70
192
 0
VERTEX
 8
CILINDRO_5
 10
5.156
 20
-23.9349
 30
5.487
 70
192
 0
VERTEX
 8
CILINDRO_5
 10
5.3235
 20
-23.9798
 30
1.5076
 70
192
 0
VERTEX
 8
CILINDRO_5
 10
5.3235
 20
-23.9798
 30
1.5076
 70
192
 0
VERTEX
 8
CILINDRO_5
 10
5.3235
 20
-23.9798
 30
5.487
 70
192
 0
VERTEX
 8
CILINDRO_5
 10
5.3235
 20
-23.9798
 30
5.487
 70
192
 0
VERTEX
 8
CILINDRO_5
 10
5.4962
 20
-23.9949
 30
1.5076
 70
192
 0
VERTEX
 8
CILINDRO_5
 10
5.4962
 20
-23.9949
 30
1.5076
 70
192
 0
VERTEX
 8
CILINDRO_5
 10
5.4962
 20
-23.9949
 30
5.487
 70
192
 0
VERTEX
 8
CILINDRO_5
 10
5.4962
 20
-23.9949
 30
5.487
 70
192
 0
VERTEX
 8
CILINDRO_5
 10
5.669
 20
-23.9798
 30
1.5076
 70
192
 0
VERTEX
 8
CILINDRO_5
 10
5.669
 20
-23.9798
 30
1.5076
 70
192
 0
VERTEX
 8
CILINDRO_5
 10
5.669
 20
-23.9798
 30
5.487
 70
192
 0
VERTEX
 8
CILINDRO_5
 10
5.669
 20
-23.9798
 30
5.487
 70
192
 0
VERTEX
 8
CILINDRO_5
 10
5.8365
 20
-23.9349
 30
1.5076
 70
192
 0
VERTEX
 8
CILINDRO_5
 10
5.8365
 20
-23.9349
 30
1.5076
 70
192
 0
VERTEX
 8
CILINDRO_5
 10
5.8365
 20
-23.9349
 30
5.487
 70
192
 0
VERTEX
 8
CILINDRO_5
 10
5.8365
 20
-23.9349
 30
5.487
 70
192
 0
VERTEX
 8
CILINDRO_5
 10
5.9937
 20
-23.8616
 30
1.5076
 70
192
 0
VERTEX
 8
CILINDRO_5
 10
5.9937
 20
-23.8616
 30
1.5076
 70
192
 0
VERTEX
 8
CILINDRO_5
 10
5.9937
 20
-23.8616
 30
5.487
 70
192
 0
VERTEX
 8
CILINDRO_5
 10
5.9937
 20
-23.8616
 30
5.487
 70
192
 0
VERTEX
 8
CILINDRO_5
 10
6.1357
 20
-23.7621
 30
1.5076
 70
192
 0
VERTEX
 8
CILINDRO_5
 10
6.1357
 20
-23.7621
 30
1.5076
 70
192
 0
VERTEX
 8
CILINDRO_5
 10
6.1357
 20
-23.7621
 30
5.487
 70
192
 0
VERTEX
 8
CILINDRO_5
 10
6.1357
 20
-23.7621
 30
5.487
 70
192
 0
VERTEX
 8
CILINDRO_5
 10
6.2583
 20
-23.6395
 30
1.5076
 70
192
 0
VERTEX
 8
CILINDRO_5
 10
6.2583
 20
-23.6395
 30
1.5076
 70
192
 0
VERTEX
 8
CILINDRO_5
 10
6.2583
 20
-23.6395
 30
5.487
 70
192
 0
VERTEX
 8
CILINDRO_5
 10
6.2583
 20
-23.6395
 30
5.487
 70
192
 0
VERTEX
 8
CILINDRO_5
 10
6.3578
 20
-23.4974
 30
1.5076
 70
192
 0
VERTEX
 8
CILINDRO_5
 10
6.3578
 20
-23.4974
 30
1.5076
 70
192
 0
VERTEX
 8
CILINDRO_5
 10
6.3578
 20
-23.4974
 30
5.487
 70
192
 0
VERTEX
 8
CILINDRO_5
 10
6.3578
 20
-23.4974
 30
5.487
 70
192
 0
VERTEX
 8
CILINDRO_5
 10
6.4311
 20
-23.3403
 30
1.5076
 70
192
 0
VERTEX
 8
CILINDRO_5
 10
6.4311
 20
-23.3403
 30
1.5076
 70
192
 0
VERTEX
 8
CILINDRO_5
 10
6.4311
 20
-23.3403
 30
5.487
 70
192
 0
VERTEX
 8
CILINDRO_5
 10
6.4311
 20
-23.3403
 30
5.487
 70
192
 0
VERTEX
 8
CILINDRO_5
 10
6.476
 20
-23.1728
 30
1.5076
 70
192
 0
VERTEX
 8
CILINDRO_5
 10
6.476
 20
-23.1728
 30
1.5076
 70
192
 0
VERTEX
 8
CILINDRO_5
 10
6.476
 20
-23.1728
 30
5.487
 70
192
 0
VERTEX
 8
CILINDRO_5
 10
6.476
 20
-23.1728
 30
5.487
 70
192
 0
VERTEX
 8
CILINDRO_5
 10
0
 20
0
 30
0
 70
128
 71
1
 72
3
 73
7
 74
7
 0
VERTEX
 8
CILINDRO_5
 10
0
 20
0
 30
0
 70
128
 71
4
 72
5
 73
9
 74
8
 0
VERTEX
 8
CILINDRO_5
 10
0
 20
0
 30
0
 70
128
 71
6
 72
2
 73
10
 74
10
 0
VERTEX
 8
CILINDRO_5
 10
0
 20
0
 30
0
 70
128
 71
1
 72
7
 73
11
 74
11
 0
VERTEX
 8
CILINDRO_5
 10
0
 20
0
 30
0
 70
128
 71
8
 72
9
 73
13
 74
12
 0
VERTEX
 8
CILINDRO_5
 10
0
 20
0
 30
0
 70
128
 71
10
 72
2
 73
14
 74
14
 0
VERTEX
 8
CILINDRO_5
 10
0
 20
0
 30
0
 70
128
 71
1
 72
11
 73
15
 74
15
 0
VERTEX
 8
CILINDRO_5
 10
0
 20
0
 30
0
 70
128
 71
12
 72
13
 73
17
 74
16
 0
VERTEX
 8
CILINDRO_5
 10
0
 20
0
 30
0
 70
128
 71
14
 72
2
 73
18
 74
18
 0
VERTEX
 8
CILINDRO_5
 10
0
 20
0
 30
0
 70
128
 71
1
 72
15
 73
19
 74
19
 0
VERTEX
 8
CILINDRO_5
 10
0
 20
0
 30
0
 70
128
 71
16
 72
17
 73
21
 74
20
 0
VERTEX
 8
CILINDRO_5
 10
0
 20
0
 30
0
 70
128
 71
18
 72
2
 73
22
 74
22
 0
VERTEX
 8
CILINDRO_5
 10
0
 20
0
 30
0
 70
128
 71
1
 72
19
 73
23
 74
23
 0
VERTEX
 8
CILINDRO_5
 10
0
 20
0
 30
0
 70
128
 71
20
 72
21
 73
25
 74
24
 0
VERTEX
 8
CILINDRO_5
 10
0
 20
0
 30
0
 70
128
 71
22
 72
2
 73
26
 74
26
 0
VERTEX
 8
CILINDRO_5
 10
0
 20
0
 30
0
 70
128
 71
1
 72
23
 73
27
 74
27
 0
VERTEX
 8
CILINDRO_5
 10
0
 20
0
 30
0
 70
128
 71
24
 72
25
 73
29
 74
28
 0
VERTEX
 8
CILINDRO_5
 10
0
 20
0
 30
0
 70
128
 71
26
 72
2
 73
30
 74
30
 0
VERTEX
 8
CILINDRO_5
 10
0
 20
0
 30
0
 70
128
 71
1
 72
27
 73
31
 74
31
 0
VERTEX
 8
CILINDRO_5
 10
0
 20
0
 30
0
 70
128
 71
28
 72
29
 73
33
 74
32
 0
VERTEX
 8
CILINDRO_5
 10
0
 20
0
 30
0
 70
128
 71
30
 72
2
 73
34
 74
34
 0
VERTEX
 8
CILINDRO_5
 10
0
 20
0
 30
0
 70
128
 71
1
 72
31
 73
35
 74
35
 0
VERTEX
 8
CILINDRO_5
 10
0
 20
0
 30
0
 70
128
 71
32
 72
33
 73
37
 74
36
 0
VERTEX
 8
CILINDRO_5
 10
0
 20
0
 30
0
 70
128
 71
34
 72
2
 73
38
 74
38
 0
VERTEX
 8
CILINDRO_5
 10
0
 20
0
 30
0
 70
128
 71
1
 72
35
 73
39
 74
39
 0
VERTEX
 8
CILINDRO_5
 10
0
 20
0
 30
0
 70
128
 71
36
 72
37
 73
41
 74
40
 0
VERTEX
 8
CILINDRO_5
 10
0
 20
0
 30
0
 70
128
 71
38
 72
2
 73
42
 74
42
 0
VERTEX
 8
CILINDRO_5
 10
0
 20
0
 30
0
 70
128
 71
1
 72
39
 73
43
 74
43
 0
VERTEX
 8
CILINDRO_5
 10
0
 20
0
 30
0
 70
128
 71
40
 72
41
 73
45
 74
44
 0
VERTEX
 8
CILINDRO_5
 10
0
 20
0
 30
0
 70
128
 71
42
 72
2
 73
46
 74
46
 0
VERTEX
 8
CILINDRO_5
 10
0
 20
0
 30
0
 70
128
 71
1
 72
43
 73
47
 74
47
 0
VERTEX
 8
CILINDRO_5
 10
0
 20
0
 30
0
 70
128
 71
44
 72
45
 73
49
 74
48
 0
VERTEX
 8
CILINDRO_5
 10
0
 20
0
 30
0
 70
128
 71
46
 72
2
 73
50
 74
50
 0
VERTEX
 8
CILINDRO_5
 10
0
 20
0
 30
0
 70
128
 71
1
 72
47
 73
51
 74
51
 0
VERTEX
 8
CILINDRO_5
 10
0
 20
0
 30
0
 70
128
 71
48
 72
49
 73
53
 74
52
 0
VERTEX
 8
CILINDRO_5
 10
0
 20
0
 30
0
 70
128
 71
50
 72
2
 73
54
 74
54
 0
VERTEX
 8
CILINDRO_5
 10
0
 20
0
 30
0
 70
128
 71
1
 72
51
 73
55
 74
55
 0
VERTEX
 8
CILINDRO_5
 10
0
 20
0
 30
0
 70
128
 71
52
 72
53
 73
57
 74
56
 0
VERTEX
 8
CILINDRO_5
 10
0
 20
0
 30
0
 70
128
 71
54
 72
2
 73
58
 74
58
 0
VERTEX
 8
CILINDRO_5
 10
0
 20
0
 30
0
 70
128
 71
1
 72
55
 73
59
 74
59
 0
VERTEX
 8
CILINDRO_5
 10
0
 20
0
 30
0
 70
128
 71
56
 72
57
 73
61
 74
60
 0
VERTEX
 8
CILINDRO_5
 10
0
 20
0
 30
0
 70
128
 71
58
 72
2
 73
62
 74
62
 0
VERTEX
 8
CILINDRO_5
 10
0
 20
0
 30
0
 70
128
 71
1
 72
59
 73
63
 74
63
 0
VERTEX
 8
CILINDRO_5
 10
0
 20
0
 30
0
 70
128
 71
60
 72
61
 73
65
 74
64
 0
VERTEX
 8
CILINDRO_5
 10
0
 20
0
 30
0
 70
128
 71
62
 72
2
 73
66
 74
66
 0
VERTEX
 8
CILINDRO_5
 10
0
 20
0
 30
0
 70
128
 71
1
 72
63
 73
67
 74
67
 0
VERTEX
 8
CILINDRO_5
 10
0
 20
0
 30
0
 70
128
 71
64
 72
65
 73
69
 74
68
 0
VERTEX
 8
CILINDRO_5
 10
0
 20
0
 30
0
 70
128
 71
66
 72
2
 73
70
 74
70
 0
VERTEX
 8
CILINDRO_5
 10
0
 20
0
 30
0
 70
128
 71
1
 72
67
 73
71
 74
71
 0
VERTEX
 8
CILINDRO_5
 10
0
 20
0
 30
0
 70
128
 71
68
 72
69
 73
73
 74
72
 0
VERTEX
 8
CILINDRO_5
 10
0
 20
0
 30
0
 70
128
 71
70
 72
2
 73
74
 74
74
 0
VERTEX
 8
CILINDRO_5
 10
0
 20
0
 30
0
 70
128
 71
1
 72
71
 73
75
 74
75
 0
VERTEX
 8
CILINDRO_5
 10
0
 20
0
 30
0
 70
128
 71
72
 72
73
 73
77
 74
76
 0
VERTEX
 8
CILINDRO_5
 10
0
 20
0
 30
0
 70
128
 71
74
 72
2
 73
78
 74
78
 0
VERTEX
 8
CILINDRO_5
 10
0
 20
0
 30
0
 70
128
 71
1
 72
75
 73
79
 74
79
 0
VERTEX
 8
CILINDRO_5
 10
0
 20
0
 30
0
 70
128
 71
76
 72
77
 73
81
 74
80
 0
VERTEX
 8
CILINDRO_5
 10
0
 20
0
 30
0
 70
128
 71
78
 72
2
 73
82
 74
82
 0
VERTEX
 8
CILINDRO_5
 10
0
 20
0
 30
0
 70
128
 71
1
 72
79
 73
83
 74
83
 0
VERTEX
 8
CILINDRO_5
 10
0
 20
0
 30
0
 70
128
 71
80
 72
81
 73
85
 74
84
 0
VERTEX
 8
CILINDRO_5
 10
0
 20
0
 30
0
 70
128
 71
82
 72
2
 73
86
 74
86
 0
VERTEX
 8
CILINDRO_5
 10
0
 20
0
 30
0
 70
128
 71
1
 72
83
 73
87
 74
87
 0
VERTEX
 8
CILINDRO_5
 10
0
 20
0
 30
0
 70
128
 71
84
 72
85
 73
89
 74
88
 0
VERTEX
 8
CILINDRO_5
 10
0
 20
0
 30
0
 70
128
 71
86
 72
2
 73
90
 74
90
 0
VERTEX
 8
CILINDRO_5
 10
0
 20
0
 30
0
 70
128
 71
1
 72
87
 73
91
 74
91
 0
VERTEX
 8
CILINDRO_5
 10
0
 20
0
 30
0
 70
128
 71
88
 72
89
 73
93
 74
92
 0
VERTEX
 8
CILINDRO_5
 10
0
 20
0
 30
0
 70
128
 71
90
 72
2
 73
94
 74
94
 0
VERTEX
 8
CILINDRO_5
 10
0
 20
0
 30
0
 70
128
 71
1
 72
91
 73
95
 74
95
 0
VERTEX
 8
CILINDRO_5
 10
0
 20
0
 30
0
 70
128
 71
92
 72
93
 73
97
 74
96
 0
VERTEX
 8
CILINDRO_5
 10
0
 20
0
 30
0
 70
128
 71
94
 72
2
 73
98
 74
98
 0
VERTEX
 8
CILINDRO_5
 10
0
 20
0
 30
0
 70
128
 71
1
 72
95
 73
99
 74
99
 0
VERTEX
 8
CILINDRO_5
 10
0
 20
0
 30
0
 70
128
 71
96
 72
97
 73
101
 74
100
 0
VERTEX
 8
CILINDRO_5
 10
0
 20
0
 30
0
 70
128
 71
98
 72
2
 73
102
 74
102
 0
VERTEX
 8
CILINDRO_5
 10
0
 20
0
 30
0
 70
128
 71
1
 72
99
 73
103
 74
103
 0
VERTEX
 8
CILINDRO_5
 10
0
 20
0
 30
0
 70
128
 71
100
 72
101
 73
105
 74
104
 0
VERTEX
 8
CILINDRO_5
 10
0
 20
0
 30
0
 70
128
 71
102
 72
2
 73
106
 74
106
 0
VERTEX
 8
CILINDRO_5
 10
0
 20
0
 30
0
 70
128
 71
1
 72
103
 73
107
 74
107
 0
VERTEX
 8
CILINDRO_5
 10
0
 20
0
 30
0
 70
128
 71
104
 72
105
 73
109
 74
108
 0
VERTEX
 8
CILINDRO_5
 10
0
 20
0
 30
0
 70
128
 71
106
 72
2
 73
110
 74
110
 0
VERTEX
 8
CILINDRO_5
 10
0
 20
0
 30
0
 70
128
 71
1
 72
107
 73
111
 74
111
 0
VERTEX
 8
CILINDRO_5
 10
0
 20
0
 30
0
 70
128
 71
108
 72
109
 73
113
 74
112
 0
VERTEX
 8
CILINDRO_5
 10
0
 20
0
 30
0
 70
128
 71
110
 72
2
 73
114
 74
114
 0
VERTEX
 8
CILINDRO_5
 10
0
 20
0
 30
0
 70
128
 71
1
 72
111
 73
115
 74
115
 0
VERTEX
 8
CILINDRO_5
 10
0
 20
0
 30
0
 70
128
 71
112
 72
113
 73
117
 74
116
 0
VERTEX
 8
CILINDRO_5
 10
0
 20
0
 30
0
 70
128
 71
114
 72
2
 73
118
 74
118
 0
VERTEX
 8
CILINDRO_5
 10
0
 20
0
 30
0
 70
128
 71
1
 72
115
 73
119
 74
119
 0
VERTEX
 8
CILINDRO_5
 10
0
 20
0
 30
0
 70
128
 71
116
 72
117
 73
121
 74
120
 0
VERTEX
 8
CILINDRO_5
 10
0
 20
0
 30
0
 70
128
 71
118
 72
2
 73
122
 74
122
 0
VERTEX
 8
CILINDRO_5
 10
0
 20
0
 30
0
 70
128
 71
1
 72
119
 73
123
 74
123
 0
VERTEX
 8
CILINDRO_5
 10
0
 20
0
 30
0
 70
128
 71
120
 72
121
 73
125
 74
124
 0
VERTEX
 8
CILINDRO_5
 10
0
 20
0
 30
0
 70
128
 71
122
 72
2
 73
126
 74
126
 0
VERTEX
 8
CILINDRO_5
 10
0
 20
0
 30
0
 70
128
 71
1
 72
123
 73
127
 74
127
 0
VERTEX
 8
CILINDRO_5
 10
0
 20
0
 30
0
 70
128
 71
124
 72
125
 73
129
 74
128
 0
VERTEX
 8
CILINDRO_5
 10
0
 20
0
 30
0
 70
128
 71
126
 72
2
 73
130
 74
130
 0
VERTEX
 8
CILINDRO_5
 10
0
 20
0
 30
0
 70
128
 71
1
 72
127
 73
131
 74
131
 0
VERTEX
 8
CILINDRO_5
 10
0
 20
0
 30
0
 70
128
 71
128
 72
129
 73
133
 74
132
 0
VERTEX
 8
CILINDRO_5
 10
0
 20
0
 30
0
 70
128
 71
130
 72
2
 73
134
 74
134
 0
VERTEX
 8
CILINDRO_5
 10
0
 20
0
 30
0
 70
128
 71
1
 72
131
 73
135
 74
135
 0
VERTEX
 8
CILINDRO_5
 10
0
 20
0
 30
0
 70
128
 71
132
 72
133
 73
137
 74
136
 0
VERTEX
 8
CILINDRO_5
 10
0
 20
0
 30
0
 70
128
 71
134
 72
2
 73
138
 74
138
 0
VERTEX
 8
CILINDRO_5
 10
0
 20
0
 30
0
 70
128
 71
1
 72
135
 73
139
 74
139
 0
VERTEX
 8
CILINDRO_5
 10
0
 20
0
 30
0
 70
128
 71
136
 72
137
 73
141
 74
140
 0
VERTEX
 8
CILINDRO_5
 10
0
 20
0
 30
0
 70
128
 71
138
 72
2
 73
142
 74
142
 0
VERTEX
 8
CILINDRO_5
 10
0
 20
0
 30
0
 70
128
 71
1
 72
139
 73
143
 74
143
 0
VERTEX
 8
CILINDRO_5
 10
0
 20
0
 30
0
 70
128
 71
140
 72
141
 73
145
 74
144
 0
VERTEX
 8
CILINDRO_5
 10
0
 20
0
 30
0
 70
128
 71
142
 72
2
 73
146
 74
146
 0
VERTEX
 8
CILINDRO_5
 10
0
 20
0
 30
0
 70
128
 71
1
 72
143
 73
3
 74
3
 0
VERTEX
 8
CILINDRO_5
 10
0
 20
0
 30
0
 70
128
 71
144
 72
145
 73
5
 74
4
 0
VERTEX
 8
CILINDRO_5
 10
0
 20
0
 30
0
 70
128
 71
146
 72
2
 73
6
 74
6
 0
SEQEND
 0
POLYLINE
 8
CILINDRO_4
 66
1
 10
0.0
 20
0.0
 30
0.0
 70
64
 71
290
 72
324
 0
VERTEX
 8
CILINDRO_4
 10
5.4962
 20
-22.9998
 30
0.0067
 70
192
 0
VERTEX
 8
CILINDRO_4
 10
5.4962
 20
-22.9998
 30
1.5059
 70
192
 0
VERTEX
 8
CILINDRO_4
 10
8.5091
 20
-22.9998
 30
1.5059
 70
192
 0
VERTEX
 8
CILINDRO_4
 10
8.4634
 20
-22.4767
 30
1.5059
 70
192
 0
VERTEX
 8
CILINDRO_4
 10
8.3274
 20
-21.9694
 30
1.5059
 70
192
 0
VERTEX
 8
CILINDRO_4
 10
8.1055
 20
-21.4934
 30
1.5059
 70
192
 0
VERTEX
 8
CILINDRO_4
 10
7.8043
 20
-21.0632
 30
1.5059
 70
192
 0
VERTEX
 8
CILINDRO_4
 10
7.4329
 20
-20.6918
 30
1.5059
 70
192
 0
VERTEX
 8
CILINDRO_4
 10
7.0027
 20
-20.3906
 30
1.5059
 70
192
 0
VERTEX
 8
CILINDRO_4
 10
6.5267
 20
-20.1686
 30
1.5059
 70
192
 0
VERTEX
 8
CILINDRO_4
 10
6.0194
 20
-20.0327
 30
1.5059
 70
192
 0
VERTEX
 8
CILINDRO_4
 10
5.4962
 20
-19.9869
 30
1.5059
 70
192
 0
VERTEX
 8
CILINDRO_4
 10
4.9731
 20
-20.0327
 30
1.5059
 70
192
 0
VERTEX
 8
CILINDRO_4
 10
4.4658
 20
-20.1686
 30
1.5059
 70
192
 0
VERTEX
 8
CILINDRO_4
 10
3.9898
 20
-20.3906
 30
1.5059
 70
192
 0
VERTEX
 8
CILINDRO_4
 10
3.5596
 20
-20.6918
 30
1.5059
 70
192
 0
VERTEX
 8
CILINDRO_4
 10
3.1882
 20
-21.0632
 30
1.5059
 70
192
 0
VERTEX
 8
CILINDRO_4
 10
2.887
 20
-21.4934
 30
1.5059
 70
192
 0
VERTEX
 8
CILINDRO_4
 10
2.665
 20
-21.9694
 30
1.5059
 70
192
 0
VERTEX
 8
CILINDRO_4
 10
2.5291
 20
-22.4767
 30
1.5059
 70
192
 0
VERTEX
 8
CILINDRO_4
 10
2.4833
 20
-22.9998
 30
1.5059
 70
192
 0
VERTEX
 8
CILINDRO_4
 10
2.5291
 20
-23.523
 30
1.5059
 70
192
 0
VERTEX
 8
CILINDRO_4
 10
2.665
 20
-24.0303
 30
1.5059
 70
192
 0
VERTEX
 8
CILINDRO_4
 10
2.887
 20
-24.5063
 30
1.5059
 70
192
 0
VERTEX
 8
CILINDRO_4
 10
3.1882
 20
-24.9365
 30
1.5059
 70
192
 0
VERTEX
 8
CILINDRO_4
 10
3.5596
 20
-25.3079
 30
1.5059
 70
192
 0
VERTEX
 8
CILINDRO_4
 10
3.9898
 20
-25.6091
 30
1.5059
 70
192
 0
VERTEX
 8
CILINDRO_4
 10
4.4658
 20
-25.831
 30
1.5059
 70
192
 0
VERTEX
 8
CILINDRO_4
 10
4.9731
 20
-25.967
 30
1.5059
 70
192
 0
VERTEX
 8
CILINDRO_4
 10
5.4962
 20
-26.0127
 30
1.5059
 70
192
 0
VERTEX
 8
CILINDRO_4
 10
6.0194
 20
-25.967
 30
1.5059
 70
192
 0
VERTEX
 8
CILINDRO_4
 10
6.5267
 20
-25.831
 30
1.5059
 70
192
 0
VERTEX
 8
CILINDRO_4
 10
7.0027
 20
-25.6091
 30
1.5059
 70
192
 0
VERTEX
 8
CILINDRO_4
 10
7.4329
 20
-25.3079
 30
1.5059
 70
192
 0
VERTEX
 8
CILINDRO_4
 10
7.8043
 20
-24.9365
 30
1.5059
 70
192
 0
VERTEX
 8
CILINDRO_4
 10
8.1055
 20
-24.5063
 30
1.5059
 70
192
 0
VERTEX
 8
CILINDRO_4
 10
8.3274
 20
-24.0303
 30
1.5059
 70
192
 0
VERTEX
 8
CILINDRO_4
 10
8.4634
 20
-23.523
 30
1.5059
 70
192
 0
VERTEX
 8
CILINDRO_4
 10
7.9691
 20
-22.5638
 30
0.0067
 70
192
 0
VERTEX
 8
CILINDRO_4
 10
8.5091
 20
-22.9998
 30
0.5067
 70
192
 0
VERTEX
 8
CILINDRO_4
 10
7.8558
 20
-22.141
 30
0.0067
 70
192
 0
VERTEX
 8
CILINDRO_4
 10
8.4634
 20
-22.4767
 30
0.5067
 70
192
 0
VERTEX
 8
CILINDRO_4
 10
7.6708
 20
-21.7443
 30
0.0067
 70
192
 0
VERTEX
 8
CILINDRO_4
 10
8.3274
 20
-21.9694
 30
0.5067
 70
192
 0
VERTEX
 8
CILINDRO_4
 10
7.4198
 20
-21.3858
 30
0.0067
 70
192
 0
VERTEX
 8
CILINDRO_4
 10
8.1055
 20
-21.4934
 30
0.5067
 70
192
 0
VERTEX
 8
CILINDRO_4
 10
7.1103
 20
-21.0763
 30
0.0067
 70
192
 0
VERTEX
 8
CILINDRO_4
 10
7.8043
 20
-21.0632
 30
0.5067
 70
192
 0
VERTEX
 8
CILINDRO_4
 10
6.7517
 20
-20.8253
 30
0.0067
 70
192
 0
VERTEX
 8
CILINDRO_4
 10
7.4329
 20
-20.6918
 30
0.5067
 70
192
 0
VERTEX
 8
CILINDRO_4
 10
7.0027
 20
-20.3906
 30
0.5067
 70
192
 0
VERTEX
 8
CILINDRO_4
 10
6.355
 20
-20.6403
 30
0.0067
 70
192
 0
VERTEX
 8
CILINDRO_4
 10
5.9323
 20
-20.527
 30
0.0067
 70
192
 0
VERTEX
 8
CILINDRO_4
 10
6.5267
 20
-20.1686
 30
0.5067
 70
192
 0
VERTEX
 8
CILINDRO_4
 10
6.0194
 20
-20.0327
 30
0.5067
 70
192
 0
VERTEX
 8
CILINDRO_4
 10
5.4962
 20
-20.4888
 30
0.0067
 70
192
 0
VERTEX
 8
CILINDRO_4
 10
5.0602
 20
-20.527
 30
0.0067
 70
192
 0
VERTEX
 8
CILINDRO_4
 10
5.4962
 20
-19.9869
 30
0.5067
 70
192
 0
VERTEX
 8
CILINDRO_4
 10
4.9731
 20
-20.0327
 30
0.5067
 70
192
 0
VERTEX
 8
CILINDRO_4
 10
4.6374
 20
-20.6403
 30
0.0067
 70
192
 0
VERTEX
 8
CILINDRO_4
 10
4.4658
 20
-20.1686
 30
0.5067
 70
192
 0
VERTEX
 8
CILINDRO_4
 10
4.2407
 20
-20.8253
 30
0.0067
 70
192
 0
VERTEX
 8
CILINDRO_4
 10
3.5727
 20
-21.3858
 30
0.0067
 70
192
 0
VERTEX
 8
CILINDRO_4
 10
3.8822
 20
-21.0763
 30
0.0067
 70
192
 0
VERTEX
 8
CILINDRO_4
 10
3.9898
 20
-20.3906
 30
0.5067
 70
192
 0
VERTEX
 8
CILINDRO_4
 10
3.3217
 20
-21.7443
 30
0.0067
 70
192
 0
VERTEX
 8
CILINDRO_4
 10
3.1882
 20
-21.0632
 30
0.5067
 70
192
 0
VERTEX
 8
CILINDRO_4
 10
3.5596
 20
-20.6918
 30
0.5067
 70
192
 0
VERTEX
 8
CILINDRO_4
 10
2.887
 20
-21.4934
 30
0.5067
 70
192
 0
VERTEX
 8
CILINDRO_4
 10
8.4634
 20
-23.523
 30
0.5067
 70
192
 0
VERTEX
 8
CILINDRO_4
 10
3.1367
 20
-22.141
 30
0.0067
 70
192
 0
VERTEX
 8
CILINDRO_4
 10
8.0072
 20
-22.9998
 30
0.0067
 70
192
 0
VERTEX
 8
CILINDRO_4
 10
2.9852
 20
-22.9998
 30
0.0067
 70
192
 0
VERTEX
 8
CILINDRO_4
 10
2.665
 20
-21.9694
 30
0.5067
 70
192
 0
VERTEX
 8
CILINDRO_4
 10
3.0234
 20
-22.5638
 30
0.0067
 70
192
 0
VERTEX
 8
CILINDRO_4
 10
2.4833
 20
-22.9998
 30
0.5067
 70
192
 0
VERTEX
 8
CILINDRO_4
 10
3.0234
 20
-23.4359
 30
0.0067
 70
192
 0
VERTEX
 8
CILINDRO_4
 10
2.5291
 20
-22.4767
 30
0.5067
 70
192
 0
VERTEX
 8
CILINDRO_4
 10
2.5291
 20
-23.523
 30
0.5067
 70
192
 0
VERTEX
 8
CILINDRO_4
 10
3.1367
 20
-23.8586
 30
0.0067
 70
192
 0
VERTEX
 8
CILINDRO_4
 10
2.665
 20
-24.0303
 30
0.5067
 70
192
 0
VERTEX
 8
CILINDRO_4
 10
3.3217
 20
-24.2553
 30
0.0067
 70
192
 0
VERTEX
 8
CILINDRO_4
 10
2.887
 20
-24.5063
 30
0.5067
 70
192
 0
VERTEX
 8
CILINDRO_4
 10
3.5727
 20
-24.6139
 30
0.0067
 70
192
 0
VERTEX
 8
CILINDRO_4
 10
3.1882
 20
-24.9365
 30
0.5067
 70
192
 0
VERTEX
 8
CILINDRO_4
 10
3.8822
 20
-24.9234
 30
0.0067
 70
192
 0
VERTEX
 8
CILINDRO_4
 10
3.5596
 20
-25.3079
 30
0.5067
 70
192
 0
VERTEX
 8
CILINDRO_4
 10
4.2407
 20
-25.1744
 30
0.0067
 70
192
 0
VERTEX
 8
CILINDRO_4
 10
3.9898
 20
-25.6091
 30
0.5067
 70
192
 0
VERTEX
 8
CILINDRO_4
 10
4.6374
 20
-25.3594
 30
0.0067
 70
192
 0
VERTEX
 8
CILINDRO_4
 10
4.4658
 20
-25.831
 30
0.5067
 70
192
 0
VERTEX
 8
CILINDRO_4
 10
5.0602
 20
-25.4727
 30
0.0067
 70
192
 0
VERTEX
 8
CILINDRO_4
 10
4.9731
 20
-25.967
 30
0.5067
 70
192
 0
VERTEX
 8
CILINDRO_4
 10
5.4962
 20
-25.5108
 30
0.0067
 70
192
 0
VERTEX
 8
CILINDRO_4
 10
5.4962
 20
-26.0127
 30
0.5067
 70
192
 0
VERTEX
 8
CILINDRO_4
 10
5.9323
 20
-25.4727
 30
0.0067
 70
192
 0
VERTEX
 8
CILINDRO_4
 10
6.0194
 20
-25.967
 30
0.5067
 70
192
 0
VERTEX
 8
CILINDRO_4
 10
6.355
 20
-25.3594
 30
0.0067
 70
192
 0
VERTEX
 8
CILINDRO_4
 10
6.5267
 20
-25.831
 30
0.5067
 70
192
 0
VERTEX
 8
CILINDRO_4
 10
6.7517
 20
-25.1744
 30
0.0067
 70
192
 0
VERTEX
 8
CILINDRO_4
 10
7.0027
 20
-25.6091
 30
0.5067
 70
192
 0
VERTEX
 8
CILINDRO_4
 10
7.1103
 20
-24.9234
 30
0.0067
 70
192
 0
VERTEX
 8
CILINDRO_4
 10
7.4329
 20
-25.3079
 30
0.5067
 70
192
 0
VERTEX
 8
CILINDRO_4
 10
7.4198
 20
-24.6139
 30
0.0067
 70
192
 0
VERTEX
 8
CILINDRO_4
 10
7.8043
 20
-24.9365
 30
0.5067
 70
192
 0
VERTEX
 8
CILINDRO_4
 10
7.6708
 20
-24.2553
 30
0.0067
 70
192
 0
VERTEX
 8
CILINDRO_4
 10
8.1055
 20
-24.5063
 30
0.5067
 70
192
 0
VERTEX
 8
CILINDRO_4
 10
7.8558
 20
-23.8586
 30
0.0067
 70
192
 0
VERTEX
 8
CILINDRO_4
 10
8.3274
 20
-24.0303
 30
0.5067
 70
192
 0
VERTEX
 8
CILINDRO_4
 10
7.9691
 20
-23.4359
 30
0.0067
 70
192
 0
VERTEX
 8
CILINDRO_4
 10
8.3132
 20
-24.0251
 30
0.3847
 70
192
 0
VERTEX
 8
CILINDRO_4
 10
8.2672
 20
-24.0084
 30
0.2622
 70
192
 0
VERTEX
 8
CILINDRO_4
 10
8.1893
 20
-23.98
 30
0.1531
 70
192
 0
VERTEX
 8
CILINDRO_4
 10
8.0864
 20
-23.9426
 30
0.0705
 70
192
 0
VERTEX
 8
CILINDRO_4
 10
7.9709
 20
-23.9005
 30
0.0218
 70
192
 0
VERTEX
 8
CILINDRO_4
 10
8.1297
 20
-22.9998
 30
0.0218
 70
192
 0
VERTEX
 8
CILINDRO_4
 10
8.2527
 20
-22.9998
 30
0.0705
 70
192
 0
VERTEX
 8
CILINDRO_4
 10
8.3621
 20
-22.9998
 30
0.1531
 70
192
 0
VERTEX
 8
CILINDRO_4
 10
8.445
 20
-22.9998
 30
0.2622
 70
192
 0
VERTEX
 8
CILINDRO_4
 10
8.494
 20
-22.9998
 30
0.3847
 70
192
 0
VERTEX
 8
CILINDRO_4
 10
7.4231
 20
-25.2962
 30
0.3847
 70
192
 0
VERTEX
 8
CILINDRO_4
 10
7.3917
 20
-25.2587
 30
0.2622
 70
192
 0
VERTEX
 8
CILINDRO_4
 10
7.3384
 20
-25.1952
 30
0.1531
 70
192
 0
VERTEX
 8
CILINDRO_4
 10
7.268
 20
-25.1114
 30
0.0705
 70
192
 0
VERTEX
 8
CILINDRO_4
 10
7.189
 20
-25.0172
 30
0.0218
 70
192
 0
VERTEX
 8
CILINDRO_4
 10
8.0897
 20
-22.5425
 30
0.0218
 70
192
 0
VERTEX
 8
CILINDRO_4
 10
8.2108
 20
-22.5212
 30
0.0705
 70
192
 0
VERTEX
 8
CILINDRO_4
 10
8.3186
 20
-22.5022
 30
0.1531
 70
192
 0
VERTEX
 8
CILINDRO_4
 10
8.4002
 20
-22.4878
 30
0.2622
 70
192
 0
VERTEX
 8
CILINDRO_4
 10
8.4484
 20
-22.4793
 30
0.3847
 70
192
 0
VERTEX
 8
CILINDRO_4
 10
7.7926
 20
-24.9267
 30
0.3847
 70
192
 0
VERTEX
 8
CILINDRO_4
 10
7.7551
 20
-24.8953
 30
0.2622
 70
192
 0
VERTEX
 8
CILINDRO_4
 10
7.6916
 20
-24.842
 30
0.1531
 70
192
 0
VERTEX
 8
CILINDRO_4
 10
7.6078
 20
-24.7716
 30
0.0705
 70
192
 0
VERTEX
 8
CILINDRO_4
 10
7.5136
 20
-24.6926
 30
0.0218
 70
192
 0
VERTEX
 8
CILINDRO_4
 10
7.9709
 20
-22.0991
 30
0.0218
 70
192
 0
VERTEX
 8
CILINDRO_4
 10
8.0864
 20
-22.0571
 30
0.0705
 70
192
 0
VERTEX
 8
CILINDRO_4
 10
8.1893
 20
-22.0196
 30
0.1531
 70
192
 0
VERTEX
 8
CILINDRO_4
 10
8.2672
 20
-21.9913
 30
0.2622
 70
192
 0
VERTEX
 8
CILINDRO_4
 10
8.3132
 20
-21.9746
 30
0.3847
 70
192
 0
VERTEX
 8
CILINDRO_4
 10
7.7769
 20
-21.6831
 30
0.0218
 70
192
 0
VERTEX
 8
CILINDRO_4
 10
7.8834
 20
-21.6216
 30
0.0705
 70
192
 0
VERTEX
 8
CILINDRO_4
 10
7.9782
 20
-21.5669
 30
0.1531
 70
192
 0
VERTEX
 8
CILINDRO_4
 10
8.05
 20
-21.5254
 30
0.2622
 70
192
 0
VERTEX
 8
CILINDRO_4
 10
8.0923
 20
-21.501
 30
0.3847
 70
192
 0
VERTEX
 8
CILINDRO_4
 10
7.5136
 20
-21.3071
 30
0.0218
 70
192
 0
VERTEX
 8
CILINDRO_4
 10
7.6078
 20
-21.228
 30
0.0705
 70
192
 0
VERTEX
 8
CILINDRO_4
 10
7.6916
 20
-21.1577
 30
0.1531
 70
192
 0
VERTEX
 8
CILINDRO_4
 10
7.7551
 20
-21.1044
 30
0.2622
 70
192
 0
VERTEX
 8
CILINDRO_4
 10
7.7926
 20
-21.0729
 30
0.3847
 70
192
 0
VERTEX
 8
CILINDRO_4
 10
8.4484
 20
-23.5204
 30
0.3847
 70
192
 0
VERTEX
 8
CILINDRO_4
 10
8.4002
 20
-23.5119
 30
0.2622
 70
192
 0
VERTEX
 8
CILINDRO_4
 10
8.3186
 20
-23.4975
 30
0.1531
 70
192
 0
VERTEX
 8
CILINDRO_4
 10
8.2108
 20
-23.4785
 30
0.0705
 70
192
 0
VERTEX
 8
CILINDRO_4
 10
8.0897
 20
-23.4571
 30
0.0218
 70
192
 0
VERTEX
 8
CILINDRO_4
 10
7.189
 20
-20.9825
 30
0.0218
 70
192
 0
VERTEX
 8
CILINDRO_4
 10
7.268
 20
-20.8883
 30
0.0705
 70
192
 0
VERTEX
 8
CILINDRO_4
 10
7.3384
 20
-20.8044
 30
0.1531
 70
192
 0
VERTEX
 8
CILINDRO_4
 10
7.3917
 20
-20.7409
 30
0.2622
 70
192
 0
VERTEX
 8
CILINDRO_4
 10
7.4231
 20
-20.7034
 30
0.3847
 70
192
 0
VERTEX
 8
CILINDRO_4
 10
6.813
 20
-20.7192
 30
0.0218
 70
192
 0
VERTEX
 8
CILINDRO_4
 10
6.8745
 20
-20.6127
 30
0.0705
 70
192
 0
VERTEX
 8
CILINDRO_4
 10
6.9292
 20
-20.5179
 30
0.1531
 70
192
 0
VERTEX
 8
CILINDRO_4
 10
6.9706
 20
-20.4461
 30
0.2622
 70
192
 0
VERTEX
 8
CILINDRO_4
 10
6.9951
 20
-20.4037
 30
0.3847
 70
192
 0
VERTEX
 8
CILINDRO_4
 10
6.5215
 20
-20.1829
 30
0.3847
 70
192
 0
VERTEX
 8
CILINDRO_4
 10
6.5048
 20
-20.2289
 30
0.2622
 70
192
 0
VERTEX
 8
CILINDRO_4
 10
6.4764
 20
-20.3068
 30
0.1531
 70
192
 0
VERTEX
 8
CILINDRO_4
 10
6.439
 20
-20.4096
 30
0.0705
 70
192
 0
VERTEX
 8
CILINDRO_4
 10
6.3969
 20
-20.5252
 30
0.0218
 70
192
 0
VERTEX
 8
CILINDRO_4
 10
5.9535
 20
-20.4064
 30
0.0218
 70
192
 0
VERTEX
 8
CILINDRO_4
 10
5.9749
 20
-20.2853
 30
0.0705
 70
192
 0
VERTEX
 8
CILINDRO_4
 10
5.9939
 20
-20.1775
 30
0.1531
 70
192
 0
VERTEX
 8
CILINDRO_4
 10
6.0083
 20
-20.0958
 30
0.2622
 70
192
 0
VERTEX
 8
CILINDRO_4
 10
6.0168
 20
-20.0477
 30
0.3847
 70
192
 0
VERTEX
 8
CILINDRO_4
 10
5.4962
 20
-20.0021
 30
0.3847
 70
192
 0
VERTEX
 8
CILINDRO_4
 10
5.4962
 20
-20.051
 30
0.2622
 70
192
 0
VERTEX
 8
CILINDRO_4
 10
5.4962
 20
-20.1339
 30
0.1531
 70
192
 0
VERTEX
 8
CILINDRO_4
 10
5.4962
 20
-20.2434
 30
0.0705
 70
192
 0
VERTEX
 8
CILINDRO_4
 10
5.4962
 20
-20.3664
 30
0.0218
 70
192
 0
VERTEX
 8
CILINDRO_4
 10
5.0389
 20
-20.4064
 30
0.0218
 70
192
 0
VERTEX
 8
CILINDRO_4
 10
5.0176
 20
-20.2853
 30
0.0705
 70
192
 0
VERTEX
 8
CILINDRO_4
 10
4.9986
 20
-20.1775
 30
0.1531
 70
192
 0
VERTEX
 8
CILINDRO_4
 10
4.9842
 20
-20.0958
 30
0.2622
 70
192
 0
VERTEX
 8
CILINDRO_4
 10
4.9757
 20
-20.0477
 30
0.3847
 70
192
 0
VERTEX
 8
CILINDRO_4
 10
4.471
 20
-20.1829
 30
0.3847
 70
192
 0
VERTEX
 8
CILINDRO_4
 10
4.4877
 20
-20.2289
 30
0.2622
 70
192
 0
VERTEX
 8
CILINDRO_4
 10
4.516
 20
-20.3068
 30
0.1531
 70
192
 0
VERTEX
 8
CILINDRO_4
 10
4.5535
 20
-20.4096
 30
0.0705
 70
192
 0
VERTEX
 8
CILINDRO_4
 10
4.5955
 20
-20.5252
 30
0.0218
 70
192
 0
VERTEX
 8
CILINDRO_4
 10
3.9974
 20
-20.4037
 30
0.3847
 70
192
 0
VERTEX
 8
CILINDRO_4
 10
4.0218
 20
-20.4461
 30
0.2622
 70
192
 0
VERTEX
 8
CILINDRO_4
 10
4.0633
 20
-20.5179
 30
0.1531
 70
192
 0
VERTEX
 8
CILINDRO_4
 10
4.118
 20
-20.6127
 30
0.0705
 70
192
 0
VERTEX
 8
CILINDRO_4
 10
4.1795
 20
-20.7192
 30
0.0218
 70
192
 0
VERTEX
 8
CILINDRO_4
 10
3.8035
 20
-20.9825
 30
0.0218
 70
192
 0
VERTEX
 8
CILINDRO_4
 10
3.7244
 20
-20.8883
 30
0.0705
 70
192
 0
VERTEX
 8
CILINDRO_4
 10
3.6541
 20
-20.8044
 30
0.1531
 70
192
 0
VERTEX
 8
CILINDRO_4
 10
3.6008
 20
-20.7409
 30
0.2622
 70
192
 0
VERTEX
 8
CILINDRO_4
 10
3.5693
 20
-20.7034
 30
0.3847
 70
192
 0
VERTEX
 8
CILINDRO_4
 10
3.4789
 20
-21.3071
 30
0.0218
 70
192
 0
VERTEX
 8
CILINDRO_4
 10
3.3847
 20
-21.228
 30
0.0705
 70
192
 0
VERTEX
 8
CILINDRO_4
 10
3.3008
 20
-21.1577
 30
0.1531
 70
192
 0
VERTEX
 8
CILINDRO_4
 10
3.2373
 20
-21.1044
 30
0.2622
 70
192
 0
VERTEX
 8
CILINDRO_4
 10
3.1998
 20
-21.0729
 30
0.3847
 70
192
 0
VERTEX
 8
CILINDRO_4
 10
3.2156
 20
-21.6831
 30
0.0218
 70
192
 0
VERTEX
 8
CILINDRO_4
 10
3.1091
 20
-21.6216
 30
0.0705
 70
192
 0
VERTEX
 8
CILINDRO_4
 10
3.0143
 20
-21.5669
 30
0.1531
 70
192
 0
VERTEX
 8
CILINDRO_4
 10
2.9425
 20
-21.5254
 30
0.2622
 70
192
 0
VERTEX
 8
CILINDRO_4
 10
2.9001
 20
-21.501
 30
0.3847
 70
192
 0
VERTEX
 8
CILINDRO_4
 10
2.6793
 20
-21.9746
 30
0.3847
 70
192
 0
VERTEX
 8
CILINDRO_4
 10
2.7253
 20
-21.9913
 30
0.2622
 70
192
 0
VERTEX
 8
CILINDRO_4
 10
2.8032
 20
-22.0196
 30
0.1531
 70
192
 0
VERTEX
 8
CILINDRO_4
 10
2.906
 20
-22.0571
 30
0.0705
 70
192
 0
VERTEX
 8
CILINDRO_4
 10
3.0216
 20
-22.0991
 30
0.0218
 70
192
 0
VERTEX
 8
CILINDRO_4
 10
2.9028
 20
-22.5425
 30
0.0218
 70
192
 0
VERTEX
 8
CILINDRO_4
 10
2.7817
 20
-22.5212
 30
0.0705
 70
192
 0
VERTEX
 8
CILINDRO_4
 10
2.6739
 20
-22.5022
 30
0.1531
 70
192
 0
VERTEX
 8
CILINDRO_4
 10
2.5922
 20
-22.4878
 30
0.2622
 70
192
 0
VERTEX
 8
CILINDRO_4
 10
2.5441
 20
-22.4793
 30
0.3847
 70
192
 0
VERTEX
 8
CILINDRO_4
 10
2.8628
 20
-22.9998
 30
0.0218
 70
192
 0
VERTEX
 8
CILINDRO_4
 10
2.7398
 20
-22.9998
 30
0.0705
 70
192
 0
VERTEX
 8
CILINDRO_4
 10
2.6303
 20
-22.9998
 30
0.1531
 70
192
 0
VERTEX
 8
CILINDRO_4
 10
2.5475
 20
-22.9998
 30
0.2622
 70
192
 0
VERTEX
 8
CILINDRO_4
 10
2.4985
 20
-22.9998
 30
0.3847
 70
192
 0
VERTEX
 8
CILINDRO_4
 10
2.5441
 20
-23.5204
 30
0.3847
 70
192
 0
VERTEX
 8
CILINDRO_4
 10
2.5922
 20
-23.5119
 30
0.2622
 70
192
 0
VERTEX
 8
CILINDRO_4
 10
2.6739
 20
-23.4975
 30
0.1531
 70
192
 0
VERTEX
 8
CILINDRO_4
 10
2.7817
 20
-23.4785
 30
0.0705
 70
192
 0
VERTEX
 8
CILINDRO_4
 10
2.9028
 20
-23.4571
 30
0.0218
 70
192
 0
VERTEX
 8
CILINDRO_4
 10
2.6793
 20
-24.0251
 30
0.3847
 70
192
 0
VERTEX
 8
CILINDRO_4
 10
2.7253
 20
-24.0084
 30
0.2622
 70
192
 0
VERTEX
 8
CILINDRO_4
 10
2.8032
 20
-23.98
 30
0.1531
 70
192
 0
VERTEX
 8
CILINDRO_4
 10
2.906
 20
-23.9426
 30
0.0705
 70
192
 0
VERTEX
 8
CILINDRO_4
 10
3.0216
 20
-23.9005
 30
0.0218
 70
192
 0
VERTEX
 8
CILINDRO_4
 10
2.9001
 20
-24.4987
 30
0.3847
 70
192
 0
VERTEX
 8
CILINDRO_4
 10
2.9425
 20
-24.4742
 30
0.2622
 70
192
 0
VERTEX
 8
CILINDRO_4
 10
3.0143
 20
-24.4328
 30
0.1531
 70
192
 0
VERTEX
 8
CILINDRO_4
 10
3.1091
 20
-24.3781
 30
0.0705
 70
192
 0
VERTEX
 8
CILINDRO_4
 10
3.2156
 20
-24.3166
 30
0.0218
 70
192
 0
VERTEX
 8
CILINDRO_4
 10
3.1998
 20
-24.9267
 30
0.3847
 70
192
 0
VERTEX
 8
CILINDRO_4
 10
3.2373
 20
-24.8953
 30
0.2622
 70
192
 0
VERTEX
 8
CILINDRO_4
 10
3.3008
 20
-24.842
 30
0.1531
 70
192
 0
VERTEX
 8
CILINDRO_4
 10
3.3847
 20
-24.7716
 30
0.0705
 70
192
 0
VERTEX
 8
CILINDRO_4
 10
3.4789
 20
-24.6926
 30
0.0218
 70
192
 0
VERTEX
 8
CILINDRO_4
 10
3.5693
 20
-25.2962
 30
0.3847
 70
192
 0
VERTEX
 8
CILINDRO_4
 10
3.6008
 20
-25.2587
 30
0.2622
 70
192
 0
VERTEX
 8
CILINDRO_4
 10
3.6541
 20
-25.1952
 30
0.1531
 70
192
 0
VERTEX
 8
CILINDRO_4
 10
3.7244
 20
-25.1114
 30
0.0705
 70
192
 0
VERTEX
 8
CILINDRO_4
 10
3.8035
 20
-25.0172
 30
0.0218
 70
192
 0
VERTEX
 8
CILINDRO_4
 10
3.9974
 20
-25.5959
 30
0.3847
 70
192
 0
VERTEX
 8
CILINDRO_4
 10
4.0218
 20
-25.5536
 30
0.2622
 70
192
 0
VERTEX
 8
CILINDRO_4
 10
4.0633
 20
-25.4818
 30
0.1531
 70
192
 0
VERTEX
 8
CILINDRO_4
 10
4.118
 20
-25.387
 30
0.0705
 70
192
 0
VERTEX
 8
CILINDRO_4
 10
4.1795
 20
-25.2805
 30
0.0218
 70
192
 0
VERTEX
 8
CILINDRO_4
 10
4.471
 20
-25.8168
 30
0.3847
 70
192
 0
VERTEX
 8
CILINDRO_4
 10
4.4877
 20
-25.7708
 30
0.2622
 70
192
 0
VERTEX
 8
CILINDRO_4
 10
4.516
 20
-25.6929
 30
0.1531
 70
192
 0
VERTEX
 8
CILINDRO_4
 10
4.5535
 20
-25.59
 30
0.0705
 70
192
 0
VERTEX
 8
CILINDRO_4
 10
4.5955
 20
-25.4745
 30
0.0218
 70
192
 0
VERTEX
 8
CILINDRO_4
 10
4.9757
 20
-25.952
 30
0.3847
 70
192
 0
VERTEX
 8
CILINDRO_4
 10
4.9842
 20
-25.9038
 30
0.2622
 70
192
 0
VERTEX
 8
CILINDRO_4
 10
4.9986
 20
-25.8222
 30
0.1531
 70
192
 0
VERTEX
 8
CILINDRO_4
 10
5.0176
 20
-25.7144
 30
0.0705
 70
192
 0
VERTEX
 8
CILINDRO_4
 10
5.0389
 20
-25.5933
 30
0.0218
 70
192
 0
VERTEX
 8
CILINDRO_4
 10
5.4962
 20
-25.9976
 30
0.3847
 70
192
 0
VERTEX
 8
CILINDRO_4
 10
5.4962
 20
-25.9486
 30
0.2622
 70
192
 0
VERTEX
 8
CILINDRO_4
 10
5.4962
 20
-25.8657
 30
0.1531
 70
192
 0
VERTEX
 8
CILINDRO_4
 10
5.4962
 20
-25.7563
 30
0.0705
 70
192
 0
VERTEX
 8
CILINDRO_4
 10
5.4962
 20
-25.6333
 30
0.0218
 70
192
 0
VERTEX
 8
CILINDRO_4
 10
6.0168
 20
-25.952
 30
0.3847
 70
192
 0
VERTEX
 8
CILINDRO_4
 10
6.0083
 20
-25.9038
 30
0.2622
 70
192
 0
VERTEX
 8
CILINDRO_4
 10
5.9939
 20
-25.8222
 30
0.1531
 70
192
 0
VERTEX
 8
CILINDRO_4
 10
5.9749
 20
-25.7144
 30
0.0705
 70
192
 0
VERTEX
 8
CILINDRO_4
 10
5.9535
 20
-25.5933
 30
0.0218
 70
192
 0
VERTEX
 8
CILINDRO_4
 10
6.5215
 20
-25.8168
 30
0.3847
 70
192
 0
VERTEX
 8
CILINDRO_4
 10
6.5048
 20
-25.7708
 30
0.2622
 70
192
 0
VERTEX
 8
CILINDRO_4
 10
6.4764
 20
-25.6929
 30
0.1531
 70
192
 0
VERTEX
 8
CILINDRO_4
 10
6.439
 20
-25.59
 30
0.0705
 70
192
 0
VERTEX
 8
CILINDRO_4
 10
6.3969
 20
-25.4745
 30
0.0218
 70
192
 0
VERTEX
 8
CILINDRO_4
 10
6.9951
 20
-25.5959
 30
0.3847
 70
192
 0
VERTEX
 8
CILINDRO_4
 10
6.9706
 20
-25.5536
 30
0.2622
 70
192
 0
VERTEX
 8
CILINDRO_4
 10
6.9292
 20
-25.4818
 30
0.1531
 70
192
 0
VERTEX
 8
CILINDRO_4
 10
6.8745
 20
-25.387
 30
0.0705
 70
192
 0
VERTEX
 8
CILINDRO_4
 10
6.813
 20
-25.2805
 30
0.0218
 70
192
 0
VERTEX
 8
CILINDRO_4
 10
8.0923
 20
-24.4987
 30
0.3847
 70
192
 0
VERTEX
 8
CILINDRO_4
 10
8.05
 20
-24.4742
 30
0.2622
 70
192
 0
VERTEX
 8
CILINDRO_4
 10
7.9782
 20
-24.4328
 30
0.1531
 70
192
 0
VERTEX
 8
CILINDRO_4
 10
7.8834
 20
-24.3781
 30
0.0705
 70
192
 0
VERTEX
 8
CILINDRO_4
 10
7.7769
 20
-24.3166
 30
0.0218
 70
192
 0
VERTEX
 8
CILINDRO_4
 10
0
 20
0
 30
0
 70
128
 71
1
 72
72
 73
39
 74
39
 0
VERTEX
 8
CILINDRO_4
 10
0
 20
0
 30
0
 70
128
 71
40
 72
3
 73
4
 74
42
 0
VERTEX
 8
CILINDRO_4
 10
0
 20
0
 30
0
 70
128
 71
3
 72
2
 73
4
 74
4
 0
VERTEX
 8
CILINDRO_4
 10
0
 20
0
 30
0
 70
128
 71
1
 72
39
 73
41
 74
41
 0
VERTEX
 8
CILINDRO_4
 10
0
 20
0
 30
0
 70
128
 71
42
 72
4
 73
5
 74
44
 0
VERTEX
 8
CILINDRO_4
 10
0
 20
0
 30
0
 70
128
 71
4
 72
2
 73
5
 74
5
 0
VERTEX
 8
CILINDRO_4
 10
0
 20
0
 30
0
 70
128
 71
1
 72
41
 73
43
 74
43
 0
VERTEX
 8
CILINDRO_4
 10
0
 20
0
 30
0
 70
128
 71
44
 72
5
 73
6
 74
46
 0
VERTEX
 8
CILINDRO_4
 10
0
 20
0
 30
0
 70
128
 71
5
 72
2
 73
6
 74
6
 0
VERTEX
 8
CILINDRO_4
 10
0
 20
0
 30
0
 70
128
 71
1
 72
43
 73
45
 74
45
 0
VERTEX
 8
CILINDRO_4
 10
0
 20
0
 30
0
 70
128
 71
46
 72
6
 73
7
 74
48
 0
VERTEX
 8
CILINDRO_4
 10
0
 20
0
 30
0
 70
128
 71
6
 72
2
 73
7
 74
7
 0
VERTEX
 8
CILINDRO_4
 10
0
 20
0
 30
0
 70
128
 71
1
 72
45
 73
47
 74
47
 0
VERTEX
 8
CILINDRO_4
 10
0
 20
0
 30
0
 70
128
 71
48
 72
7
 73
8
 74
50
 0
VERTEX
 8
CILINDRO_4
 10
0
 20
0
 30
0
 70
128
 71
7
 72
2
 73
8
 74
8
 0
VERTEX
 8
CILINDRO_4
 10
0
 20
0
 30
0
 70
128
 71
1
 72
47
 73
49
 74
49
 0
VERTEX
 8
CILINDRO_4
 10
0
 20
0
 30
0
 70
128
 71
50
 72
8
 73
9
 74
51
 0
VERTEX
 8
CILINDRO_4
 10
0
 20
0
 30
0
 70
128
 71
8
 72
2
 73
9
 74
9
 0
VERTEX
 8
CILINDRO_4
 10
0
 20
0
 30
0
 70
128
 71
1
 72
49
 73
52
 74
52
 0
VERTEX
 8
CILINDRO_4
 10
0
 20
0
 30
0
 70
128
 71
51
 72
9
 73
10
 74
54
 0
VERTEX
 8
CILINDRO_4
 10
0
 20
0
 30
0
 70
128
 71
9
 72
2
 73
10
 74
10
 0
VERTEX
 8
CILINDRO_4
 10
0
 20
0
 30
0
 70
128
 71
1
 72
52
 73
53
 74
53
 0
VERTEX
 8
CILINDRO_4
 10
0
 20
0
 30
0
 70
128
 71
54
 72
10
 73
11
 74
55
 0
VERTEX
 8
CILINDRO_4
 10
0
 20
0
 30
0
 70
128
 71
10
 72
2
 73
11
 74
11
 0
VERTEX
 8
CILINDRO_4
 10
0
 20
0
 30
0
 70
128
 71
1
 72
53
 73
56
 74
56
 0
VERTEX
 8
CILINDRO_4
 10
0
 20
0
 30
0
 70
128
 71
55
 72
11
 73
12
 74
58
 0
VERTEX
 8
CILINDRO_4
 10
0
 20
0
 30
0
 70
128
 71
11
 72
2
 73
12
 74
12
 0
VERTEX
 8
CILINDRO_4
 10
0
 20
0
 30
0
 70
128
 71
1
 72
56
 73
57
 74
57
 0
VERTEX
 8
CILINDRO_4
 10
0
 20
0
 30
0
 70
128
 71
58
 72
12
 73
13
 74
59
 0
VERTEX
 8
CILINDRO_4
 10
0
 20
0
 30
0
 70
128
 71
12
 72
2
 73
13
 74
13
 0
VERTEX
 8
CILINDRO_4
 10
0
 20
0
 30
0
 70
128
 71
1
 72
57
 73
60
 74
60
 0
VERTEX
 8
CILINDRO_4
 10
0
 20
0
 30
0
 70
128
 71
59
 72
13
 73
14
 74
61
 0
VERTEX
 8
CILINDRO_4
 10
0
 20
0
 30
0
 70
128
 71
13
 72
2
 73
14
 74
14
 0
VERTEX
 8
CILINDRO_4
 10
0
 20
0
 30
0
 70
128
 71
1
 72
60
 73
62
 74
62
 0
VERTEX
 8
CILINDRO_4
 10
0
 20
0
 30
0
 70
128
 71
61
 72
14
 73
15
 74
65
 0
VERTEX
 8
CILINDRO_4
 10
0
 20
0
 30
0
 70
128
 71
14
 72
2
 73
15
 74
15
 0
VERTEX
 8
CILINDRO_4
 10
0
 20
0
 30
0
 70
128
 71
1
 72
62
 73
64
 74
64
 0
VERTEX
 8
CILINDRO_4
 10
0
 20
0
 30
0
 70
128
 71
65
 72
15
 73
16
 74
68
 0
VERTEX
 8
CILINDRO_4
 10
0
 20
0
 30
0
 70
128
 71
15
 72
2
 73
16
 74
16
 0
VERTEX
 8
CILINDRO_4
 10
0
 20
0
 30
0
 70
128
 71
1
 72
64
 73
63
 74
63
 0
VERTEX
 8
CILINDRO_4
 10
0
 20
0
 30
0
 70
128
 71
68
 72
16
 73
17
 74
67
 0
VERTEX
 8
CILINDRO_4
 10
0
 20
0
 30
0
 70
128
 71
16
 72
2
 73
17
 74
17
 0
VERTEX
 8
CILINDRO_4
 10
0
 20
0
 30
0
 70
128
 71
1
 72
63
 73
66
 74
66
 0
VERTEX
 8
CILINDRO_4
 10
0
 20
0
 30
0
 70
128
 71
67
 72
17
 73
18
 74
69
 0
VERTEX
 8
CILINDRO_4
 10
0
 20
0
 30
0
 70
128
 71
17
 72
2
 73
18
 74
18
 0
VERTEX
 8
CILINDRO_4
 10
0
 20
0
 30
0
 70
128
 71
1
 72
66
 73
71
 74
71
 0
VERTEX
 8
CILINDRO_4
 10
0
 20
0
 30
0
 70
128
 71
69
 72
18
 73
19
 74
74
 0
VERTEX
 8
CILINDRO_4
 10
0
 20
0
 30
0
 70
128
 71
18
 72
2
 73
19
 74
19
 0
VERTEX
 8
CILINDRO_4
 10
0
 20
0
 30
0
 70
128
 71
1
 72
71
 73
75
 74
75
 0
VERTEX
 8
CILINDRO_4
 10
0
 20
0
 30
0
 70
128
 71
74
 72
19
 73
20
 74
78
 0
VERTEX
 8
CILINDRO_4
 10
0
 20
0
 30
0
 70
128
 71
19
 72
2
 73
20
 74
20
 0
VERTEX
 8
CILINDRO_4
 10
0
 20
0
 30
0
 70
128
 71
1
 72
75
 73
73
 74
73
 0
VERTEX
 8
CILINDRO_4
 10
0
 20
0
 30
0
 70
128
 71
78
 72
20
 73
21
 74
76
 0
VERTEX
 8
CILINDRO_4
 10
0
 20
0
 30
0
 70
128
 71
20
 72
2
 73
21
 74
21
 0
VERTEX
 8
CILINDRO_4
 10
0
 20
0
 30
0
 70
128
 71
1
 72
73
 73
77
 74
77
 0
VERTEX
 8
CILINDRO_4
 10
0
 20
0
 30
0
 70
128
 71
76
 72
21
 73
22
 74
79
 0
VERTEX
 8
CILINDRO_4
 10
0
 20
0
 30
0
 70
128
 71
21
 72
2
 73
22
 74
22
 0
VERTEX
 8
CILINDRO_4
 10
0
 20
0
 30
0
 70
128
 71
1
 72
77
 73
80
 74
80
 0
VERTEX
 8
CILINDRO_4
 10
0
 20
0
 30
0
 70
128
 71
79
 72
22
 73
23
 74
81
 0
VERTEX
 8
CILINDRO_4
 10
0
 20
0
 30
0
 70
128
 71
22
 72
2
 73
23
 74
23
 0
VERTEX
 8
CILINDRO_4
 10
0
 20
0
 30
0
 70
128
 71
1
 72
80
 73
82
 74
82
 0
VERTEX
 8
CILINDRO_4
 10
0
 20
0
 30
0
 70
128
 71
81
 72
23
 73
24
 74
83
 0
VERTEX
 8
CILINDRO_4
 10
0
 20
0
 30
0
 70
128
 71
23
 72
2
 73
24
 74
24
 0
VERTEX
 8
CILINDRO_4
 10
0
 20
0
 30
0
 70
128
 71
1
 72
82
 73
84
 74
84
 0
VERTEX
 8
CILINDRO_4
 10
0
 20
0
 30
0
 70
128
 71
83
 72
24
 73
25
 74
85
 0
VERTEX
 8
CILINDRO_4
 10
0
 20
0
 30
0
 70
128
 71
24
 72
2
 73
25
 74
25
 0
VERTEX
 8
CILINDRO_4
 10
0
 20
0
 30
0
 70
128
 71
1
 72
84
 73
86
 74
86
 0
VERTEX
 8
CILINDRO_4
 10
0
 20
0
 30
0
 70
128
 71
85
 72
25
 73
26
 74
87
 0
VERTEX
 8
CILINDRO_4
 10
0
 20
0
 30
0
 70
128
 71
25
 72
2
 73
26
 74
26
 0
VERTEX
 8
CILINDRO_4
 10
0
 20
0
 30
0
 70
128
 71
1
 72
86
 73
88
 74
88
 0
VERTEX
 8
CILINDRO_4
 10
0
 20
0
 30
0
 70
128
 71
87
 72
26
 73
27
 74
89
 0
VERTEX
 8
CILINDRO_4
 10
0
 20
0
 30
0
 70
128
 71
26
 72
2
 73
27
 74
27
 0
VERTEX
 8
CILINDRO_4
 10
0
 20
0
 30
0
 70
128
 71
1
 72
88
 73
90
 74
90
 0
VERTEX
 8
CILINDRO_4
 10
0
 20
0
 30
0
 70
128
 71
89
 72
27
 73
28
 74
91
 0
VERTEX
 8
CILINDRO_4
 10
0
 20
0
 30
0
 70
128
 71
27
 72
2
 73
28
 74
28
 0
VERTEX
 8
CILINDRO_4
 10
0
 20
0
 30
0
 70
128
 71
1
 72
90
 73
92
 74
92
 0
VERTEX
 8
CILINDRO_4
 10
0
 20
0
 30
0
 70
128
 71
91
 72
28
 73
29
 74
93
 0
VERTEX
 8
CILINDRO_4
 10
0
 20
0
 30
0
 70
128
 71
28
 72
2
 73
29
 74
29
 0
VERTEX
 8
CILINDRO_4
 10
0
 20
0
 30
0
 70
128
 71
1
 72
92
 73
94
 74
94
 0
VERTEX
 8
CILINDRO_4
 10
0
 20
0
 30
0
 70
128
 71
93
 72
29
 73
30
 74
95
 0
VERTEX
 8
CILINDRO_4
 10
0
 20
0
 30
0
 70
128
 71
29
 72
2
 73
30
 74
30
 0
VERTEX
 8
CILINDRO_4
 10
0
 20
0
 30
0
 70
128
 71
1
 72
94
 73
96
 74
96
 0
VERTEX
 8
CILINDRO_4
 10
0
 20
0
 30
0
 70
128
 71
95
 72
30
 73
31
 74
97
 0
VERTEX
 8
CILINDRO_4
 10
0
 20
0
 30
0
 70
128
 71
30
 72
2
 73
31
 74
31
 0
VERTEX
 8
CILINDRO_4
 10
0
 20
0
 30
0
 70
128
 71
1
 72
96
 73
98
 74
98
 0
VERTEX
 8
CILINDRO_4
 10
0
 20
0
 30
0
 70
128
 71
97
 72
31
 73
32
 74
99
 0
VERTEX
 8
CILINDRO_4
 10
0
 20
0
 30
0
 70
128
 71
31
 72
2
 73
32
 74
32
 0
VERTEX
 8
CILINDRO_4
 10
0
 20
0
 30
0
 70
128
 71
1
 72
98
 73
100
 74
100
 0
VERTEX
 8
CILINDRO_4
 10
0
 20
0
 30
0
 70
128
 71
99
 72
32
 73
33
 74
101
 0
VERTEX
 8
CILINDRO_4
 10
0
 20
0
 30
0
 70
128
 71
32
 72
2
 73
33
 74
33
 0
VERTEX
 8
CILINDRO_4
 10
0
 20
0
 30
0
 70
128
 71
1
 72
100
 73
102
 74
102
 0
VERTEX
 8
CILINDRO_4
 10
0
 20
0
 30
0
 70
128
 71
101
 72
33
 73
34
 74
103
 0
VERTEX
 8
CILINDRO_4
 10
0
 20
0
 30
0
 70
128
 71
33
 72
2
 73
34
 74
34
 0
VERTEX
 8
CILINDRO_4
 10
0
 20
0
 30
0
 70
128
 71
1
 72
102
 73
104
 74
104
 0
VERTEX
 8
CILINDRO_4
 10
0
 20
0
 30
0
 70
128
 71
103
 72
34
 73
35
 74
105
 0
VERTEX
 8
CILINDRO_4
 10
0
 20
0
 30
0
 70
128
 71
34
 72
2
 73
35
 74
35
 0
VERTEX
 8
CILINDRO_4
 10
0
 20
0
 30
0
 70
128
 71
1
 72
104
 73
106
 74
106
 0
VERTEX
 8
CILINDRO_4
 10
0
 20
0
 30
0
 70
128
 71
105
 72
35
 73
36
 74
107
 0
VERTEX
 8
CILINDRO_4
 10
0
 20
0
 30
0
 70
128
 71
35
 72
2
 73
36
 74
36
 0
VERTEX
 8
CILINDRO_4
 10
0
 20
0
 30
0
 70
128
 71
1
 72
106
 73
108
 74
108
 0
VERTEX
 8
CILINDRO_4
 10
0
 20
0
 30
0
 70
128
 71
107
 72
36
 73
37
 74
109
 0
VERTEX
 8
CILINDRO_4
 10
0
 20
0
 30
0
 70
128
 71
36
 72
2
 73
37
 74
37
 0
VERTEX
 8
CILINDRO_4
 10
0
 20
0
 30
0
 70
128
 71
1
 72
108
 73
110
 74
110
 0
VERTEX
 8
CILINDRO_4
 10
0
 20
0
 30
0
 70
128
 71
109
 72
37
 73
38
 74
70
 0
VERTEX
 8
CILINDRO_4
 10
0
 20
0
 30
0
 70
128
 71
37
 72
2
 73
38
 74
38
 0
VERTEX
 8
CILINDRO_4
 10
0
 20
0
 30
0
 70
128
 71
1
 72
110
 73
72
 74
72
 0
VERTEX
 8
CILINDRO_4
 10
0
 20
0
 30
0
 70
128
 71
70
 72
38
 73
3
 74
40
 0
VERTEX
 8
CILINDRO_4
 10
0
 20
0
 30
0
 70
128
 71
38
 72
2
 73
3
 74
3
 0
VERTEX
 8
CILINDRO_4
 10
0
 20
0
 30
0
 70
128
 71
42
 72
130
 73
120
 74
40
 0
VERTEX
 8
CILINDRO_4
 10
0
 20
0
 30
0
 70
128
 71
44
 72
140
 73
130
 74
42
 0
VERTEX
 8
CILINDRO_4
 10
0
 20
0
 30
0
 70
128
 71
46
 72
145
 73
140
 74
44
 0
VERTEX
 8
CILINDRO_4
 10
0
 20
0
 30
0
 70
128
 71
48
 72
150
 73
145
 74
46
 0
VERTEX
 8
CILINDRO_4
 10
0
 20
0
 30
0
 70
128
 71
50
 72
160
 73
150
 74
48
 0
VERTEX
 8
CILINDRO_4
 10
0
 20
0
 30
0
 70
128
 71
51
 72
165
 73
160
 74
50
 0
VERTEX
 8
CILINDRO_4
 10
0
 20
0
 30
0
 70
128
 71
54
 72
166
 73
165
 74
51
 0
VERTEX
 8
CILINDRO_4
 10
0
 20
0
 30
0
 70
128
 71
55
 72
175
 73
166
 74
54
 0
VERTEX
 8
CILINDRO_4
 10
0
 20
0
 30
0
 70
128
 71
58
 72
176
 73
175
 74
55
 0
VERTEX
 8
CILINDRO_4
 10
0
 20
0
 30
0
 70
128
 71
59
 72
185
 73
176
 74
58
 0
VERTEX
 8
CILINDRO_4
 10
0
 20
0
 30
0
 70
128
 71
61
 72
186
 73
185
 74
59
 0
VERTEX
 8
CILINDRO_4
 10
0
 20
0
 30
0
 70
128
 71
65
 72
191
 73
186
 74
61
 0
VERTEX
 8
CILINDRO_4
 10
0
 20
0
 30
0
 70
128
 71
68
 72
200
 73
191
 74
65
 0
VERTEX
 8
CILINDRO_4
 10
0
 20
0
 30
0
 70
128
 71
67
 72
205
 73
200
 74
68
 0
VERTEX
 8
CILINDRO_4
 10
0
 20
0
 30
0
 70
128
 71
69
 72
210
 73
205
 74
67
 0
VERTEX
 8
CILINDRO_4
 10
0
 20
0
 30
0
 70
128
 71
74
 72
211
 73
210
 74
69
 0
VERTEX
 8
CILINDRO_4
 10
0
 20
0
 30
0
 70
128
 71
78
 72
220
 73
211
 74
74
 0
VERTEX
 8
CILINDRO_4
 10
0
 20
0
 30
0
 70
128
 71
76
 72
225
 73
220
 74
78
 0
VERTEX
 8
CILINDRO_4
 10
0
 20
0
 30
0
 70
128
 71
79
 72
226
 73
225
 74
76
 0
VERTEX
 8
CILINDRO_4
 10
0
 20
0
 30
0
 70
128
 71
81
 72
231
 73
226
 74
79
 0
VERTEX
 8
CILINDRO_4
 10
0
 20
0
 30
0
 70
128
 71
83
 72
236
 73
231
 74
81
 0
VERTEX
 8
CILINDRO_4
 10
0
 20
0
 30
0
 70
128
 71
85
 72
241
 73
236
 74
83
 0
VERTEX
 8
CILINDRO_4
 10
0
 20
0
 30
0
 70
128
 71
87
 72
246
 73
241
 74
85
 0
VERTEX
 8
CILINDRO_4
 10
0
 20
0
 30
0
 70
128
 71
89
 72
251
 73
246
 74
87
 0
VERTEX
 8
CILINDRO_4
 10
0
 20
0
 30
0
 70
128
 71
91
 72
256
 73
251
 74
89
 0
VERTEX
 8
CILINDRO_4
 10
0
 20
0
 30
0
 70
128
 71
93
 72
261
 73
256
 74
91
 0
VERTEX
 8
CILINDRO_4
 10
0
 20
0
 30
0
 70
128
 71
95
 72
266
 73
261
 74
93
 0
VERTEX
 8
CILINDRO_4
 10
0
 20
0
 30
0
 70
128
 71
97
 72
271
 73
266
 74
95
 0
VERTEX
 8
CILINDRO_4
 10
0
 20
0
 30
0
 70
128
 71
99
 72
276
 73
271
 74
97
 0
VERTEX
 8
CILINDRO_4
 10
0
 20
0
 30
0
 70
128
 71
101
 72
281
 73
276
 74
99
 0
VERTEX
 8
CILINDRO_4
 10
0
 20
0
 30
0
 70
128
 71
103
 72
121
 73
281
 74
101
 0
VERTEX
 8
CILINDRO_4
 10
0
 20
0
 30
0
 70
128
 71
105
 72
131
 73
121
 74
103
 0
VERTEX
 8
CILINDRO_4
 10
0
 20
0
 30
0
 70
128
 71
107
 72
286
 73
131
 74
105
 0
VERTEX
 8
CILINDRO_4
 10
0
 20
0
 30
0
 70
128
 71
109
 72
111
 73
286
 74
107
 0
VERTEX
 8
CILINDRO_4
 10
0
 20
0
 30
0
 70
128
 71
70
 72
151
 73
111
 74
109
 0
VERTEX
 8
CILINDRO_4
 10
0
 20
0
 30
0
 70
128
 71
40
 72
120
 73
151
 74
70
 0
VERTEX
 8
CILINDRO_4
 10
0
 20
0
 30
0
 70
128
 71
130
 72
129
 73
119
 74
120
 0
VERTEX
 8
CILINDRO_4
 10
0
 20
0
 30
0
 70
128
 71
129
 72
128
 73
118
 74
119
 0
VERTEX
 8
CILINDRO_4
 10
0
 20
0
 30
0
 70
128
 71
128
 72
127
 73
117
 74
118
 0
VERTEX
 8
CILINDRO_4
 10
0
 20
0
 30
0
 70
128
 71
127
 72
126
 73
116
 74
117
 0
VERTEX
 8
CILINDRO_4
 10
0
 20
0
 30
0
 70
128
 71
126
 72
39
 73
72
 74
116
 0
VERTEX
 8
CILINDRO_4
 10
0
 20
0
 30
0
 70
128
 71
140
 72
139
 73
129
 74
130
 0
VERTEX
 8
CILINDRO_4
 10
0
 20
0
 30
0
 70
128
 71
139
 72
138
 73
128
 74
129
 0
VERTEX
 8
CILINDRO_4
 10
0
 20
0
 30
0
 70
128
 71
138
 72
137
 73
127
 74
128
 0
VERTEX
 8
CILINDRO_4
 10
0
 20
0
 30
0
 70
128
 71
137
 72
136
 73
126
 74
127
 0
VERTEX
 8
CILINDRO_4
 10
0
 20
0
 30
0
 70
128
 71
136
 72
41
 73
39
 74
126
 0
VERTEX
 8
CILINDRO_4
 10
0
 20
0
 30
0
 70
128
 71
145
 72
144
 73
139
 74
140
 0
VERTEX
 8
CILINDRO_4
 10
0
 20
0
 30
0
 70
128
 71
144
 72
143
 73
138
 74
139
 0
VERTEX
 8
CILINDRO_4
 10
0
 20
0
 30
0
 70
128
 71
143
 72
142
 73
137
 74
138
 0
VERTEX
 8
CILINDRO_4
 10
0
 20
0
 30
0
 70
128
 71
142
 72
141
 73
136
 74
137
 0
VERTEX
 8
CILINDRO_4
 10
0
 20
0
 30
0
 70
128
 71
141
 72
43
 73
41
 74
136
 0
VERTEX
 8
CILINDRO_4
 10
0
 20
0
 30
0
 70
128
 71
150
 72
149
 73
144
 74
145
 0
VERTEX
 8
CILINDRO_4
 10
0
 20
0
 30
0
 70
128
 71
149
 72
148
 73
143
 74
144
 0
VERTEX
 8
CILINDRO_4
 10
0
 20
0
 30
0
 70
128
 71
148
 72
147
 73
142
 74
143
 0
VERTEX
 8
CILINDRO_4
 10
0
 20
0
 30
0
 70
128
 71
147
 72
146
 73
141
 74
142
 0
VERTEX
 8
CILINDRO_4
 10
0
 20
0
 30
0
 70
128
 71
146
 72
45
 73
43
 74
141
 0
VERTEX
 8
CILINDRO_4
 10
0
 20
0
 30
0
 70
128
 71
160
 72
159
 73
149
 74
150
 0
VERTEX
 8
CILINDRO_4
 10
0
 20
0
 30
0
 70
128
 71
159
 72
158
 73
148
 74
149
 0
VERTEX
 8
CILINDRO_4
 10
0
 20
0
 30
0
 70
128
 71
158
 72
157
 73
147
 74
148
 0
VERTEX
 8
CILINDRO_4
 10
0
 20
0
 30
0
 70
128
 71
157
 72
156
 73
146
 74
147
 0
VERTEX
 8
CILINDRO_4
 10
0
 20
0
 30
0
 70
128
 71
156
 72
47
 73
45
 74
146
 0
VERTEX
 8
CILINDRO_4
 10
0
 20
0
 30
0
 70
128
 71
165
 72
164
 73
159
 74
160
 0
VERTEX
 8
CILINDRO_4
 10
0
 20
0
 30
0
 70
128
 71
164
 72
163
 73
158
 74
159
 0
VERTEX
 8
CILINDRO_4
 10
0
 20
0
 30
0
 70
128
 71
163
 72
162
 73
157
 74
158
 0
VERTEX
 8
CILINDRO_4
 10
0
 20
0
 30
0
 70
128
 71
162
 72
161
 73
156
 74
157
 0
VERTEX
 8
CILINDRO_4
 10
0
 20
0
 30
0
 70
128
 71
161
 72
49
 73
47
 74
156
 0
VERTEX
 8
CILINDRO_4
 10
0
 20
0
 30
0
 70
128
 71
166
 72
167
 73
164
 74
165
 0
VERTEX
 8
CILINDRO_4
 10
0
 20
0
 30
0
 70
128
 71
167
 72
168
 73
163
 74
164
 0
VERTEX
 8
CILINDRO_4
 10
0
 20
0
 30
0
 70
128
 71
168
 72
169
 73
162
 74
163
 0
VERTEX
 8
CILINDRO_4
 10
0
 20
0
 30
0
 70
128
 71
169
 72
170
 73
161
 74
162
 0
VERTEX
 8
CILINDRO_4
 10
0
 20
0
 30
0
 70
128
 71
170
 72
52
 73
49
 74
161
 0
VERTEX
 8
CILINDRO_4
 10
0
 20
0
 30
0
 70
128
 71
175
 72
174
 73
167
 74
166
 0
VERTEX
 8
CILINDRO_4
 10
0
 20
0
 30
0
 70
128
 71
174
 72
173
 73
168
 74
167
 0
VERTEX
 8
CILINDRO_4
 10
0
 20
0
 30
0
 70
128
 71
173
 72
172
 73
169
 74
168
 0
VERTEX
 8
CILINDRO_4
 10
0
 20
0
 30
0
 70
128
 71
172
 72
171
 73
170
 74
169
 0
VERTEX
 8
CILINDRO_4
 10
0
 20
0
 30
0
 70
128
 71
171
 72
53
 73
52
 74
170
 0
VERTEX
 8
CILINDRO_4
 10
0
 20
0
 30
0
 70
128
 71
176
 72
177
 73
174
 74
175
 0
VERTEX
 8
CILINDRO_4
 10
0
 20
0
 30
0
 70
128
 71
177
 72
178
 73
173
 74
174
 0
VERTEX
 8
CILINDRO_4
 10
0
 20
0
 30
0
 70
128
 71
178
 72
179
 73
172
 74
173
 0
VERTEX
 8
CILINDRO_4
 10
0
 20
0
 30
0
 70
128
 71
179
 72
180
 73
171
 74
172
 0
VERTEX
 8
CILINDRO_4
 10
0
 20
0
 30
0
 70
128
 71
180
 72
56
 73
53
 74
171
 0
VERTEX
 8
CILINDRO_4
 10
0
 20
0
 30
0
 70
128
 71
185
 72
184
 73
177
 74
176
 0
VERTEX
 8
CILINDRO_4
 10
0
 20
0
 30
0
 70
128
 71
184
 72
183
 73
178
 74
177
 0
VERTEX
 8
CILINDRO_4
 10
0
 20
0
 30
0
 70
128
 71
183
 72
182
 73
179
 74
178
 0
VERTEX
 8
CILINDRO_4
 10
0
 20
0
 30
0
 70
128
 71
182
 72
181
 73
180
 74
179
 0
VERTEX
 8
CILINDRO_4
 10
0
 20
0
 30
0
 70
128
 71
181
 72
57
 73
56
 74
180
 0
VERTEX
 8
CILINDRO_4
 10
0
 20
0
 30
0
 70
128
 71
186
 72
187
 73
184
 74
185
 0
VERTEX
 8
CILINDRO_4
 10
0
 20
0
 30
0
 70
128
 71
187
 72
188
 73
183
 74
184
 0
VERTEX
 8
CILINDRO_4
 10
0
 20
0
 30
0
 70
128
 71
188
 72
189
 73
182
 74
183
 0
VERTEX
 8
CILINDRO_4
 10
0
 20
0
 30
0
 70
128
 71
189
 72
190
 73
181
 74
182
 0
VERTEX
 8
CILINDRO_4
 10
0
 20
0
 30
0
 70
128
 71
190
 72
60
 73
57
 74
181
 0
VERTEX
 8
CILINDRO_4
 10
0
 20
0
 30
0
 70
128
 71
191
 72
192
 73
187
 74
186
 0
VERTEX
 8
CILINDRO_4
 10
0
 20
0
 30
0
 70
128
 71
192
 72
193
 73
188
 74
187
 0
VERTEX
 8
CILINDRO_4
 10
0
 20
0
 30
0
 70
128
 71
193
 72
194
 73
189
 74
188
 0
VERTEX
 8
CILINDRO_4
 10
0
 20
0
 30
0
 70
128
 71
194
 72
195
 73
190
 74
189
 0
VERTEX
 8
CILINDRO_4
 10
0
 20
0
 30
0
 70
128
 71
195
 72
62
 73
60
 74
190
 0
VERTEX
 8
CILINDRO_4
 10
0
 20
0
 30
0
 70
128
 71
200
 72
199
 73
192
 74
191
 0
VERTEX
 8
CILINDRO_4
 10
0
 20
0
 30
0
 70
128
 71
199
 72
198
 73
193
 74
192
 0
VERTEX
 8
CILINDRO_4
 10
0
 20
0
 30
0
 70
128
 71
198
 72
197
 73
194
 74
193
 0
VERTEX
 8
CILINDRO_4
 10
0
 20
0
 30
0
 70
128
 71
197
 72
196
 73
195
 74
194
 0
VERTEX
 8
CILINDRO_4
 10
0
 20
0
 30
0
 70
128
 71
196
 72
64
 73
62
 74
195
 0
VERTEX
 8
CILINDRO_4
 10
0
 20
0
 30
0
 70
128
 71
205
 72
204
 73
199
 74
200
 0
VERTEX
 8
CILINDRO_4
 10
0
 20
0
 30
0
 70
128
 71
204
 72
203
 73
198
 74
199
 0
VERTEX
 8
CILINDRO_4
 10
0
 20
0
 30
0
 70
128
 71
203
 72
202
 73
197
 74
198
 0
VERTEX
 8
CILINDRO_4
 10
0
 20
0
 30
0
 70
128
 71
202
 72
201
 73
196
 74
197
 0
VERTEX
 8
CILINDRO_4
 10
0
 20
0
 30
0
 70
128
 71
201
 72
63
 73
64
 74
196
 0
VERTEX
 8
CILINDRO_4
 10
0
 20
0
 30
0
 70
128
 71
210
 72
209
 73
204
 74
205
 0
VERTEX
 8
CILINDRO_4
 10
0
 20
0
 30
0
 70
128
 71
209
 72
208
 73
203
 74
204
 0
VERTEX
 8
CILINDRO_4
 10
0
 20
0
 30
0
 70
128
 71
208
 72
207
 73
202
 74
203
 0
VERTEX
 8
CILINDRO_4
 10
0
 20
0
 30
0
 70
128
 71
207
 72
206
 73
201
 74
202
 0
VERTEX
 8
CILINDRO_4
 10
0
 20
0
 30
0
 70
128
 71
206
 72
66
 73
63
 74
201
 0
VERTEX
 8
CILINDRO_4
 10
0
 20
0
 30
0
 70
128
 71
211
 72
212
 73
209
 74
210
 0
VERTEX
 8
CILINDRO_4
 10
0
 20
0
 30
0
 70
128
 71
212
 72
213
 73
208
 74
209
 0
VERTEX
 8
CILINDRO_4
 10
0
 20
0
 30
0
 70
128
 71
213
 72
214
 73
207
 74
208
 0
VERTEX
 8
CILINDRO_4
 10
0
 20
0
 30
0
 70
128
 71
214
 72
215
 73
206
 74
207
 0
VERTEX
 8
CILINDRO_4
 10
0
 20
0
 30
0
 70
128
 71
215
 72
71
 73
66
 74
206
 0
VERTEX
 8
CILINDRO_4
 10
0
 20
0
 30
0
 70
128
 71
220
 72
219
 73
212
 74
211
 0
VERTEX
 8
CILINDRO_4
 10
0
 20
0
 30
0
 70
128
 71
219
 72
218
 73
213
 74
212
 0
VERTEX
 8
CILINDRO_4
 10
0
 20
0
 30
0
 70
128
 71
218
 72
217
 73
214
 74
213
 0
VERTEX
 8
CILINDRO_4
 10
0
 20
0
 30
0
 70
128
 71
217
 72
216
 73
215
 74
214
 0
VERTEX
 8
CILINDRO_4
 10
0
 20
0
 30
0
 70
128
 71
216
 72
75
 73
71
 74
215
 0
VERTEX
 8
CILINDRO_4
 10
0
 20
0
 30
0
 70
128
 71
225
 72
224
 73
219
 74
220
 0
VERTEX
 8
CILINDRO_4
 10
0
 20
0
 30
0
 70
128
 71
224
 72
223
 73
218
 74
219
 0
VERTEX
 8
CILINDRO_4
 10
0
 20
0
 30
0
 70
128
 71
223
 72
222
 73
217
 74
218
 0
VERTEX
 8
CILINDRO_4
 10
0
 20
0
 30
0
 70
128
 71
222
 72
221
 73
216
 74
217
 0
VERTEX
 8
CILINDRO_4
 10
0
 20
0
 30
0
 70
128
 71
221
 72
73
 73
75
 74
216
 0
VERTEX
 8
CILINDRO_4
 10
0
 20
0
 30
0
 70
128
 71
226
 72
227
 73
224
 74
225
 0
VERTEX
 8
CILINDRO_4
 10
0
 20
0
 30
0
 70
128
 71
227
 72
228
 73
223
 74
224
 0
VERTEX
 8
CILINDRO_4
 10
0
 20
0
 30
0
 70
128
 71
228
 72
229
 73
222
 74
223
 0
VERTEX
 8
CILINDRO_4
 10
0
 20
0
 30
0
 70
128
 71
229
 72
230
 73
221
 74
222
 0
VERTEX
 8
CILINDRO_4
 10
0
 20
0
 30
0
 70
128
 71
230
 72
77
 73
73
 74
221
 0
VERTEX
 8
CILINDRO_4
 10
0
 20
0
 30
0
 70
128
 71
231
 72
232
 73
227
 74
226
 0
VERTEX
 8
CILINDRO_4
 10
0
 20
0
 30
0
 70
128
 71
232
 72
233
 73
228
 74
227
 0
VERTEX
 8
CILINDRO_4
 10
0
 20
0
 30
0
 70
128
 71
233
 72
234
 73
229
 74
228
 0
VERTEX
 8
CILINDRO_4
 10
0
 20
0
 30
0
 70
128
 71
234
 72
235
 73
230
 74
229
 0
VERTEX
 8
CILINDRO_4
 10
0
 20
0
 30
0
 70
128
 71
235
 72
80
 73
77
 74
230
 0
VERTEX
 8
CILINDRO_4
 10
0
 20
0
 30
0
 70
128
 71
236
 72
237
 73
232
 74
231
 0
VERTEX
 8
CILINDRO_4
 10
0
 20
0
 30
0
 70
128
 71
237
 72
238
 73
233
 74
232
 0
VERTEX
 8
CILINDRO_4
 10
0
 20
0
 30
0
 70
128
 71
238
 72
239
 73
234
 74
233
 0
VERTEX
 8
CILINDRO_4
 10
0
 20
0
 30
0
 70
128
 71
239
 72
240
 73
235
 74
234
 0
VERTEX
 8
CILINDRO_4
 10
0
 20
0
 30
0
 70
128
 71
240
 72
82
 73
80
 74
235
 0
VERTEX
 8
CILINDRO_4
 10
0
 20
0
 30
0
 70
128
 71
241
 72
242
 73
237
 74
236
 0
VERTEX
 8
CILINDRO_4
 10
0
 20
0
 30
0
 70
128
 71
242
 72
243
 73
238
 74
237
 0
VERTEX
 8
CILINDRO_4
 10
0
 20
0
 30
0
 70
128
 71
243
 72
244
 73
239
 74
238
 0
VERTEX
 8
CILINDRO_4
 10
0
 20
0
 30
0
 70
128
 71
244
 72
245
 73
240
 74
239
 0
VERTEX
 8
CILINDRO_4
 10
0
 20
0
 30
0
 70
128
 71
245
 72
84
 73
82
 74
240
 0
VERTEX
 8
CILINDRO_4
 10
0
 20
0
 30
0
 70
128
 71
246
 72
247
 73
242
 74
241
 0
VERTEX
 8
CILINDRO_4
 10
0
 20
0
 30
0
 70
128
 71
247
 72
248
 73
243
 74
242
 0
VERTEX
 8
CILINDRO_4
 10
0
 20
0
 30
0
 70
128
 71
248
 72
249
 73
244
 74
243
 0
VERTEX
 8
CILINDRO_4
 10
0
 20
0
 30
0
 70
128
 71
249
 72
250
 73
245
 74
244
 0
VERTEX
 8
CILINDRO_4
 10
0
 20
0
 30
0
 70
128
 71
250
 72
86
 73
84
 74
245
 0
VERTEX
 8
CILINDRO_4
 10
0
 20
0
 30
0
 70
128
 71
251
 72
252
 73
247
 74
246
 0
VERTEX
 8
CILINDRO_4
 10
0
 20
0
 30
0
 70
128
 71
252
 72
253
 73
248
 74
247
 0
VERTEX
 8
CILINDRO_4
 10
0
 20
0
 30
0
 70
128
 71
253
 72
254
 73
249
 74
248
 0
VERTEX
 8
CILINDRO_4
 10
0
 20
0
 30
0
 70
128
 71
254
 72
255
 73
250
 74
249
 0
VERTEX
 8
CILINDRO_4
 10
0
 20
0
 30
0
 70
128
 71
255
 72
88
 73
86
 74
250
 0
VERTEX
 8
CILINDRO_4
 10
0
 20
0
 30
0
 70
128
 71
256
 72
257
 73
252
 74
251
 0
VERTEX
 8
CILINDRO_4
 10
0
 20
0
 30
0
 70
128
 71
257
 72
258
 73
253
 74
252
 0
VERTEX
 8
CILINDRO_4
 10
0
 20
0
 30
0
 70
128
 71
258
 72
259
 73
254
 74
253
 0
VERTEX
 8
CILINDRO_4
 10
0
 20
0
 30
0
 70
128
 71
259
 72
260
 73
255
 74
254
 0
VERTEX
 8
CILINDRO_4
 10
0
 20
0
 30
0
 70
128
 71
260
 72
90
 73
88
 74
255
 0
VERTEX
 8
CILINDRO_4
 10
0
 20
0
 30
0
 70
128
 71
261
 72
262
 73
257
 74
256
 0
VERTEX
 8
CILINDRO_4
 10
0
 20
0
 30
0
 70
128
 71
262
 72
263
 73
258
 74
257
 0
VERTEX
 8
CILINDRO_4
 10
0
 20
0
 30
0
 70
128
 71
263
 72
264
 73
259
 74
258
 0
VERTEX
 8
CILINDRO_4
 10
0
 20
0
 30
0
 70
128
 71
264
 72
265
 73
260
 74
259
 0
VERTEX
 8
CILINDRO_4
 10
0
 20
0
 30
0
 70
128
 71
265
 72
92
 73
90
 74
260
 0
VERTEX
 8
CILINDRO_4
 10
0
 20
0
 30
0
 70
128
 71
266
 72
267
 73
262
 74
261
 0
VERTEX
 8
CILINDRO_4
 10
0
 20
0
 30
0
 70
128
 71
267
 72
268
 73
263
 74
262
 0
VERTEX
 8
CILINDRO_4
 10
0
 20
0
 30
0
 70
128
 71
268
 72
269
 73
264
 74
263
 0
VERTEX
 8
CILINDRO_4
 10
0
 20
0
 30
0
 70
128
 71
269
 72
270
 73
265
 74
264
 0
VERTEX
 8
CILINDRO_4
 10
0
 20
0
 30
0
 70
128
 71
270
 72
94
 73
92
 74
265
 0
VERTEX
 8
CILINDRO_4
 10
0
 20
0
 30
0
 70
128
 71
271
 72
272
 73
267
 74
266
 0
VERTEX
 8
CILINDRO_4
 10
0
 20
0
 30
0
 70
128
 71
272
 72
273
 73
268
 74
267
 0
VERTEX
 8
CILINDRO_4
 10
0
 20
0
 30
0
 70
128
 71
273
 72
274
 73
269
 74
268
 0
VERTEX
 8
CILINDRO_4
 10
0
 20
0
 30
0
 70
128
 71
274
 72
275
 73
270
 74
269
 0
VERTEX
 8
CILINDRO_4
 10
0
 20
0
 30
0
 70
128
 71
275
 72
96
 73
94
 74
270
 0
VERTEX
 8
CILINDRO_4
 10
0
 20
0
 30
0
 70
128
 71
276
 72
277
 73
272
 74
271
 0
VERTEX
 8
CILINDRO_4
 10
0
 20
0
 30
0
 70
128
 71
277
 72
278
 73
273
 74
272
 0
VERTEX
 8
CILINDRO_4
 10
0
 20
0
 30
0
 70
128
 71
278
 72
279
 73
274
 74
273
 0
VERTEX
 8
CILINDRO_4
 10
0
 20
0
 30
0
 70
128
 71
279
 72
280
 73
275
 74
274
 0
VERTEX
 8
CILINDRO_4
 10
0
 20
0
 30
0
 70
128
 71
280
 72
98
 73
96
 74
275
 0
VERTEX
 8
CILINDRO_4
 10
0
 20
0
 30
0
 70
128
 71
281
 72
282
 73
277
 74
276
 0
VERTEX
 8
CILINDRO_4
 10
0
 20
0
 30
0
 70
128
 71
282
 72
283
 73
278
 74
277
 0
VERTEX
 8
CILINDRO_4
 10
0
 20
0
 30
0
 70
128
 71
283
 72
284
 73
279
 74
278
 0
VERTEX
 8
CILINDRO_4
 10
0
 20
0
 30
0
 70
128
 71
284
 72
285
 73
280
 74
279
 0
VERTEX
 8
CILINDRO_4
 10
0
 20
0
 30
0
 70
128
 71
285
 72
100
 73
98
 74
280
 0
VERTEX
 8
CILINDRO_4
 10
0
 20
0
 30
0
 70
128
 71
121
 72
122
 73
282
 74
281
 0
VERTEX
 8
CILINDRO_4
 10
0
 20
0
 30
0
 70
128
 71
122
 72
123
 73
283
 74
282
 0
VERTEX
 8
CILINDRO_4
 10
0
 20
0
 30
0
 70
128
 71
123
 72
124
 73
284
 74
283
 0
VERTEX
 8
CILINDRO_4
 10
0
 20
0
 30
0
 70
128
 71
124
 72
125
 73
285
 74
284
 0
VERTEX
 8
CILINDRO_4
 10
0
 20
0
 30
0
 70
128
 71
125
 72
102
 73
100
 74
285
 0
VERTEX
 8
CILINDRO_4
 10
0
 20
0
 30
0
 70
128
 71
131
 72
132
 73
122
 74
121
 0
VERTEX
 8
CILINDRO_4
 10
0
 20
0
 30
0
 70
128
 71
132
 72
133
 73
123
 74
122
 0
VERTEX
 8
CILINDRO_4
 10
0
 20
0
 30
0
 70
128
 71
133
 72
134
 73
124
 74
123
 0
VERTEX
 8
CILINDRO_4
 10
0
 20
0
 30
0
 70
128
 71
134
 72
135
 73
125
 74
124
 0
VERTEX
 8
CILINDRO_4
 10
0
 20
0
 30
0
 70
128
 71
135
 72
104
 73
102
 74
125
 0
VERTEX
 8
CILINDRO_4
 10
0
 20
0
 30
0
 70
128
 71
286
 72
287
 73
132
 74
131
 0
VERTEX
 8
CILINDRO_4
 10
0
 20
0
 30
0
 70
128
 71
287
 72
288
 73
133
 74
132
 0
VERTEX
 8
CILINDRO_4
 10
0
 20
0
 30
0
 70
128
 71
288
 72
289
 73
134
 74
133
 0
VERTEX
 8
CILINDRO_4
 10
0
 20
0
 30
0
 70
128
 71
289
 72
290
 73
135
 74
134
 0
VERTEX
 8
CILINDRO_4
 10
0
 20
0
 30
0
 70
128
 71
290
 72
106
 73
104
 74
135
 0
VERTEX
 8
CILINDRO_4
 10
0
 20
0
 30
0
 70
128
 71
111
 72
112
 73
287
 74
286
 0
VERTEX
 8
CILINDRO_4
 10
0
 20
0
 30
0
 70
128
 71
112
 72
113
 73
288
 74
287
 0
VERTEX
 8
CILINDRO_4
 10
0
 20
0
 30
0
 70
128
 71
113
 72
114
 73
289
 74
288
 0
VERTEX
 8
CILINDRO_4
 10
0
 20
0
 30
0
 70
128
 71
114
 72
115
 73
290
 74
289
 0
VERTEX
 8
CILINDRO_4
 10
0
 20
0
 30
0
 70
128
 71
115
 72
108
 73
106
 74
290
 0
VERTEX
 8
CILINDRO_4
 10
0
 20
0
 30
0
 70
128
 71
151
 72
152
 73
112
 74
111
 0
VERTEX
 8
CILINDRO_4
 10
0
 20
0
 30
0
 70
128
 71
152
 72
153
 73
113
 74
112
 0
VERTEX
 8
CILINDRO_4
 10
0
 20
0
 30
0
 70
128
 71
153
 72
154
 73
114
 74
113
 0
VERTEX
 8
CILINDRO_4
 10
0
 20
0
 30
0
 70
128
 71
154
 72
155
 73
115
 74
114
 0
VERTEX
 8
CILINDRO_4
 10
0
 20
0
 30
0
 70
128
 71
155
 72
110
 73
108
 74
115
 0
VERTEX
 8
CILINDRO_4
 10
0
 20
0
 30
0
 70
128
 71
120
 72
119
 73
152
 74
151
 0
VERTEX
 8
CILINDRO_4
 10
0
 20
0
 30
0
 70
128
 71
119
 72
118
 73
153
 74
152
 0
VERTEX
 8
CILINDRO_4
 10
0
 20
0
 30
0
 70
128
 71
118
 72
117
 73
154
 74
153
 0
VERTEX
 8
CILINDRO_4
 10
0
 20
0
 30
0
 70
128
 71
117
 72
116
 73
155
 74
154
 0
VERTEX
 8
CILINDRO_4
 10
0
 20
0
 30
0
 70
128
 71
116
 72
72
 73
110
 74
155
 0
SEQEND
 0
POLYLINE
 8
CILINDRO_3
 66
1
 10
0.0
 20
0.0
 30
0.0
 70
64
 71
146
 72
108
 0
VERTEX
 8
CILINDRO_3
 10
-19.5038
 20
23
 30
1.5076
 70
192
 0
VERTEX
 8
CILINDRO_3
 10
-19.5038
 20
23
 30
5.487
 70
192
 0
VERTEX
 8
CILINDRO_3
 10
-18.5089
 20
23
 30
1.5076
 70
192
 0
VERTEX
 8
CILINDRO_3
 10
-18.5089
 20
23
 30
1.5076
 70
192
 0
VERTEX
 8
CILINDRO_3
 10
-18.5089
 20
23
 30
5.487
 70
192
 0
VERTEX
 8
CILINDRO_3
 10
-18.5089
 20
23
 30
5.487
 70
192
 0
VERTEX
 8
CILINDRO_3
 10
-18.524
 20
23.1727
 30
1.5076
 70
192
 0
VERTEX
 8
CILINDRO_3
 10
-18.524
 20
23.1727
 30
1.5076
 70
192
 0
VERTEX
 8
CILINDRO_3
 10
-18.524
 20
23.1727
 30
5.487
 70
192
 0
VERTEX
 8
CILINDRO_3
 10
-18.524
 20
23.1727
 30
5.487
 70
192
 0
VERTEX
 8
CILINDRO_3
 10
-18.5689
 20
23.3402
 30
1.5076
 70
192
 0
VERTEX
 8
CILINDRO_3
 10
-18.5689
 20
23.3402
 30
1.5076
 70
192
 0
VERTEX
 8
CILINDRO_3
 10
-18.5689
 20
23.3402
 30
5.487
 70
192
 0
VERTEX
 8
CILINDRO_3
 10
-18.5689
 20
23.3402
 30
5.487
 70
192
 0
VERTEX
 8
CILINDRO_3
 10
-18.6422
 20
23.4974
 30
1.5076
 70
192
 0
VERTEX
 8
CILINDRO_3
 10
-18.6422
 20
23.4974
 30
1.5076
 70
192
 0
VERTEX
 8
CILINDRO_3
 10
-18.6422
 20
23.4974
 30
5.487
 70
192
 0
VERTEX
 8
CILINDRO_3
 10
-18.6422
 20
23.4974
 30
5.487
 70
192
 0
VERTEX
 8
CILINDRO_3
 10
-18.7417
 20
23.6395
 30
1.5076
 70
192
 0
VERTEX
 8
CILINDRO_3
 10
-18.7417
 20
23.6395
 30
1.5076
 70
192
 0
VERTEX
 8
CILINDRO_3
 10
-18.7417
 20
23.6395
 30
5.487
 70
192
 0
VERTEX
 8
CILINDRO_3
 10
-18.7417
 20
23.6395
 30
5.487
 70
192
 0
VERTEX
 8
CILINDRO_3
 10
-18.8643
 20
23.7621
 30
1.5076
 70
192
 0
VERTEX
 8
CILINDRO_3
 10
-18.8643
 20
23.7621
 30
1.5076
 70
192
 0
VERTEX
 8
CILINDRO_3
 10
-18.8643
 20
23.7621
 30
5.487
 70
192
 0
VERTEX
 8
CILINDRO_3
 10
-18.8643
 20
23.7621
 30
5.487
 70
192
 0
VERTEX
 8
CILINDRO_3
 10
-19.0063
 20
23.8615
 30
1.5076
 70
192
 0
VERTEX
 8
CILINDRO_3
 10
-19.0063
 20
23.8615
 30
1.5076
 70
192
 0
VERTEX
 8
CILINDRO_3
 10
-19.0063
 20
23.8615
 30
5.487
 70
192
 0
VERTEX
 8
CILINDRO_3
 10
-19.0063
 20
23.8615
 30
5.487
 70
192
 0
VERTEX
 8
CILINDRO_3
 10
-19.1635
 20
23.9348
 30
1.5076
 70
192
 0
VERTEX
 8
CILINDRO_3
 10
-19.1635
 20
23.9348
 30
1.5076
 70
192
 0
VERTEX
 8
CILINDRO_3
 10
-19.1635
 20
23.9348
 30
5.487
 70
192
 0
VERTEX
 8
CILINDRO_3
 10
-19.1635
 20
23.9348
 30
5.487
 70
192
 0
VERTEX
 8
CILINDRO_3
 10
-19.331
 20
23.9797
 30
1.5076
 70
192
 0
VERTEX
 8
CILINDRO_3
 10
-19.331
 20
23.9797
 30
1.5076
 70
192
 0
VERTEX
 8
CILINDRO_3
 10
-19.331
 20
23.9797
 30
5.487
 70
192
 0
VERTEX
 8
CILINDRO_3
 10
-19.331
 20
23.9797
 30
5.487
 70
192
 0
VERTEX
 8
CILINDRO_3
 10
-19.5038
 20
23.9948
 30
1.5076
 70
192
 0
VERTEX
 8
CILINDRO_3
 10
-19.5038
 20
23.9948
 30
1.5076
 70
192
 0
VERTEX
 8
CILINDRO_3
 10
-19.5038
 20
23.9948
 30
5.487
 70
192
 0
VERTEX
 8
CILINDRO_3
 10
-19.5038
 20
23.9948
 30
5.487
 70
192
 0
VERTEX
 8
CILINDRO_3
 10
-19.6765
 20
23.9797
 30
1.5076
 70
192
 0
VERTEX
 8
CILINDRO_3
 10
-19.6765
 20
23.9797
 30
1.5076
 70
192
 0
VERTEX
 8
CILINDRO_3
 10
-19.6765
 20
23.9797
 30
5.487
 70
192
 0
VERTEX
 8
CILINDRO_3
 10
-19.6765
 20
23.9797
 30
5.487
 70
192
 0
VERTEX
 8
CILINDRO_3
 10
-19.844
 20
23.9348
 30
1.5076
 70
192
 0
VERTEX
 8
CILINDRO_3
 10
-19.844
 20
23.9348
 30
1.5076
 70
192
 0
VERTEX
 8
CILINDRO_3
 10
-19.844
 20
23.9348
 30
5.487
 70
192
 0
VERTEX
 8
CILINDRO_3
 10
-19.844
 20
23.9348
 30
5.487
 70
192
 0
VERTEX
 8
CILINDRO_3
 10
-20.0012
 20
23.8615
 30
1.5076
 70
192
 0
VERTEX
 8
CILINDRO_3
 10
-20.0012
 20
23.8615
 30
1.5076
 70
192
 0
VERTEX
 8
CILINDRO_3
 10
-20.0012
 20
23.8615
 30
5.487
 70
192
 0
VERTEX
 8
CILINDRO_3
 10
-20.0012
 20
23.8615
 30
5.487
 70
192
 0
VERTEX
 8
CILINDRO_3
 10
-20.1432
 20
23.7621
 30
1.5076
 70
192
 0
VERTEX
 8
CILINDRO_3
 10
-20.1432
 20
23.7621
 30
1.5076
 70
192
 0
VERTEX
 8
CILINDRO_3
 10
-20.1432
 20
23.7621
 30
5.487
 70
192
 0
VERTEX
 8
CILINDRO_3
 10
-20.1432
 20
23.7621
 30
5.487
 70
192
 0
VERTEX
 8
CILINDRO_3
 10
-20.2659
 20
23.6395
 30
1.5076
 70
192
 0
VERTEX
 8
CILINDRO_3
 10
-20.2659
 20
23.6395
 30
1.5076
 70
192
 0
VERTEX
 8
CILINDRO_3
 10
-20.2659
 20
23.6395
 30
5.487
 70
192
 0
VERTEX
 8
CILINDRO_3
 10
-20.2659
 20
23.6395
 30
5.487
 70
192
 0
VERTEX
 8
CILINDRO_3
 10
-20.3653
 20
23.4974
 30
1.5076
 70
192
 0
VERTEX
 8
CILINDRO_3
 10
-20.3653
 20
23.4974
 30
1.5076
 70
192
 0
VERTEX
 8
CILINDRO_3
 10
-20.3653
 20
23.4974
 30
5.487
 70
192
 0
VERTEX
 8
CILINDRO_3
 10
-20.3653
 20
23.4974
 30
5.487
 70
192
 0
VERTEX
 8
CILINDRO_3
 10
-20.4386
 20
23.3402
 30
1.5076
 70
192
 0
VERTEX
 8
CILINDRO_3
 10
-20.4386
 20
23.3402
 30
1.5076
 70
192
 0
VERTEX
 8
CILINDRO_3
 10
-20.4386
 20
23.3402
 30
5.487
 70
192
 0
VERTEX
 8
CILINDRO_3
 10
-20.4386
 20
23.3402
 30
5.487
 70
192
 0
VERTEX
 8
CILINDRO_3
 10
-20.4835
 20
23.1727
 30
1.5076
 70
192
 0
VERTEX
 8
CILINDRO_3
 10
-20.4835
 20
23.1727
 30
1.5076
 70
192
 0
VERTEX
 8
CILINDRO_3
 10
-20.4835
 20
23.1727
 30
5.487
 70
192
 0
VERTEX
 8
CILINDRO_3
 10
-20.4835
 20
23.1727
 30
5.487
 70
192
 0
VERTEX
 8
CILINDRO_3
 10
-20.4986
 20
23
 30
1.5076
 70
192
 0
VERTEX
 8
CILINDRO_3
 10
-20.4986
 20
23
 30
1.5076
 70
192
 0
VERTEX
 8
CILINDRO_3
 10
-20.4986
 20
23
 30
5.487
 70
192
 0
VERTEX
 8
CILINDRO_3
 10
-20.4986
 20
23
 30
5.487
 70
192
 0
VERTEX
 8
CILINDRO_3
 10
-20.4835
 20
22.8272
 30
1.5076
 70
192
 0
VERTEX
 8
CILINDRO_3
 10
-20.4835
 20
22.8272
 30
1.5076
 70
192
 0
VERTEX
 8
CILINDRO_3
 10
-20.4835
 20
22.8272
 30
5.487
 70
192
 0
VERTEX
 8
CILINDRO_3
 10
-20.4835
 20
22.8272
 30
5.487
 70
192
 0
VERTEX
 8
CILINDRO_3
 10
-20.4386
 20
22.6597
 30
1.5076
 70
192
 0
VERTEX
 8
CILINDRO_3
 10
-20.4386
 20
22.6597
 30
1.5076
 70
192
 0
VERTEX
 8
CILINDRO_3
 10
-20.4386
 20
22.6597
 30
5.487
 70
192
 0
VERTEX
 8
CILINDRO_3
 10
-20.4386
 20
22.6597
 30
5.487
 70
192
 0
VERTEX
 8
CILINDRO_3
 10
-20.3653
 20
22.5026
 30
1.5076
 70
192
 0
VERTEX
 8
CILINDRO_3
 10
-20.3653
 20
22.5026
 30
1.5076
 70
192
 0
VERTEX
 8
CILINDRO_3
 10
-20.3653
 20
22.5026
 30
5.487
 70
192
 0
VERTEX
 8
CILINDRO_3
 10
-20.3653
 20
22.5026
 30
5.487
 70
192
 0
VERTEX
 8
CILINDRO_3
 10
-20.2659
 20
22.3605
 30
1.5076
 70
192
 0
VERTEX
 8
CILINDRO_3
 10
-20.2659
 20
22.3605
 30
1.5076
 70
192
 0
VERTEX
 8
CILINDRO_3
 10
-20.2659
 20
22.3605
 30
5.487
 70
192
 0
VERTEX
 8
CILINDRO_3
 10
-20.2659
 20
22.3605
 30
5.487
 70
192
 0
VERTEX
 8
CILINDRO_3
 10
-20.1432
 20
22.2379
 30
1.5076
 70
192
 0
VERTEX
 8
CILINDRO_3
 10
-20.1432
 20
22.2379
 30
1.5076
 70
192
 0
VERTEX
 8
CILINDRO_3
 10
-20.1432
 20
22.2379
 30
5.487
 70
192
 0
VERTEX
 8
CILINDRO_3
 10
-20.1432
 20
22.2379
 30
5.487
 70
192
 0
VERTEX
 8
CILINDRO_3
 10
-20.0012
 20
22.1384
 30
1.5076
 70
192
 0
VERTEX
 8
CILINDRO_3
 10
-20.0012
 20
22.1384
 30
1.5076
 70
192
 0
VERTEX
 8
CILINDRO_3
 10
-20.0012
 20
22.1384
 30
5.487
 70
192
 0
VERTEX
 8
CILINDRO_3
 10
-20.0012
 20
22.1384
 30
5.487
 70
192
 0
VERTEX
 8
CILINDRO_3
 10
-19.844
 20
22.0651
 30
1.5076
 70
192
 0
VERTEX
 8
CILINDRO_3
 10
-19.844
 20
22.0651
 30
1.5076
 70
192
 0
VERTEX
 8
CILINDRO_3
 10
-19.844
 20
22.0651
 30
5.487
 70
192
 0
VERTEX
 8
CILINDRO_3
 10
-19.844
 20
22.0651
 30
5.487
 70
192
 0
VERTEX
 8
CILINDRO_3
 10
-19.6765
 20
22.0202
 30
1.5076
 70
192
 0
VERTEX
 8
CILINDRO_3
 10
-19.6765
 20
22.0202
 30
1.5076
 70
192
 0
VERTEX
 8
CILINDRO_3
 10
-19.6765
 20
22.0202
 30
5.487
 70
192
 0
VERTEX
 8
CILINDRO_3
 10
-19.6765
 20
22.0202
 30
5.487
 70
192
 0
VERTEX
 8
CILINDRO_3
 10
-19.5038
 20
22.0051
 30
1.5076
 70
192
 0
VERTEX
 8
CILINDRO_3
 10
-19.5038
 20
22.0051
 30
1.5076
 70
192
 0
VERTEX
 8
CILINDRO_3
 10
-19.5038
 20
22.0051
 30
5.487
 70
192
 0
VERTEX
 8
CILINDRO_3
 10
-19.5038
 20
22.0051
 30
5.487
 70
192
 0
VERTEX
 8
CILINDRO_3
 10
-19.331
 20
22.0202
 30
1.5076
 70
192
 0
VERTEX
 8
CILINDRO_3
 10
-19.331
 20
22.0202
 30
1.5076
 70
192
 0
VERTEX
 8
CILINDRO_3
 10
-19.331
 20
22.0202
 30
5.487
 70
192
 0
VERTEX
 8
CILINDRO_3
 10
-19.331
 20
22.0202
 30
5.487
 70
192
 0
VERTEX
 8
CILINDRO_3
 10
-19.1635
 20
22.0651
 30
1.5076
 70
192
 0
VERTEX
 8
CILINDRO_3
 10
-19.1635
 20
22.0651
 30
1.5076
 70
192
 0
VERTEX
 8
CILINDRO_3
 10
-19.1635
 20
22.0651
 30
5.487
 70
192
 0
VERTEX
 8
CILINDRO_3
 10
-19.1635
 20
22.0651
 30
5.487
 70
192
 0
VERTEX
 8
CILINDRO_3
 10
-19.0063
 20
22.1384
 30
1.5076
 70
192
 0
VERTEX
 8
CILINDRO_3
 10
-19.0063
 20
22.1384
 30
1.5076
 70
192
 0
VERTEX
 8
CILINDRO_3
 10
-19.0063
 20
22.1384
 30
5.487
 70
192
 0
VERTEX
 8
CILINDRO_3
 10
-19.0063
 20
22.1384
 30
5.487
 70
192
 0
VERTEX
 8
CILINDRO_3
 10
-18.8643
 20
22.2379
 30
1.5076
 70
192
 0
VERTEX
 8
CILINDRO_3
 10
-18.8643
 20
22.2379
 30
1.5076
 70
192
 0
VERTEX
 8
CILINDRO_3
 10
-18.8643
 20
22.2379
 30
5.487
 70
192
 0
VERTEX
 8
CILINDRO_3
 10
-18.8643
 20
22.2379
 30
5.487
 70
192
 0
VERTEX
 8
CILINDRO_3
 10
-18.7417
 20
22.3605
 30
1.5076
 70
192
 0
VERTEX
 8
CILINDRO_3
 10
-18.7417
 20
22.3605
 30
1.5076
 70
192
 0
VERTEX
 8
CILINDRO_3
 10
-18.7417
 20
22.3605
 30
5.487
 70
192
 0
VERTEX
 8
CILINDRO_3
 10
-18.7417
 20
22.3605
 30
5.487
 70
192
 0
VERTEX
 8
CILINDRO_3
 10
-18.6422
 20
22.5026
 30
1.5076
 70
192
 0
VERTEX
 8
CILINDRO_3
 10
-18.6422
 20
22.5026
 30
1.5076
 70
192
 0
VERTEX
 8
CILINDRO_3
 10
-18.6422
 20
22.5026
 30
5.487
 70
192
 0
VERTEX
 8
CILINDRO_3
 10
-18.6422
 20
22.5026
 30
5.487
 70
192
 0
VERTEX
 8
CILINDRO_3
 10
-18.5689
 20
22.6597
 30
1.5076
 70
192
 0
VERTEX
 8
CILINDRO_3
 10
-18.5689
 20
22.6597
 30
1.5076
 70
192
 0
VERTEX
 8
CILINDRO_3
 10
-18.5689
 20
22.6597
 30
5.487
 70
192
 0
VERTEX
 8
CILINDRO_3
 10
-18.5689
 20
22.6597
 30
5.487
 70
192
 0
VERTEX
 8
CILINDRO_3
 10
-18.524
 20
22.8272
 30
1.5076
 70
192
 0
VERTEX
 8
CILINDRO_3
 10
-18.524
 20
22.8272
 30
1.5076
 70
192
 0
VERTEX
 8
CILINDRO_3
 10
-18.524
 20
22.8272
 30
5.487
 70
192
 0
VERTEX
 8
CILINDRO_3
 10
-18.524
 20
22.8272
 30
5.487
 70
192
 0
VERTEX
 8
CILINDRO_3
 10
0
 20
0
 30
0
 70
128
 71
1
 72
3
 73
7
 74
7
 0
VERTEX
 8
CILINDRO_3
 10
0
 20
0
 30
0
 70
128
 71
4
 72
5
 73
9
 74
8
 0
VERTEX
 8
CILINDRO_3
 10
0
 20
0
 30
0
 70
128
 71
6
 72
2
 73
10
 74
10
 0
VERTEX
 8
CILINDRO_3
 10
0
 20
0
 30
0
 70
128
 71
1
 72
7
 73
11
 74
11
 0
VERTEX
 8
CILINDRO_3
 10
0
 20
0
 30
0
 70
128
 71
8
 72
9
 73
13
 74
12
 0
VERTEX
 8
CILINDRO_3
 10
0
 20
0
 30
0
 70
128
 71
10
 72
2
 73
14
 74
14
 0
VERTEX
 8
CILINDRO_3
 10
0
 20
0
 30
0
 70
128
 71
1
 72
11
 73
15
 74
15
 0
VERTEX
 8
CILINDRO_3
 10
0
 20
0
 30
0
 70
128
 71
12
 72
13
 73
17
 74
16
 0
VERTEX
 8
CILINDRO_3
 10
0
 20
0
 30
0
 70
128
 71
14
 72
2
 73
18
 74
18
 0
VERTEX
 8
CILINDRO_3
 10
0
 20
0
 30
0
 70
128
 71
1
 72
15
 73
19
 74
19
 0
VERTEX
 8
CILINDRO_3
 10
0
 20
0
 30
0
 70
128
 71
16
 72
17
 73
21
 74
20
 0
VERTEX
 8
CILINDRO_3
 10
0
 20
0
 30
0
 70
128
 71
18
 72
2
 73
22
 74
22
 0
VERTEX
 8
CILINDRO_3
 10
0
 20
0
 30
0
 70
128
 71
1
 72
19
 73
23
 74
23
 0
VERTEX
 8
CILINDRO_3
 10
0
 20
0
 30
0
 70
128
 71
20
 72
21
 73
25
 74
24
 0
VERTEX
 8
CILINDRO_3
 10
0
 20
0
 30
0
 70
128
 71
22
 72
2
 73
26
 74
26
 0
VERTEX
 8
CILINDRO_3
 10
0
 20
0
 30
0
 70
128
 71
1
 72
23
 73
27
 74
27
 0
VERTEX
 8
CILINDRO_3
 10
0
 20
0
 30
0
 70
128
 71
24
 72
25
 73
29
 74
28
 0
VERTEX
 8
CILINDRO_3
 10
0
 20
0
 30
0
 70
128
 71
26
 72
2
 73
30
 74
30
 0
VERTEX
 8
CILINDRO_3
 10
0
 20
0
 30
0
 70
128
 71
1
 72
27
 73
31
 74
31
 0
VERTEX
 8
CILINDRO_3
 10
0
 20
0
 30
0
 70
128
 71
28
 72
29
 73
33
 74
32
 0
VERTEX
 8
CILINDRO_3
 10
0
 20
0
 30
0
 70
128
 71
30
 72
2
 73
34
 74
34
 0
VERTEX
 8
CILINDRO_3
 10
0
 20
0
 30
0
 70
128
 71
1
 72
31
 73
35
 74
35
 0
VERTEX
 8
CILINDRO_3
 10
0
 20
0
 30
0
 70
128
 71
32
 72
33
 73
37
 74
36
 0
VERTEX
 8
CILINDRO_3
 10
0
 20
0
 30
0
 70
128
 71
34
 72
2
 73
38
 74
38
 0
VERTEX
 8
CILINDRO_3
 10
0
 20
0
 30
0
 70
128
 71
1
 72
35
 73
39
 74
39
 0
VERTEX
 8
CILINDRO_3
 10
0
 20
0
 30
0
 70
128
 71
36
 72
37
 73
41
 74
40
 0
VERTEX
 8
CILINDRO_3
 10
0
 20
0
 30
0
 70
128
 71
38
 72
2
 73
42
 74
42
 0
VERTEX
 8
CILINDRO_3
 10
0
 20
0
 30
0
 70
128
 71
1
 72
39
 73
43
 74
43
 0
VERTEX
 8
CILINDRO_3
 10
0
 20
0
 30
0
 70
128
 71
40
 72
41
 73
45
 74
44
 0
VERTEX
 8
CILINDRO_3
 10
0
 20
0
 30
0
 70
128
 71
42
 72
2
 73
46
 74
46
 0
VERTEX
 8
CILINDRO_3
 10
0
 20
0
 30
0
 70
128
 71
1
 72
43
 73
47
 74
47
 0
VERTEX
 8
CILINDRO_3
 10
0
 20
0
 30
0
 70
128
 71
44
 72
45
 73
49
 74
48
 0
VERTEX
 8
CILINDRO_3
 10
0
 20
0
 30
0
 70
128
 71
46
 72
2
 73
50
 74
50
 0
VERTEX
 8
CILINDRO_3
 10
0
 20
0
 30
0
 70
128
 71
1
 72
47
 73
51
 74
51
 0
VERTEX
 8
CILINDRO_3
 10
0
 20
0
 30
0
 70
128
 71
48
 72
49
 73
53
 74
52
 0
VERTEX
 8
CILINDRO_3
 10
0
 20
0
 30
0
 70
128
 71
50
 72
2
 73
54
 74
54
 0
VERTEX
 8
CILINDRO_3
 10
0
 20
0
 30
0
 70
128
 71
1
 72
51
 73
55
 74
55
 0
VERTEX
 8
CILINDRO_3
 10
0
 20
0
 30
0
 70
128
 71
52
 72
53
 73
57
 74
56
 0
VERTEX
 8
CILINDRO_3
 10
0
 20
0
 30
0
 70
128
 71
54
 72
2
 73
58
 74
58
 0
VERTEX
 8
CILINDRO_3
 10
0
 20
0
 30
0
 70
128
 71
1
 72
55
 73
59
 74
59
 0
VERTEX
 8
CILINDRO_3
 10
0
 20
0
 30
0
 70
128
 71
56
 72
57
 73
61
 74
60
 0
VERTEX
 8
CILINDRO_3
 10
0
 20
0
 30
0
 70
128
 71
58
 72
2
 73
62
 74
62
 0
VERTEX
 8
CILINDRO_3
 10
0
 20
0
 30
0
 70
128
 71
1
 72
59
 73
63
 74
63
 0
VERTEX
 8
CILINDRO_3
 10
0
 20
0
 30
0
 70
128
 71
60
 72
61
 73
65
 74
64
 0
VERTEX
 8
CILINDRO_3
 10
0
 20
0
 30
0
 70
128
 71
62
 72
2
 73
66
 74
66
 0
VERTEX
 8
CILINDRO_3
 10
0
 20
0
 30
0
 70
128
 71
1
 72
63
 73
67
 74
67
 0
VERTEX
 8
CILINDRO_3
 10
0
 20
0
 30
0
 70
128
 71
64
 72
65
 73
69
 74
68
 0
VERTEX
 8
CILINDRO_3
 10
0
 20
0
 30
0
 70
128
 71
66
 72
2
 73
70
 74
70
 0
VERTEX
 8
CILINDRO_3
 10
0
 20
0
 30
0
 70
128
 71
1
 72
67
 73
71
 74
71
 0
VERTEX
 8
CILINDRO_3
 10
0
 20
0
 30
0
 70
128
 71
68
 72
69
 73
73
 74
72
 0
VERTEX
 8
CILINDRO_3
 10
0
 20
0
 30
0
 70
128
 71
70
 72
2
 73
74
 74
74
 0
VERTEX
 8
CILINDRO_3
 10
0
 20
0
 30
0
 70
128
 71
1
 72
71
 73
75
 74
75
 0
VERTEX
 8
CILINDRO_3
 10
0
 20
0
 30
0
 70
128
 71
72
 72
73
 73
77
 74
76
 0
VERTEX
 8
CILINDRO_3
 10
0
 20
0
 30
0
 70
128
 71
74
 72
2
 73
78
 74
78
 0
VERTEX
 8
CILINDRO_3
 10
0
 20
0
 30
0
 70
128
 71
1
 72
75
 73
79
 74
79
 0
VERTEX
 8
CILINDRO_3
 10
0
 20
0
 30
0
 70
128
 71
76
 72
77
 73
81
 74
80
 0
VERTEX
 8
CILINDRO_3
 10
0
 20
0
 30
0
 70
128
 71
78
 72
2
 73
82
 74
82
 0
VERTEX
 8
CILINDRO_3
 10
0
 20
0
 30
0
 70
128
 71
1
 72
79
 73
83
 74
83
 0
VERTEX
 8
CILINDRO_3
 10
0
 20
0
 30
0
 70
128
 71
80
 72
81
 73
85
 74
84
 0
VERTEX
 8
CILINDRO_3
 10
0
 20
0
 30
0
 70
128
 71
82
 72
2
 73
86
 74
86
 0
VERTEX
 8
CILINDRO_3
 10
0
 20
0
 30
0
 70
128
 71
1
 72
83
 73
87
 74
87
 0
VERTEX
 8
CILINDRO_3
 10
0
 20
0
 30
0
 70
128
 71
84
 72
85
 73
89
 74
88
 0
VERTEX
 8
CILINDRO_3
 10
0
 20
0
 30
0
 70
128
 71
86
 72
2
 73
90
 74
90
 0
VERTEX
 8
CILINDRO_3
 10
0
 20
0
 30
0
 70
128
 71
1
 72
87
 73
91
 74
91
 0
VERTEX
 8
CILINDRO_3
 10
0
 20
0
 30
0
 70
128
 71
88
 72
89
 73
93
 74
92
 0
VERTEX
 8
CILINDRO_3
 10
0
 20
0
 30
0
 70
128
 71
90
 72
2
 73
94
 74
94
 0
VERTEX
 8
CILINDRO_3
 10
0
 20
0
 30
0
 70
128
 71
1
 72
91
 73
95
 74
95
 0
VERTEX
 8
CILINDRO_3
 10
0
 20
0
 30
0
 70
128
 71
92
 72
93
 73
97
 74
96
 0
VERTEX
 8
CILINDRO_3
 10
0
 20
0
 30
0
 70
128
 71
94
 72
2
 73
98
 74
98
 0
VERTEX
 8
CILINDRO_3
 10
0
 20
0
 30
0
 70
128
 71
1
 72
95
 73
99
 74
99
 0
VERTEX
 8
CILINDRO_3
 10
0
 20
0
 30
0
 70
128
 71
96
 72
97
 73
101
 74
100
 0
VERTEX
 8
CILINDRO_3
 10
0
 20
0
 30
0
 70
128
 71
98
 72
2
 73
102
 74
102
 0
VERTEX
 8
CILINDRO_3
 10
0
 20
0
 30
0
 70
128
 71
1
 72
99
 73
103
 74
103
 0
VERTEX
 8
CILINDRO_3
 10
0
 20
0
 30
0
 70
128
 71
100
 72
101
 73
105
 74
104
 0
VERTEX
 8
CILINDRO_3
 10
0
 20
0
 30
0
 70
128
 71
102
 72
2
 73
106
 74
106
 0
VERTEX
 8
CILINDRO_3
 10
0
 20
0
 30
0
 70
128
 71
1
 72
103
 73
107
 74
107
 0
VERTEX
 8
CILINDRO_3
 10
0
 20
0
 30
0
 70
128
 71
104
 72
105
 73
109
 74
108
 0
VERTEX
 8
CILINDRO_3
 10
0
 20
0
 30
0
 70
128
 71
106
 72
2
 73
110
 74
110
 0
VERTEX
 8
CILINDRO_3
 10
0
 20
0
 30
0
 70
128
 71
1
 72
107
 73
111
 74
111
 0
VERTEX
 8
CILINDRO_3
 10
0
 20
0
 30
0
 70
128
 71
108
 72
109
 73
113
 74
112
 0
VERTEX
 8
CILINDRO_3
 10
0
 20
0
 30
0
 70
128
 71
110
 72
2
 73
114
 74
114
 0
VERTEX
 8
CILINDRO_3
 10
0
 20
0
 30
0
 70
128
 71
1
 72
111
 73
115
 74
115
 0
VERTEX
 8
CILINDRO_3
 10
0
 20
0
 30
0
 70
128
 71
112
 72
113
 73
117
 74
116
 0
VERTEX
 8
CILINDRO_3
 10
0
 20
0
 30
0
 70
128
 71
114
 72
2
 73
118
 74
118
 0
VERTEX
 8
CILINDRO_3
 10
0
 20
0
 30
0
 70
128
 71
1
 72
115
 73
119
 74
119
 0
VERTEX
 8
CILINDRO_3
 10
0
 20
0
 30
0
 70
128
 71
116
 72
117
 73
121
 74
120
 0
VERTEX
 8
CILINDRO_3
 10
0
 20
0
 30
0
 70
128
 71
118
 72
2
 73
122
 74
122
 0
VERTEX
 8
CILINDRO_3
 10
0
 20
0
 30
0
 70
128
 71
1
 72
119
 73
123
 74
123
 0
VERTEX
 8
CILINDRO_3
 10
0
 20
0
 30
0
 70
128
 71
120
 72
121
 73
125
 74
124
 0
VERTEX
 8
CILINDRO_3
 10
0
 20
0
 30
0
 70
128
 71
122
 72
2
 73
126
 74
126
 0
VERTEX
 8
CILINDRO_3
 10
0
 20
0
 30
0
 70
128
 71
1
 72
123
 73
127
 74
127
 0
VERTEX
 8
CILINDRO_3
 10
0
 20
0
 30
0
 70
128
 71
124
 72
125
 73
129
 74
128
 0
VERTEX
 8
CILINDRO_3
 10
0
 20
0
 30
0
 70
128
 71
126
 72
2
 73
130
 74
130
 0
VERTEX
 8
CILINDRO_3
 10
0
 20
0
 30
0
 70
128
 71
1
 72
127
 73
131
 74
131
 0
VERTEX
 8
CILINDRO_3
 10
0
 20
0
 30
0
 70
128
 71
128
 72
129
 73
133
 74
132
 0
VERTEX
 8
CILINDRO_3
 10
0
 20
0
 30
0
 70
128
 71
130
 72
2
 73
134
 74
134
 0
VERTEX
 8
CILINDRO_3
 10
0
 20
0
 30
0
 70
128
 71
1
 72
131
 73
135
 74
135
 0
VERTEX
 8
CILINDRO_3
 10
0
 20
0
 30
0
 70
128
 71
132
 72
133
 73
137
 74
136
 0
VERTEX
 8
CILINDRO_3
 10
0
 20
0
 30
0
 70
128
 71
134
 72
2
 73
138
 74
138
 0
VERTEX
 8
CILINDRO_3
 10
0
 20
0
 30
0
 70
128
 71
1
 72
135
 73
139
 74
139
 0
VERTEX
 8
CILINDRO_3
 10
0
 20
0
 30
0
 70
128
 71
136
 72
137
 73
141
 74
140
 0
VERTEX
 8
CILINDRO_3
 10
0
 20
0
 30
0
 70
128
 71
138
 72
2
 73
142
 74
142
 0
VERTEX
 8
CILINDRO_3
 10
0
 20
0
 30
0
 70
128
 71
1
 72
139
 73
143
 74
143
 0
VERTEX
 8
CILINDRO_3
 10
0
 20
0
 30
0
 70
128
 71
140
 72
141
 73
145
 74
144
 0
VERTEX
 8
CILINDRO_3
 10
0
 20
0
 30
0
 70
128
 71
142
 72
2
 73
146
 74
146
 0
VERTEX
 8
CILINDRO_3
 10
0
 20
0
 30
0
 70
128
 71
1
 72
143
 73
3
 74
3
 0
VERTEX
 8
CILINDRO_3
 10
0
 20
0
 30
0
 70
128
 71
144
 72
145
 73
5
 74
4
 0
VERTEX
 8
CILINDRO_3
 10
0
 20
0
 30
0
 70
128
 71
146
 72
2
 73
6
 74
6
 0
SEQEND
 0
POLYLINE
 8
CILINDRO_2
 66
1
 10
0.0
 20
0.0
 30
0.0
 70
64
 71
290
 72
324
 0
VERTEX
 8
CILINDRO_2
 10
-19.5038
 20
23.0002
 30
0.0067
 70
192
 0
VERTEX
 8
CILINDRO_2
 10
-19.5038
 20
23.0002
 30
1.5059
 70
192
 0
VERTEX
 8
CILINDRO_2
 10
-16.4909
 20
23.0002
 30
1.5059
 70
192
 0
VERTEX
 8
CILINDRO_2
 10
-16.5366
 20
23.5233
 30
1.5059
 70
192
 0
VERTEX
 8
CILINDRO_2
 10
-16.6726
 20
24.0306
 30
1.5059
 70
192
 0
VERTEX
 8
CILINDRO_2
 10
-16.8945
 20
24.5066
 30
1.5059
 70
192
 0
VERTEX
 8
CILINDRO_2
 10
-17.1957
 20
24.9368
 30
1.5059
 70
192
 0
VERTEX
 8
CILINDRO_2
 10
-17.5671
 20
25.3082
 30
1.5059
 70
192
 0
VERTEX
 8
CILINDRO_2
 10
-17.9973
 20
25.6094
 30
1.5059
 70
192
 0
VERTEX
 8
CILINDRO_2
 10
-18.4733
 20
25.8314
 30
1.5059
 70
192
 0
VERTEX
 8
CILINDRO_2
 10
-18.9806
 20
25.9673
 30
1.5059
 70
192
 0
VERTEX
 8
CILINDRO_2
 10
-19.5038
 20
26.0131
 30
1.5059
 70
192
 0
VERTEX
 8
CILINDRO_2
 10
-20.0269
 20
25.9673
 30
1.5059
 70
192
 0
VERTEX
 8
CILINDRO_2
 10
-20.5342
 20
25.8314
 30
1.5059
 70
192
 0
VERTEX
 8
CILINDRO_2
 10
-21.0102
 20
25.6094
 30
1.5059
 70
192
 0
VERTEX
 8
CILINDRO_2
 10
-21.4404
 20
25.3082
 30
1.5059
 70
192
 0
VERTEX
 8
CILINDRO_2
 10
-21.8118
 20
24.9368
 30
1.5059
 70
192
 0
VERTEX
 8
CILINDRO_2
 10
-22.113
 20
24.5066
 30
1.5059
 70
192
 0
VERTEX
 8
CILINDRO_2
 10
-22.335
 20
24.0306
 30
1.5059
 70
192
 0
VERTEX
 8
CILINDRO_2
 10
-22.4709
 20
23.5233
 30
1.5059
 70
192
 0
VERTEX
 8
CILINDRO_2
 10
-22.5167
 20
23.0002
 30
1.5059
 70
192
 0
VERTEX
 8
CILINDRO_2
 10
-22.4709
 20
22.477
 30
1.5059
 70
192
 0
VERTEX
 8
CILINDRO_2
 10
-22.335
 20
21.9697
 30
1.5059
 70
192
 0
VERTEX
 8
CILINDRO_2
 10
-22.113
 20
21.4937
 30
1.5059
 70
192
 0
VERTEX
 8
CILINDRO_2
 10
-21.8118
 20
21.0635
 30
1.5059
 70
192
 0
VERTEX
 8
CILINDRO_2
 10
-21.4404
 20
20.6921
 30
1.5059
 70
192
 0
VERTEX
 8
CILINDRO_2
 10
-21.0102
 20
20.3909
 30
1.5059
 70
192
 0
VERTEX
 8
CILINDRO_2
 10
-20.5342
 20
20.169
 30
1.5059
 70
192
 0
VERTEX
 8
CILINDRO_2
 10
-20.0269
 20
20.033
 30
1.5059
 70
192
 0
VERTEX
 8
CILINDRO_2
 10
-19.5038
 20
19.9873
 30
1.5059
 70
192
 0
VERTEX
 8
CILINDRO_2
 10
-18.9806
 20
20.033
 30
1.5059
 70
192
 0
VERTEX
 8
CILINDRO_2
 10
-18.4733
 20
20.169
 30
1.5059
 70
192
 0
VERTEX
 8
CILINDRO_2
 10
-17.9973
 20
20.3909
 30
1.5059
 70
192
 0
VERTEX
 8
CILINDRO_2
 10
-17.5671
 20
20.6921
 30
1.5059
 70
192
 0
VERTEX
 8
CILINDRO_2
 10
-17.1957
 20
21.0635
 30
1.5059
 70
192
 0
VERTEX
 8
CILINDRO_2
 10
-16.8945
 20
21.4937
 30
1.5059
 70
192
 0
VERTEX
 8
CILINDRO_2
 10
-16.6726
 20
21.9697
 30
1.5059
 70
192
 0
VERTEX
 8
CILINDRO_2
 10
-16.5366
 20
22.477
 30
1.5059
 70
192
 0
VERTEX
 8
CILINDRO_2
 10
-17.0309
 20
23.4362
 30
0.0067
 70
192
 0
VERTEX
 8
CILINDRO_2
 10
-16.4909
 20
23.0002
 30
0.5067
 70
192
 0
VERTEX
 8
CILINDRO_2
 10
-17.1442
 20
23.859
 30
0.0067
 70
192
 0
VERTEX
 8
CILINDRO_2
 10
-16.5366
 20
23.5233
 30
0.5067
 70
192
 0
VERTEX
 8
CILINDRO_2
 10
-17.3292
 20
24.2557
 30
0.0067
 70
192
 0
VERTEX
 8
CILINDRO_2
 10
-16.6726
 20
24.0306
 30
0.5067
 70
192
 0
VERTEX
 8
CILINDRO_2
 10
-17.5802
 20
24.6142
 30
0.0067
 70
192
 0
VERTEX
 8
CILINDRO_2
 10
-16.8945
 20
24.5066
 30
0.5067
 70
192
 0
VERTEX
 8
CILINDRO_2
 10
-17.8897
 20
24.9237
 30
0.0067
 70
192
 0
VERTEX
 8
CILINDRO_2
 10
-17.1957
 20
24.9368
 30
0.5067
 70
192
 0
VERTEX
 8
CILINDRO_2
 10
-18.2483
 20
25.1747
 30
0.0067
 70
192
 0
VERTEX
 8
CILINDRO_2
 10
-17.5671
 20
25.3082
 30
0.5067
 70
192
 0
VERTEX
 8
CILINDRO_2
 10
-17.9973
 20
25.6094
 30
0.5067
 70
192
 0
VERTEX
 8
CILINDRO_2
 10
-18.645
 20
25.3597
 30
0.0067
 70
192
 0
VERTEX
 8
CILINDRO_2
 10
-19.0677
 20
25.473
 30
0.0067
 70
192
 0
VERTEX
 8
CILINDRO_2
 10
-18.4733
 20
25.8314
 30
0.5067
 70
192
 0
VERTEX
 8
CILINDRO_2
 10
-18.9806
 20
25.9673
 30
0.5067
 70
192
 0
VERTEX
 8
CILINDRO_2
 10
-19.5038
 20
25.5112
 30
0.0067
 70
192
 0
VERTEX
 8
CILINDRO_2
 10
-19.9398
 20
25.473
 30
0.0067
 70
192
 0
VERTEX
 8
CILINDRO_2
 10
-19.5038
 20
26.0131
 30
0.5067
 70
192
 0
VERTEX
 8
CILINDRO_2
 10
-20.0269
 20
25.9673
 30
0.5067
 70
192
 0
VERTEX
 8
CILINDRO_2
 10
-20.3626
 20
25.3597
 30
0.0067
 70
192
 0
VERTEX
 8
CILINDRO_2
 10
-20.5342
 20
25.8314
 30
0.5067
 70
192
 0
VERTEX
 8
CILINDRO_2
 10
-20.7593
 20
25.1747
 30
0.0067
 70
192
 0
VERTEX
 8
CILINDRO_2
 10
-21.4273
 20
24.6142
 30
0.0067
 70
192
 0
VERTEX
 8
CILINDRO_2
 10
-21.1178
 20
24.9237
 30
0.0067
 70
192
 0
VERTEX
 8
CILINDRO_2
 10
-21.0102
 20
25.6094
 30
0.5067
 70
192
 0
VERTEX
 8
CILINDRO_2
 10
-21.6783
 20
24.2557
 30
0.0067
 70
192
 0
VERTEX
 8
CILINDRO_2
 10
-21.8118
 20
24.9368
 30
0.5067
 70
192
 0
VERTEX
 8
CILINDRO_2
 10
-21.4404
 20
25.3082
 30
0.5067
 70
192
 0
VERTEX
 8
CILINDRO_2
 10
-22.113
 20
24.5066
 30
0.5067
 70
192
 0
VERTEX
 8
CILINDRO_2
 10
-16.5366
 20
22.477
 30
0.5067
 70
192
 0
VERTEX
 8
CILINDRO_2
 10
-21.8633
 20
23.859
 30
0.0067
 70
192
 0
VERTEX
 8
CILINDRO_2
 10
-16.9928
 20
23.0002
 30
0.0067
 70
192
 0
VERTEX
 8
CILINDRO_2
 10
-22.0148
 20
23.0002
 30
0.0067
 70
192
 0
VERTEX
 8
CILINDRO_2
 10
-22.335
 20
24.0306
 30
0.5067
 70
192
 0
VERTEX
 8
CILINDRO_2
 10
-21.9766
 20
23.4362
 30
0.0067
 70
192
 0
VERTEX
 8
CILINDRO_2
 10
-22.5167
 20
23.0002
 30
0.5067
 70
192
 0
VERTEX
 8
CILINDRO_2
 10
-21.9766
 20
22.5641
 30
0.0067
 70
192
 0
VERTEX
 8
CILINDRO_2
 10
-22.4709
 20
23.5233
 30
0.5067
 70
192
 0
VERTEX
 8
CILINDRO_2
 10
-22.4709
 20
22.477
 30
0.5067
 70
192
 0
VERTEX
 8
CILINDRO_2
 10
-21.8633
 20
22.1414
 30
0.0067
 70
192
 0
VERTEX
 8
CILINDRO_2
 10
-22.335
 20
21.9697
 30
0.5067
 70
192
 0
VERTEX
 8
CILINDRO_2
 10
-21.6783
 20
21.7447
 30
0.0067
 70
192
 0
VERTEX
 8
CILINDRO_2
 10
-22.113
 20
21.4937
 30
0.5067
 70
192
 0
VERTEX
 8
CILINDRO_2
 10
-21.4273
 20
21.3861
 30
0.0067
 70
192
 0
VERTEX
 8
CILINDRO_2
 10
-21.8118
 20
21.0635
 30
0.5067
 70
192
 0
VERTEX
 8
CILINDRO_2
 10
-21.1178
 20
21.0766
 30
0.0067
 70
192
 0
VERTEX
 8
CILINDRO_2
 10
-21.4404
 20
20.6921
 30
0.5067
 70
192
 0
VERTEX
 8
CILINDRO_2
 10
-20.7593
 20
20.8256
 30
0.0067
 70
192
 0
VERTEX
 8
CILINDRO_2
 10
-21.0102
 20
20.3909
 30
0.5067
 70
192
 0
VERTEX
 8
CILINDRO_2
 10
-20.3626
 20
20.6406
 30
0.0067
 70
192
 0
VERTEX
 8
CILINDRO_2
 10
-20.5342
 20
20.169
 30
0.5067
 70
192
 0
VERTEX
 8
CILINDRO_2
 10
-19.9398
 20
20.5273
 30
0.0067
 70
192
 0
VERTEX
 8
CILINDRO_2
 10
-20.0269
 20
20.033
 30
0.5067
 70
192
 0
VERTEX
 8
CILINDRO_2
 10
-19.5038
 20
20.4892
 30
0.0067
 70
192
 0
VERTEX
 8
CILINDRO_2
 10
-19.5038
 20
19.9873
 30
0.5067
 70
192
 0
VERTEX
 8
CILINDRO_2
 10
-19.0677
 20
20.5273
 30
0.0067
 70
192
 0
VERTEX
 8
CILINDRO_2
 10
-18.9806
 20
20.033
 30
0.5067
 70
192
 0
VERTEX
 8
CILINDRO_2
 10
-18.645
 20
20.6406
 30
0.0067
 70
192
 0
VERTEX
 8
CILINDRO_2
 10
-18.4733
 20
20.169
 30
0.5067
 70
192
 0
VERTEX
 8
CILINDRO_2
 10
-18.2483
 20
20.8256
 30
0.0067
 70
192
 0
VERTEX
 8
CILINDRO_2
 10
-17.9973
 20
20.3909
 30
0.5067
 70
192
 0
VERTEX
 8
CILINDRO_2
 10
-17.8897
 20
21.0766
 30
0.0067
 70
192
 0
VERTEX
 8
CILINDRO_2
 10
-17.5671
 20
20.6921
 30
0.5067
 70
192
 0
VERTEX
 8
CILINDRO_2
 10
-17.5802
 20
21.3861
 30
0.0067
 70
192
 0
VERTEX
 8
CILINDRO_2
 10
-17.1957
 20
21.0635
 30
0.5067
 70
192
 0
VERTEX
 8
CILINDRO_2
 10
-17.3292
 20
21.7447
 30
0.0067
 70
192
 0
VERTEX
 8
CILINDRO_2
 10
-16.8945
 20
21.4937
 30
0.5067
 70
192
 0
VERTEX
 8
CILINDRO_2
 10
-17.1442
 20
22.1414
 30
0.0067
 70
192
 0
VERTEX
 8
CILINDRO_2
 10
-16.6726
 20
21.9697
 30
0.5067
 70
192
 0
VERTEX
 8
CILINDRO_2
 10
-17.0309
 20
22.5641
 30
0.0067
 70
192
 0
VERTEX
 8
CILINDRO_2
 10
-16.6868
 20
21.9749
 30
0.3847
 70
192
 0
VERTEX
 8
CILINDRO_2
 10
-16.7328
 20
21.9916
 30
0.2622
 70
192
 0
VERTEX
 8
CILINDRO_2
 10
-16.8107
 20
22.02
 30
0.1531
 70
192
 0
VERTEX
 8
CILINDRO_2
 10
-16.9136
 20
22.0574
 30
0.0705
 70
192
 0
VERTEX
 8
CILINDRO_2
 10
-17.0291
 20
22.0995
 30
0.0218
 70
192
 0
VERTEX
 8
CILINDRO_2
 10
-16.8703
 20
23.0002
 30
0.0218
 70
192
 0
VERTEX
 8
CILINDRO_2
 10
-16.7473
 20
23.0002
 30
0.0705
 70
192
 0
VERTEX
 8
CILINDRO_2
 10
-16.6379
 20
23.0002
 30
0.1531
 70
192
 0
VERTEX
 8
CILINDRO_2
 10
-16.555
 20
23.0002
 30
0.2622
 70
192
 0
VERTEX
 8
CILINDRO_2
 10
-16.506
 20
23.0002
 30
0.3847
 70
192
 0
VERTEX
 8
CILINDRO_2
 10
-17.5769
 20
20.7038
 30
0.3847
 70
192
 0
VERTEX
 8
CILINDRO_2
 10
-17.6083
 20
20.7413
 30
0.2622
 70
192
 0
VERTEX
 8
CILINDRO_2
 10
-17.6616
 20
20.8048
 30
0.1531
 70
192
 0
VERTEX
 8
CILINDRO_2
 10
-17.732
 20
20.8886
 30
0.0705
 70
192
 0
VERTEX
 8
CILINDRO_2
 10
-17.811
 20
20.9828
 30
0.0218
 70
192
 0
VERTEX
 8
CILINDRO_2
 10
-16.9103
 20
23.4575
 30
0.0218
 70
192
 0
VERTEX
 8
CILINDRO_2
 10
-16.7892
 20
23.4788
 30
0.0705
 70
192
 0
VERTEX
 8
CILINDRO_2
 10
-16.6814
 20
23.4978
 30
0.1531
 70
192
 0
VERTEX
 8
CILINDRO_2
 10
-16.5998
 20
23.5122
 30
0.2622
 70
192
 0
VERTEX
 8
CILINDRO_2
 10
-16.5516
 20
23.5207
 30
0.3847
 70
192
 0
VERTEX
 8
CILINDRO_2
 10
-17.2074
 20
21.0733
 30
0.3847
 70
192
 0
VERTEX
 8
CILINDRO_2
 10
-17.2449
 20
21.1047
 30
0.2622
 70
192
 0
VERTEX
 8
CILINDRO_2
 10
-17.3084
 20
21.158
 30
0.1531
 70
192
 0
VERTEX
 8
CILINDRO_2
 10
-17.3922
 20
21.2284
 30
0.0705
 70
192
 0
VERTEX
 8
CILINDRO_2
 10
-17.4864
 20
21.3074
 30
0.0218
 70
192
 0
VERTEX
 8
CILINDRO_2
 10
-17.0291
 20
23.9009
 30
0.0218
 70
192
 0
VERTEX
 8
CILINDRO_2
 10
-16.9136
 20
23.9429
 30
0.0705
 70
192
 0
VERTEX
 8
CILINDRO_2
 10
-16.8107
 20
23.9804
 30
0.1531
 70
192
 0
VERTEX
 8
CILINDRO_2
 10
-16.7328
 20
24.0087
 30
0.2622
 70
192
 0
VERTEX
 8
CILINDRO_2
 10
-16.6868
 20
24.0254
 30
0.3847
 70
192
 0
VERTEX
 8
CILINDRO_2
 10
-17.2231
 20
24.3169
 30
0.0218
 70
192
 0
VERTEX
 8
CILINDRO_2
 10
-17.1166
 20
24.3784
 30
0.0705
 70
192
 0
VERTEX
 8
CILINDRO_2
 10
-17.0218
 20
24.4331
 30
0.1531
 70
192
 0
VERTEX
 8
CILINDRO_2
 10
-16.95
 20
24.4746
 30
0.2622
 70
192
 0
VERTEX
 8
CILINDRO_2
 10
-16.9077
 20
24.499
 30
0.3847
 70
192
 0
VERTEX
 8
CILINDRO_2
 10
-17.4864
 20
24.6929
 30
0.0218
 70
192
 0
VERTEX
 8
CILINDRO_2
 10
-17.3922
 20
24.772
 30
0.0705
 70
192
 0
VERTEX
 8
CILINDRO_2
 10
-17.3084
 20
24.8423
 30
0.1531
 70
192
 0
VERTEX
 8
CILINDRO_2
 10
-17.2449
 20
24.8956
 30
0.2622
 70
192
 0
VERTEX
 8
CILINDRO_2
 10
-17.2074
 20
24.9271
 30
0.3847
 70
192
 0
VERTEX
 8
CILINDRO_2
 10
-16.5516
 20
22.4796
 30
0.3847
 70
192
 0
VERTEX
 8
CILINDRO_2
 10
-16.5998
 20
22.4881
 30
0.2622
 70
192
 0
VERTEX
 8
CILINDRO_2
 10
-16.6814
 20
22.5025
 30
0.1531
 70
192
 0
VERTEX
 8
CILINDRO_2
 10
-16.7892
 20
22.5215
 30
0.0705
 70
192
 0
VERTEX
 8
CILINDRO_2
 10
-16.9103
 20
22.5429
 30
0.0218
 70
192
 0
VERTEX
 8
CILINDRO_2
 10
-17.811
 20
25.0175
 30
0.0218
 70
192
 0
VERTEX
 8
CILINDRO_2
 10
-17.732
 20
25.1117
 30
0.0705
 70
192
 0
VERTEX
 8
CILINDRO_2
 10
-17.6616
 20
25.1956
 30
0.1531
 70
192
 0
VERTEX
 8
CILINDRO_2
 10
-17.6083
 20
25.2591
 30
0.2622
 70
192
 0
VERTEX
 8
CILINDRO_2
 10
-17.5769
 20
25.2966
 30
0.3847
 70
192
 0
VERTEX
 8
CILINDRO_2
 10
-18.187
 20
25.2808
 30
0.0218
 70
192
 0
VERTEX
 8
CILINDRO_2
 10
-18.1255
 20
25.3873
 30
0.0705
 70
192
 0
VERTEX
 8
CILINDRO_2
 10
-18.0708
 20
25.4821
 30
0.1531
 70
192
 0
VERTEX
 8
CILINDRO_2
 10
-18.0294
 20
25.5539
 30
0.2622
 70
192
 0
VERTEX
 8
CILINDRO_2
 10
-18.0049
 20
25.5963
 30
0.3847
 70
192
 0
VERTEX
 8
CILINDRO_2
 10
-18.4785
 20
25.8171
 30
0.3847
 70
192
 0
VERTEX
 8
CILINDRO_2
 10
-18.4952
 20
25.7711
 30
0.2622
 70
192
 0
VERTEX
 8
CILINDRO_2
 10
-18.5236
 20
25.6932
 30
0.1531
 70
192
 0
VERTEX
 8
CILINDRO_2
 10
-18.561
 20
25.5904
 30
0.0705
 70
192
 0
VERTEX
 8
CILINDRO_2
 10
-18.6031
 20
25.4748
 30
0.0218
 70
192
 0
VERTEX
 8
CILINDRO_2
 10
-19.0465
 20
25.5936
 30
0.0218
 70
192
 0
VERTEX
 8
CILINDRO_2
 10
-19.0251
 20
25.7147
 30
0.0705
 70
192
 0
VERTEX
 8
CILINDRO_2
 10
-19.0061
 20
25.8225
 30
0.1531
 70
192
 0
VERTEX
 8
CILINDRO_2
 10
-18.9917
 20
25.9042
 30
0.2622
 70
192
 0
VERTEX
 8
CILINDRO_2
 10
-18.9832
 20
25.9523
 30
0.3847
 70
192
 0
VERTEX
 8
CILINDRO_2
 10
-19.5038
 20
25.9979
 30
0.3847
 70
192
 0
VERTEX
 8
CILINDRO_2
 10
-19.5038
 20
25.949
 30
0.2622
 70
192
 0
VERTEX
 8
CILINDRO_2
 10
-19.5038
 20
25.8661
 30
0.1531
 70
192
 0
VERTEX
 8
CILINDRO_2
 10
-19.5038
 20
25.7566
 30
0.0705
 70
192
 0
VERTEX
 8
CILINDRO_2
 10
-19.5038
 20
25.6336
 30
0.0218
 70
192
 0
VERTEX
 8
CILINDRO_2
 10
-19.9611
 20
25.5936
 30
0.0218
 70
192
 0
VERTEX
 8
CILINDRO_2
 10
-19.9824
 20
25.7147
 30
0.0705
 70
192
 0
VERTEX
 8
CILINDRO_2
 10
-20.0014
 20
25.8225
 30
0.1531
 70
192
 0
VERTEX
 8
CILINDRO_2
 10
-20.0158
 20
25.9042
 30
0.2622
 70
192
 0
VERTEX
 8
CILINDRO_2
 10
-20.0243
 20
25.9523
 30
0.3847
 70
192
 0
VERTEX
 8
CILINDRO_2
 10
-20.529
 20
25.8171
 30
0.3847
 70
192
 0
VERTEX
 8
CILINDRO_2
 10
-20.5123
 20
25.7711
 30
0.2622
 70
192
 0
VERTEX
 8
CILINDRO_2
 10
-20.484
 20
25.6932
 30
0.1531
 70
192
 0
VERTEX
 8
CILINDRO_2
 10
-20.4465
 20
25.5904
 30
0.0705
 70
192
 0
VERTEX
 8
CILINDRO_2
 10
-20.4045
 20
25.4748
 30
0.0218
 70
192
 0
VERTEX
 8
CILINDRO_2
 10
-21.0026
 20
25.5963
 30
0.3847
 70
192
 0
VERTEX
 8
CILINDRO_2
 10
-20.9782
 20
25.5539
 30
0.2622
 70
192
 0
VERTEX
 8
CILINDRO_2
 10
-20.9367
 20
25.4821
 30
0.1531
 70
192
 0
VERTEX
 8
CILINDRO_2
 10
-20.882
 20
25.3873
 30
0.0705
 70
192
 0
VERTEX
 8
CILINDRO_2
 10
-20.8205
 20
25.2808
 30
0.0218
 70
192
 0
VERTEX
 8
CILINDRO_2
 10
-21.1965
 20
25.0175
 30
0.0218
 70
192
 0
VERTEX
 8
CILINDRO_2
 10
-21.2756
 20
25.1117
 30
0.0705
 70
192
 0
VERTEX
 8
CILINDRO_2
 10
-21.3459
 20
25.1956
 30
0.1531
 70
192
 0
VERTEX
 8
CILINDRO_2
 10
-21.3992
 20
25.2591
 30
0.2622
 70
192
 0
VERTEX
 8
CILINDRO_2
 10
-21.4307
 20
25.2966
 30
0.3847
 70
192
 0
VERTEX
 8
CILINDRO_2
 10
-21.5211
 20
24.6929
 30
0.0218
 70
192
 0
VERTEX
 8
CILINDRO_2
 10
-21.6153
 20
24.772
 30
0.0705
 70
192
 0
VERTEX
 8
CILINDRO_2
 10
-21.6992
 20
24.8423
 30
0.1531
 70
192
 0
VERTEX
 8
CILINDRO_2
 10
-21.7627
 20
24.8956
 30
0.2622
 70
192
 0
VERTEX
 8
CILINDRO_2
 10
-21.8002
 20
24.9271
 30
0.3847
 70
192
 0
VERTEX
 8
CILINDRO_2
 10
-21.7844
 20
24.3169
 30
0.0218
 70
192
 0
VERTEX
 8
CILINDRO_2
 10
-21.8909
 20
24.3784
 30
0.0705
 70
192
 0
VERTEX
 8
CILINDRO_2
 10
-21.9857
 20
24.4331
 30
0.1531
 70
192
 0
VERTEX
 8
CILINDRO_2
 10
-22.0575
 20
24.4746
 30
0.2622
 70
192
 0
VERTEX
 8
CILINDRO_2
 10
-22.0999
 20
24.499
 30
0.3847
 70
192
 0
VERTEX
 8
CILINDRO_2
 10
-22.3207
 20
24.0254
 30
0.3847
 70
192
 0
VERTEX
 8
CILINDRO_2
 10
-22.2747
 20
24.0087
 30
0.2622
 70
192
 0
VERTEX
 8
CILINDRO_2
 10
-22.1968
 20
23.9804
 30
0.1531
 70
192
 0
VERTEX
 8
CILINDRO_2
 10
-22.094
 20
23.9429
 30
0.0705
 70
192
 0
VERTEX
 8
CILINDRO_2
 10
-21.9784
 20
23.9009
 30
0.0218
 70
192
 0
VERTEX
 8
CILINDRO_2
 10
-22.0972
 20
23.4575
 30
0.0218
 70
192
 0
VERTEX
 8
CILINDRO_2
 10
-22.2183
 20
23.4788
 30
0.0705
 70
192
 0
VERTEX
 8
CILINDRO_2
 10
-22.3261
 20
23.4978
 30
0.1531
 70
192
 0
VERTEX
 8
CILINDRO_2
 10
-22.4078
 20
23.5122
 30
0.2622
 70
192
 0
VERTEX
 8
CILINDRO_2
 10
-22.4559
 20
23.5207
 30
0.3847
 70
192
 0
VERTEX
 8
CILINDRO_2
 10
-22.1372
 20
23.0002
 30
0.0218
 70
192
 0
VERTEX
 8
CILINDRO_2
 10
-22.2602
 20
23.0002
 30
0.0705
 70
192
 0
VERTEX
 8
CILINDRO_2
 10
-22.3697
 20
23.0002
 30
0.1531
 70
192
 0
VERTEX
 8
CILINDRO_2
 10
-22.4525
 20
23.0002
 30
0.2622
 70
192
 0
VERTEX
 8
CILINDRO_2
 10
-22.5015
 20
23.0002
 30
0.3847
 70
192
 0
VERTEX
 8
CILINDRO_2
 10
-22.4559
 20
22.4796
 30
0.3847
 70
192
 0
VERTEX
 8
CILINDRO_2
 10
-22.4078
 20
22.4881
 30
0.2622
 70
192
 0
VERTEX
 8
CILINDRO_2
 10
-22.3261
 20
22.5025
 30
0.1531
 70
192
 0
VERTEX
 8
CILINDRO_2
 10
-22.2183
 20
22.5215
 30
0.0705
 70
192
 0
VERTEX
 8
CILINDRO_2
 10
-22.0972
 20
22.5429
 30
0.0218
 70
192
 0
VERTEX
 8
CILINDRO_2
 10
-22.3207
 20
21.9749
 30
0.3847
 70
192
 0
VERTEX
 8
CILINDRO_2
 10
-22.2747
 20
21.9916
 30
0.2622
 70
192
 0
VERTEX
 8
CILINDRO_2
 10
-22.1968
 20
22.02
 30
0.1531
 70
192
 0
VERTEX
 8
CILINDRO_2
 10
-22.094
 20
22.0574
 30
0.0705
 70
192
 0
VERTEX
 8
CILINDRO_2
 10
-21.9784
 20
22.0995
 30
0.0218
 70
192
 0
VERTEX
 8
CILINDRO_2
 10
-22.0999
 20
21.5013
 30
0.3847
 70
192
 0
VERTEX
 8
CILINDRO_2
 10
-22.0575
 20
21.5258
 30
0.2622
 70
192
 0
VERTEX
 8
CILINDRO_2
 10
-21.9857
 20
21.5672
 30
0.1531
 70
192
 0
VERTEX
 8
CILINDRO_2
 10
-21.8909
 20
21.6219
 30
0.0705
 70
192
 0
VERTEX
 8
CILINDRO_2
 10
-21.7844
 20
21.6834
 30
0.0218
 70
192
 0
VERTEX
 8
CILINDRO_2
 10
-21.8002
 20
21.0733
 30
0.3847
 70
192
 0
VERTEX
 8
CILINDRO_2
 10
-21.7627
 20
21.1047
 30
0.2622
 70
192
 0
VERTEX
 8
CILINDRO_2
 10
-21.6992
 20
21.158
 30
0.1531
 70
192
 0
VERTEX
 8
CILINDRO_2
 10
-21.6153
 20
21.2284
 30
0.0705
 70
192
 0
VERTEX
 8
CILINDRO_2
 10
-21.5211
 20
21.3074
 30
0.0218
 70
192
 0
VERTEX
 8
CILINDRO_2
 10
-21.4307
 20
20.7038
 30
0.3847
 70
192
 0
VERTEX
 8
CILINDRO_2
 10
-21.3992
 20
20.7413
 30
0.2622
 70
192
 0
VERTEX
 8
CILINDRO_2
 10
-21.3459
 20
20.8048
 30
0.1531
 70
192
 0
VERTEX
 8
CILINDRO_2
 10
-21.2756
 20
20.8886
 30
0.0705
 70
192
 0
VERTEX
 8
CILINDRO_2
 10
-21.1965
 20
20.9828
 30
0.0218
 70
192
 0
VERTEX
 8
CILINDRO_2
 10
-21.0026
 20
20.4041
 30
0.3847
 70
192
 0
VERTEX
 8
CILINDRO_2
 10
-20.9782
 20
20.4464
 30
0.2622
 70
192
 0
VERTEX
 8
CILINDRO_2
 10
-20.9367
 20
20.5182
 30
0.1531
 70
192
 0
VERTEX
 8
CILINDRO_2
 10
-20.882
 20
20.613
 30
0.0705
 70
192
 0
VERTEX
 8
CILINDRO_2
 10
-20.8205
 20
20.7195
 30
0.0218
 70
192
 0
VERTEX
 8
CILINDRO_2
 10
-20.529
 20
20.1832
 30
0.3847
 70
192
 0
VERTEX
 8
CILINDRO_2
 10
-20.5123
 20
20.2292
 30
0.2622
 70
192
 0
VERTEX
 8
CILINDRO_2
 10
-20.484
 20
20.3071
 30
0.1531
 70
192
 0
VERTEX
 8
CILINDRO_2
 10
-20.4465
 20
20.41
 30
0.0705
 70
192
 0
VERTEX
 8
CILINDRO_2
 10
-20.4045
 20
20.5255
 30
0.0218
 70
192
 0
VERTEX
 8
CILINDRO_2
 10
-20.0243
 20
20.048
 30
0.3847
 70
192
 0
VERTEX
 8
CILINDRO_2
 10
-20.0158
 20
20.0962
 30
0.2622
 70
192
 0
VERTEX
 8
CILINDRO_2
 10
-20.0014
 20
20.1778
 30
0.1531
 70
192
 0
VERTEX
 8
CILINDRO_2
 10
-19.9824
 20
20.2856
 30
0.0705
 70
192
 0
VERTEX
 8
CILINDRO_2
 10
-19.9611
 20
20.4067
 30
0.0218
 70
192
 0
VERTEX
 8
CILINDRO_2
 10
-19.5038
 20
20.0024
 30
0.3847
 70
192
 0
VERTEX
 8
CILINDRO_2
 10
-19.5038
 20
20.0514
 30
0.2622
 70
192
 0
VERTEX
 8
CILINDRO_2
 10
-19.5038
 20
20.1343
 30
0.1531
 70
192
 0
VERTEX
 8
CILINDRO_2
 10
-19.5038
 20
20.2437
 30
0.0705
 70
192
 0
VERTEX
 8
CILINDRO_2
 10
-19.5038
 20
20.3667
 30
0.0218
 70
192
 0
VERTEX
 8
CILINDRO_2
 10
-18.9832
 20
20.048
 30
0.3847
 70
192
 0
VERTEX
 8
CILINDRO_2
 10
-18.9917
 20
20.0962
 30
0.2622
 70
192
 0
VERTEX
 8
CILINDRO_2
 10
-19.0061
 20
20.1778
 30
0.1531
 70
192
 0
VERTEX
 8
CILINDRO_2
 10
-19.0251
 20
20.2856
 30
0.0705
 70
192
 0
VERTEX
 8
CILINDRO_2
 10
-19.0465
 20
20.4067
 30
0.0218
 70
192
 0
VERTEX
 8
CILINDRO_2
 10
-18.4785
 20
20.1832
 30
0.3847
 70
192
 0
VERTEX
 8
CILINDRO_2
 10
-18.4952
 20
20.2292
 30
0.2622
 70
192
 0
VERTEX
 8
CILINDRO_2
 10
-18.5236
 20
20.3071
 30
0.1531
 70
192
 0
VERTEX
 8
CILINDRO_2
 10
-18.561
 20
20.41
 30
0.0705
 70
192
 0
VERTEX
 8
CILINDRO_2
 10
-18.6031
 20
20.5255
 30
0.0218
 70
192
 0
VERTEX
 8
CILINDRO_2
 10
-18.0049
 20
20.4041
 30
0.3847
 70
192
 0
VERTEX
 8
CILINDRO_2
 10
-18.0294
 20
20.4464
 30
0.2622
 70
192
 0
VERTEX
 8
CILINDRO_2
 10
-18.0708
 20
20.5182
 30
0.1531
 70
192
 0
VERTEX
 8
CILINDRO_2
 10
-18.1255
 20
20.613
 30
0.0705
 70
192
 0
VERTEX
 8
CILINDRO_2
 10
-18.187
 20
20.7195
 30
0.0218
 70
192
 0
VERTEX
 8
CILINDRO_2
 10
-16.9077
 20
21.5013
 30
0.3847
 70
192
 0
VERTEX
 8
CILINDRO_2
 10
-16.95
 20
21.5258
 30
0.2622
 70
192
 0
VERTEX
 8
CILINDRO_2
 10
-17.0218
 20
21.5672
 30
0.1531
 70
192
 0
VERTEX
 8
CILINDRO_2
 10
-17.1166
 20
21.6219
 30
0.0705
 70
192
 0
VERTEX
 8
CILINDRO_2
 10
-17.2231
 20
21.6834
 30
0.0218
 70
192
 0
VERTEX
 8
CILINDRO_2
 10
0
 20
0
 30
0
 70
128
 71
1
 72
72
 73
39
 74
39
 0
VERTEX
 8
CILINDRO_2
 10
0
 20
0
 30
0
 70
128
 71
40
 72
3
 73
4
 74
42
 0
VERTEX
 8
CILINDRO_2
 10
0
 20
0
 30
0
 70
128
 71
3
 72
2
 73
4
 74
4
 0
VERTEX
 8
CILINDRO_2
 10
0
 20
0
 30
0
 70
128
 71
1
 72
39
 73
41
 74
41
 0
VERTEX
 8
CILINDRO_2
 10
0
 20
0
 30
0
 70
128
 71
42
 72
4
 73
5
 74
44
 0
VERTEX
 8
CILINDRO_2
 10
0
 20
0
 30
0
 70
128
 71
4
 72
2
 73
5
 74
5
 0
VERTEX
 8
CILINDRO_2
 10
0
 20
0
 30
0
 70
128
 71
1
 72
41
 73
43
 74
43
 0
VERTEX
 8
CILINDRO_2
 10
0
 20
0
 30
0
 70
128
 71
44
 72
5
 73
6
 74
46
 0
VERTEX
 8
CILINDRO_2
 10
0
 20
0
 30
0
 70
128
 71
5
 72
2
 73
6
 74
6
 0
VERTEX
 8
CILINDRO_2
 10
0
 20
0
 30
0
 70
128
 71
1
 72
43
 73
45
 74
45
 0
VERTEX
 8
CILINDRO_2
 10
0
 20
0
 30
0
 70
128
 71
46
 72
6
 73
7
 74
48
 0
VERTEX
 8
CILINDRO_2
 10
0
 20
0
 30
0
 70
128
 71
6
 72
2
 73
7
 74
7
 0
VERTEX
 8
CILINDRO_2
 10
0
 20
0
 30
0
 70
128
 71
1
 72
45
 73
47
 74
47
 0
VERTEX
 8
CILINDRO_2
 10
0
 20
0
 30
0
 70
128
 71
48
 72
7
 73
8
 74
50
 0
VERTEX
 8
CILINDRO_2
 10
0
 20
0
 30
0
 70
128
 71
7
 72
2
 73
8
 74
8
 0
VERTEX
 8
CILINDRO_2
 10
0
 20
0
 30
0
 70
128
 71
1
 72
47
 73
49
 74
49
 0
VERTEX
 8
CILINDRO_2
 10
0
 20
0
 30
0
 70
128
 71
50
 72
8
 73
9
 74
51
 0
VERTEX
 8
CILINDRO_2
 10
0
 20
0
 30
0
 70
128
 71
8
 72
2
 73
9
 74
9
 0
VERTEX
 8
CILINDRO_2
 10
0
 20
0
 30
0
 70
128
 71
1
 72
49
 73
52
 74
52
 0
VERTEX
 8
CILINDRO_2
 10
0
 20
0
 30
0
 70
128
 71
51
 72
9
 73
10
 74
54
 0
VERTEX
 8
CILINDRO_2
 10
0
 20
0
 30
0
 70
128
 71
9
 72
2
 73
10
 74
10
 0
VERTEX
 8
CILINDRO_2
 10
0
 20
0
 30
0
 70
128
 71
1
 72
52
 73
53
 74
53
 0
VERTEX
 8
CILINDRO_2
 10
0
 20
0
 30
0
 70
128
 71
54
 72
10
 73
11
 74
55
 0
VERTEX
 8
CILINDRO_2
 10
0
 20
0
 30
0
 70
128
 71
10
 72
2
 73
11
 74
11
 0
VERTEX
 8
CILINDRO_2
 10
0
 20
0
 30
0
 70
128
 71
1
 72
53
 73
56
 74
56
 0
VERTEX
 8
CILINDRO_2
 10
0
 20
0
 30
0
 70
128
 71
55
 72
11
 73
12
 74
58
 0
VERTEX
 8
CILINDRO_2
 10
0
 20
0
 30
0
 70
128
 71
11
 72
2
 73
12
 74
12
 0
VERTEX
 8
CILINDRO_2
 10
0
 20
0
 30
0
 70
128
 71
1
 72
56
 73
57
 74
57
 0
VERTEX
 8
CILINDRO_2
 10
0
 20
0
 30
0
 70
128
 71
58
 72
12
 73
13
 74
59
 0
VERTEX
 8
CILINDRO_2
 10
0
 20
0
 30
0
 70
128
 71
12
 72
2
 73
13
 74
13
 0
VERTEX
 8
CILINDRO_2
 10
0
 20
0
 30
0
 70
128
 71
1
 72
57
 73
60
 74
60
 0
VERTEX
 8
CILINDRO_2
 10
0
 20
0
 30
0
 70
128
 71
59
 72
13
 73
14
 74
61
 0
VERTEX
 8
CILINDRO_2
 10
0
 20
0
 30
0
 70
128
 71
13
 72
2
 73
14
 74
14
 0
VERTEX
 8
CILINDRO_2
 10
0
 20
0
 30
0
 70
128
 71
1
 72
60
 73
62
 74
62
 0
VERTEX
 8
CILINDRO_2
 10
0
 20
0
 30
0
 70
128
 71
61
 72
14
 73
15
 74
65
 0
VERTEX
 8
CILINDRO_2
 10
0
 20
0
 30
0
 70
128
 71
14
 72
2
 73
15
 74
15
 0
VERTEX
 8
CILINDRO_2
 10
0
 20
0
 30
0
 70
128
 71
1
 72
62
 73
64
 74
64
 0
VERTEX
 8
CILINDRO_2
 10
0
 20
0
 30
0
 70
128
 71
65
 72
15
 73
16
 74
68
 0
VERTEX
 8
CILINDRO_2
 10
0
 20
0
 30
0
 70
128
 71
15
 72
2
 73
16
 74
16
 0
VERTEX
 8
CILINDRO_2
 10
0
 20
0
 30
0
 70
128
 71
1
 72
64
 73
63
 74
63
 0
VERTEX
 8
CILINDRO_2
 10
0
 20
0
 30
0
 70
128
 71
68
 72
16
 73
17
 74
67
 0
VERTEX
 8
CILINDRO_2
 10
0
 20
0
 30
0
 70
128
 71
16
 72
2
 73
17
 74
17
 0
VERTEX
 8
CILINDRO_2
 10
0
 20
0
 30
0
 70
128
 71
1
 72
63
 73
66
 74
66
 0
VERTEX
 8
CILINDRO_2
 10
0
 20
0
 30
0
 70
128
 71
67
 72
17
 73
18
 74
69
 0
VERTEX
 8
CILINDRO_2
 10
0
 20
0
 30
0
 70
128
 71
17
 72
2
 73
18
 74
18
 0
VERTEX
 8
CILINDRO_2
 10
0
 20
0
 30
0
 70
128
 71
1
 72
66
 73
71
 74
71
 0
VERTEX
 8
CILINDRO_2
 10
0
 20
0
 30
0
 70
128
 71
69
 72
18
 73
19
 74
74
 0
VERTEX
 8
CILINDRO_2
 10
0
 20
0
 30
0
 70
128
 71
18
 72
2
 73
19
 74
19
 0
VERTEX
 8
CILINDRO_2
 10
0
 20
0
 30
0
 70
128
 71
1
 72
71
 73
75
 74
75
 0
VERTEX
 8
CILINDRO_2
 10
0
 20
0
 30
0
 70
128
 71
74
 72
19
 73
20
 74
78
 0
VERTEX
 8
CILINDRO_2
 10
0
 20
0
 30
0
 70
128
 71
19
 72
2
 73
20
 74
20
 0
VERTEX
 8
CILINDRO_2
 10
0
 20
0
 30
0
 70
128
 71
1
 72
75
 73
73
 74
73
 0
VERTEX
 8
CILINDRO_2
 10
0
 20
0
 30
0
 70
128
 71
78
 72
20
 73
21
 74
76
 0
VERTEX
 8
CILINDRO_2
 10
0
 20
0
 30
0
 70
128
 71
20
 72
2
 73
21
 74
21
 0
VERTEX
 8
CILINDRO_2
 10
0
 20
0
 30
0
 70
128
 71
1
 72
73
 73
77
 74
77
 0
VERTEX
 8
CILINDRO_2
 10
0
 20
0
 30
0
 70
128
 71
76
 72
21
 73
22
 74
79
 0
VERTEX
 8
CILINDRO_2
 10
0
 20
0
 30
0
 70
128
 71
21
 72
2
 73
22
 74
22
 0
VERTEX
 8
CILINDRO_2
 10
0
 20
0
 30
0
 70
128
 71
1
 72
77
 73
80
 74
80
 0
VERTEX
 8
CILINDRO_2
 10
0
 20
0
 30
0
 70
128
 71
79
 72
22
 73
23
 74
81
 0
VERTEX
 8
CILINDRO_2
 10
0
 20
0
 30
0
 70
128
 71
22
 72
2
 73
23
 74
23
 0
VERTEX
 8
CILINDRO_2
 10
0
 20
0
 30
0
 70
128
 71
1
 72
80
 73
82
 74
82
 0
VERTEX
 8
CILINDRO_2
 10
0
 20
0
 30
0
 70
128
 71
81
 72
23
 73
24
 74
83
 0
VERTEX
 8
CILINDRO_2
 10
0
 20
0
 30
0
 70
128
 71
23
 72
2
 73
24
 74
24
 0
VERTEX
 8
CILINDRO_2
 10
0
 20
0
 30
0
 70
128
 71
1
 72
82
 73
84
 74
84
 0
VERTEX
 8
CILINDRO_2
 10
0
 20
0
 30
0
 70
128
 71
83
 72
24
 73
25
 74
85
 0
VERTEX
 8
CILINDRO_2
 10
0
 20
0
 30
0
 70
128
 71
24
 72
2
 73
25
 74
25
 0
VERTEX
 8
CILINDRO_2
 10
0
 20
0
 30
0
 70
128
 71
1
 72
84
 73
86
 74
86
 0
VERTEX
 8
CILINDRO_2
 10
0
 20
0
 30
0
 70
128
 71
85
 72
25
 73
26
 74
87
 0
VERTEX
 8
CILINDRO_2
 10
0
 20
0
 30
0
 70
128
 71
25
 72
2
 73
26
 74
26
 0
VERTEX
 8
CILINDRO_2
 10
0
 20
0
 30
0
 70
128
 71
1
 72
86
 73
88
 74
88
 0
VERTEX
 8
CILINDRO_2
 10
0
 20
0
 30
0
 70
128
 71
87
 72
26
 73
27
 74
89
 0
VERTEX
 8
CILINDRO_2
 10
0
 20
0
 30
0
 70
128
 71
26
 72
2
 73
27
 74
27
 0
VERTEX
 8
CILINDRO_2
 10
0
 20
0
 30
0
 70
128
 71
1
 72
88
 73
90
 74
90
 0
VERTEX
 8
CILINDRO_2
 10
0
 20
0
 30
0
 70
128
 71
89
 72
27
 73
28
 74
91
 0
VERTEX
 8
CILINDRO_2
 10
0
 20
0
 30
0
 70
128
 71
27
 72
2
 73
28
 74
28
 0
VERTEX
 8
CILINDRO_2
 10
0
 20
0
 30
0
 70
128
 71
1
 72
90
 73
92
 74
92
 0
VERTEX
 8
CILINDRO_2
 10
0
 20
0
 30
0
 70
128
 71
91
 72
28
 73
29
 74
93
 0
VERTEX
 8
CILINDRO_2
 10
0
 20
0
 30
0
 70
128
 71
28
 72
2
 73
29
 74
29
 0
VERTEX
 8
CILINDRO_2
 10
0
 20
0
 30
0
 70
128
 71
1
 72
92
 73
94
 74
94
 0
VERTEX
 8
CILINDRO_2
 10
0
 20
0
 30
0
 70
128
 71
93
 72
29
 73
30
 74
95
 0
VERTEX
 8
CILINDRO_2
 10
0
 20
0
 30
0
 70
128
 71
29
 72
2
 73
30
 74
30
 0
VERTEX
 8
CILINDRO_2
 10
0
 20
0
 30
0
 70
128
 71
1
 72
94
 73
96
 74
96
 0
VERTEX
 8
CILINDRO_2
 10
0
 20
0
 30
0
 70
128
 71
95
 72
30
 73
31
 74
97
 0
VERTEX
 8
CILINDRO_2
 10
0
 20
0
 30
0
 70
128
 71
30
 72
2
 73
31
 74
31
 0
VERTEX
 8
CILINDRO_2
 10
0
 20
0
 30
0
 70
128
 71
1
 72
96
 73
98
 74
98
 0
VERTEX
 8
CILINDRO_2
 10
0
 20
0
 30
0
 70
128
 71
97
 72
31
 73
32
 74
99
 0
VERTEX
 8
CILINDRO_2
 10
0
 20
0
 30
0
 70
128
 71
31
 72
2
 73
32
 74
32
 0
VERTEX
 8
CILINDRO_2
 10
0
 20
0
 30
0
 70
128
 71
1
 72
98
 73
100
 74
100
 0
VERTEX
 8
CILINDRO_2
 10
0
 20
0
 30
0
 70
128
 71
99
 72
32
 73
33
 74
101
 0
VERTEX
 8
CILINDRO_2
 10
0
 20
0
 30
0
 70
128
 71
32
 72
2
 73
33
 74
33
 0
VERTEX
 8
CILINDRO_2
 10
0
 20
0
 30
0
 70
128
 71
1
 72
100
 73
102
 74
102
 0
VERTEX
 8
CILINDRO_2
 10
0
 20
0
 30
0
 70
128
 71
101
 72
33
 73
34
 74
103
 0
VERTEX
 8
CILINDRO_2
 10
0
 20
0
 30
0
 70
128
 71
33
 72
2
 73
34
 74
34
 0
VERTEX
 8
CILINDRO_2
 10
0
 20
0
 30
0
 70
128
 71
1
 72
102
 73
104
 74
104
 0
VERTEX
 8
CILINDRO_2
 10
0
 20
0
 30
0
 70
128
 71
103
 72
34
 73
35
 74
105
 0
VERTEX
 8
CILINDRO_2
 10
0
 20
0
 30
0
 70
128
 71
34
 72
2
 73
35
 74
35
 0
VERTEX
 8
CILINDRO_2
 10
0
 20
0
 30
0
 70
128
 71
1
 72
104
 73
106
 74
106
 0
VERTEX
 8
CILINDRO_2
 10
0
 20
0
 30
0
 70
128
 71
105
 72
35
 73
36
 74
107
 0
VERTEX
 8
CILINDRO_2
 10
0
 20
0
 30
0
 70
128
 71
35
 72
2
 73
36
 74
36
 0
VERTEX
 8
CILINDRO_2
 10
0
 20
0
 30
0
 70
128
 71
1
 72
106
 73
108
 74
108
 0
VERTEX
 8
CILINDRO_2
 10
0
 20
0
 30
0
 70
128
 71
107
 72
36
 73
37
 74
109
 0
VERTEX
 8
CILINDRO_2
 10
0
 20
0
 30
0
 70
128
 71
36
 72
2
 73
37
 74
37
 0
VERTEX
 8
CILINDRO_2
 10
0
 20
0
 30
0
 70
128
 71
1
 72
108
 73
110
 74
110
 0
VERTEX
 8
CILINDRO_2
 10
0
 20
0
 30
0
 70
128
 71
109
 72
37
 73
38
 74
70
 0
VERTEX
 8
CILINDRO_2
 10
0
 20
0
 30
0
 70
128
 71
37
 72
2
 73
38
 74
38
 0
VERTEX
 8
CILINDRO_2
 10
0
 20
0
 30
0
 70
128
 71
1
 72
110
 73
72
 74
72
 0
VERTEX
 8
CILINDRO_2
 10
0
 20
0
 30
0
 70
128
 71
70
 72
38
 73
3
 74
40
 0
VERTEX
 8
CILINDRO_2
 10
0
 20
0
 30
0
 70
128
 71
38
 72
2
 73
3
 74
3
 0
VERTEX
 8
CILINDRO_2
 10
0
 20
0
 30
0
 70
128
 71
42
 72
130
 73
120
 74
40
 0
VERTEX
 8
CILINDRO_2
 10
0
 20
0
 30
0
 70
128
 71
44
 72
140
 73
130
 74
42
 0
VERTEX
 8
CILINDRO_2
 10
0
 20
0
 30
0
 70
128
 71
46
 72
145
 73
140
 74
44
 0
VERTEX
 8
CILINDRO_2
 10
0
 20
0
 30
0
 70
128
 71
48
 72
150
 73
145
 74
46
 0
VERTEX
 8
CILINDRO_2
 10
0
 20
0
 30
0
 70
128
 71
50
 72
160
 73
150
 74
48
 0
VERTEX
 8
CILINDRO_2
 10
0
 20
0
 30
0
 70
128
 71
51
 72
165
 73
160
 74
50
 0
VERTEX
 8
CILINDRO_2
 10
0
 20
0
 30
0
 70
128
 71
54
 72
166
 73
165
 74
51
 0
VERTEX
 8
CILINDRO_2
 10
0
 20
0
 30
0
 70
128
 71
55
 72
175
 73
166
 74
54
 0
VERTEX
 8
CILINDRO_2
 10
0
 20
0
 30
0
 70
128
 71
58
 72
176
 73
175
 74
55
 0
VERTEX
 8
CILINDRO_2
 10
0
 20
0
 30
0
 70
128
 71
59
 72
185
 73
176
 74
58
 0
VERTEX
 8
CILINDRO_2
 10
0
 20
0
 30
0
 70
128
 71
61
 72
186
 73
185
 74
59
 0
VERTEX
 8
CILINDRO_2
 10
0
 20
0
 30
0
 70
128
 71
65
 72
191
 73
186
 74
61
 0
VERTEX
 8
CILINDRO_2
 10
0
 20
0
 30
0
 70
128
 71
68
 72
200
 73
191
 74
65
 0
VERTEX
 8
CILINDRO_2
 10
0
 20
0
 30
0
 70
128
 71
67
 72
205
 73
200
 74
68
 0
VERTEX
 8
CILINDRO_2
 10
0
 20
0
 30
0
 70
128
 71
69
 72
210
 73
205
 74
67
 0
VERTEX
 8
CILINDRO_2
 10
0
 20
0
 30
0
 70
128
 71
74
 72
211
 73
210
 74
69
 0
VERTEX
 8
CILINDRO_2
 10
0
 20
0
 30
0
 70
128
 71
78
 72
220
 73
211
 74
74
 0
VERTEX
 8
CILINDRO_2
 10
0
 20
0
 30
0
 70
128
 71
76
 72
225
 73
220
 74
78
 0
VERTEX
 8
CILINDRO_2
 10
0
 20
0
 30
0
 70
128
 71
79
 72
226
 73
225
 74
76
 0
VERTEX
 8
CILINDRO_2
 10
0
 20
0
 30
0
 70
128
 71
81
 72
231
 73
226
 74
79
 0
VERTEX
 8
CILINDRO_2
 10
0
 20
0
 30
0
 70
128
 71
83
 72
236
 73
231
 74
81
 0
VERTEX
 8
CILINDRO_2
 10
0
 20
0
 30
0
 70
128
 71
85
 72
241
 73
236
 74
83
 0
VERTEX
 8
CILINDRO_2
 10
0
 20
0
 30
0
 70
128
 71
87
 72
246
 73
241
 74
85
 0
VERTEX
 8
CILINDRO_2
 10
0
 20
0
 30
0
 70
128
 71
89
 72
251
 73
246
 74
87
 0
VERTEX
 8
CILINDRO_2
 10
0
 20
0
 30
0
 70
128
 71
91
 72
256
 73
251
 74
89
 0
VERTEX
 8
CILINDRO_2
 10
0
 20
0
 30
0
 70
128
 71
93
 72
261
 73
256
 74
91
 0
VERTEX
 8
CILINDRO_2
 10
0
 20
0
 30
0
 70
128
 71
95
 72
266
 73
261
 74
93
 0
VERTEX
 8
CILINDRO_2
 10
0
 20
0
 30
0
 70
128
 71
97
 72
271
 73
266
 74
95
 0
VERTEX
 8
CILINDRO_2
 10
0
 20
0
 30
0
 70
128
 71
99
 72
276
 73
271
 74
97
 0
VERTEX
 8
CILINDRO_2
 10
0
 20
0
 30
0
 70
128
 71
101
 72
281
 73
276
 74
99
 0
VERTEX
 8
CILINDRO_2
 10
0
 20
0
 30
0
 70
128
 71
103
 72
121
 73
281
 74
101
 0
VERTEX
 8
CILINDRO_2
 10
0
 20
0
 30
0
 70
128
 71
105
 72
131
 73
121
 74
103
 0
VERTEX
 8
CILINDRO_2
 10
0
 20
0
 30
0
 70
128
 71
107
 72
286
 73
131
 74
105
 0
VERTEX
 8
CILINDRO_2
 10
0
 20
0
 30
0
 70
128
 71
109
 72
111
 73
286
 74
107
 0
VERTEX
 8
CILINDRO_2
 10
0
 20
0
 30
0
 70
128
 71
70
 72
151
 73
111
 74
109
 0
VERTEX
 8
CILINDRO_2
 10
0
 20
0
 30
0
 70
128
 71
40
 72
120
 73
151
 74
70
 0
VERTEX
 8
CILINDRO_2
 10
0
 20
0
 30
0
 70
128
 71
130
 72
129
 73
119
 74
120
 0
VERTEX
 8
CILINDRO_2
 10
0
 20
0
 30
0
 70
128
 71
129
 72
128
 73
118
 74
119
 0
VERTEX
 8
CILINDRO_2
 10
0
 20
0
 30
0
 70
128
 71
128
 72
127
 73
117
 74
118
 0
VERTEX
 8
CILINDRO_2
 10
0
 20
0
 30
0
 70
128
 71
127
 72
126
 73
116
 74
117
 0
VERTEX
 8
CILINDRO_2
 10
0
 20
0
 30
0
 70
128
 71
126
 72
39
 73
72
 74
116
 0
VERTEX
 8
CILINDRO_2
 10
0
 20
0
 30
0
 70
128
 71
140
 72
139
 73
129
 74
130
 0
VERTEX
 8
CILINDRO_2
 10
0
 20
0
 30
0
 70
128
 71
139
 72
138
 73
128
 74
129
 0
VERTEX
 8
CILINDRO_2
 10
0
 20
0
 30
0
 70
128
 71
138
 72
137
 73
127
 74
128
 0
VERTEX
 8
CILINDRO_2
 10
0
 20
0
 30
0
 70
128
 71
137
 72
136
 73
126
 74
127
 0
VERTEX
 8
CILINDRO_2
 10
0
 20
0
 30
0
 70
128
 71
136
 72
41
 73
39
 74
126
 0
VERTEX
 8
CILINDRO_2
 10
0
 20
0
 30
0
 70
128
 71
145
 72
144
 73
139
 74
140
 0
VERTEX
 8
CILINDRO_2
 10
0
 20
0
 30
0
 70
128
 71
144
 72
143
 73
138
 74
139
 0
VERTEX
 8
CILINDRO_2
 10
0
 20
0
 30
0
 70
128
 71
143
 72
142
 73
137
 74
138
 0
VERTEX
 8
CILINDRO_2
 10
0
 20
0
 30
0
 70
128
 71
142
 72
141
 73
136
 74
137
 0
VERTEX
 8
CILINDRO_2
 10
0
 20
0
 30
0
 70
128
 71
141
 72
43
 73
41
 74
136
 0
VERTEX
 8
CILINDRO_2
 10
0
 20
0
 30
0
 70
128
 71
150
 72
149
 73
144
 74
145
 0
VERTEX
 8
CILINDRO_2
 10
0
 20
0
 30
0
 70
128
 71
149
 72
148
 73
143
 74
144
 0
VERTEX
 8
CILINDRO_2
 10
0
 20
0
 30
0
 70
128
 71
148
 72
147
 73
142
 74
143
 0
VERTEX
 8
CILINDRO_2
 10
0
 20
0
 30
0
 70
128
 71
147
 72
146
 73
141
 74
142
 0
VERTEX
 8
CILINDRO_2
 10
0
 20
0
 30
0
 70
128
 71
146
 72
45
 73
43
 74
141
 0
VERTEX
 8
CILINDRO_2
 10
0
 20
0
 30
0
 70
128
 71
160
 72
159
 73
149
 74
150
 0
VERTEX
 8
CILINDRO_2
 10
0
 20
0
 30
0
 70
128
 71
159
 72
158
 73
148
 74
149
 0
VERTEX
 8
CILINDRO_2
 10
0
 20
0
 30
0
 70
128
 71
158
 72
157
 73
147
 74
148
 0
VERTEX
 8
CILINDRO_2
 10
0
 20
0
 30
0
 70
128
 71
157
 72
156
 73
146
 74
147
 0
VERTEX
 8
CILINDRO_2
 10
0
 20
0
 30
0
 70
128
 71
156
 72
47
 73
45
 74
146
 0
VERTEX
 8
CILINDRO_2
 10
0
 20
0
 30
0
 70
128
 71
165
 72
164
 73
159
 74
160
 0
VERTEX
 8
CILINDRO_2
 10
0
 20
0
 30
0
 70
128
 71
164
 72
163
 73
158
 74
159
 0
VERTEX
 8
CILINDRO_2
 10
0
 20
0
 30
0
 70
128
 71
163
 72
162
 73
157
 74
158
 0
VERTEX
 8
CILINDRO_2
 10
0
 20
0
 30
0
 70
128
 71
162
 72
161
 73
156
 74
157
 0
VERTEX
 8
CILINDRO_2
 10
0
 20
0
 30
0
 70
128
 71
161
 72
49
 73
47
 74
156
 0
VERTEX
 8
CILINDRO_2
 10
0
 20
0
 30
0
 70
128
 71
166
 72
167
 73
164
 74
165
 0
VERTEX
 8
CILINDRO_2
 10
0
 20
0
 30
0
 70
128
 71
167
 72
168
 73
163
 74
164
 0
VERTEX
 8
CILINDRO_2
 10
0
 20
0
 30
0
 70
128
 71
168
 72
169
 73
162
 74
163
 0
VERTEX
 8
CILINDRO_2
 10
0
 20
0
 30
0
 70
128
 71
169
 72
170
 73
161
 74
162
 0
VERTEX
 8
CILINDRO_2
 10
0
 20
0
 30
0
 70
128
 71
170
 72
52
 73
49
 74
161
 0
VERTEX
 8
CILINDRO_2
 10
0
 20
0
 30
0
 70
128
 71
175
 72
174
 73
167
 74
166
 0
VERTEX
 8
CILINDRO_2
 10
0
 20
0
 30
0
 70
128
 71
174
 72
173
 73
168
 74
167
 0
VERTEX
 8
CILINDRO_2
 10
0
 20
0
 30
0
 70
128
 71
173
 72
172
 73
169
 74
168
 0
VERTEX
 8
CILINDRO_2
 10
0
 20
0
 30
0
 70
128
 71
172
 72
171
 73
170
 74
169
 0
VERTEX
 8
CILINDRO_2
 10
0
 20
0
 30
0
 70
128
 71
171
 72
53
 73
52
 74
170
 0
VERTEX
 8
CILINDRO_2
 10
0
 20
0
 30
0
 70
128
 71
176
 72
177
 73
174
 74
175
 0
VERTEX
 8
CILINDRO_2
 10
0
 20
0
 30
0
 70
128
 71
177
 72
178
 73
173
 74
174
 0
VERTEX
 8
CILINDRO_2
 10
0
 20
0
 30
0
 70
128
 71
178
 72
179
 73
172
 74
173
 0
VERTEX
 8
CILINDRO_2
 10
0
 20
0
 30
0
 70
128
 71
179
 72
180
 73
171
 74
172
 0
VERTEX
 8
CILINDRO_2
 10
0
 20
0
 30
0
 70
128
 71
180
 72
56
 73
53
 74
171
 0
VERTEX
 8
CILINDRO_2
 10
0
 20
0
 30
0
 70
128
 71
185
 72
184
 73
177
 74
176
 0
VERTEX
 8
CILINDRO_2
 10
0
 20
0
 30
0
 70
128
 71
184
 72
183
 73
178
 74
177
 0
VERTEX
 8
CILINDRO_2
 10
0
 20
0
 30
0
 70
128
 71
183
 72
182
 73
179
 74
178
 0
VERTEX
 8
CILINDRO_2
 10
0
 20
0
 30
0
 70
128
 71
182
 72
181
 73
180
 74
179
 0
VERTEX
 8
CILINDRO_2
 10
0
 20
0
 30
0
 70
128
 71
181
 72
57
 73
56
 74
180
 0
VERTEX
 8
CILINDRO_2
 10
0
 20
0
 30
0
 70
128
 71
186
 72
187
 73
184
 74
185
 0
VERTEX
 8
CILINDRO_2
 10
0
 20
0
 30
0
 70
128
 71
187
 72
188
 73
183
 74
184
 0
VERTEX
 8
CILINDRO_2
 10
0
 20
0
 30
0
 70
128
 71
188
 72
189
 73
182
 74
183
 0
VERTEX
 8
CILINDRO_2
 10
0
 20
0
 30
0
 70
128
 71
189
 72
190
 73
181
 74
182
 0
VERTEX
 8
CILINDRO_2
 10
0
 20
0
 30
0
 70
128
 71
190
 72
60
 73
57
 74
181
 0
VERTEX
 8
CILINDRO_2
 10
0
 20
0
 30
0
 70
128
 71
191
 72
192
 73
187
 74
186
 0
VERTEX
 8
CILINDRO_2
 10
0
 20
0
 30
0
 70
128
 71
192
 72
193
 73
188
 74
187
 0
VERTEX
 8
CILINDRO_2
 10
0
 20
0
 30
0
 70
128
 71
193
 72
194
 73
189
 74
188
 0
VERTEX
 8
CILINDRO_2
 10
0
 20
0
 30
0
 70
128
 71
194
 72
195
 73
190
 74
189
 0
VERTEX
 8
CILINDRO_2
 10
0
 20
0
 30
0
 70
128
 71
195
 72
62
 73
60
 74
190
 0
VERTEX
 8
CILINDRO_2
 10
0
 20
0
 30
0
 70
128
 71
200
 72
199
 73
192
 74
191
 0
VERTEX
 8
CILINDRO_2
 10
0
 20
0
 30
0
 70
128
 71
199
 72
198
 73
193
 74
192
 0
VERTEX
 8
CILINDRO_2
 10
0
 20
0
 30
0
 70
128
 71
198
 72
197
 73
194
 74
193
 0
VERTEX
 8
CILINDRO_2
 10
0
 20
0
 30
0
 70
128
 71
197
 72
196
 73
195
 74
194
 0
VERTEX
 8
CILINDRO_2
 10
0
 20
0
 30
0
 70
128
 71
196
 72
64
 73
62
 74
195
 0
VERTEX
 8
CILINDRO_2
 10
0
 20
0
 30
0
 70
128
 71
205
 72
204
 73
199
 74
200
 0
VERTEX
 8
CILINDRO_2
 10
0
 20
0
 30
0
 70
128
 71
204
 72
203
 73
198
 74
199
 0
VERTEX
 8
CILINDRO_2
 10
0
 20
0
 30
0
 70
128
 71
203
 72
202
 73
197
 74
198
 0
VERTEX
 8
CILINDRO_2
 10
0
 20
0
 30
0
 70
128
 71
202
 72
201
 73
196
 74
197
 0
VERTEX
 8
CILINDRO_2
 10
0
 20
0
 30
0
 70
128
 71
201
 72
63
 73
64
 74
196
 0
VERTEX
 8
CILINDRO_2
 10
0
 20
0
 30
0
 70
128
 71
210
 72
209
 73
204
 74
205
 0
VERTEX
 8
CILINDRO_2
 10
0
 20
0
 30
0
 70
128
 71
209
 72
208
 73
203
 74
204
 0
VERTEX
 8
CILINDRO_2
 10
0
 20
0
 30
0
 70
128
 71
208
 72
207
 73
202
 74
203
 0
VERTEX
 8
CILINDRO_2
 10
0
 20
0
 30
0
 70
128
 71
207
 72
206
 73
201
 74
202
 0
VERTEX
 8
CILINDRO_2
 10
0
 20
0
 30
0
 70
128
 71
206
 72
66
 73
63
 74
201
 0
VERTEX
 8
CILINDRO_2
 10
0
 20
0
 30
0
 70
128
 71
211
 72
212
 73
209
 74
210
 0
VERTEX
 8
CILINDRO_2
 10
0
 20
0
 30
0
 70
128
 71
212
 72
213
 73
208
 74
209
 0
VERTEX
 8
CILINDRO_2
 10
0
 20
0
 30
0
 70
128
 71
213
 72
214
 73
207
 74
208
 0
VERTEX
 8
CILINDRO_2
 10
0
 20
0
 30
0
 70
128
 71
214
 72
215
 73
206
 74
207
 0
VERTEX
 8
CILINDRO_2
 10
0
 20
0
 30
0
 70
128
 71
215
 72
71
 73
66
 74
206
 0
VERTEX
 8
CILINDRO_2
 10
0
 20
0
 30
0
 70
128
 71
220
 72
219
 73
212
 74
211
 0
VERTEX
 8
CILINDRO_2
 10
0
 20
0
 30
0
 70
128
 71
219
 72
218
 73
213
 74
212
 0
VERTEX
 8
CILINDRO_2
 10
0
 20
0
 30
0
 70
128
 71
218
 72
217
 73
214
 74
213
 0
VERTEX
 8
CILINDRO_2
 10
0
 20
0
 30
0
 70
128
 71
217
 72
216
 73
215
 74
214
 0
VERTEX
 8
CILINDRO_2
 10
0
 20
0
 30
0
 70
128
 71
216
 72
75
 73
71
 74
215
 0
VERTEX
 8
CILINDRO_2
 10
0
 20
0
 30
0
 70
128
 71
225
 72
224
 73
219
 74
220
 0
VERTEX
 8
CILINDRO_2
 10
0
 20
0
 30
0
 70
128
 71
224
 72
223
 73
218
 74
219
 0
VERTEX
 8
CILINDRO_2
 10
0
 20
0
 30
0
 70
128
 71
223
 72
222
 73
217
 74
218
 0
VERTEX
 8
CILINDRO_2
 10
0
 20
0
 30
0
 70
128
 71
222
 72
221
 73
216
 74
217
 0
VERTEX
 8
CILINDRO_2
 10
0
 20
0
 30
0
 70
128
 71
221
 72
73
 73
75
 74
216
 0
VERTEX
 8
CILINDRO_2
 10
0
 20
0
 30
0
 70
128
 71
226
 72
227
 73
224
 74
225
 0
VERTEX
 8
CILINDRO_2
 10
0
 20
0
 30
0
 70
128
 71
227
 72
228
 73
223
 74
224
 0
VERTEX
 8
CILINDRO_2
 10
0
 20
0
 30
0
 70
128
 71
228
 72
229
 73
222
 74
223
 0
VERTEX
 8
CILINDRO_2
 10
0
 20
0
 30
0
 70
128
 71
229
 72
230
 73
221
 74
222
 0
VERTEX
 8
CILINDRO_2
 10
0
 20
0
 30
0
 70
128
 71
230
 72
77
 73
73
 74
221
 0
VERTEX
 8
CILINDRO_2
 10
0
 20
0
 30
0
 70
128
 71
231
 72
232
 73
227
 74
226
 0
VERTEX
 8
CILINDRO_2
 10
0
 20
0
 30
0
 70
128
 71
232
 72
233
 73
228
 74
227
 0
VERTEX
 8
CILINDRO_2
 10
0
 20
0
 30
0
 70
128
 71
233
 72
234
 73
229
 74
228
 0
VERTEX
 8
CILINDRO_2
 10
0
 20
0
 30
0
 70
128
 71
234
 72
235
 73
230
 74
229
 0
VERTEX
 8
CILINDRO_2
 10
0
 20
0
 30
0
 70
128
 71
235
 72
80
 73
77
 74
230
 0
VERTEX
 8
CILINDRO_2
 10
0
 20
0
 30
0
 70
128
 71
236
 72
237
 73
232
 74
231
 0
VERTEX
 8
CILINDRO_2
 10
0
 20
0
 30
0
 70
128
 71
237
 72
238
 73
233
 74
232
 0
VERTEX
 8
CILINDRO_2
 10
0
 20
0
 30
0
 70
128
 71
238
 72
239
 73
234
 74
233
 0
VERTEX
 8
CILINDRO_2
 10
0
 20
0
 30
0
 70
128
 71
239
 72
240
 73
235
 74
234
 0
VERTEX
 8
CILINDRO_2
 10
0
 20
0
 30
0
 70
128
 71
240
 72
82
 73
80
 74
235
 0
VERTEX
 8
CILINDRO_2
 10
0
 20
0
 30
0
 70
128
 71
241
 72
242
 73
237
 74
236
 0
VERTEX
 8
CILINDRO_2
 10
0
 20
0
 30
0
 70
128
 71
242
 72
243
 73
238
 74
237
 0
VERTEX
 8
CILINDRO_2
 10
0
 20
0
 30
0
 70
128
 71
243
 72
244
 73
239
 74
238
 0
VERTEX
 8
CILINDRO_2
 10
0
 20
0
 30
0
 70
128
 71
244
 72
245
 73
240
 74
239
 0
VERTEX
 8
CILINDRO_2
 10
0
 20
0
 30
0
 70
128
 71
245
 72
84
 73
82
 74
240
 0
VERTEX
 8
CILINDRO_2
 10
0
 20
0
 30
0
 70
128
 71
246
 72
247
 73
242
 74
241
 0
VERTEX
 8
CILINDRO_2
 10
0
 20
0
 30
0
 70
128
 71
247
 72
248
 73
243
 74
242
 0
VERTEX
 8
CILINDRO_2
 10
0
 20
0
 30
0
 70
128
 71
248
 72
249
 73
244
 74
243
 0
VERTEX
 8
CILINDRO_2
 10
0
 20
0
 30
0
 70
128
 71
249
 72
250
 73
245
 74
244
 0
VERTEX
 8
CILINDRO_2
 10
0
 20
0
 30
0
 70
128
 71
250
 72
86
 73
84
 74
245
 0
VERTEX
 8
CILINDRO_2
 10
0
 20
0
 30
0
 70
128
 71
251
 72
252
 73
247
 74
246
 0
VERTEX
 8
CILINDRO_2
 10
0
 20
0
 30
0
 70
128
 71
252
 72
253
 73
248
 74
247
 0
VERTEX
 8
CILINDRO_2
 10
0
 20
0
 30
0
 70
128
 71
253
 72
254
 73
249
 74
248
 0
VERTEX
 8
CILINDRO_2
 10
0
 20
0
 30
0
 70
128
 71
254
 72
255
 73
250
 74
249
 0
VERTEX
 8
CILINDRO_2
 10
0
 20
0
 30
0
 70
128
 71
255
 72
88
 73
86
 74
250
 0
VERTEX
 8
CILINDRO_2
 10
0
 20
0
 30
0
 70
128
 71
256
 72
257
 73
252
 74
251
 0
VERTEX
 8
CILINDRO_2
 10
0
 20
0
 30
0
 70
128
 71
257
 72
258
 73
253
 74
252
 0
VERTEX
 8
CILINDRO_2
 10
0
 20
0
 30
0
 70
128
 71
258
 72
259
 73
254
 74
253
 0
VERTEX
 8
CILINDRO_2
 10
0
 20
0
 30
0
 70
128
 71
259
 72
260
 73
255
 74
254
 0
VERTEX
 8
CILINDRO_2
 10
0
 20
0
 30
0
 70
128
 71
260
 72
90
 73
88
 74
255
 0
VERTEX
 8
CILINDRO_2
 10
0
 20
0
 30
0
 70
128
 71
261
 72
262
 73
257
 74
256
 0
VERTEX
 8
CILINDRO_2
 10
0
 20
0
 30
0
 70
128
 71
262
 72
263
 73
258
 74
257
 0
VERTEX
 8
CILINDRO_2
 10
0
 20
0
 30
0
 70
128
 71
263
 72
264
 73
259
 74
258
 0
VERTEX
 8
CILINDRO_2
 10
0
 20
0
 30
0
 70
128
 71
264
 72
265
 73
260
 74
259
 0
VERTEX
 8
CILINDRO_2
 10
0
 20
0
 30
0
 70
128
 71
265
 72
92
 73
90
 74
260
 0
VERTEX
 8
CILINDRO_2
 10
0
 20
0
 30
0
 70
128
 71
266
 72
267
 73
262
 74
261
 0
VERTEX
 8
CILINDRO_2
 10
0
 20
0
 30
0
 70
128
 71
267
 72
268
 73
263
 74
262
 0
VERTEX
 8
CILINDRO_2
 10
0
 20
0
 30
0
 70
128
 71
268
 72
269
 73
264
 74
263
 0
VERTEX
 8
CILINDRO_2
 10
0
 20
0
 30
0
 70
128
 71
269
 72
270
 73
265
 74
264
 0
VERTEX
 8
CILINDRO_2
 10
0
 20
0
 30
0
 70
128
 71
270
 72
94
 73
92
 74
265
 0
VERTEX
 8
CILINDRO_2
 10
0
 20
0
 30
0
 70
128
 71
271
 72
272
 73
267
 74
266
 0
VERTEX
 8
CILINDRO_2
 10
0
 20
0
 30
0
 70
128
 71
272
 72
273
 73
268
 74
267
 0
VERTEX
 8
CILINDRO_2
 10
0
 20
0
 30
0
 70
128
 71
273
 72
274
 73
269
 74
268
 0
VERTEX
 8
CILINDRO_2
 10
0
 20
0
 30
0
 70
128
 71
274
 72
275
 73
270
 74
269
 0
VERTEX
 8
CILINDRO_2
 10
0
 20
0
 30
0
 70
128
 71
275
 72
96
 73
94
 74
270
 0
VERTEX
 8
CILINDRO_2
 10
0
 20
0
 30
0
 70
128
 71
276
 72
277
 73
272
 74
271
 0
VERTEX
 8
CILINDRO_2
 10
0
 20
0
 30
0
 70
128
 71
277
 72
278
 73
273
 74
272
 0
VERTEX
 8
CILINDRO_2
 10
0
 20
0
 30
0
 70
128
 71
278
 72
279
 73
274
 74
273
 0
VERTEX
 8
CILINDRO_2
 10
0
 20
0
 30
0
 70
128
 71
279
 72
280
 73
275
 74
274
 0
VERTEX
 8
CILINDRO_2
 10
0
 20
0
 30
0
 70
128
 71
280
 72
98
 73
96
 74
275
 0
VERTEX
 8
CILINDRO_2
 10
0
 20
0
 30
0
 70
128
 71
281
 72
282
 73
277
 74
276
 0
VERTEX
 8
CILINDRO_2
 10
0
 20
0
 30
0
 70
128
 71
282
 72
283
 73
278
 74
277
 0
VERTEX
 8
CILINDRO_2
 10
0
 20
0
 30
0
 70
128
 71
283
 72
284
 73
279
 74
278
 0
VERTEX
 8
CILINDRO_2
 10
0
 20
0
 30
0
 70
128
 71
284
 72
285
 73
280
 74
279
 0
VERTEX
 8
CILINDRO_2
 10
0
 20
0
 30
0
 70
128
 71
285
 72
100
 73
98
 74
280
 0
VERTEX
 8
CILINDRO_2
 10
0
 20
0
 30
0
 70
128
 71
121
 72
122
 73
282
 74
281
 0
VERTEX
 8
CILINDRO_2
 10
0
 20
0
 30
0
 70
128
 71
122
 72
123
 73
283
 74
282
 0
VERTEX
 8
CILINDRO_2
 10
0
 20
0
 30
0
 70
128
 71
123
 72
124
 73
284
 74
283
 0
VERTEX
 8
CILINDRO_2
 10
0
 20
0
 30
0
 70
128
 71
124
 72
125
 73
285
 74
284
 0
VERTEX
 8
CILINDRO_2
 10
0
 20
0
 30
0
 70
128
 71
125
 72
102
 73
100
 74
285
 0
VERTEX
 8
CILINDRO_2
 10
0
 20
0
 30
0
 70
128
 71
131
 72
132
 73
122
 74
121
 0
VERTEX
 8
CILINDRO_2
 10
0
 20
0
 30
0
 70
128
 71
132
 72
133
 73
123
 74
122
 0
VERTEX
 8
CILINDRO_2
 10
0
 20
0
 30
0
 70
128
 71
133
 72
134
 73
124
 74
123
 0
VERTEX
 8
CILINDRO_2
 10
0
 20
0
 30
0
 70
128
 71
134
 72
135
 73
125
 74
124
 0
VERTEX
 8
CILINDRO_2
 10
0
 20
0
 30
0
 70
128
 71
135
 72
104
 73
102
 74
125
 0
VERTEX
 8
CILINDRO_2
 10
0
 20
0
 30
0
 70
128
 71
286
 72
287
 73
132
 74
131
 0
VERTEX
 8
CILINDRO_2
 10
0
 20
0
 30
0
 70
128
 71
287
 72
288
 73
133
 74
132
 0
VERTEX
 8
CILINDRO_2
 10
0
 20
0
 30
0
 70
128
 71
288
 72
289
 73
134
 74
133
 0
VERTEX
 8
CILINDRO_2
 10
0
 20
0
 30
0
 70
128
 71
289
 72
290
 73
135
 74
134
 0
VERTEX
 8
CILINDRO_2
 10
0
 20
0
 30
0
 70
128
 71
290
 72
106
 73
104
 74
135
 0
VERTEX
 8
CILINDRO_2
 10
0
 20
0
 30
0
 70
128
 71
111
 72
112
 73
287
 74
286
 0
VERTEX
 8
CILINDRO_2
 10
0
 20
0
 30
0
 70
128
 71
112
 72
113
 73
288
 74
287
 0
VERTEX
 8
CILINDRO_2
 10
0
 20
0
 30
0
 70
128
 71
113
 72
114
 73
289
 74
288
 0
VERTEX
 8
CILINDRO_2
 10
0
 20
0
 30
0
 70
128
 71
114
 72
115
 73
290
 74
289
 0
VERTEX
 8
CILINDRO_2
 10
0
 20
0
 30
0
 70
128
 71
115
 72
108
 73
106
 74
290
 0
VERTEX
 8
CILINDRO_2
 10
0
 20
0
 30
0
 70
128
 71
151
 72
152
 73
112
 74
111
 0
VERTEX
 8
CILINDRO_2
 10
0
 20
0
 30
0
 70
128
 71
152
 72
153
 73
113
 74
112
 0
VERTEX
 8
CILINDRO_2
 10
0
 20
0
 30
0
 70
128
 71
153
 72
154
 73
114
 74
113
 0
VERTEX
 8
CILINDRO_2
 10
0
 20
0
 30
0
 70
128
 71
154
 72
155
 73
115
 74
114
 0
VERTEX
 8
CILINDRO_2
 10
0
 20
0
 30
0
 70
128
 71
155
 72
110
 73
108
 74
115
 0
VERTEX
 8
CILINDRO_2
 10
0
 20
0
 30
0
 70
128
 71
120
 72
119
 73
152
 74
151
 0
VERTEX
 8
CILINDRO_2
 10
0
 20
0
 30
0
 70
128
 71
119
 72
118
 73
153
 74
152
 0
VERTEX
 8
CILINDRO_2
 10
0
 20
0
 30
0
 70
128
 71
118
 72
117
 73
154
 74
153
 0
VERTEX
 8
CILINDRO_2
 10
0
 20
0
 30
0
 70
128
 71
117
 72
116
 73
155
 74
154
 0
VERTEX
 8
CILINDRO_2
 10
0
 20
0
 30
0
 70
128
 71
116
 72
72
 73
110
 74
155
 0
SEQEND
 0
POLYLINE
 8
CILINDRO_1
 66
1
 10
0.0
 20
0.0
 30
0.0
 70
64
 71
146
 72
108
 0
VERTEX
 8
CILINDRO_1
 10
5.4962
 20
23
 30
1.5076
 70
192
 0
VERTEX
 8
CILINDRO_1
 10
5.4962
 20
23
 30
5.487
 70
192
 0
VERTEX
 8
CILINDRO_1
 10
6.4911
 20
23
 30
1.5076
 70
192
 0
VERTEX
 8
CILINDRO_1
 10
6.4911
 20
23
 30
1.5076
 70
192
 0
VERTEX
 8
CILINDRO_1
 10
6.4911
 20
23
 30
5.487
 70
192
 0
VERTEX
 8
CILINDRO_1
 10
6.4911
 20
23
 30
5.487
 70
192
 0
VERTEX
 8
CILINDRO_1
 10
6.476
 20
23.1727
 30
1.5076
 70
192
 0
VERTEX
 8
CILINDRO_1
 10
6.476
 20
23.1727
 30
1.5076
 70
192
 0
VERTEX
 8
CILINDRO_1
 10
6.476
 20
23.1727
 30
5.487
 70
192
 0
VERTEX
 8
CILINDRO_1
 10
6.476
 20
23.1727
 30
5.487
 70
192
 0
VERTEX
 8
CILINDRO_1
 10
6.4311
 20
23.3402
 30
1.5076
 70
192
 0
VERTEX
 8
CILINDRO_1
 10
6.4311
 20
23.3402
 30
1.5076
 70
192
 0
VERTEX
 8
CILINDRO_1
 10
6.4311
 20
23.3402
 30
5.487
 70
192
 0
VERTEX
 8
CILINDRO_1
 10
6.4311
 20
23.3402
 30
5.487
 70
192
 0
VERTEX
 8
CILINDRO_1
 10
6.3578
 20
23.4974
 30
1.5076
 70
192
 0
VERTEX
 8
CILINDRO_1
 10
6.3578
 20
23.4974
 30
1.5076
 70
192
 0
VERTEX
 8
CILINDRO_1
 10
6.3578
 20
23.4974
 30
5.487
 70
192
 0
VERTEX
 8
CILINDRO_1
 10
6.3578
 20
23.4974
 30
5.487
 70
192
 0
VERTEX
 8
CILINDRO_1
 10
6.2583
 20
23.6395
 30
1.5076
 70
192
 0
VERTEX
 8
CILINDRO_1
 10
6.2583
 20
23.6395
 30
1.5076
 70
192
 0
VERTEX
 8
CILINDRO_1
 10
6.2583
 20
23.6395
 30
5.487
 70
192
 0
VERTEX
 8
CILINDRO_1
 10
6.2583
 20
23.6395
 30
5.487
 70
192
 0
VERTEX
 8
CILINDRO_1
 10
6.1357
 20
23.7621
 30
1.5076
 70
192
 0
VERTEX
 8
CILINDRO_1
 10
6.1357
 20
23.7621
 30
1.5076
 70
192
 0
VERTEX
 8
CILINDRO_1
 10
6.1357
 20
23.7621
 30
5.487
 70
192
 0
VERTEX
 8
CILINDRO_1
 10
6.1357
 20
23.7621
 30
5.487
 70
192
 0
VERTEX
 8
CILINDRO_1
 10
5.9937
 20
23.8615
 30
1.5076
 70
192
 0
VERTEX
 8
CILINDRO_1
 10
5.9937
 20
23.8615
 30
1.5076
 70
192
 0
VERTEX
 8
CILINDRO_1
 10
5.9937
 20
23.8615
 30
5.487
 70
192
 0
VERTEX
 8
CILINDRO_1
 10
5.9937
 20
23.8615
 30
5.487
 70
192
 0
VERTEX
 8
CILINDRO_1
 10
5.8365
 20
23.9348
 30
1.5076
 70
192
 0
VERTEX
 8
CILINDRO_1
 10
5.8365
 20
23.9348
 30
1.5076
 70
192
 0
VERTEX
 8
CILINDRO_1
 10
5.8365
 20
23.9348
 30
5.487
 70
192
 0
VERTEX
 8
CILINDRO_1
 10
5.8365
 20
23.9348
 30
5.487
 70
192
 0
VERTEX
 8
CILINDRO_1
 10
5.669
 20
23.9797
 30
1.5076
 70
192
 0
VERTEX
 8
CILINDRO_1
 10
5.669
 20
23.9797
 30
1.5076
 70
192
 0
VERTEX
 8
CILINDRO_1
 10
5.669
 20
23.9797
 30
5.487
 70
192
 0
VERTEX
 8
CILINDRO_1
 10
5.669
 20
23.9797
 30
5.487
 70
192
 0
VERTEX
 8
CILINDRO_1
 10
5.4962
 20
23.9948
 30
1.5076
 70
192
 0
VERTEX
 8
CILINDRO_1
 10
5.4962
 20
23.9948
 30
1.5076
 70
192
 0
VERTEX
 8
CILINDRO_1
 10
5.4962
 20
23.9948
 30
5.487
 70
192
 0
VERTEX
 8
CILINDRO_1
 10
5.4962
 20
23.9948
 30
5.487
 70
192
 0
VERTEX
 8
CILINDRO_1
 10
5.3235
 20
23.9797
 30
1.5076
 70
192
 0
VERTEX
 8
CILINDRO_1
 10
5.3235
 20
23.9797
 30
1.5076
 70
192
 0
VERTEX
 8
CILINDRO_1
 10
5.3235
 20
23.9797
 30
5.487
 70
192
 0
VERTEX
 8
CILINDRO_1
 10
5.3235
 20
23.9797
 30
5.487
 70
192
 0
VERTEX
 8
CILINDRO_1
 10
5.156
 20
23.9348
 30
1.5076
 70
192
 0
VERTEX
 8
CILINDRO_1
 10
5.156
 20
23.9348
 30
1.5076
 70
192
 0
VERTEX
 8
CILINDRO_1
 10
5.156
 20
23.9348
 30
5.487
 70
192
 0
VERTEX
 8
CILINDRO_1
 10
5.156
 20
23.9348
 30
5.487
 70
192
 0
VERTEX
 8
CILINDRO_1
 10
4.9988
 20
23.8615
 30
1.5076
 70
192
 0
VERTEX
 8
CILINDRO_1
 10
4.9988
 20
23.8615
 30
1.5076
 70
192
 0
VERTEX
 8
CILINDRO_1
 10
4.9988
 20
23.8615
 30
5.487
 70
192
 0
VERTEX
 8
CILINDRO_1
 10
4.9988
 20
23.8615
 30
5.487
 70
192
 0
VERTEX
 8
CILINDRO_1
 10
4.8568
 20
23.7621
 30
1.5076
 70
192
 0
VERTEX
 8
CILINDRO_1
 10
4.8568
 20
23.7621
 30
1.5076
 70
192
 0
VERTEX
 8
CILINDRO_1
 10
4.8568
 20
23.7621
 30
5.487
 70
192
 0
VERTEX
 8
CILINDRO_1
 10
4.8568
 20
23.7621
 30
5.487
 70
192
 0
VERTEX
 8
CILINDRO_1
 10
4.7341
 20
23.6395
 30
1.5076
 70
192
 0
VERTEX
 8
CILINDRO_1
 10
4.7341
 20
23.6395
 30
1.5076
 70
192
 0
VERTEX
 8
CILINDRO_1
 10
4.7341
 20
23.6395
 30
5.487
 70
192
 0
VERTEX
 8
CILINDRO_1
 10
4.7341
 20
23.6395
 30
5.487
 70
192
 0
VERTEX
 8
CILINDRO_1
 10
4.6347
 20
23.4974
 30
1.5076
 70
192
 0
VERTEX
 8
CILINDRO_1
 10
4.6347
 20
23.4974
 30
1.5076
 70
192
 0
VERTEX
 8
CILINDRO_1
 10
4.6347
 20
23.4974
 30
5.487
 70
192
 0
VERTEX
 8
CILINDRO_1
 10
4.6347
 20
23.4974
 30
5.487
 70
192
 0
VERTEX
 8
CILINDRO_1
 10
4.5614
 20
23.3402
 30
1.5076
 70
192
 0
VERTEX
 8
CILINDRO_1
 10
4.5614
 20
23.3402
 30
1.5076
 70
192
 0
VERTEX
 8
CILINDRO_1
 10
4.5614
 20
23.3402
 30
5.487
 70
192
 0
VERTEX
 8
CILINDRO_1
 10
4.5614
 20
23.3402
 30
5.487
 70
192
 0
VERTEX
 8
CILINDRO_1
 10
4.5165
 20
23.1727
 30
1.5076
 70
192
 0
VERTEX
 8
CILINDRO_1
 10
4.5165
 20
23.1727
 30
1.5076
 70
192
 0
VERTEX
 8
CILINDRO_1
 10
4.5165
 20
23.1727
 30
5.487
 70
192
 0
VERTEX
 8
CILINDRO_1
 10
4.5165
 20
23.1727
 30
5.487
 70
192
 0
VERTEX
 8
CILINDRO_1
 10
4.5014
 20
23
 30
1.5076
 70
192
 0
VERTEX
 8
CILINDRO_1
 10
4.5014
 20
23
 30
1.5076
 70
192
 0
VERTEX
 8
CILINDRO_1
 10
4.5014
 20
23
 30
5.487
 70
192
 0
VERTEX
 8
CILINDRO_1
 10
4.5014
 20
23
 30
5.487
 70
192
 0
VERTEX
 8
CILINDRO_1
 10
4.5165
 20
22.8272
 30
1.5076
 70
192
 0
VERTEX
 8
CILINDRO_1
 10
4.5165
 20
22.8272
 30
1.5076
 70
192
 0
VERTEX
 8
CILINDRO_1
 10
4.5165
 20
22.8272
 30
5.487
 70
192
 0
VERTEX
 8
CILINDRO_1
 10
4.5165
 20
22.8272
 30
5.487
 70
192
 0
VERTEX
 8
CILINDRO_1
 10
4.5614
 20
22.6597
 30
1.5076
 70
192
 0
VERTEX
 8
CILINDRO_1
 10
4.5614
 20
22.6597
 30
1.5076
 70
192
 0
VERTEX
 8
CILINDRO_1
 10
4.5614
 20
22.6597
 30
5.487
 70
192
 0
VERTEX
 8
CILINDRO_1
 10
4.5614
 20
22.6597
 30
5.487
 70
192
 0
VERTEX
 8
CILINDRO_1
 10
4.6347
 20
22.5026
 30
1.5076
 70
192
 0
VERTEX
 8
CILINDRO_1
 10
4.6347
 20
22.5026
 30
1.5076
 70
192
 0
VERTEX
 8
CILINDRO_1
 10
4.6347
 20
22.5026
 30
5.487
 70
192
 0
VERTEX
 8
CILINDRO_1
 10
4.6347
 20
22.5026
 30
5.487
 70
192
 0
VERTEX
 8
CILINDRO_1
 10
4.7341
 20
22.3605
 30
1.5076
 70
192
 0
VERTEX
 8
CILINDRO_1
 10
4.7341
 20
22.3605
 30
1.5076
 70
192
 0
VERTEX
 8
CILINDRO_1
 10
4.7341
 20
22.3605
 30
5.487
 70
192
 0
VERTEX
 8
CILINDRO_1
 10
4.7341
 20
22.3605
 30
5.487
 70
192
 0
VERTEX
 8
CILINDRO_1
 10
4.8568
 20
22.2379
 30
1.5076
 70
192
 0
VERTEX
 8
CILINDRO_1
 10
4.8568
 20
22.2379
 30
1.5076
 70
192
 0
VERTEX
 8
CILINDRO_1
 10
4.8568
 20
22.2379
 30
5.487
 70
192
 0
VERTEX
 8
CILINDRO_1
 10
4.8568
 20
22.2379
 30
5.487
 70
192
 0
VERTEX
 8
CILINDRO_1
 10
4.9988
 20
22.1384
 30
1.5076
 70
192
 0
VERTEX
 8
CILINDRO_1
 10
4.9988
 20
22.1384
 30
1.5076
 70
192
 0
VERTEX
 8
CILINDRO_1
 10
4.9988
 20
22.1384
 30
5.487
 70
192
 0
VERTEX
 8
CILINDRO_1
 10
4.9988
 20
22.1384
 30
5.487
 70
192
 0
VERTEX
 8
CILINDRO_1
 10
5.156
 20
22.0651
 30
1.5076
 70
192
 0
VERTEX
 8
CILINDRO_1
 10
5.156
 20
22.0651
 30
1.5076
 70
192
 0
VERTEX
 8
CILINDRO_1
 10
5.156
 20
22.0651
 30
5.487
 70
192
 0
VERTEX
 8
CILINDRO_1
 10
5.156
 20
22.0651
 30
5.487
 70
192
 0
VERTEX
 8
CILINDRO_1
 10
5.3235
 20
22.0202
 30
1.5076
 70
192
 0
VERTEX
 8
CILINDRO_1
 10
5.3235
 20
22.0202
 30
1.5076
 70
192
 0
VERTEX
 8
CILINDRO_1
 10
5.3235
 20
22.0202
 30
5.487
 70
192
 0
VERTEX
 8
CILINDRO_1
 10
5.3235
 20
22.0202
 30
5.487
 70
192
 0
VERTEX
 8
CILINDRO_1
 10
5.4962
 20
22.0051
 30
1.5076
 70
192
 0
VERTEX
 8
CILINDRO_1
 10
5.4962
 20
22.0051
 30
1.5076
 70
192
 0
VERTEX
 8
CILINDRO_1
 10
5.4962
 20
22.0051
 30
5.487
 70
192
 0
VERTEX
 8
CILINDRO_1
 10
5.4962
 20
22.0051
 30
5.487
 70
192
 0
VERTEX
 8
CILINDRO_1
 10
5.669
 20
22.0202
 30
1.5076
 70
192
 0
VERTEX
 8
CILINDRO_1
 10
5.669
 20
22.0202
 30
1.5076
 70
192
 0
VERTEX
 8
CILINDRO_1
 10
5.669
 20
22.0202
 30
5.487
 70
192
 0
VERTEX
 8
CILINDRO_1
 10
5.669
 20
22.0202
 30
5.487
 70
192
 0
VERTEX
 8
CILINDRO_1
 10
5.8365
 20
22.0651
 30
1.5076
 70
192
 0
VERTEX
 8
CILINDRO_1
 10
5.8365
 20
22.0651
 30
1.5076
 70
192
 0
VERTEX
 8
CILINDRO_1
 10
5.8365
 20
22.0651
 30
5.487
 70
192
 0
VERTEX
 8
CILINDRO_1
 10
5.8365
 20
22.0651
 30
5.487
 70
192
 0
VERTEX
 8
CILINDRO_1
 10
5.9937
 20
22.1384
 30
1.5076
 70
192
 0
VERTEX
 8
CILINDRO_1
 10
5.9937
 20
22.1384
 30
1.5076
 70
192
 0
VERTEX
 8
CILINDRO_1
 10
5.9937
 20
22.1384
 30
5.487
 70
192
 0
VERTEX
 8
CILINDRO_1
 10
5.9937
 20
22.1384
 30
5.487
 70
192
 0
VERTEX
 8
CILINDRO_1
 10
6.1357
 20
22.2379
 30
1.5076
 70
192
 0
VERTEX
 8
CILINDRO_1
 10
6.1357
 20
22.2379
 30
1.5076
 70
192
 0
VERTEX
 8
CILINDRO_1
 10
6.1357
 20
22.2379
 30
5.487
 70
192
 0
VERTEX
 8
CILINDRO_1
 10
6.1357
 20
22.2379
 30
5.487
 70
192
 0
VERTEX
 8
CILINDRO_1
 10
6.2583
 20
22.3605
 30
1.5076
 70
192
 0
VERTEX
 8
CILINDRO_1
 10
6.2583
 20
22.3605
 30
1.5076
 70
192
 0
VERTEX
 8
CILINDRO_1
 10
6.2583
 20
22.3605
 30
5.487
 70
192
 0
VERTEX
 8
CILINDRO_1
 10
6.2583
 20
22.3605
 30
5.487
 70
192
 0
VERTEX
 8
CILINDRO_1
 10
6.3578
 20
22.5026
 30
1.5076
 70
192
 0
VERTEX
 8
CILINDRO_1
 10
6.3578
 20
22.5026
 30
1.5076
 70
192
 0
VERTEX
 8
CILINDRO_1
 10
6.3578
 20
22.5026
 30
5.487
 70
192
 0
VERTEX
 8
CILINDRO_1
 10
6.3578
 20
22.5026
 30
5.487
 70
192
 0
VERTEX
 8
CILINDRO_1
 10
6.4311
 20
22.6597
 30
1.5076
 70
192
 0
VERTEX
 8
CILINDRO_1
 10
6.4311
 20
22.6597
 30
1.5076
 70
192
 0
VERTEX
 8
CILINDRO_1
 10
6.4311
 20
22.6597
 30
5.487
 70
192
 0
VERTEX
 8
CILINDRO_1
 10
6.4311
 20
22.6597
 30
5.487
 70
192
 0
VERTEX
 8
CILINDRO_1
 10
6.476
 20
22.8272
 30
1.5076
 70
192
 0
VERTEX
 8
CILINDRO_1
 10
6.476
 20
22.8272
 30
1.5076
 70
192
 0
VERTEX
 8
CILINDRO_1
 10
6.476
 20
22.8272
 30
5.487
 70
192
 0
VERTEX
 8
CILINDRO_1
 10
6.476
 20
22.8272
 30
5.487
 70
192
 0
VERTEX
 8
CILINDRO_1
 10
0
 20
0
 30
0
 70
128
 71
1
 72
3
 73
7
 74
7
 0
VERTEX
 8
CILINDRO_1
 10
0
 20
0
 30
0
 70
128
 71
4
 72
5
 73
9
 74
8
 0
VERTEX
 8
CILINDRO_1
 10
0
 20
0
 30
0
 70
128
 71
6
 72
2
 73
10
 74
10
 0
VERTEX
 8
CILINDRO_1
 10
0
 20
0
 30
0
 70
128
 71
1
 72
7
 73
11
 74
11
 0
VERTEX
 8
CILINDRO_1
 10
0
 20
0
 30
0
 70
128
 71
8
 72
9
 73
13
 74
12
 0
VERTEX
 8
CILINDRO_1
 10
0
 20
0
 30
0
 70
128
 71
10
 72
2
 73
14
 74
14
 0
VERTEX
 8
CILINDRO_1
 10
0
 20
0
 30
0
 70
128
 71
1
 72
11
 73
15
 74
15
 0
VERTEX
 8
CILINDRO_1
 10
0
 20
0
 30
0
 70
128
 71
12
 72
13
 73
17
 74
16
 0
VERTEX
 8
CILINDRO_1
 10
0
 20
0
 30
0
 70
128
 71
14
 72
2
 73
18
 74
18
 0
VERTEX
 8
CILINDRO_1
 10
0
 20
0
 30
0
 70
128
 71
1
 72
15
 73
19
 74
19
 0
VERTEX
 8
CILINDRO_1
 10
0
 20
0
 30
0
 70
128
 71
16
 72
17
 73
21
 74
20
 0
VERTEX
 8
CILINDRO_1
 10
0
 20
0
 30
0
 70
128
 71
18
 72
2
 73
22
 74
22
 0
VERTEX
 8
CILINDRO_1
 10
0
 20
0
 30
0
 70
128
 71
1
 72
19
 73
23
 74
23
 0
VERTEX
 8
CILINDRO_1
 10
0
 20
0
 30
0
 70
128
 71
20
 72
21
 73
25
 74
24
 0
VERTEX
 8
CILINDRO_1
 10
0
 20
0
 30
0
 70
128
 71
22
 72
2
 73
26
 74
26
 0
VERTEX
 8
CILINDRO_1
 10
0
 20
0
 30
0
 70
128
 71
1
 72
23
 73
27
 74
27
 0
VERTEX
 8
CILINDRO_1
 10
0
 20
0
 30
0
 70
128
 71
24
 72
25
 73
29
 74
28
 0
VERTEX
 8
CILINDRO_1
 10
0
 20
0
 30
0
 70
128
 71
26
 72
2
 73
30
 74
30
 0
VERTEX
 8
CILINDRO_1
 10
0
 20
0
 30
0
 70
128
 71
1
 72
27
 73
31
 74
31
 0
VERTEX
 8
CILINDRO_1
 10
0
 20
0
 30
0
 70
128
 71
28
 72
29
 73
33
 74
32
 0
VERTEX
 8
CILINDRO_1
 10
0
 20
0
 30
0
 70
128
 71
30
 72
2
 73
34
 74
34
 0
VERTEX
 8
CILINDRO_1
 10
0
 20
0
 30
0
 70
128
 71
1
 72
31
 73
35
 74
35
 0
VERTEX
 8
CILINDRO_1
 10
0
 20
0
 30
0
 70
128
 71
32
 72
33
 73
37
 74
36
 0
VERTEX
 8
CILINDRO_1
 10
0
 20
0
 30
0
 70
128
 71
34
 72
2
 73
38
 74
38
 0
VERTEX
 8
CILINDRO_1
 10
0
 20
0
 30
0
 70
128
 71
1
 72
35
 73
39
 74
39
 0
VERTEX
 8
CILINDRO_1
 10
0
 20
0
 30
0
 70
128
 71
36
 72
37
 73
41
 74
40
 0
VERTEX
 8
CILINDRO_1
 10
0
 20
0
 30
0
 70
128
 71
38
 72
2
 73
42
 74
42
 0
VERTEX
 8
CILINDRO_1
 10
0
 20
0
 30
0
 70
128
 71
1
 72
39
 73
43
 74
43
 0
VERTEX
 8
CILINDRO_1
 10
0
 20
0
 30
0
 70
128
 71
40
 72
41
 73
45
 74
44
 0
VERTEX
 8
CILINDRO_1
 10
0
 20
0
 30
0
 70
128
 71
42
 72
2
 73
46
 74
46
 0
VERTEX
 8
CILINDRO_1
 10
0
 20
0
 30
0
 70
128
 71
1
 72
43
 73
47
 74
47
 0
VERTEX
 8
CILINDRO_1
 10
0
 20
0
 30
0
 70
128
 71
44
 72
45
 73
49
 74
48
 0
VERTEX
 8
CILINDRO_1
 10
0
 20
0
 30
0
 70
128
 71
46
 72
2
 73
50
 74
50
 0
VERTEX
 8
CILINDRO_1
 10
0
 20
0
 30
0
 70
128
 71
1
 72
47
 73
51
 74
51
 0
VERTEX
 8
CILINDRO_1
 10
0
 20
0
 30
0
 70
128
 71
48
 72
49
 73
53
 74
52
 0
VERTEX
 8
CILINDRO_1
 10
0
 20
0
 30
0
 70
128
 71
50
 72
2
 73
54
 74
54
 0
VERTEX
 8
CILINDRO_1
 10
0
 20
0
 30
0
 70
128
 71
1
 72
51
 73
55
 74
55
 0
VERTEX
 8
CILINDRO_1
 10
0
 20
0
 30
0
 70
128
 71
52
 72
53
 73
57
 74
56
 0
VERTEX
 8
CILINDRO_1
 10
0
 20
0
 30
0
 70
128
 71
54
 72
2
 73
58
 74
58
 0
VERTEX
 8
CILINDRO_1
 10
0
 20
0
 30
0
 70
128
 71
1
 72
55
 73
59
 74
59
 0
VERTEX
 8
CILINDRO_1
 10
0
 20
0
 30
0
 70
128
 71
56
 72
57
 73
61
 74
60
 0
VERTEX
 8
CILINDRO_1
 10
0
 20
0
 30
0
 70
128
 71
58
 72
2
 73
62
 74
62
 0
VERTEX
 8
CILINDRO_1
 10
0
 20
0
 30
0
 70
128
 71
1
 72
59
 73
63
 74
63
 0
VERTEX
 8
CILINDRO_1
 10
0
 20
0
 30
0
 70
128
 71
60
 72
61
 73
65
 74
64
 0
VERTEX
 8
CILINDRO_1
 10
0
 20
0
 30
0
 70
128
 71
62
 72
2
 73
66
 74
66
 0
VERTEX
 8
CILINDRO_1
 10
0
 20
0
 30
0
 70
128
 71
1
 72
63
 73
67
 74
67
 0
VERTEX
 8
CILINDRO_1
 10
0
 20
0
 30
0
 70
128
 71
64
 72
65
 73
69
 74
68
 0
VERTEX
 8
CILINDRO_1
 10
0
 20
0
 30
0
 70
128
 71
66
 72
2
 73
70
 74
70
 0
VERTEX
 8
CILINDRO_1
 10
0
 20
0
 30
0
 70
128
 71
1
 72
67
 73
71
 74
71
 0
VERTEX
 8
CILINDRO_1
 10
0
 20
0
 30
0
 70
128
 71
68
 72
69
 73
73
 74
72
 0
VERTEX
 8
CILINDRO_1
 10
0
 20
0
 30
0
 70
128
 71
70
 72
2
 73
74
 74
74
 0
VERTEX
 8
CILINDRO_1
 10
0
 20
0
 30
0
 70
128
 71
1
 72
71
 73
75
 74
75
 0
VERTEX
 8
CILINDRO_1
 10
0
 20
0
 30
0
 70
128
 71
72
 72
73
 73
77
 74
76
 0
VERTEX
 8
CILINDRO_1
 10
0
 20
0
 30
0
 70
128
 71
74
 72
2
 73
78
 74
78
 0
VERTEX
 8
CILINDRO_1
 10
0
 20
0
 30
0
 70
128
 71
1
 72
75
 73
79
 74
79
 0
VERTEX
 8
CILINDRO_1
 10
0
 20
0
 30
0
 70
128
 71
76
 72
77
 73
81
 74
80
 0
VERTEX
 8
CILINDRO_1
 10
0
 20
0
 30
0
 70
128
 71
78
 72
2
 73
82
 74
82
 0
VERTEX
 8
CILINDRO_1
 10
0
 20
0
 30
0
 70
128
 71
1
 72
79
 73
83
 74
83
 0
VERTEX
 8
CILINDRO_1
 10
0
 20
0
 30
0
 70
128
 71
80
 72
81
 73
85
 74
84
 0
VERTEX
 8
CILINDRO_1
 10
0
 20
0
 30
0
 70
128
 71
82
 72
2
 73
86
 74
86
 0
VERTEX
 8
CILINDRO_1
 10
0
 20
0
 30
0
 70
128
 71
1
 72
83
 73
87
 74
87
 0
VERTEX
 8
CILINDRO_1
 10
0
 20
0
 30
0
 70
128
 71
84
 72
85
 73
89
 74
88
 0
VERTEX
 8
CILINDRO_1
 10
0
 20
0
 30
0
 70
128
 71
86
 72
2
 73
90
 74
90
 0
VERTEX
 8
CILINDRO_1
 10
0
 20
0
 30
0
 70
128
 71
1
 72
87
 73
91
 74
91
 0
VERTEX
 8
CILINDRO_1
 10
0
 20
0
 30
0
 70
128
 71
88
 72
89
 73
93
 74
92
 0
VERTEX
 8
CILINDRO_1
 10
0
 20
0
 30
0
 70
128
 71
90
 72
2
 73
94
 74
94
 0
VERTEX
 8
CILINDRO_1
 10
0
 20
0
 30
0
 70
128
 71
1
 72
91
 73
95
 74
95
 0
VERTEX
 8
CILINDRO_1
 10
0
 20
0
 30
0
 70
128
 71
92
 72
93
 73
97
 74
96
 0
VERTEX
 8
CILINDRO_1
 10
0
 20
0
 30
0
 70
128
 71
94
 72
2
 73
98
 74
98
 0
VERTEX
 8
CILINDRO_1
 10
0
 20
0
 30
0
 70
128
 71
1
 72
95
 73
99
 74
99
 0
VERTEX
 8
CILINDRO_1
 10
0
 20
0
 30
0
 70
128
 71
96
 72
97
 73
101
 74
100
 0
VERTEX
 8
CILINDRO_1
 10
0
 20
0
 30
0
 70
128
 71
98
 72
2
 73
102
 74
102
 0
VERTEX
 8
CILINDRO_1
 10
0
 20
0
 30
0
 70
128
 71
1
 72
99
 73
103
 74
103
 0
VERTEX
 8
CILINDRO_1
 10
0
 20
0
 30
0
 70
128
 71
100
 72
101
 73
105
 74
104
 0
VERTEX
 8
CILINDRO_1
 10
0
 20
0
 30
0
 70
128
 71
102
 72
2
 73
106
 74
106
 0
VERTEX
 8
CILINDRO_1
 10
0
 20
0
 30
0
 70
128
 71
1
 72
103
 73
107
 74
107
 0
VERTEX
 8
CILINDRO_1
 10
0
 20
0
 30
0
 70
128
 71
104
 72
105
 73
109
 74
108
 0
VERTEX
 8
CILINDRO_1
 10
0
 20
0
 30
0
 70
128
 71
106
 72
2
 73
110
 74
110
 0
VERTEX
 8
CILINDRO_1
 10
0
 20
0
 30
0
 70
128
 71
1
 72
107
 73
111
 74
111
 0
VERTEX
 8
CILINDRO_1
 10
0
 20
0
 30
0
 70
128
 71
108
 72
109
 73
113
 74
112
 0
VERTEX
 8
CILINDRO_1
 10
0
 20
0
 30
0
 70
128
 71
110
 72
2
 73
114
 74
114
 0
VERTEX
 8
CILINDRO_1
 10
0
 20
0
 30
0
 70
128
 71
1
 72
111
 73
115
 74
115
 0
VERTEX
 8
CILINDRO_1
 10
0
 20
0
 30
0
 70
128
 71
112
 72
113
 73
117
 74
116
 0
VERTEX
 8
CILINDRO_1
 10
0
 20
0
 30
0
 70
128
 71
114
 72
2
 73
118
 74
118
 0
VERTEX
 8
CILINDRO_1
 10
0
 20
0
 30
0
 70
128
 71
1
 72
115
 73
119
 74
119
 0
VERTEX
 8
CILINDRO_1
 10
0
 20
0
 30
0
 70
128
 71
116
 72
117
 73
121
 74
120
 0
VERTEX
 8
CILINDRO_1
 10
0
 20
0
 30
0
 70
128
 71
118
 72
2
 73
122
 74
122
 0
VERTEX
 8
CILINDRO_1
 10
0
 20
0
 30
0
 70
128
 71
1
 72
119
 73
123
 74
123
 0
VERTEX
 8
CILINDRO_1
 10
0
 20
0
 30
0
 70
128
 71
120
 72
121
 73
125
 74
124
 0
VERTEX
 8
CILINDRO_1
 10
0
 20
0
 30
0
 70
128
 71
122
 72
2
 73
126
 74
126
 0
VERTEX
 8
CILINDRO_1
 10
0
 20
0
 30
0
 70
128
 71
1
 72
123
 73
127
 74
127
 0
VERTEX
 8
CILINDRO_1
 10
0
 20
0
 30
0
 70
128
 71
124
 72
125
 73
129
 74
128
 0
VERTEX
 8
CILINDRO_1
 10
0
 20
0
 30
0
 70
128
 71
126
 72
2
 73
130
 74
130
 0
VERTEX
 8
CILINDRO_1
 10
0
 20
0
 30
0
 70
128
 71
1
 72
127
 73
131
 74
131
 0
VERTEX
 8
CILINDRO_1
 10
0
 20
0
 30
0
 70
128
 71
128
 72
129
 73
133
 74
132
 0
VERTEX
 8
CILINDRO_1
 10
0
 20
0
 30
0
 70
128
 71
130
 72
2
 73
134
 74
134
 0
VERTEX
 8
CILINDRO_1
 10
0
 20
0
 30
0
 70
128
 71
1
 72
131
 73
135
 74
135
 0
VERTEX
 8
CILINDRO_1
 10
0
 20
0
 30
0
 70
128
 71
132
 72
133
 73
137
 74
136
 0
VERTEX
 8
CILINDRO_1
 10
0
 20
0
 30
0
 70
128
 71
134
 72
2
 73
138
 74
138
 0
VERTEX
 8
CILINDRO_1
 10
0
 20
0
 30
0
 70
128
 71
1
 72
135
 73
139
 74
139
 0
VERTEX
 8
CILINDRO_1
 10
0
 20
0
 30
0
 70
128
 71
136
 72
137
 73
141
 74
140
 0
VERTEX
 8
CILINDRO_1
 10
0
 20
0
 30
0
 70
128
 71
138
 72
2
 73
142
 74
142
 0
VERTEX
 8
CILINDRO_1
 10
0
 20
0
 30
0
 70
128
 71
1
 72
139
 73
143
 74
143
 0
VERTEX
 8
CILINDRO_1
 10
0
 20
0
 30
0
 70
128
 71
140
 72
141
 73
145
 74
144
 0
VERTEX
 8
CILINDRO_1
 10
0
 20
0
 30
0
 70
128
 71
142
 72
2
 73
146
 74
146
 0
VERTEX
 8
CILINDRO_1
 10
0
 20
0
 30
0
 70
128
 71
1
 72
143
 73
3
 74
3
 0
VERTEX
 8
CILINDRO_1
 10
0
 20
0
 30
0
 70
128
 71
144
 72
145
 73
5
 74
4
 0
VERTEX
 8
CILINDRO_1
 10
0
 20
0
 30
0
 70
128
 71
146
 72
2
 73
6
 74
6
 0
SEQEND
 0
POLYLINE
 8
CILINDRO
 66
1
 10
0.0
 20
0.0
 30
0.0
 70
64
 71
290
 72
324
 0
VERTEX
 8
CILINDRO
 10
5.4962
 20
23.0002
 30
0.0067
 70
192
 0
VERTEX
 8
CILINDRO
 10
5.4962
 20
23.0002
 30
1.5059
 70
192
 0
VERTEX
 8
CILINDRO
 10
8.5091
 20
23.0002
 30
1.5059
 70
192
 0
VERTEX
 8
CILINDRO
 10
8.4634
 20
23.5233
 30
1.5059
 70
192
 0
VERTEX
 8
CILINDRO
 10
8.3274
 20
24.0306
 30
1.5059
 70
192
 0
VERTEX
 8
CILINDRO
 10
8.1055
 20
24.5066
 30
1.5059
 70
192
 0
VERTEX
 8
CILINDRO
 10
7.8043
 20
24.9368
 30
1.5059
 70
192
 0
VERTEX
 8
CILINDRO
 10
7.4329
 20
25.3082
 30
1.5059
 70
192
 0
VERTEX
 8
CILINDRO
 10
7.0027
 20
25.6094
 30
1.5059
 70
192
 0
VERTEX
 8
CILINDRO
 10
6.5267
 20
25.8314
 30
1.5059
 70
192
 0
VERTEX
 8
CILINDRO
 10
6.0194
 20
25.9673
 30
1.5059
 70
192
 0
VERTEX
 8
CILINDRO
 10
5.4962
 20
26.0131
 30
1.5059
 70
192
 0
VERTEX
 8
CILINDRO
 10
4.9731
 20
25.9673
 30
1.5059
 70
192
 0
VERTEX
 8
CILINDRO
 10
4.4658
 20
25.8314
 30
1.5059
 70
192
 0
VERTEX
 8
CILINDRO
 10
3.9898
 20
25.6094
 30
1.5059
 70
192
 0
VERTEX
 8
CILINDRO
 10
3.5596
 20
25.3082
 30
1.5059
 70
192
 0
VERTEX
 8
CILINDRO
 10
3.1882
 20
24.9368
 30
1.5059
 70
192
 0
VERTEX
 8
CILINDRO
 10
2.887
 20
24.5066
 30
1.5059
 70
192
 0
VERTEX
 8
CILINDRO
 10
2.665
 20
24.0306
 30
1.5059
 70
192
 0
VERTEX
 8
CILINDRO
 10
2.5291
 20
23.5233
 30
1.5059
 70
192
 0
VERTEX
 8
CILINDRO
 10
2.4833
 20
23.0002
 30
1.5059
 70
192
 0
VERTEX
 8
CILINDRO
 10
2.5291
 20
22.477
 30
1.5059
 70
192
 0
VERTEX
 8
CILINDRO
 10
2.665
 20
21.9697
 30
1.5059
 70
192
 0
VERTEX
 8
CILINDRO
 10
2.887
 20
21.4937
 30
1.5059
 70
192
 0
VERTEX
 8
CILINDRO
 10
3.1882
 20
21.0635
 30
1.5059
 70
192
 0
VERTEX
 8
CILINDRO
 10
3.5596
 20
20.6921
 30
1.5059
 70
192
 0
VERTEX
 8
CILINDRO
 10
3.9898
 20
20.3909
 30
1.5059
 70
192
 0
VERTEX
 8
CILINDRO
 10
4.4658
 20
20.169
 30
1.5059
 70
192
 0
VERTEX
 8
CILINDRO
 10
4.9731
 20
20.033
 30
1.5059
 70
192
 0
VERTEX
 8
CILINDRO
 10
5.4962
 20
19.9873
 30
1.5059
 70
192
 0
VERTEX
 8
CILINDRO
 10
6.0194
 20
20.033
 30
1.5059
 70
192
 0
VERTEX
 8
CILINDRO
 10
6.5267
 20
20.169
 30
1.5059
 70
192
 0
VERTEX
 8
CILINDRO
 10
7.0027
 20
20.3909
 30
1.5059
 70
192
 0
VERTEX
 8
CILINDRO
 10
7.4329
 20
20.6921
 30
1.5059
 70
192
 0
VERTEX
 8
CILINDRO
 10
7.8043
 20
21.0635
 30
1.5059
 70
192
 0
VERTEX
 8
CILINDRO
 10
8.1055
 20
21.4937
 30
1.5059
 70
192
 0
VERTEX
 8
CILINDRO
 10
8.3274
 20
21.9697
 30
1.5059
 70
192
 0
VERTEX
 8
CILINDRO
 10
8.4634
 20
22.477
 30
1.5059
 70
192
 0
VERTEX
 8
CILINDRO
 10
7.9691
 20
23.4362
 30
0.0067
 70
192
 0
VERTEX
 8
CILINDRO
 10
8.5091
 20
23.0002
 30
0.5067
 70
192
 0
VERTEX
 8
CILINDRO
 10
7.8558
 20
23.859
 30
0.0067
 70
192
 0
VERTEX
 8
CILINDRO
 10
8.4634
 20
23.5233
 30
0.5067
 70
192
 0
VERTEX
 8
CILINDRO
 10
7.6708
 20
24.2557
 30
0.0067
 70
192
 0
VERTEX
 8
CILINDRO
 10
8.3274
 20
24.0306
 30
0.5067
 70
192
 0
VERTEX
 8
CILINDRO
 10
7.4198
 20
24.6142
 30
0.0067
 70
192
 0
VERTEX
 8
CILINDRO
 10
8.1055
 20
24.5066
 30
0.5067
 70
192
 0
VERTEX
 8
CILINDRO
 10
7.1103
 20
24.9237
 30
0.0067
 70
192
 0
VERTEX
 8
CILINDRO
 10
7.8043
 20
24.9368
 30
0.5067
 70
192
 0
VERTEX
 8
CILINDRO
 10
6.7517
 20
25.1747
 30
0.0067
 70
192
 0
VERTEX
 8
CILINDRO
 10
7.4329
 20
25.3082
 30
0.5067
 70
192
 0
VERTEX
 8
CILINDRO
 10
7.0027
 20
25.6094
 30
0.5067
 70
192
 0
VERTEX
 8
CILINDRO
 10
6.355
 20
25.3597
 30
0.0067
 70
192
 0
VERTEX
 8
CILINDRO
 10
5.9323
 20
25.473
 30
0.0067
 70
192
 0
VERTEX
 8
CILINDRO
 10
6.5267
 20
25.8314
 30
0.5067
 70
192
 0
VERTEX
 8
CILINDRO
 10
6.0194
 20
25.9673
 30
0.5067
 70
192
 0
VERTEX
 8
CILINDRO
 10
5.4962
 20
25.5112
 30
0.0067
 70
192
 0
VERTEX
 8
CILINDRO
 10
5.0602
 20
25.473
 30
0.0067
 70
192
 0
VERTEX
 8
CILINDRO
 10
5.4962
 20
26.0131
 30
0.5067
 70
192
 0
VERTEX
 8
CILINDRO
 10
4.9731
 20
25.9673
 30
0.5067
 70
192
 0
VERTEX
 8
CILINDRO
 10
4.6374
 20
25.3597
 30
0.0067
 70
192
 0
VERTEX
 8
CILINDRO
 10
4.4658
 20
25.8314
 30
0.5067
 70
192
 0
VERTEX
 8
CILINDRO
 10
4.2407
 20
25.1747
 30
0.0067
 70
192
 0
VERTEX
 8
CILINDRO
 10
3.5727
 20
24.6142
 30
0.0067
 70
192
 0
VERTEX
 8
CILINDRO
 10
3.8822
 20
24.9237
 30
0.0067
 70
192
 0
VERTEX
 8
CILINDRO
 10
3.9898
 20
25.6094
 30
0.5067
 70
192
 0
VERTEX
 8
CILINDRO
 10
3.3217
 20
24.2557
 30
0.0067
 70
192
 0
VERTEX
 8
CILINDRO
 10
3.1882
 20
24.9368
 30
0.5067
 70
192
 0
VERTEX
 8
CILINDRO
 10
3.5596
 20
25.3082
 30
0.5067
 70
192
 0
VERTEX
 8
CILINDRO
 10
2.887
 20
24.5066
 30
0.5067
 70
192
 0
VERTEX
 8
CILINDRO
 10
8.4634
 20
22.477
 30
0.5067
 70
192
 0
VERTEX
 8
CILINDRO
 10
3.1367
 20
23.859
 30
0.0067
 70
192
 0
VERTEX
 8
CILINDRO
 10
8.0072
 20
23.0002
 30
0.0067
 70
192
 0
VERTEX
 8
CILINDRO
 10
2.9852
 20
23.0002
 30
0.0067
 70
192
 0
VERTEX
 8
CILINDRO
 10
2.665
 20
24.0306
 30
0.5067
 70
192
 0
VERTEX
 8
CILINDRO
 10
3.0234
 20
23.4362
 30
0.0067
 70
192
 0
VERTEX
 8
CILINDRO
 10
2.4833
 20
23.0002
 30
0.5067
 70
192
 0
VERTEX
 8
CILINDRO
 10
3.0234
 20
22.5641
 30
0.0067
 70
192
 0
VERTEX
 8
CILINDRO
 10
2.5291
 20
23.5233
 30
0.5067
 70
192
 0
VERTEX
 8
CILINDRO
 10
2.5291
 20
22.477
 30
0.5067
 70
192
 0
VERTEX
 8
CILINDRO
 10
3.1367
 20
22.1414
 30
0.0067
 70
192
 0
VERTEX
 8
CILINDRO
 10
2.665
 20
21.9697
 30
0.5067
 70
192
 0
VERTEX
 8
CILINDRO
 10
3.3217
 20
21.7447
 30
0.0067
 70
192
 0
VERTEX
 8
CILINDRO
 10
2.887
 20
21.4937
 30
0.5067
 70
192
 0
VERTEX
 8
CILINDRO
 10
3.5727
 20
21.3861
 30
0.0067
 70
192
 0
VERTEX
 8
CILINDRO
 10
3.1882
 20
21.0635
 30
0.5067
 70
192
 0
VERTEX
 8
CILINDRO
 10
3.8822
 20
21.0766
 30
0.0067
 70
192
 0
VERTEX
 8
CILINDRO
 10
3.5596
 20
20.6921
 30
0.5067
 70
192
 0
VERTEX
 8
CILINDRO
 10
4.2407
 20
20.8256
 30
0.0067
 70
192
 0
VERTEX
 8
CILINDRO
 10
3.9898
 20
20.3909
 30
0.5067
 70
192
 0
VERTEX
 8
CILINDRO
 10
4.6374
 20
20.6406
 30
0.0067
 70
192
 0
VERTEX
 8
CILINDRO
 10
4.4658
 20
20.169
 30
0.5067
 70
192
 0
VERTEX
 8
CILINDRO
 10
5.0602
 20
20.5273
 30
0.0067
 70
192
 0
VERTEX
 8
CILINDRO
 10
4.9731
 20
20.033
 30
0.5067
 70
192
 0
VERTEX
 8
CILINDRO
 10
5.4962
 20
20.4892
 30
0.0067
 70
192
 0
VERTEX
 8
CILINDRO
 10
5.4962
 20
19.9873
 30
0.5067
 70
192
 0
VERTEX
 8
CILINDRO
 10
5.9323
 20
20.5273
 30
0.0067
 70
192
 0
VERTEX
 8
CILINDRO
 10
6.0194
 20
20.033
 30
0.5067
 70
192
 0
VERTEX
 8
CILINDRO
 10
6.355
 20
20.6406
 30
0.0067
 70
192
 0
VERTEX
 8
CILINDRO
 10
6.5267
 20
20.169
 30
0.5067
 70
192
 0
VERTEX
 8
CILINDRO
 10
6.7517
 20
20.8256
 30
0.0067
 70
192
 0
VERTEX
 8
CILINDRO
 10
7.0027
 20
20.3909
 30
0.5067
 70
192
 0
VERTEX
 8
CILINDRO
 10
7.1103
 20
21.0766
 30
0.0067
 70
192
 0
VERTEX
 8
CILINDRO
 10
7.4329
 20
20.6921
 30
0.5067
 70
192
 0
VERTEX
 8
CILINDRO
 10
7.4198
 20
21.3861
 30
0.0067
 70
192
 0
VERTEX
 8
CILINDRO
 10
7.8043
 20
21.0635
 30
0.5067
 70
192
 0
VERTEX
 8
CILINDRO
 10
7.6708
 20
21.7447
 30
0.0067
 70
192
 0
VERTEX
 8
CILINDRO
 10
8.1055
 20
21.4937
 30
0.5067
 70
192
 0
VERTEX
 8
CILINDRO
 10
7.8558
 20
22.1414
 30
0.0067
 70
192
 0
VERTEX
 8
CILINDRO
 10
8.3274
 20
21.9697
 30
0.5067
 70
192
 0
VERTEX
 8
CILINDRO
 10
7.9691
 20
22.5641
 30
0.0067
 70
192
 0
VERTEX
 8
CILINDRO
 10
8.3132
 20
21.9749
 30
0.3847
 70
192
 0
VERTEX
 8
CILINDRO
 10
8.2672
 20
21.9916
 30
0.2622
 70
192
 0
VERTEX
 8
CILINDRO
 10
8.1893
 20
22.02
 30
0.1531
 70
192
 0
VERTEX
 8
CILINDRO
 10
8.0864
 20
22.0574
 30
0.0705
 70
192
 0
VERTEX
 8
CILINDRO
 10
7.9709
 20
22.0995
 30
0.0218
 70
192
 0
VERTEX
 8
CILINDRO
 10
8.1297
 20
23.0002
 30
0.0218
 70
192
 0
VERTEX
 8
CILINDRO
 10
8.2527
 20
23.0002
 30
0.0705
 70
192
 0
VERTEX
 8
CILINDRO
 10
8.3621
 20
23.0002
 30
0.1531
 70
192
 0
VERTEX
 8
CILINDRO
 10
8.445
 20
23.0002
 30
0.2622
 70
192
 0
VERTEX
 8
CILINDRO
 10
8.494
 20
23.0002
 30
0.3847
 70
192
 0
VERTEX
 8
CILINDRO
 10
7.4231
 20
20.7038
 30
0.3847
 70
192
 0
VERTEX
 8
CILINDRO
 10
7.3917
 20
20.7413
 30
0.2622
 70
192
 0
VERTEX
 8
CILINDRO
 10
7.3384
 20
20.8048
 30
0.1531
 70
192
 0
VERTEX
 8
CILINDRO
 10
7.268
 20
20.8886
 30
0.0705
 70
192
 0
VERTEX
 8
CILINDRO
 10
7.189
 20
20.9828
 30
0.0218
 70
192
 0
VERTEX
 8
CILINDRO
 10
8.0897
 20
23.4575
 30
0.0218
 70
192
 0
VERTEX
 8
CILINDRO
 10
8.2108
 20
23.4788
 30
0.0705
 70
192
 0
VERTEX
 8
CILINDRO
 10
8.3186
 20
23.4978
 30
0.1531
 70
192
 0
VERTEX
 8
CILINDRO
 10
8.4002
 20
23.5122
 30
0.2622
 70
192
 0
VERTEX
 8
CILINDRO
 10
8.4484
 20
23.5207
 30
0.3847
 70
192
 0
VERTEX
 8
CILINDRO
 10
7.7926
 20
21.0733
 30
0.3847
 70
192
 0
VERTEX
 8
CILINDRO
 10
7.7551
 20
21.1047
 30
0.2622
 70
192
 0
VERTEX
 8
CILINDRO
 10
7.6916
 20
21.158
 30
0.1531
 70
192
 0
VERTEX
 8
CILINDRO
 10
7.6078
 20
21.2284
 30
0.0705
 70
192
 0
VERTEX
 8
CILINDRO
 10
7.5136
 20
21.3074
 30
0.0218
 70
192
 0
VERTEX
 8
CILINDRO
 10
7.9709
 20
23.9009
 30
0.0218
 70
192
 0
VERTEX
 8
CILINDRO
 10
8.0864
 20
23.9429
 30
0.0705
 70
192
 0
VERTEX
 8
CILINDRO
 10
8.1893
 20
23.9804
 30
0.1531
 70
192
 0
VERTEX
 8
CILINDRO
 10
8.2672
 20
24.0087
 30
0.2622
 70
192
 0
VERTEX
 8
CILINDRO
 10
8.3132
 20
24.0254
 30
0.3847
 70
192
 0
VERTEX
 8
CILINDRO
 10
7.7769
 20
24.3169
 30
0.0218
 70
192
 0
VERTEX
 8
CILINDRO
 10
7.8834
 20
24.3784
 30
0.0705
 70
192
 0
VERTEX
 8
CILINDRO
 10
7.9782
 20
24.4331
 30
0.1531
 70
192
 0
VERTEX
 8
CILINDRO
 10
8.05
 20
24.4746
 30
0.2622
 70
192
 0
VERTEX
 8
CILINDRO
 10
8.0923
 20
24.499
 30
0.3847
 70
192
 0
VERTEX
 8
CILINDRO
 10
7.5136
 20
24.6929
 30
0.0218
 70
192
 0
VERTEX
 8
CILINDRO
 10
7.6078
 20
24.772
 30
0.0705
 70
192
 0
VERTEX
 8
CILINDRO
 10
7.6916
 20
24.8423
 30
0.1531
 70
192
 0
VERTEX
 8
CILINDRO
 10
7.7551
 20
24.8956
 30
0.2622
 70
192
 0
VERTEX
 8
CILINDRO
 10
7.7926
 20
24.9271
 30
0.3847
 70
192
 0
VERTEX
 8
CILINDRO
 10
8.4484
 20
22.4796
 30
0.3847
 70
192
 0
VERTEX
 8
CILINDRO
 10
8.4002
 20
22.4881
 30
0.2622
 70
192
 0
VERTEX
 8
CILINDRO
 10
8.3186
 20
22.5025
 30
0.1531
 70
192
 0
VERTEX
 8
CILINDRO
 10
8.2108
 20
22.5215
 30
0.0705
 70
192
 0
VERTEX
 8
CILINDRO
 10
8.0897
 20
22.5429
 30
0.0218
 70
192
 0
VERTEX
 8
CILINDRO
 10
7.189
 20
25.0175
 30
0.0218
 70
192
 0
VERTEX
 8
CILINDRO
 10
7.268
 20
25.1117
 30
0.0705
 70
192
 0
VERTEX
 8
CILINDRO
 10
7.3384
 20
25.1956
 30
0.1531
 70
192
 0
VERTEX
 8
CILINDRO
 10
7.3917
 20
25.2591
 30
0.2622
 70
192
 0
VERTEX
 8
CILINDRO
 10
7.4231
 20
25.2966
 30
0.3847
 70
192
 0
VERTEX
 8
CILINDRO
 10
6.813
 20
25.2808
 30
0.0218
 70
192
 0
VERTEX
 8
CILINDRO
 10
6.8745
 20
25.3873
 30
0.0705
 70
192
 0
VERTEX
 8
CILINDRO
 10
6.9292
 20
25.4821
 30
0.1531
 70
192
 0
VERTEX
 8
CILINDRO
 10
6.9706
 20
25.5539
 30
0.2622
 70
192
 0
VERTEX
 8
CILINDRO
 10
6.9951
 20
25.5963
 30
0.3847
 70
192
 0
VERTEX
 8
CILINDRO
 10
6.5215
 20
25.8171
 30
0.3847
 70
192
 0
VERTEX
 8
CILINDRO
 10
6.5048
 20
25.7711
 30
0.2622
 70
192
 0
VERTEX
 8
CILINDRO
 10
6.4764
 20
25.6932
 30
0.1531
 70
192
 0
VERTEX
 8
CILINDRO
 10
6.439
 20
25.5904
 30
0.0705
 70
192
 0
VERTEX
 8
CILINDRO
 10
6.3969
 20
25.4748
 30
0.0218
 70
192
 0
VERTEX
 8
CILINDRO
 10
5.9535
 20
25.5936
 30
0.0218
 70
192
 0
VERTEX
 8
CILINDRO
 10
5.9749
 20
25.7147
 30
0.0705
 70
192
 0
VERTEX
 8
CILINDRO
 10
5.9939
 20
25.8225
 30
0.1531
 70
192
 0
VERTEX
 8
CILINDRO
 10
6.0083
 20
25.9042
 30
0.2622
 70
192
 0
VERTEX
 8
CILINDRO
 10
6.0168
 20
25.9523
 30
0.3847
 70
192
 0
VERTEX
 8
CILINDRO
 10
5.4962
 20
25.9979
 30
0.3847
 70
192
 0
VERTEX
 8
CILINDRO
 10
5.4962
 20
25.949
 30
0.2622
 70
192
 0
VERTEX
 8
CILINDRO
 10
5.4962
 20
25.8661
 30
0.1531
 70
192
 0
VERTEX
 8
CILINDRO
 10
5.4962
 20
25.7566
 30
0.0705
 70
192
 0
VERTEX
 8
CILINDRO
 10
5.4962
 20
25.6336
 30
0.0218
 70
192
 0
VERTEX
 8
CILINDRO
 10
5.0389
 20
25.5936
 30
0.0218
 70
192
 0
VERTEX
 8
CILINDRO
 10
5.0176
 20
25.7147
 30
0.0705
 70
192
 0
VERTEX
 8
CILINDRO
 10
4.9986
 20
25.8225
 30
0.1531
 70
192
 0
VERTEX
 8
CILINDRO
 10
4.9842
 20
25.9042
 30
0.2622
 70
192
 0
VERTEX
 8
CILINDRO
 10
4.9757
 20
25.9523
 30
0.3847
 70
192
 0
VERTEX
 8
CILINDRO
 10
4.471
 20
25.8171
 30
0.3847
 70
192
 0
VERTEX
 8
CILINDRO
 10
4.4877
 20
25.7711
 30
0.2622
 70
192
 0
VERTEX
 8
CILINDRO
 10
4.516
 20
25.6932
 30
0.1531
 70
192
 0
VERTEX
 8
CILINDRO
 10
4.5535
 20
25.5904
 30
0.0705
 70
192
 0
VERTEX
 8
CILINDRO
 10
4.5955
 20
25.4748
 30
0.0218
 70
192
 0
VERTEX
 8
CILINDRO
 10
3.9974
 20
25.5963
 30
0.3847
 70
192
 0
VERTEX
 8
CILINDRO
 10
4.0218
 20
25.5539
 30
0.2622
 70
192
 0
VERTEX
 8
CILINDRO
 10
4.0633
 20
25.4821
 30
0.1531
 70
192
 0
VERTEX
 8
CILINDRO
 10
4.118
 20
25.3873
 30
0.0705
 70
192
 0
VERTEX
 8
CILINDRO
 10
4.1795
 20
25.2808
 30
0.0218
 70
192
 0
VERTEX
 8
CILINDRO
 10
3.8035
 20
25.0175
 30
0.0218
 70
192
 0
VERTEX
 8
CILINDRO
 10
3.7244
 20
25.1117
 30
0.0705
 70
192
 0
VERTEX
 8
CILINDRO
 10
3.6541
 20
25.1956
 30
0.1531
 70
192
 0
VERTEX
 8
CILINDRO
 10
3.6008
 20
25.2591
 30
0.2622
 70
192
 0
VERTEX
 8
CILINDRO
 10
3.5693
 20
25.2966
 30
0.3847
 70
192
 0
VERTEX
 8
CILINDRO
 10
3.4789
 20
24.6929
 30
0.0218
 70
192
 0
VERTEX
 8
CILINDRO
 10
3.3847
 20
24.772
 30
0.0705
 70
192
 0
VERTEX
 8
CILINDRO
 10
3.3008
 20
24.8423
 30
0.1531
 70
192
 0
VERTEX
 8
CILINDRO
 10
3.2373
 20
24.8956
 30
0.2622
 70
192
 0
VERTEX
 8
CILINDRO
 10
3.1998
 20
24.9271
 30
0.3847
 70
192
 0
VERTEX
 8
CILINDRO
 10
3.2156
 20
24.3169
 30
0.0218
 70
192
 0
VERTEX
 8
CILINDRO
 10
3.1091
 20
24.3784
 30
0.0705
 70
192
 0
VERTEX
 8
CILINDRO
 10
3.0143
 20
24.4331
 30
0.1531
 70
192
 0
VERTEX
 8
CILINDRO
 10
2.9425
 20
24.4746
 30
0.2622
 70
192
 0
VERTEX
 8
CILINDRO
 10
2.9001
 20
24.499
 30
0.3847
 70
192
 0
VERTEX
 8
CILINDRO
 10
2.6793
 20
24.0254
 30
0.3847
 70
192
 0
VERTEX
 8
CILINDRO
 10
2.7253
 20
24.0087
 30
0.2622
 70
192
 0
VERTEX
 8
CILINDRO
 10
2.8032
 20
23.9804
 30
0.1531
 70
192
 0
VERTEX
 8
CILINDRO
 10
2.906
 20
23.9429
 30
0.0705
 70
192
 0
VERTEX
 8
CILINDRO
 10
3.0216
 20
23.9009
 30
0.0218
 70
192
 0
VERTEX
 8
CILINDRO
 10
2.9028
 20
23.4575
 30
0.0218
 70
192
 0
VERTEX
 8
CILINDRO
 10
2.7817
 20
23.4788
 30
0.0705
 70
192
 0
VERTEX
 8
CILINDRO
 10
2.6739
 20
23.4978
 30
0.1531
 70
192
 0
VERTEX
 8
CILINDRO
 10
2.5922
 20
23.5122
 30
0.2622
 70
192
 0
VERTEX
 8
CILINDRO
 10
2.5441
 20
23.5207
 30
0.3847
 70
192
 0
VERTEX
 8
CILINDRO
 10
2.8628
 20
23.0002
 30
0.0218
 70
192
 0
VERTEX
 8
CILINDRO
 10
2.7398
 20
23.0002
 30
0.0705
 70
192
 0
VERTEX
 8
CILINDRO
 10
2.6303
 20
23.0002
 30
0.1531
 70
192
 0
VERTEX
 8
CILINDRO
 10
2.5475
 20
23.0002
 30
0.2622
 70
192
 0
VERTEX
 8
CILINDRO
 10
2.4985
 20
23.0002
 30
0.3847
 70
192
 0
VERTEX
 8
CILINDRO
 10
2.5441
 20
22.4796
 30
0.3847
 70
192
 0
VERTEX
 8
CILINDRO
 10
2.5922
 20
22.4881
 30
0.2622
 70
192
 0
VERTEX
 8
CILINDRO
 10
2.6739
 20
22.5025
 30
0.1531
 70
192
 0
VERTEX
 8
CILINDRO
 10
2.7817
 20
22.5215
 30
0.0705
 70
192
 0
VERTEX
 8
CILINDRO
 10
2.9028
 20
22.5429
 30
0.0218
 70
192
 0
VERTEX
 8
CILINDRO
 10
2.6793
 20
21.9749
 30
0.3847
 70
192
 0
VERTEX
 8
CILINDRO
 10
2.7253
 20
21.9916
 30
0.2622
 70
192
 0
VERTEX
 8
CILINDRO
 10
2.8032
 20
22.02
 30
0.1531
 70
192
 0
VERTEX
 8
CILINDRO
 10
2.906
 20
22.0574
 30
0.0705
 70
192
 0
VERTEX
 8
CILINDRO
 10
3.0216
 20
22.0995
 30
0.0218
 70
192
 0
VERTEX
 8
CILINDRO
 10
2.9001
 20
21.5013
 30
0.3847
 70
192
 0
VERTEX
 8
CILINDRO
 10
2.9425
 20
21.5258
 30
0.2622
 70
192
 0
VERTEX
 8
CILINDRO
 10
3.0143
 20
21.5672
 30
0.1531
 70
192
 0
VERTEX
 8
CILINDRO
 10
3.1091
 20
21.6219
 30
0.0705
 70
192
 0
VERTEX
 8
CILINDRO
 10
3.2156
 20
21.6834
 30
0.0218
 70
192
 0
VERTEX
 8
CILINDRO
 10
3.1998
 20
21.0733
 30
0.3847
 70
192
 0
VERTEX
 8
CILINDRO
 10
3.2373
 20
21.1047
 30
0.2622
 70
192
 0
VERTEX
 8
CILINDRO
 10
3.3008
 20
21.158
 30
0.1531
 70
192
 0
VERTEX
 8
CILINDRO
 10
3.3847
 20
21.2284
 30
0.0705
 70
192
 0
VERTEX
 8
CILINDRO
 10
3.4789
 20
21.3074
 30
0.0218
 70
192
 0
VERTEX
 8
CILINDRO
 10
3.5693
 20
20.7038
 30
0.3847
 70
192
 0
VERTEX
 8
CILINDRO
 10
3.6008
 20
20.7413
 30
0.2622
 70
192
 0
VERTEX
 8
CILINDRO
 10
3.6541
 20
20.8048
 30
0.1531
 70
192
 0
VERTEX
 8
CILINDRO
 10
3.7244
 20
20.8886
 30
0.0705
 70
192
 0
VERTEX
 8
CILINDRO
 10
3.8035
 20
20.9828
 30
0.0218
 70
192
 0
VERTEX
 8
CILINDRO
 10
3.9974
 20
20.4041
 30
0.3847
 70
192
 0
VERTEX
 8
CILINDRO
 10
4.0218
 20
20.4464
 30
0.2622
 70
192
 0
VERTEX
 8
CILINDRO
 10
4.0633
 20
20.5182
 30
0.1531
 70
192
 0
VERTEX
 8
CILINDRO
 10
4.118
 20
20.613
 30
0.0705
 70
192
 0
VERTEX
 8
CILINDRO
 10
4.1795
 20
20.7195
 30
0.0218
 70
192
 0
VERTEX
 8
CILINDRO
 10
4.471
 20
20.1832
 30
0.3847
 70
192
 0
VERTEX
 8
CILINDRO
 10
4.4877
 20
20.2292
 30
0.2622
 70
192
 0
VERTEX
 8
CILINDRO
 10
4.516
 20
20.3071
 30
0.1531
 70
192
 0
VERTEX
 8
CILINDRO
 10
4.5535
 20
20.41
 30
0.0705
 70
192
 0
VERTEX
 8
CILINDRO
 10
4.5955
 20
20.5255
 30
0.0218
 70
192
 0
VERTEX
 8
CILINDRO
 10
4.9757
 20
20.048
 30
0.3847
 70
192
 0
VERTEX
 8
CILINDRO
 10
4.9842
 20
20.0962
 30
0.2622
 70
192
 0
VERTEX
 8
CILINDRO
 10
4.9986
 20
20.1778
 30
0.1531
 70
192
 0
VERTEX
 8
CILINDRO
 10
5.0176
 20
20.2856
 30
0.0705
 70
192
 0
VERTEX
 8
CILINDRO
 10
5.0389
 20
20.4067
 30
0.0218
 70
192
 0
VERTEX
 8
CILINDRO
 10
5.4962
 20
20.0024
 30
0.3847
 70
192
 0
VERTEX
 8
CILINDRO
 10
5.4962
 20
20.0514
 30
0.2622
 70
192
 0
VERTEX
 8
CILINDRO
 10
5.4962
 20
20.1343
 30
0.1531
 70
192
 0
VERTEX
 8
CILINDRO
 10
5.4962
 20
20.2437
 30
0.0705
 70
192
 0
VERTEX
 8
CILINDRO
 10
5.4962
 20
20.3667
 30
0.0218
 70
192
 0
VERTEX
 8
CILINDRO
 10
6.0168
 20
20.048
 30
0.3847
 70
192
 0
VERTEX
 8
CILINDRO
 10
6.0083
 20
20.0962
 30
0.2622
 70
192
 0
VERTEX
 8
CILINDRO
 10
5.9939
 20
20.1778
 30
0.1531
 70
192
 0
VERTEX
 8
CILINDRO
 10
5.9749
 20
20.2856
 30
0.0705
 70
192
 0
VERTEX
 8
CILINDRO
 10
5.9535
 20
20.4067
 30
0.0218
 70
192
 0
VERTEX
 8
CILINDRO
 10
6.5215
 20
20.1832
 30
0.3847
 70
192
 0
VERTEX
 8
CILINDRO
 10
6.5048
 20
20.2292
 30
0.2622
 70
192
 0
VERTEX
 8
CILINDRO
 10
6.4764
 20
20.3071
 30
0.1531
 70
192
 0
VERTEX
 8
CILINDRO
 10
6.439
 20
20.41
 30
0.0705
 70
192
 0
VERTEX
 8
CILINDRO
 10
6.3969
 20
20.5255
 30
0.0218
 70
192
 0
VERTEX
 8
CILINDRO
 10
6.9951
 20
20.4041
 30
0.3847
 70
192
 0
VERTEX
 8
CILINDRO
 10
6.9706
 20
20.4464
 30
0.2622
 70
192
 0
VERTEX
 8
CILINDRO
 10
6.9292
 20
20.5182
 30
0.1531
 70
192
 0
VERTEX
 8
CILINDRO
 10
6.8745
 20
20.613
 30
0.0705
 70
192
 0
VERTEX
 8
CILINDRO
 10
6.813
 20
20.7195
 30
0.0218
 70
192
 0
VERTEX
 8
CILINDRO
 10
8.0923
 20
21.5013
 30
0.3847
 70
192
 0
VERTEX
 8
CILINDRO
 10
8.05
 20
21.5258
 30
0.2622
 70
192
 0
VERTEX
 8
CILINDRO
 10
7.9782
 20
21.5672
 30
0.1531
 70
192
 0
VERTEX
 8
CILINDRO
 10
7.8834
 20
21.6219
 30
0.0705
 70
192
 0
VERTEX
 8
CILINDRO
 10
7.7769
 20
21.6834
 30
0.0218
 70
192
 0
VERTEX
 8
CILINDRO
 10
0
 20
0
 30
0
 70
128
 71
1
 72
72
 73
39
 74
39
 0
VERTEX
 8
CILINDRO
 10
0
 20
0
 30
0
 70
128
 71
40
 72
3
 73
4
 74
42
 0
VERTEX
 8
CILINDRO
 10
0
 20
0
 30
0
 70
128
 71
3
 72
2
 73
4
 74
4
 0
VERTEX
 8
CILINDRO
 10
0
 20
0
 30
0
 70
128
 71
1
 72
39
 73
41
 74
41
 0
VERTEX
 8
CILINDRO
 10
0
 20
0
 30
0
 70
128
 71
42
 72
4
 73
5
 74
44
 0
VERTEX
 8
CILINDRO
 10
0
 20
0
 30
0
 70
128
 71
4
 72
2
 73
5
 74
5
 0
VERTEX
 8
CILINDRO
 10
0
 20
0
 30
0
 70
128
 71
1
 72
41
 73
43
 74
43
 0
VERTEX
 8
CILINDRO
 10
0
 20
0
 30
0
 70
128
 71
44
 72
5
 73
6
 74
46
 0
VERTEX
 8
CILINDRO
 10
0
 20
0
 30
0
 70
128
 71
5
 72
2
 73
6
 74
6
 0
VERTEX
 8
CILINDRO
 10
0
 20
0
 30
0
 70
128
 71
1
 72
43
 73
45
 74
45
 0
VERTEX
 8
CILINDRO
 10
0
 20
0
 30
0
 70
128
 71
46
 72
6
 73
7
 74
48
 0
VERTEX
 8
CILINDRO
 10
0
 20
0
 30
0
 70
128
 71
6
 72
2
 73
7
 74
7
 0
VERTEX
 8
CILINDRO
 10
0
 20
0
 30
0
 70
128
 71
1
 72
45
 73
47
 74
47
 0
VERTEX
 8
CILINDRO
 10
0
 20
0
 30
0
 70
128
 71
48
 72
7
 73
8
 74
50
 0
VERTEX
 8
CILINDRO
 10
0
 20
0
 30
0
 70
128
 71
7
 72
2
 73
8
 74
8
 0
VERTEX
 8
CILINDRO
 10
0
 20
0
 30
0
 70
128
 71
1
 72
47
 73
49
 74
49
 0
VERTEX
 8
CILINDRO
 10
0
 20
0
 30
0
 70
128
 71
50
 72
8
 73
9
 74
51
 0
VERTEX
 8
CILINDRO
 10
0
 20
0
 30
0
 70
128
 71
8
 72
2
 73
9
 74
9
 0
VERTEX
 8
CILINDRO
 10
0
 20
0
 30
0
 70
128
 71
1
 72
49
 73
52
 74
52
 0
VERTEX
 8
CILINDRO
 10
0
 20
0
 30
0
 70
128
 71
51
 72
9
 73
10
 74
54
 0
VERTEX
 8
CILINDRO
 10
0
 20
0
 30
0
 70
128
 71
9
 72
2
 73
10
 74
10
 0
VERTEX
 8
CILINDRO
 10
0
 20
0
 30
0
 70
128
 71
1
 72
52
 73
53
 74
53
 0
VERTEX
 8
CILINDRO
 10
0
 20
0
 30
0
 70
128
 71
54
 72
10
 73
11
 74
55
 0
VERTEX
 8
CILINDRO
 10
0
 20
0
 30
0
 70
128
 71
10
 72
2
 73
11
 74
11
 0
VERTEX
 8
CILINDRO
 10
0
 20
0
 30
0
 70
128
 71
1
 72
53
 73
56
 74
56
 0
VERTEX
 8
CILINDRO
 10
0
 20
0
 30
0
 70
128
 71
55
 72
11
 73
12
 74
58
 0
VERTEX
 8
CILINDRO
 10
0
 20
0
 30
0
 70
128
 71
11
 72
2
 73
12
 74
12
 0
VERTEX
 8
CILINDRO
 10
0
 20
0
 30
0
 70
128
 71
1
 72
56
 73
57
 74
57
 0
VERTEX
 8
CILINDRO
 10
0
 20
0
 30
0
 70
128
 71
58
 72
12
 73
13
 74
59
 0
VERTEX
 8
CILINDRO
 10
0
 20
0
 30
0
 70
128
 71
12
 72
2
 73
13
 74
13
 0
VERTEX
 8
CILINDRO
 10
0
 20
0
 30
0
 70
128
 71
1
 72
57
 73
60
 74
60
 0
VERTEX
 8
CILINDRO
 10
0
 20
0
 30
0
 70
128
 71
59
 72
13
 73
14
 74
61
 0
VERTEX
 8
CILINDRO
 10
0
 20
0
 30
0
 70
128
 71
13
 72
2
 73
14
 74
14
 0
VERTEX
 8
CILINDRO
 10
0
 20
0
 30
0
 70
128
 71
1
 72
60
 73
62
 74
62
 0
VERTEX
 8
CILINDRO
 10
0
 20
0
 30
0
 70
128
 71
61
 72
14
 73
15
 74
65
 0
VERTEX
 8
CILINDRO
 10
0
 20
0
 30
0
 70
128
 71
14
 72
2
 73
15
 74
15
 0
VERTEX
 8
CILINDRO
 10
0
 20
0
 30
0
 70
128
 71
1
 72
62
 73
64
 74
64
 0
VERTEX
 8
CILINDRO
 10
0
 20
0
 30
0
 70
128
 71
65
 72
15
 73
16
 74
68
 0
VERTEX
 8
CILINDRO
 10
0
 20
0
 30
0
 70
128
 71
15
 72
2
 73
16
 74
16
 0
VERTEX
 8
CILINDRO
 10
0
 20
0
 30
0
 70
128
 71
1
 72
64
 73
63
 74
63
 0
VERTEX
 8
CILINDRO
 10
0
 20
0
 30
0
 70
128
 71
68
 72
16
 73
17
 74
67
 0
VERTEX
 8
CILINDRO
 10
0
 20
0
 30
0
 70
128
 71
16
 72
2
 73
17
 74
17
 0
VERTEX
 8
CILINDRO
 10
0
 20
0
 30
0
 70
128
 71
1
 72
63
 73
66
 74
66
 0
VERTEX
 8
CILINDRO
 10
0
 20
0
 30
0
 70
128
 71
67
 72
17
 73
18
 74
69
 0
VERTEX
 8
CILINDRO
 10
0
 20
0
 30
0
 70
128
 71
17
 72
2
 73
18
 74
18
 0
VERTEX
 8
CILINDRO
 10
0
 20
0
 30
0
 70
128
 71
1
 72
66
 73
71
 74
71
 0
VERTEX
 8
CILINDRO
 10
0
 20
0
 30
0
 70
128
 71
69
 72
18
 73
19
 74
74
 0
VERTEX
 8
CILINDRO
 10
0
 20
0
 30
0
 70
128
 71
18
 72
2
 73
19
 74
19
 0
VERTEX
 8
CILINDRO
 10
0
 20
0
 30
0
 70
128
 71
1
 72
71
 73
75
 74
75
 0
VERTEX
 8
CILINDRO
 10
0
 20
0
 30
0
 70
128
 71
74
 72
19
 73
20
 74
78
 0
VERTEX
 8
CILINDRO
 10
0
 20
0
 30
0
 70
128
 71
19
 72
2
 73
20
 74
20
 0
VERTEX
 8
CILINDRO
 10
0
 20
0
 30
0
 70
128
 71
1
 72
75
 73
73
 74
73
 0
VERTEX
 8
CILINDRO
 10
0
 20
0
 30
0
 70
128
 71
78
 72
20
 73
21
 74
76
 0
VERTEX
 8
CILINDRO
 10
0
 20
0
 30
0
 70
128
 71
20
 72
2
 73
21
 74
21
 0
VERTEX
 8
CILINDRO
 10
0
 20
0
 30
0
 70
128
 71
1
 72
73
 73
77
 74
77
 0
VERTEX
 8
CILINDRO
 10
0
 20
0
 30
0
 70
128
 71
76
 72
21
 73
22
 74
79
 0
VERTEX
 8
CILINDRO
 10
0
 20
0
 30
0
 70
128
 71
21
 72
2
 73
22
 74
22
 0
VERTEX
 8
CILINDRO
 10
0
 20
0
 30
0
 70
128
 71
1
 72
77
 73
80
 74
80
 0
VERTEX
 8
CILINDRO
 10
0
 20
0
 30
0
 70
128
 71
79
 72
22
 73
23
 74
81
 0
VERTEX
 8
CILINDRO
 10
0
 20
0
 30
0
 70
128
 71
22
 72
2
 73
23
 74
23
 0
VERTEX
 8
CILINDRO
 10
0
 20
0
 30
0
 70
128
 71
1
 72
80
 73
82
 74
82
 0
VERTEX
 8
CILINDRO
 10
0
 20
0
 30
0
 70
128
 71
81
 72
23
 73
24
 74
83
 0
VERTEX
 8
CILINDRO
 10
0
 20
0
 30
0
 70
128
 71
23
 72
2
 73
24
 74
24
 0
VERTEX
 8
CILINDRO
 10
0
 20
0
 30
0
 70
128
 71
1
 72
82
 73
84
 74
84
 0
VERTEX
 8
CILINDRO
 10
0
 20
0
 30
0
 70
128
 71
83
 72
24
 73
25
 74
85
 0
VERTEX
 8
CILINDRO
 10
0
 20
0
 30
0
 70
128
 71
24
 72
2
 73
25
 74
25
 0
VERTEX
 8
CILINDRO
 10
0
 20
0
 30
0
 70
128
 71
1
 72
84
 73
86
 74
86
 0
VERTEX
 8
CILINDRO
 10
0
 20
0
 30
0
 70
128
 71
85
 72
25
 73
26
 74
87
 0
VERTEX
 8
CILINDRO
 10
0
 20
0
 30
0
 70
128
 71
25
 72
2
 73
26
 74
26
 0
VERTEX
 8
CILINDRO
 10
0
 20
0
 30
0
 70
128
 71
1
 72
86
 73
88
 74
88
 0
VERTEX
 8
CILINDRO
 10
0
 20
0
 30
0
 70
128
 71
87
 72
26
 73
27
 74
89
 0
VERTEX
 8
CILINDRO
 10
0
 20
0
 30
0
 70
128
 71
26
 72
2
 73
27
 74
27
 0
VERTEX
 8
CILINDRO
 10
0
 20
0
 30
0
 70
128
 71
1
 72
88
 73
90
 74
90
 0
VERTEX
 8
CILINDRO
 10
0
 20
0
 30
0
 70
128
 71
89
 72
27
 73
28
 74
91
 0
VERTEX
 8
CILINDRO
 10
0
 20
0
 30
0
 70
128
 71
27
 72
2
 73
28
 74
28
 0
VERTEX
 8
CILINDRO
 10
0
 20
0
 30
0
 70
128
 71
1
 72
90
 73
92
 74
92
 0
VERTEX
 8
CILINDRO
 10
0
 20
0
 30
0
 70
128
 71
91
 72
28
 73
29
 74
93
 0
VERTEX
 8
CILINDRO
 10
0
 20
0
 30
0
 70
128
 71
28
 72
2
 73
29
 74
29
 0
VERTEX
 8
CILINDRO
 10
0
 20
0
 30
0
 70
128
 71
1
 72
92
 73
94
 74
94
 0
VERTEX
 8
CILINDRO
 10
0
 20
0
 30
0
 70
128
 71
93
 72
29
 73
30
 74
95
 0
VERTEX
 8
CILINDRO
 10
0
 20
0
 30
0
 70
128
 71
29
 72
2
 73
30
 74
30
 0
VERTEX
 8
CILINDRO
 10
0
 20
0
 30
0
 70
128
 71
1
 72
94
 73
96
 74
96
 0
VERTEX
 8
CILINDRO
 10
0
 20
0
 30
0
 70
128
 71
95
 72
30
 73
31
 74
97
 0
VERTEX
 8
CILINDRO
 10
0
 20
0
 30
0
 70
128
 71
30
 72
2
 73
31
 74
31
 0
VERTEX
 8
CILINDRO
 10
0
 20
0
 30
0
 70
128
 71
1
 72
96
 73
98
 74
98
 0
VERTEX
 8
CILINDRO
 10
0
 20
0
 30
0
 70
128
 71
97
 72
31
 73
32
 74
99
 0
VERTEX
 8
CILINDRO
 10
0
 20
0
 30
0
 70
128
 71
31
 72
2
 73
32
 74
32
 0
VERTEX
 8
CILINDRO
 10
0
 20
0
 30
0
 70
128
 71
1
 72
98
 73
100
 74
100
 0
VERTEX
 8
CILINDRO
 10
0
 20
0
 30
0
 70
128
 71
99
 72
32
 73
33
 74
101
 0
VERTEX
 8
CILINDRO
 10
0
 20
0
 30
0
 70
128
 71
32
 72
2
 73
33
 74
33
 0
VERTEX
 8
CILINDRO
 10
0
 20
0
 30
0
 70
128
 71
1
 72
100
 73
102
 74
102
 0
VERTEX
 8
CILINDRO
 10
0
 20
0
 30
0
 70
128
 71
101
 72
33
 73
34
 74
103
 0
VERTEX
 8
CILINDRO
 10
0
 20
0
 30
0
 70
128
 71
33
 72
2
 73
34
 74
34
 0
VERTEX
 8
CILINDRO
 10
0
 20
0
 30
0
 70
128
 71
1
 72
102
 73
104
 74
104
 0
VERTEX
 8
CILINDRO
 10
0
 20
0
 30
0
 70
128
 71
103
 72
34
 73
35
 74
105
 0
VERTEX
 8
CILINDRO
 10
0
 20
0
 30
0
 70
128
 71
34
 72
2
 73
35
 74
35
 0
VERTEX
 8
CILINDRO
 10
0
 20
0
 30
0
 70
128
 71
1
 72
104
 73
106
 74
106
 0
VERTEX
 8
CILINDRO
 10
0
 20
0
 30
0
 70
128
 71
105
 72
35
 73
36
 74
107
 0
VERTEX
 8
CILINDRO
 10
0
 20
0
 30
0
 70
128
 71
35
 72
2
 73
36
 74
36
 0
VERTEX
 8
CILINDRO
 10
0
 20
0
 30
0
 70
128
 71
1
 72
106
 73
108
 74
108
 0
VERTEX
 8
CILINDRO
 10
0
 20
0
 30
0
 70
128
 71
107
 72
36
 73
37
 74
109
 0
VERTEX
 8
CILINDRO
 10
0
 20
0
 30
0
 70
128
 71
36
 72
2
 73
37
 74
37
 0
VERTEX
 8
CILINDRO
 10
0
 20
0
 30
0
 70
128
 71
1
 72
108
 73
110
 74
110
 0
VERTEX
 8
CILINDRO
 10
0
 20
0
 30
0
 70
128
 71
109
 72
37
 73
38
 74
70
 0
VERTEX
 8
CILINDRO
 10
0
 20
0
 30
0
 70
128
 71
37
 72
2
 73
38
 74
38
 0
VERTEX
 8
CILINDRO
 10
0
 20
0
 30
0
 70
128
 71
1
 72
110
 73
72
 74
72
 0
VERTEX
 8
CILINDRO
 10
0
 20
0
 30
0
 70
128
 71
70
 72
38
 73
3
 74
40
 0
VERTEX
 8
CILINDRO
 10
0
 20
0
 30
0
 70
128
 71
38
 72
2
 73
3
 74
3
 0
VERTEX
 8
CILINDRO
 10
0
 20
0
 30
0
 70
128
 71
42
 72
130
 73
120
 74
40
 0
VERTEX
 8
CILINDRO
 10
0
 20
0
 30
0
 70
128
 71
44
 72
140
 73
130
 74
42
 0
VERTEX
 8
CILINDRO
 10
0
 20
0
 30
0
 70
128
 71
46
 72
145
 73
140
 74
44
 0
VERTEX
 8
CILINDRO
 10
0
 20
0
 30
0
 70
128
 71
48
 72
150
 73
145
 74
46
 0
VERTEX
 8
CILINDRO
 10
0
 20
0
 30
0
 70
128
 71
50
 72
160
 73
150
 74
48
 0
VERTEX
 8
CILINDRO
 10
0
 20
0
 30
0
 70
128
 71
51
 72
165
 73
160
 74
50
 0
VERTEX
 8
CILINDRO
 10
0
 20
0
 30
0
 70
128
 71
54
 72
166
 73
165
 74
51
 0
VERTEX
 8
CILINDRO
 10
0
 20
0
 30
0
 70
128
 71
55
 72
175
 73
166
 74
54
 0
VERTEX
 8
CILINDRO
 10
0
 20
0
 30
0
 70
128
 71
58
 72
176
 73
175
 74
55
 0
VERTEX
 8
CILINDRO
 10
0
 20
0
 30
0
 70
128
 71
59
 72
185
 73
176
 74
58
 0
VERTEX
 8
CILINDRO
 10
0
 20
0
 30
0
 70
128
 71
61
 72
186
 73
185
 74
59
 0
VERTEX
 8
CILINDRO
 10
0
 20
0
 30
0
 70
128
 71
65
 72
191
 73
186
 74
61
 0
VERTEX
 8
CILINDRO
 10
0
 20
0
 30
0
 70
128
 71
68
 72
200
 73
191
 74
65
 0
VERTEX
 8
CILINDRO
 10
0
 20
0
 30
0
 70
128
 71
67
 72
205
 73
200
 74
68
 0
VERTEX
 8
CILINDRO
 10
0
 20
0
 30
0
 70
128
 71
69
 72
210
 73
205
 74
67
 0
VERTEX
 8
CILINDRO
 10
0
 20
0
 30
0
 70
128
 71
74
 72
211
 73
210
 74
69
 0
VERTEX
 8
CILINDRO
 10
0
 20
0
 30
0
 70
128
 71
78
 72
220
 73
211
 74
74
 0
VERTEX
 8
CILINDRO
 10
0
 20
0
 30
0
 70
128
 71
76
 72
225
 73
220
 74
78
 0
VERTEX
 8
CILINDRO
 10
0
 20
0
 30
0
 70
128
 71
79
 72
226
 73
225
 74
76
 0
VERTEX
 8
CILINDRO
 10
0
 20
0
 30
0
 70
128
 71
81
 72
231
 73
226
 74
79
 0
VERTEX
 8
CILINDRO
 10
0
 20
0
 30
0
 70
128
 71
83
 72
236
 73
231
 74
81
 0
VERTEX
 8
CILINDRO
 10
0
 20
0
 30
0
 70
128
 71
85
 72
241
 73
236
 74
83
 0
VERTEX
 8
CILINDRO
 10
0
 20
0
 30
0
 70
128
 71
87
 72
246
 73
241
 74
85
 0
VERTEX
 8
CILINDRO
 10
0
 20
0
 30
0
 70
128
 71
89
 72
251
 73
246
 74
87
 0
VERTEX
 8
CILINDRO
 10
0
 20
0
 30
0
 70
128
 71
91
 72
256
 73
251
 74
89
 0
VERTEX
 8
CILINDRO
 10
0
 20
0
 30
0
 70
128
 71
93
 72
261
 73
256
 74
91
 0
VERTEX
 8
CILINDRO
 10
0
 20
0
 30
0
 70
128
 71
95
 72
266
 73
261
 74
93
 0
VERTEX
 8
CILINDRO
 10
0
 20
0
 30
0
 70
128
 71
97
 72
271
 73
266
 74
95
 0
VERTEX
 8
CILINDRO
 10
0
 20
0
 30
0
 70
128
 71
99
 72
276
 73
271
 74
97
 0
VERTEX
 8
CILINDRO
 10
0
 20
0
 30
0
 70
128
 71
101
 72
281
 73
276
 74
99
 0
VERTEX
 8
CILINDRO
 10
0
 20
0
 30
0
 70
128
 71
103
 72
121
 73
281
 74
101
 0
VERTEX
 8
CILINDRO
 10
0
 20
0
 30
0
 70
128
 71
105
 72
131
 73
121
 74
103
 0
VERTEX
 8
CILINDRO
 10
0
 20
0
 30
0
 70
128
 71
107
 72
286
 73
131
 74
105
 0
VERTEX
 8
CILINDRO
 10
0
 20
0
 30
0
 70
128
 71
109
 72
111
 73
286
 74
107
 0
VERTEX
 8
CILINDRO
 10
0
 20
0
 30
0
 70
128
 71
70
 72
151
 73
111
 74
109
 0
VERTEX
 8
CILINDRO
 10
0
 20
0
 30
0
 70
128
 71
40
 72
120
 73
151
 74
70
 0
VERTEX
 8
CILINDRO
 10
0
 20
0
 30
0
 70
128
 71
130
 72
129
 73
119
 74
120
 0
VERTEX
 8
CILINDRO
 10
0
 20
0
 30
0
 70
128
 71
129
 72
128
 73
118
 74
119
 0
VERTEX
 8
CILINDRO
 10
0
 20
0
 30
0
 70
128
 71
128
 72
127
 73
117
 74
118
 0
VERTEX
 8
CILINDRO
 10
0
 20
0
 30
0
 70
128
 71
127
 72
126
 73
116
 74
117
 0
VERTEX
 8
CILINDRO
 10
0
 20
0
 30
0
 70
128
 71
126
 72
39
 73
72
 74
116
 0
VERTEX
 8
CILINDRO
 10
0
 20
0
 30
0
 70
128
 71
140
 72
139
 73
129
 74
130
 0
VERTEX
 8
CILINDRO
 10
0
 20
0
 30
0
 70
128
 71
139
 72
138
 73
128
 74
129
 0
VERTEX
 8
CILINDRO
 10
0
 20
0
 30
0
 70
128
 71
138
 72
137
 73
127
 74
128
 0
VERTEX
 8
CILINDRO
 10
0
 20
0
 30
0
 70
128
 71
137
 72
136
 73
126
 74
127
 0
VERTEX
 8
CILINDRO
 10
0
 20
0
 30
0
 70
128
 71
136
 72
41
 73
39
 74
126
 0
VERTEX
 8
CILINDRO
 10
0
 20
0
 30
0
 70
128
 71
145
 72
144
 73
139
 74
140
 0
VERTEX
 8
CILINDRO
 10
0
 20
0
 30
0
 70
128
 71
144
 72
143
 73
138
 74
139
 0
VERTEX
 8
CILINDRO
 10
0
 20
0
 30
0
 70
128
 71
143
 72
142
 73
137
 74
138
 0
VERTEX
 8
CILINDRO
 10
0
 20
0
 30
0
 70
128
 71
142
 72
141
 73
136
 74
137
 0
VERTEX
 8
CILINDRO
 10
0
 20
0
 30
0
 70
128
 71
141
 72
43
 73
41
 74
136
 0
VERTEX
 8
CILINDRO
 10
0
 20
0
 30
0
 70
128
 71
150
 72
149
 73
144
 74
145
 0
VERTEX
 8
CILINDRO
 10
0
 20
0
 30
0
 70
128
 71
149
 72
148
 73
143
 74
144
 0
VERTEX
 8
CILINDRO
 10
0
 20
0
 30
0
 70
128
 71
148
 72
147
 73
142
 74
143
 0
VERTEX
 8
CILINDRO
 10
0
 20
0
 30
0
 70
128
 71
147
 72
146
 73
141
 74
142
 0
VERTEX
 8
CILINDRO
 10
0
 20
0
 30
0
 70
128
 71
146
 72
45
 73
43
 74
141
 0
VERTEX
 8
CILINDRO
 10
0
 20
0
 30
0
 70
128
 71
160
 72
159
 73
149
 74
150
 0
VERTEX
 8
CILINDRO
 10
0
 20
0
 30
0
 70
128
 71
159
 72
158
 73
148
 74
149
 0
VERTEX
 8
CILINDRO
 10
0
 20
0
 30
0
 70
128
 71
158
 72
157
 73
147
 74
148
 0
VERTEX
 8
CILINDRO
 10
0
 20
0
 30
0
 70
128
 71
157
 72
156
 73
146
 74
147
 0
VERTEX
 8
CILINDRO
 10
0
 20
0
 30
0
 70
128
 71
156
 72
47
 73
45
 74
146
 0
VERTEX
 8
CILINDRO
 10
0
 20
0
 30
0
 70
128
 71
165
 72
164
 73
159
 74
160
 0
VERTEX
 8
CILINDRO
 10
0
 20
0
 30
0
 70
128
 71
164
 72
163
 73
158
 74
159
 0
VERTEX
 8
CILINDRO
 10
0
 20
0
 30
0
 70
128
 71
163
 72
162
 73
157
 74
158
 0
VERTEX
 8
CILINDRO
 10
0
 20
0
 30
0
 70
128
 71
162
 72
161
 73
156
 74
157
 0
VERTEX
 8
CILINDRO
 10
0
 20
0
 30
0
 70
128
 71
161
 72
49
 73
47
 74
156
 0
VERTEX
 8
CILINDRO
 10
0
 20
0
 30
0
 70
128
 71
166
 72
167
 73
164
 74
165
 0
VERTEX
 8
CILINDRO
 10
0
 20
0
 30
0
 70
128
 71
167
 72
168
 73
163
 74
164
 0
VERTEX
 8
CILINDRO
 10
0
 20
0
 30
0
 70
128
 71
168
 72
169
 73
162
 74
163
 0
VERTEX
 8
CILINDRO
 10
0
 20
0
 30
0
 70
128
 71
169
 72
170
 73
161
 74
162
 0
VERTEX
 8
CILINDRO
 10
0
 20
0
 30
0
 70
128
 71
170
 72
52
 73
49
 74
161
 0
VERTEX
 8
CILINDRO
 10
0
 20
0
 30
0
 70
128
 71
175
 72
174
 73
167
 74
166
 0
VERTEX
 8
CILINDRO
 10
0
 20
0
 30
0
 70
128
 71
174
 72
173
 73
168
 74
167
 0
VERTEX
 8
CILINDRO
 10
0
 20
0
 30
0
 70
128
 71
173
 72
172
 73
169
 74
168
 0
VERTEX
 8
CILINDRO
 10
0
 20
0
 30
0
 70
128
 71
172
 72
171
 73
170
 74
169
 0
VERTEX
 8
CILINDRO
 10
0
 20
0
 30
0
 70
128
 71
171
 72
53
 73
52
 74
170
 0
VERTEX
 8
CILINDRO
 10
0
 20
0
 30
0
 70
128
 71
176
 72
177
 73
174
 74
175
 0
VERTEX
 8
CILINDRO
 10
0
 20
0
 30
0
 70
128
 71
177
 72
178
 73
173
 74
174
 0
VERTEX
 8
CILINDRO
 10
0
 20
0
 30
0
 70
128
 71
178
 72
179
 73
172
 74
173
 0
VERTEX
 8
CILINDRO
 10
0
 20
0
 30
0
 70
128
 71
179
 72
180
 73
171
 74
172
 0
VERTEX
 8
CILINDRO
 10
0
 20
0
 30
0
 70
128
 71
180
 72
56
 73
53
 74
171
 0
VERTEX
 8
CILINDRO
 10
0
 20
0
 30
0
 70
128
 71
185
 72
184
 73
177
 74
176
 0
VERTEX
 8
CILINDRO
 10
0
 20
0
 30
0
 70
128
 71
184
 72
183
 73
178
 74
177
 0
VERTEX
 8
CILINDRO
 10
0
 20
0
 30
0
 70
128
 71
183
 72
182
 73
179
 74
178
 0
VERTEX
 8
CILINDRO
 10
0
 20
0
 30
0
 70
128
 71
182
 72
181
 73
180
 74
179
 0
VERTEX
 8
CILINDRO
 10
0
 20
0
 30
0
 70
128
 71
181
 72
57
 73
56
 74
180
 0
VERTEX
 8
CILINDRO
 10
0
 20
0
 30
0
 70
128
 71
186
 72
187
 73
184
 74
185
 0
VERTEX
 8
CILINDRO
 10
0
 20
0
 30
0
 70
128
 71
187
 72
188
 73
183
 74
184
 0
VERTEX
 8
CILINDRO
 10
0
 20
0
 30
0
 70
128
 71
188
 72
189
 73
182
 74
183
 0
VERTEX
 8
CILINDRO
 10
0
 20
0
 30
0
 70
128
 71
189
 72
190
 73
181
 74
182
 0
VERTEX
 8
CILINDRO
 10
0
 20
0
 30
0
 70
128
 71
190
 72
60
 73
57
 74
181
 0
VERTEX
 8
CILINDRO
 10
0
 20
0
 30
0
 70
128
 71
191
 72
192
 73
187
 74
186
 0
VERTEX
 8
CILINDRO
 10
0
 20
0
 30
0
 70
128
 71
192
 72
193
 73
188
 74
187
 0
VERTEX
 8
CILINDRO
 10
0
 20
0
 30
0
 70
128
 71
193
 72
194
 73
189
 74
188
 0
VERTEX
 8
CILINDRO
 10
0
 20
0
 30
0
 70
128
 71
194
 72
195
 73
190
 74
189
 0
VERTEX
 8
CILINDRO
 10
0
 20
0
 30
0
 70
128
 71
195
 72
62
 73
60
 74
190
 0
VERTEX
 8
CILINDRO
 10
0
 20
0
 30
0
 70
128
 71
200
 72
199
 73
192
 74
191
 0
VERTEX
 8
CILINDRO
 10
0
 20
0
 30
0
 70
128
 71
199
 72
198
 73
193
 74
192
 0
VERTEX
 8
CILINDRO
 10
0
 20
0
 30
0
 70
128
 71
198
 72
197
 73
194
 74
193
 0
VERTEX
 8
CILINDRO
 10
0
 20
0
 30
0
 70
128
 71
197
 72
196
 73
195
 74
194
 0
VERTEX
 8
CILINDRO
 10
0
 20
0
 30
0
 70
128
 71
196
 72
64
 73
62
 74
195
 0
VERTEX
 8
CILINDRO
 10
0
 20
0
 30
0
 70
128
 71
205
 72
204
 73
199
 74
200
 0
VERTEX
 8
CILINDRO
 10
0
 20
0
 30
0
 70
128
 71
204
 72
203
 73
198
 74
199
 0
VERTEX
 8
CILINDRO
 10
0
 20
0
 30
0
 70
128
 71
203
 72
202
 73
197
 74
198
 0
VERTEX
 8
CILINDRO
 10
0
 20
0
 30
0
 70
128
 71
202
 72
201
 73
196
 74
197
 0
VERTEX
 8
CILINDRO
 10
0
 20
0
 30
0
 70
128
 71
201
 72
63
 73
64
 74
196
 0
VERTEX
 8
CILINDRO
 10
0
 20
0
 30
0
 70
128
 71
210
 72
209
 73
204
 74
205
 0
VERTEX
 8
CILINDRO
 10
0
 20
0
 30
0
 70
128
 71
209
 72
208
 73
203
 74
204
 0
VERTEX
 8
CILINDRO
 10
0
 20
0
 30
0
 70
128
 71
208
 72
207
 73
202
 74
203
 0
VERTEX
 8
CILINDRO
 10
0
 20
0
 30
0
 70
128
 71
207
 72
206
 73
201
 74
202
 0
VERTEX
 8
CILINDRO
 10
0
 20
0
 30
0
 70
128
 71
206
 72
66
 73
63
 74
201
 0
VERTEX
 8
CILINDRO
 10
0
 20
0
 30
0
 70
128
 71
211
 72
212
 73
209
 74
210
 0
VERTEX
 8
CILINDRO
 10
0
 20
0
 30
0
 70
128
 71
212
 72
213
 73
208
 74
209
 0
VERTEX
 8
CILINDRO
 10
0
 20
0
 30
0
 70
128
 71
213
 72
214
 73
207
 74
208
 0
VERTEX
 8
CILINDRO
 10
0
 20
0
 30
0
 70
128
 71
214
 72
215
 73
206
 74
207
 0
VERTEX
 8
CILINDRO
 10
0
 20
0
 30
0
 70
128
 71
215
 72
71
 73
66
 74
206
 0
VERTEX
 8
CILINDRO
 10
0
 20
0
 30
0
 70
128
 71
220
 72
219
 73
212
 74
211
 0
VERTEX
 8
CILINDRO
 10
0
 20
0
 30
0
 70
128
 71
219
 72
218
 73
213
 74
212
 0
VERTEX
 8
CILINDRO
 10
0
 20
0
 30
0
 70
128
 71
218
 72
217
 73
214
 74
213
 0
VERTEX
 8
CILINDRO
 10
0
 20
0
 30
0
 70
128
 71
217
 72
216
 73
215
 74
214
 0
VERTEX
 8
CILINDRO
 10
0
 20
0
 30
0
 70
128
 71
216
 72
75
 73
71
 74
215
 0
VERTEX
 8
CILINDRO
 10
0
 20
0
 30
0
 70
128
 71
225
 72
224
 73
219
 74
220
 0
VERTEX
 8
CILINDRO
 10
0
 20
0
 30
0
 70
128
 71
224
 72
223
 73
218
 74
219
 0
VERTEX
 8
CILINDRO
 10
0
 20
0
 30
0
 70
128
 71
223
 72
222
 73
217
 74
218
 0
VERTEX
 8
CILINDRO
 10
0
 20
0
 30
0
 70
128
 71
222
 72
221
 73
216
 74
217
 0
VERTEX
 8
CILINDRO
 10
0
 20
0
 30
0
 70
128
 71
221
 72
73
 73
75
 74
216
 0
VERTEX
 8
CILINDRO
 10
0
 20
0
 30
0
 70
128
 71
226
 72
227
 73
224
 74
225
 0
VERTEX
 8
CILINDRO
 10
0
 20
0
 30
0
 70
128
 71
227
 72
228
 73
223
 74
224
 0
VERTEX
 8
CILINDRO
 10
0
 20
0
 30
0
 70
128
 71
228
 72
229
 73
222
 74
223
 0
VERTEX
 8
CILINDRO
 10
0
 20
0
 30
0
 70
128
 71
229
 72
230
 73
221
 74
222
 0
VERTEX
 8
CILINDRO
 10
0
 20
0
 30
0
 70
128
 71
230
 72
77
 73
73
 74
221
 0
VERTEX
 8
CILINDRO
 10
0
 20
0
 30
0
 70
128
 71
231
 72
232
 73
227
 74
226
 0
VERTEX
 8
CILINDRO
 10
0
 20
0
 30
0
 70
128
 71
232
 72
233
 73
228
 74
227
 0
VERTEX
 8
CILINDRO
 10
0
 20
0
 30
0
 70
128
 71
233
 72
234
 73
229
 74
228
 0
VERTEX
 8
CILINDRO
 10
0
 20
0
 30
0
 70
128
 71
234
 72
235
 73
230
 74
229
 0
VERTEX
 8
CILINDRO
 10
0
 20
0
 30
0
 70
128
 71
235
 72
80
 73
77
 74
230
 0
VERTEX
 8
CILINDRO
 10
0
 20
0
 30
0
 70
128
 71
236
 72
237
 73
232
 74
231
 0
VERTEX
 8
CILINDRO
 10
0
 20
0
 30
0
 70
128
 71
237
 72
238
 73
233
 74
232
 0
VERTEX
 8
CILINDRO
 10
0
 20
0
 30
0
 70
128
 71
238
 72
239
 73
234
 74
233
 0
VERTEX
 8
CILINDRO
 10
0
 20
0
 30
0
 70
128
 71
239
 72
240
 73
235
 74
234
 0
VERTEX
 8
CILINDRO
 10
0
 20
0
 30
0
 70
128
 71
240
 72
82
 73
80
 74
235
 0
VERTEX
 8
CILINDRO
 10
0
 20
0
 30
0
 70
128
 71
241
 72
242
 73
237
 74
236
 0
VERTEX
 8
CILINDRO
 10
0
 20
0
 30
0
 70
128
 71
242
 72
243
 73
238
 74
237
 0
VERTEX
 8
CILINDRO
 10
0
 20
0
 30
0
 70
128
 71
243
 72
244
 73
239
 74
238
 0
VERTEX
 8
CILINDRO
 10
0
 20
0
 30
0
 70
128
 71
244
 72
245
 73
240
 74
239
 0
VERTEX
 8
CILINDRO
 10
0
 20
0
 30
0
 70
128
 71
245
 72
84
 73
82
 74
240
 0
VERTEX
 8
CILINDRO
 10
0
 20
0
 30
0
 70
128
 71
246
 72
247
 73
242
 74
241
 0
VERTEX
 8
CILINDRO
 10
0
 20
0
 30
0
 70
128
 71
247
 72
248
 73
243
 74
242
 0
VERTEX
 8
CILINDRO
 10
0
 20
0
 30
0
 70
128
 71
248
 72
249
 73
244
 74
243
 0
VERTEX
 8
CILINDRO
 10
0
 20
0
 30
0
 70
128
 71
249
 72
250
 73
245
 74
244
 0
VERTEX
 8
CILINDRO
 10
0
 20
0
 30
0
 70
128
 71
250
 72
86
 73
84
 74
245
 0
VERTEX
 8
CILINDRO
 10
0
 20
0
 30
0
 70
128
 71
251
 72
252
 73
247
 74
246
 0
VERTEX
 8
CILINDRO
 10
0
 20
0
 30
0
 70
128
 71
252
 72
253
 73
248
 74
247
 0
VERTEX
 8
CILINDRO
 10
0
 20
0
 30
0
 70
128
 71
253
 72
254
 73
249
 74
248
 0
VERTEX
 8
CILINDRO
 10
0
 20
0
 30
0
 70
128
 71
254
 72
255
 73
250
 74
249
 0
VERTEX
 8
CILINDRO
 10
0
 20
0
 30
0
 70
128
 71
255
 72
88
 73
86
 74
250
 0
VERTEX
 8
CILINDRO
 10
0
 20
0
 30
0
 70
128
 71
256
 72
257
 73
252
 74
251
 0
VERTEX
 8
CILINDRO
 10
0
 20
0
 30
0
 70
128
 71
257
 72
258
 73
253
 74
252
 0
VERTEX
 8
CILINDRO
 10
0
 20
0
 30
0
 70
128
 71
258
 72
259
 73
254
 74
253
 0
VERTEX
 8
CILINDRO
 10
0
 20
0
 30
0
 70
128
 71
259
 72
260
 73
255
 74
254
 0
VERTEX
 8
CILINDRO
 10
0
 20
0
 30
0
 70
128
 71
260
 72
90
 73
88
 74
255
 0
VERTEX
 8
CILINDRO
 10
0
 20
0
 30
0
 70
128
 71
261
 72
262
 73
257
 74
256
 0
VERTEX
 8
CILINDRO
 10
0
 20
0
 30
0
 70
128
 71
262
 72
263
 73
258
 74
257
 0
VERTEX
 8
CILINDRO
 10
0
 20
0
 30
0
 70
128
 71
263
 72
264
 73
259
 74
258
 0
VERTEX
 8
CILINDRO
 10
0
 20
0
 30
0
 70
128
 71
264
 72
265
 73
260
 74
259
 0
VERTEX
 8
CILINDRO
 10
0
 20
0
 30
0
 70
128
 71
265
 72
92
 73
90
 74
260
 0
VERTEX
 8
CILINDRO
 10
0
 20
0
 30
0
 70
128
 71
266
 72
267
 73
262
 74
261
 0
VERTEX
 8
CILINDRO
 10
0
 20
0
 30
0
 70
128
 71
267
 72
268
 73
263
 74
262
 0
VERTEX
 8
CILINDRO
 10
0
 20
0
 30
0
 70
128
 71
268
 72
269
 73
264
 74
263
 0
VERTEX
 8
CILINDRO
 10
0
 20
0
 30
0
 70
128
 71
269
 72
270
 73
265
 74
264
 0
VERTEX
 8
CILINDRO
 10
0
 20
0
 30
0
 70
128
 71
270
 72
94
 73
92
 74
265
 0
VERTEX
 8
CILINDRO
 10
0
 20
0
 30
0
 70
128
 71
271
 72
272
 73
267
 74
266
 0
VERTEX
 8
CILINDRO
 10
0
 20
0
 30
0
 70
128
 71
272
 72
273
 73
268
 74
267
 0
VERTEX
 8
CILINDRO
 10
0
 20
0
 30
0
 70
128
 71
273
 72
274
 73
269
 74
268
 0
VERTEX
 8
CILINDRO
 10
0
 20
0
 30
0
 70
128
 71
274
 72
275
 73
270
 74
269
 0
VERTEX
 8
CILINDRO
 10
0
 20
0
 30
0
 70
128
 71
275
 72
96
 73
94
 74
270
 0
VERTEX
 8
CILINDRO
 10
0
 20
0
 30
0
 70
128
 71
276
 72
277
 73
272
 74
271
 0
VERTEX
 8
CILINDRO
 10
0
 20
0
 30
0
 70
128
 71
277
 72
278
 73
273
 74
272
 0
VERTEX
 8
CILINDRO
 10
0
 20
0
 30
0
 70
128
 71
278
 72
279
 73
274
 74
273
 0
VERTEX
 8
CILINDRO
 10
0
 20
0
 30
0
 70
128
 71
279
 72
280
 73
275
 74
274
 0
VERTEX
 8
CILINDRO
 10
0
 20
0
 30
0
 70
128
 71
280
 72
98
 73
96
 74
275
 0
VERTEX
 8
CILINDRO
 10
0
 20
0
 30
0
 70
128
 71
281
 72
282
 73
277
 74
276
 0
VERTEX
 8
CILINDRO
 10
0
 20
0
 30
0
 70
128
 71
282
 72
283
 73
278
 74
277
 0
VERTEX
 8
CILINDRO
 10
0
 20
0
 30
0
 70
128
 71
283
 72
284
 73
279
 74
278
 0
VERTEX
 8
CILINDRO
 10
0
 20
0
 30
0
 70
128
 71
284
 72
285
 73
280
 74
279
 0
VERTEX
 8
CILINDRO
 10
0
 20
0
 30
0
 70
128
 71
285
 72
100
 73
98
 74
280
 0
VERTEX
 8
CILINDRO
 10
0
 20
0
 30
0
 70
128
 71
121
 72
122
 73
282
 74
281
 0
VERTEX
 8
CILINDRO
 10
0
 20
0
 30
0
 70
128
 71
122
 72
123
 73
283
 74
282
 0
VERTEX
 8
CILINDRO
 10
0
 20
0
 30
0
 70
128
 71
123
 72
124
 73
284
 74
283
 0
VERTEX
 8
CILINDRO
 10
0
 20
0
 30
0
 70
128
 71
124
 72
125
 73
285
 74
284
 0
VERTEX
 8
CILINDRO
 10
0
 20
0
 30
0
 70
128
 71
125
 72
102
 73
100
 74
285
 0
VERTEX
 8
CILINDRO
 10
0
 20
0
 30
0
 70
128
 71
131
 72
132
 73
122
 74
121
 0
VERTEX
 8
CILINDRO
 10
0
 20
0
 30
0
 70
128
 71
132
 72
133
 73
123
 74
122
 0
VERTEX
 8
CILINDRO
 10
0
 20
0
 30
0
 70
128
 71
133
 72
134
 73
124
 74
123
 0
VERTEX
 8
CILINDRO
 10
0
 20
0
 30
0
 70
128
 71
134
 72
135
 73
125
 74
124
 0
VERTEX
 8
CILINDRO
 10
0
 20
0
 30
0
 70
128
 71
135
 72
104
 73
102
 74
125
 0
VERTEX
 8
CILINDRO
 10
0
 20
0
 30
0
 70
128
 71
286
 72
287
 73
132
 74
131
 0
VERTEX
 8
CILINDRO
 10
0
 20
0
 30
0
 70
128
 71
287
 72
288
 73
133
 74
132
 0
VERTEX
 8
CILINDRO
 10
0
 20
0
 30
0
 70
128
 71
288
 72
289
 73
134
 74
133
 0
VERTEX
 8
CILINDRO
 10
0
 20
0
 30
0
 70
128
 71
289
 72
290
 73
135
 74
134
 0
VERTEX
 8
CILINDRO
 10
0
 20
0
 30
0
 70
128
 71
290
 72
106
 73
104
 74
135
 0
VERTEX
 8
CILINDRO
 10
0
 20
0
 30
0
 70
128
 71
111
 72
112
 73
287
 74
286
 0
VERTEX
 8
CILINDRO
 10
0
 20
0
 30
0
 70
128
 71
112
 72
113
 73
288
 74
287
 0
VERTEX
 8
CILINDRO
 10
0
 20
0
 30
0
 70
128
 71
113
 72
114
 73
289
 74
288
 0
VERTEX
 8
CILINDRO
 10
0
 20
0
 30
0
 70
128
 71
114
 72
115
 73
290
 74
289
 0
VERTEX
 8
CILINDRO
 10
0
 20
0
 30
0
 70
128
 71
115
 72
108
 73
106
 74
290
 0
VERTEX
 8
CILINDRO
 10
0
 20
0
 30
0
 70
128
 71
151
 72
152
 73
112
 74
111
 0
VERTEX
 8
CILINDRO
 10
0
 20
0
 30
0
 70
128
 71
152
 72
153
 73
113
 74
112
 0
VERTEX
 8
CILINDRO
 10
0
 20
0
 30
0
 70
128
 71
153
 72
154
 73
114
 74
113
 0
VERTEX
 8
CILINDRO
 10
0
 20
0
 30
0
 70
128
 71
154
 72
155
 73
115
 74
114
 0
VERTEX
 8
CILINDRO
 10
0
 20
0
 30
0
 70
128
 71
155
 72
110
 73
108
 74
115
 0
VERTEX
 8
CILINDRO
 10
0
 20
0
 30
0
 70
128
 71
120
 72
119
 73
152
 74
151
 0
VERTEX
 8
CILINDRO
 10
0
 20
0
 30
0
 70
128
 71
119
 72
118
 73
153
 74
152
 0
VERTEX
 8
CILINDRO
 10
0
 20
0
 30
0
 70
128
 71
118
 72
117
 73
154
 74
153
 0
VERTEX
 8
CILINDRO
 10
0
 20
0
 30
0
 70
128
 71
117
 72
116
 73
155
 74
154
 0
VERTEX
 8
CILINDRO
 10
0
 20
0
 30
0
 70
128
 71
116
 72
72
 73
110
 74
155
 0
SEQEND
 0
POLYLINE
 8
CUBO_2
 66
1
 10
0.0
 20
0.0
 30
0.0
 70
64
 71
23
 72
25
 0
VERTEX
 8
CUBO_2
 10
-30.8272
 20
-29.9262
 30
17.5324
 70
192
 0
VERTEX
 8
CUBO_2
 10
-30.8272
 20
-29.9262
 30
90.7909
 70
192
 0
VERTEX
 8
CUBO_2
 10
21.6616
 20
-29.9262
 30
17.5324
 70
192
 0
VERTEX
 8
CUBO_2
 10
21.6616
 20
-29.9262
 30
90.7909
 70
192
 0
VERTEX
 8
CUBO_2
 10
21.6616
 20
29.9259
 30
17.5324
 70
192
 0
VERTEX
 8
CUBO_2
 10
21.6616
 20
29.9259
 30
90.7909
 70
192
 0
VERTEX
 8
CUBO_2
 10
-30.8272
 20
29.9259
 30
17.5324
 70
192
 0
VERTEX
 8
CUBO_2
 10
-30.8272
 20
29.9259
 30
90.7909
 70
192
 0
VERTEX
 8
CUBO_2
 10
-25.8508
 20
-29.9262
 30
90.7909
 70
192
 0
VERTEX
 8
CUBO_2
 10
-25.8508
 20
-29.9262
 30
17.5324
 70
192
 0
VERTEX
 8
CUBO_2
 10
12.722
 20
-29.9262
 30
90.7909
 70
192
 0
VERTEX
 8
CUBO_2
 10
12.722
 20
-29.9262
 30
17.5324
 70
192
 0
VERTEX
 8
CUBO_2
 10
12.722
 20
29.9259
 30
90.7909
 70
192
 0
VERTEX
 8
CUBO_2
 10
12.722
 20
29.9259
 30
17.5324
 70
192
 0
VERTEX
 8
CUBO_2
 10
-25.8508
 20
29.9259
 30
90.7909
 70
192
 0
VERTEX
 8
CUBO_2
 10
-25.8508
 20
-29.9262
 30
90.7909
 70
192
 0
VERTEX
 8
CUBO_2
 10
-25.8508
 20
29.9259
 30
17.5324
 70
192
 0
VERTEX
 8
CUBO_2
 10
12.722
 20
-29.9262
 30
17.5324
 70
192
 0
VERTEX
 8
CUBO_2
 10
-25.8508
 20
29.9259
 30
17.5324
 70
192
 0
VERTEX
 8
CUBO_2
 10
-25.8508
 20
-29.9262
 30
5.4304
 70
192
 0
VERTEX
 8
CUBO_2
 10
12.722
 20
-29.9262
 30
5.4304
 70
192
 0
VERTEX
 8
CUBO_2
 10
12.722
 20
29.9258
 30
5.4304
 70
192
 0
VERTEX
 8
CUBO_2
 10
-25.8508
 20
29.9258
 30
5.4304
 70
192
 0
VERTEX
 8
CUBO_2
 10
0
 20
0
 30
0
 70
128
 71
1
 72
2
 73
9
 74
10
 0
VERTEX
 8
CUBO_2
 10
0
 20
0
 30
0
 70
128
 71
3
 72
4
 73
6
 74
5
 0
VERTEX
 8
CUBO_2
 10
0
 20
0
 30
0
 70
128
 71
5
 72
6
 73
13
 74
14
 0
VERTEX
 8
CUBO_2
 10
0
 20
0
 30
0
 70
128
 71
7
 72
8
 73
2
 74
1
 0
VERTEX
 8
CUBO_2
 10
0
 20
0
 30
0
 70
128
 71
15
 72
16
 73
9
 74
9
 0
VERTEX
 8
CUBO_2
 10
0
 20
0
 30
0
 70
128
 71
12
 72
18
 73
14
 74
14
 0
VERTEX
 8
CUBO_2
 10
0
 20
0
 30
0
 70
128
 71
19
 72
17
 73
15
 74
15
 0
VERTEX
 8
CUBO_2
 10
0
 20
0
 30
0
 70
128
 71
16
 72
11
 73
12
 74
10
 0
VERTEX
 8
CUBO_2
 10
0
 20
0
 30
0
 70
128
 71
9
 72
16
 73
10
 74
10
 0
VERTEX
 8
CUBO_2
 10
0
 20
0
 30
0
 70
128
 71
17
 72
19
 73
1
 74
1
 0
VERTEX
 8
CUBO_2
 10
0
 20
0
 30
0
 70
128
 71
13
 72
6
 73
4
 74
11
 0
VERTEX
 8
CUBO_2
 10
0
 20
0
 30
0
 70
128
 71
18
 72
12
 73
11
 74
11
 0
VERTEX
 8
CUBO_2
 10
0
 20
0
 30
0
 70
128
 71
19
 72
7
 73
1
 74
1
 0
VERTEX
 8
CUBO_2
 10
0
 20
0
 30
0
 70
128
 71
15
 72
13
 73
11
 74
16
 0
VERTEX
 8
CUBO_2
 10
0
 20
0
 30
0
 70
128
 71
13
 72
15
 73
17
 74
14
 0
VERTEX
 8
CUBO_2
 10
0
 20
0
 30
0
 70
128
 71
15
 72
8
 73
7
 74
19
 0
VERTEX
 8
CUBO_2
 10
0
 20
0
 30
0
 70
128
 71
1
 72
10
 73
17
 74
17
 0
VERTEX
 8
CUBO_2
 10
0
 20
0
 30
0
 70
128
 71
22
 72
23
 73
20
 74
21
 0
VERTEX
 8
CUBO_2
 10
0
 20
0
 30
0
 70
128
 71
9
 72
2
 73
8
 74
15
 0
VERTEX
 8
CUBO_2
 10
0
 20
0
 30
0
 70
128
 71
11
 72
4
 73
3
 74
18
 0
VERTEX
 8
CUBO_2
 10
0
 20
0
 30
0
 70
128
 71
18
 72
3
 73
5
 74
14
 0
VERTEX
 8
CUBO_2
 10
0
 20
0
 30
0
 70
128
 71
14
 72
22
 73
21
 74
12
 0
VERTEX
 8
CUBO_2
 10
0
 20
0
 30
0
 70
128
 71
12
 72
21
 73
20
 74
10
 0
VERTEX
 8
CUBO_2
 10
0
 20
0
 30
0
 70
128
 71
10
 72
20
 73
23
 74
17
 0
VERTEX
 8
CUBO_2
 10
0
 20
0
 30
0
 70
128
 71
17
 72
23
 73
22
 74
14
 0
SEQEND
 0
POLYLINE
 8
CUBO_1
 66
1
 10
0.0
 20
0.0
 30
0.0
 70
64
 71
8
 72
6
 0
VERTEX
 8
CUBO_1
 10
26.3656
 20
-29.9262
 30
15.4171
 70
192
 0
VERTEX
 8
CUBO_1
 10
26.3656
 20
-29.9262
 30
91.394
 70
192
 0
VERTEX
 8
CUBO_1
 10
28.1309
 20
-29.9262
 30
15.4171
 70
192
 0
VERTEX
 8
CUBO_1
 10
28.1309
 20
-29.9262
 30
91.394
 70
192
 0
VERTEX
 8
CUBO_1
 10
28.1309
 20
29.9259
 30
15.4171
 70
192
 0
VERTEX
 8
CUBO_1
 10
28.1309
 20
29.9259
 30
91.394
 70
192
 0
VERTEX
 8
CUBO_1
 10
26.3656
 20
29.9259
 30
15.4171
 70
192
 0
VERTEX
 8
CUBO_1
 10
26.3656
 20
29.9259
 30
91.394
 70
192
 0
VERTEX
 8
CUBO_1
 10
0
 20
0
 30
0
 70
128
 71
1
 72
2
 73
4
 74
3
 0
VERTEX
 8
CUBO_1
 10
0
 20
0
 30
0
 70
128
 71
3
 72
4
 73
6
 74
5
 0
VERTEX
 8
CUBO_1
 10
0
 20
0
 30
0
 70
128
 71
5
 72
6
 73
8
 74
7
 0
VERTEX
 8
CUBO_1
 10
0
 20
0
 30
0
 70
128
 71
7
 72
8
 73
2
 74
1
 0
VERTEX
 8
CUBO_1
 10
0
 20
0
 30
0
 70
128
 71
2
 72
8
 73
6
 74
4
 0
VERTEX
 8
CUBO_1
 10
0
 20
0
 30
0
 70
128
 71
7
 72
1
 73
3
 74
5
 0
SEQEND
 0
POLYLINE
 8
CUBO
 66
1
 10
0.0
 20
0.0
 30
0.0
 70
64
 71
8
 72
6
 0
VERTEX
 8
CUBO
 10
21.7044
 20
-29.9262
 30
15.4171
 70
192
 0
VERTEX
 8
CUBO
 10
21.7044
 20
-29.9262
 30
90.7909
 70
192
 0
VERTEX
 8
CUBO
 10
26.3624
 20
-29.9262
 30
15.4171
 70
192
 0
VERTEX
 8
CUBO
 10
26.3624
 20
-29.9262
 30
90.7909
 70
192
 0
VERTEX
 8
CUBO
 10
26.3624
 20
29.9259
 30
15.4171
 70
192
 0
VERTEX
 8
CUBO
 10
26.3624
 20
29.9259
 30
90.7909
 70
192
 0
VERTEX
 8
CUBO
 10
21.7044
 20
29.9259
 30
15.4171
 70
192
 0
VERTEX
 8
CUBO
 10
21.7044
 20
29.9259
 30
90.7909
 70
192
 0
VERTEX
 8
CUBO
 10
0
 20
0
 30
0
 70
128
 71
1
 72
2
 73
4
 74
3
 0
VERTEX
 8
CUBO
 10
0
 20
0
 30
0
 70
128
 71
3
 72
4
 73
6
 74
5
 0
VERTEX
 8
CUBO
 10
0
 20
0
 30
0
 70
128
 71
5
 72
6
 73
8
 74
7
 0
VERTEX
 8
CUBO
 10
0
 20
0
 30
0
 70
128
 71
7
 72
8
 73
2
 74
1
 0
VERTEX
 8
CUBO
 10
0
 20
0
 30
0
 70
128
 71
2
 72
8
 73
6
 74
4
 0
VERTEX
 8
CUBO
 10
0
 20
0
 30
0
 70
128
 71
7
 72
1
 73
3
 74
5
 0
SEQEND
 0
ENDSEC
 0
EOF
