 0
SECTION
 2
HEADER
 9
$ACADVER
 1
AC1009
 0
ENDSEC
 0
SECTION
 2
TABLES
 0
TABLE
 2
LTYPE
 70
1
 0
LTYPE
 2
CONTINUOUS
 70
64
 3
solid line
 72
65
 73
0
 40
0.0
 0
ENDTAB
 0
TABLE
 2
LAYER
 70
6
 0
LAYER
 2
0
 70
0
 62
7
 6
CONTINUOUS
 0
LAYER
 2
F6DWT24FI2_-_24_OVERLAY_BUILT-
 70
64
 62
7
 6
CONTINUOUS
 0
LAYER
 2
TARGHETTA_LOGO
 70
64
 62
7
 6
CONTINUOUS
 0
LAYER
 2
FULGOR
 70
64
 62
253
 6
CONTINUOUS
 0
LAYER
 2
MILANO
 70
64
 62
253
 6
CONTINUOUS
 0
LAYER
 2
CUBO_1
 70
64
 62
39
 6
CONTINUOUS
 0
LAYER
 2
CUBO
 70
64
 62
253
 6
CONTINUOUS
 0
LAYER
 2
CILINDRO_7
 70
64
 62
253
 6
CONTINUOUS
 0
LAYER
 2
CILINDRO_6
 70
64
 62
253
 6
CONTINUOUS
 0
LAYER
 2
CILINDRO_5
 70
64
 62
253
 6
CONTINUOUS
 0
LAYER
 2
CILINDRO_4
 70
64
 62
253
 6
CONTINUOUS
 0
LAYER
 2
CILINDRO_3
 70
64
 62
253
 6
CONTINUOUS
 0
LAYER
 2
CILINDRO_2
 70
64
 62
253
 6
CONTINUOUS
 0
LAYER
 2
CILINDRO_1
 70
64
 62
253
 6
CONTINUOUS
 0
LAYER
 2
CILINDRO
 70
64
 62
253
 6
CONTINUOUS
 0
LAYER
 2
CUBO_2
 70
64
 62
253
 6
CONTINUOUS
 0
LAYER
 2
CUBO_3
 70
64
 62
253
 6
CONTINUOUS
 0
ENDTAB
 0
ENDSEC
 0
SECTION
 2
BLOCKS
 0
ENDSEC
 0
SECTION
 2
ENTITIES
 0
POLYLINE
 8
FULGOR
 66
1
 10
0.0
 20
0.0
 30
0.0
 70
64
 71
367
 72
183
 0
VERTEX
 8
FULGOR
 10
0.369
 20
-28.6221
 30
25.8259
 70
192
 0
VERTEX
 8
FULGOR
 10
-4.0902
 20
-28.6221
 30
25.6567
 70
192
 0
VERTEX
 8
FULGOR
 10
2.2071
 20
-28.6221
 30
25.6997
 70
192
 0
VERTEX
 8
FULGOR
 10
-3.8366
 20
-28.6221
 30
26.1455
 70
192
 0
VERTEX
 8
FULGOR
 10
-3.8366
 20
-28.6221
 30
26.2994
 70
192
 0
VERTEX
 8
FULGOR
 10
-3.2138
 20
-28.6221
 30
26.2994
 70
192
 0
VERTEX
 8
FULGOR
 10
-3.2138
 20
-28.6221
 30
26.4817
 70
192
 0
VERTEX
 8
FULGOR
 10
-4.0902
 20
-28.6221
 30
26.4817
 70
192
 0
VERTEX
 8
FULGOR
 10
-2.9562
 20
-28.6221
 30
26.0153
 70
192
 0
VERTEX
 8
FULGOR
 10
-2.9541
 20
-28.6221
 30
25.9768
 70
192
 0
VERTEX
 8
FULGOR
 10
-2.9483
 20
-28.6221
 30
25.9412
 70
192
 0
VERTEX
 8
FULGOR
 10
-3.8366
 20
-28.6221
 30
25.6567
 70
192
 0
VERTEX
 8
FULGOR
 10
-3.8366
 20
-28.6221
 30
25.9987
 70
192
 0
VERTEX
 8
FULGOR
 10
-3.2138
 20
-28.6221
 30
25.9987
 70
192
 0
VERTEX
 8
FULGOR
 10
-3.2138
 20
-28.6221
 30
26.1455
 70
192
 0
VERTEX
 8
FULGOR
 10
-2.9562
 20
-28.6221
 30
26.4817
 70
192
 0
VERTEX
 8
FULGOR
 10
-2.9389
 20
-28.6221
 30
25.9084
 70
192
 0
VERTEX
 8
FULGOR
 10
-2.9262
 20
-28.6221
 30
25.8783
 70
192
 0
VERTEX
 8
FULGOR
 10
-2.9104
 20
-28.6221
 30
25.8508
 70
192
 0
VERTEX
 8
FULGOR
 10
-2.8918
 20
-28.6221
 30
25.8257
 70
192
 0
VERTEX
 8
FULGOR
 10
-2.6664
 20
-28.6221
 30
25.6997
 70
192
 0
VERTEX
 8
FULGOR
 10
-2.5795
 20
-28.6221
 30
25.6816
 70
192
 0
VERTEX
 8
FULGOR
 10
-2.4381
 20
-28.6221
 30
25.6666
 70
192
 0
VERTEX
 8
FULGOR
 10
-2.2915
 20
-28.6221
 30
25.6619
 70
192
 0
VERTEX
 8
FULGOR
 10
-2.1276
 20
-28.6221
 30
25.6678
 70
192
 0
VERTEX
 8
FULGOR
 10
-2.0039
 20
-28.6221
 30
25.6843
 70
192
 0
VERTEX
 8
FULGOR
 10
-2.8705
 20
-28.6221
 30
25.803
 70
192
 0
VERTEX
 8
FULGOR
 10
-1.8515
 20
-28.6221
 30
25.726
 70
192
 0
VERTEX
 8
FULGOR
 10
-2.8468
 20
-28.6221
 30
25.7825
 70
192
 0
VERTEX
 8
FULGOR
 10
-2.8209
 20
-28.6221
 30
25.7641
 70
192
 0
VERTEX
 8
FULGOR
 10
-2.7785
 20
-28.6221
 30
25.7402
 70
192
 0
VERTEX
 8
FULGOR
 10
-2.7323
 20
-28.6221
 30
25.7204
 70
192
 0
VERTEX
 8
FULGOR
 10
-1.6831
 20
-28.6221
 30
25.8401
 70
192
 0
VERTEX
 8
FULGOR
 10
-1.9172
 20
-28.6221
 30
25.7042
 70
192
 0
VERTEX
 8
FULGOR
 10
-1.8056
 20
-28.6221
 30
25.7462
 70
192
 0
VERTEX
 8
FULGOR
 10
-1.7633
 20
-28.6221
 30
25.7698
 70
192
 0
VERTEX
 8
FULGOR
 10
-1.7254
 20
-28.6221
 30
25.7972
 70
192
 0
VERTEX
 8
FULGOR
 10
-1.6309
 20
-28.6221
 30
25.9657
 70
192
 0
VERTEX
 8
FULGOR
 10
-1.6289
 20
-28.6221
 30
25.9996
 70
192
 0
VERTEX
 8
FULGOR
 10
-1.6285
 20
-28.6221
 30
26.4817
 70
192
 0
VERTEX
 8
FULGOR
 10
-1.703
 20
-28.6221
 30
25.8177
 70
192
 0
VERTEX
 8
FULGOR
 10
-1.666
 20
-28.6221
 30
25.8644
 70
192
 0
VERTEX
 8
FULGOR
 10
-1.8823
 20
-28.6221
 30
26.0021
 70
192
 0
VERTEX
 8
FULGOR
 10
-1.8837
 20
-28.6221
 30
25.9905
 70
192
 0
VERTEX
 8
FULGOR
 10
-1.8863
 20
-28.6221
 30
25.9789
 70
192
 0
VERTEX
 8
FULGOR
 10
-1.8901
 20
-28.6221
 30
25.9675
 70
192
 0
VERTEX
 8
FULGOR
 10
-1.8951
 20
-28.6221
 30
25.9563
 70
192
 0
VERTEX
 8
FULGOR
 10
-1.9014
 20
-28.6221
 30
25.9452
 70
192
 0
VERTEX
 8
FULGOR
 10
-1.9089
 20
-28.6221
 30
25.9344
 70
192
 0
VERTEX
 8
FULGOR
 10
-1.9226
 20
-28.6221
 30
25.9186
 70
192
 0
VERTEX
 8
FULGOR
 10
-1.9394
 20
-28.6221
 30
25.9036
 70
192
 0
VERTEX
 8
FULGOR
 10
-1.9592
 20
-28.6221
 30
25.8894
 70
192
 0
VERTEX
 8
FULGOR
 10
-1.9823
 20
-28.6221
 30
25.8762
 70
192
 0
VERTEX
 8
FULGOR
 10
-1.6518
 20
-28.6221
 30
25.8907
 70
192
 0
VERTEX
 8
FULGOR
 10
-1.6408
 20
-28.6221
 30
25.9191
 70
192
 0
VERTEX
 8
FULGOR
 10
-1.6333
 20
-28.6221
 30
25.9496
 70
192
 0
VERTEX
 8
FULGOR
 10
-1.882
 20
-28.6221
 30
26.4817
 70
192
 0
VERTEX
 8
FULGOR
 10
-1.882
 20
-28.6221
 30
26.0137
 70
192
 0
VERTEX
 8
FULGOR
 10
-2.436
 20
-28.6221
 30
25.8277
 70
192
 0
VERTEX
 8
FULGOR
 10
-2.0181
 20
-28.6221
 30
25.8603
 70
192
 0
VERTEX
 8
FULGOR
 10
-2.5561
 20
-28.6221
 30
25.8502
 70
192
 0
VERTEX
 8
FULGOR
 10
-2.5932
 20
-28.6221
 30
25.8636
 70
192
 0
VERTEX
 8
FULGOR
 10
-2.06
 20
-28.6221
 30
25.8467
 70
192
 0
VERTEX
 8
FULGOR
 10
-2.1212
 20
-28.6221
 30
25.8333
 70
192
 0
VERTEX
 8
FULGOR
 10
-2.1926
 20
-28.6221
 30
25.8245
 70
192
 0
VERTEX
 8
FULGOR
 10
-2.666
 20
-28.6221
 30
25.9135
 70
192
 0
VERTEX
 8
FULGOR
 10
-2.6748
 20
-28.6221
 30
25.9246
 70
192
 0
VERTEX
 8
FULGOR
 10
-2.6824
 20
-28.6221
 30
25.9363
 70
192
 0
VERTEX
 8
FULGOR
 10
-2.6887
 20
-28.6221
 30
25.9487
 70
192
 0
VERTEX
 8
FULGOR
 10
-2.6938
 20
-28.6221
 30
25.9617
 70
192
 0
VERTEX
 8
FULGOR
 10
-2.2924
 20
-28.6221
 30
25.8208
 70
192
 0
VERTEX
 8
FULGOR
 10
-2.7015
 20
-28.6221
 30
25.997
 70
192
 0
VERTEX
 8
FULGOR
 10
-2.7027
 20
-28.6221
 30
26.02
 70
192
 0
VERTEX
 8
FULGOR
 10
-2.7027
 20
-28.6221
 30
26.4817
 70
192
 0
VERTEX
 8
FULGOR
 10
-2.5128
 20
-28.6221
 30
25.8393
 70
192
 0
VERTEX
 8
FULGOR
 10
-2.6173
 20
-28.6221
 30
25.8754
 70
192
 0
VERTEX
 8
FULGOR
 10
-2.6381
 20
-28.6221
 30
25.8885
 70
192
 0
VERTEX
 8
FULGOR
 10
-2.6558
 20
-28.6221
 30
25.903
 70
192
 0
VERTEX
 8
FULGOR
 10
-1.118
 20
-28.6221
 30
25.8391
 70
192
 0
VERTEX
 8
FULGOR
 10
-1.118
 20
-28.6221
 30
26.4817
 70
192
 0
VERTEX
 8
FULGOR
 10
0.8972
 20
-28.6221
 30
26.4058
 70
192
 0
VERTEX
 8
FULGOR
 10
-2.6977
 20
-28.6221
 30
25.9753
 70
192
 0
VERTEX
 8
FULGOR
 10
-1.3717
 20
-28.6221
 30
26.4817
 70
192
 0
VERTEX
 8
FULGOR
 10
0.3955
 20
-28.6221
 30
26.4811
 70
192
 0
VERTEX
 8
FULGOR
 10
-1.3717
 20
-28.6221
 30
25.6567
 70
192
 0
VERTEX
 8
FULGOR
 10
-0.4953
 20
-28.6221
 30
25.6567
 70
192
 0
VERTEX
 8
FULGOR
 10
-0.4953
 20
-28.6221
 30
25.8391
 70
192
 0
VERTEX
 8
FULGOR
 10
0.7325
 20
-28.6221
 30
26.4383
 70
192
 0
VERTEX
 8
FULGOR
 10
0.5693
 20
-28.6221
 30
26.4659
 70
192
 0
VERTEX
 8
FULGOR
 10
0.2801
 20
-28.6221
 30
26.4808
 70
192
 0
VERTEX
 8
FULGOR
 10
-0.1651
 20
-28.6221
 30
26.356
 70
192
 0
VERTEX
 8
FULGOR
 10
-0.2083
 20
-28.6221
 30
26.3277
 70
192
 0
VERTEX
 8
FULGOR
 10
-0.2448
 20
-28.6221
 30
26.2983
 70
192
 0
VERTEX
 8
FULGOR
 10
-0.2757
 20
-28.6221
 30
26.2681
 70
192
 0
VERTEX
 8
FULGOR
 10
0.1755
 20
-28.6221
 30
26.4703
 70
192
 0
VERTEX
 8
FULGOR
 10
0.0825
 20
-28.6221
 30
26.4523
 70
192
 0
VERTEX
 8
FULGOR
 10
-0.0088
 20
-28.6221
 30
26.4259
 70
192
 0
VERTEX
 8
FULGOR
 10
-0.3453
 20
-28.6221
 30
26.1563
 70
192
 0
VERTEX
 8
FULGOR
 10
-0.3526
 20
-28.6221
 30
26.1326
 70
192
 0
VERTEX
 8
FULGOR
 10
-0.0912
 20
-28.6221
 30
26.3937
 70
192
 0
VERTEX
 8
FULGOR
 10
-0.1335
 20
-28.6221
 30
26.3733
 70
192
 0
VERTEX
 8
FULGOR
 10
-0.2999
 20
-28.6221
 30
26.2392
 70
192
 0
VERTEX
 8
FULGOR
 10
-0.3598
 20
-28.6221
 30
26.036
 70
192
 0
VERTEX
 8
FULGOR
 10
-0.3174
 20
-28.6221
 30
26.2137
 70
192
 0
VERTEX
 8
FULGOR
 10
-0.3327
 20
-28.6221
 30
26.1861
 70
192
 0
VERTEX
 8
FULGOR
 10
-0.3579
 20
-28.6221
 30
26.1076
 70
192
 0
VERTEX
 8
FULGOR
 10
-0.3601
 20
-28.6221
 30
26.0903
 70
192
 0
VERTEX
 8
FULGOR
 10
-0.3614
 20
-28.6221
 30
26.0633
 70
192
 0
VERTEX
 8
FULGOR
 10
-0.355
 20
-28.6221
 30
26.0093
 70
192
 0
VERTEX
 8
FULGOR
 10
-0.2483
 20
-28.6221
 30
25.8443
 70
192
 0
VERTEX
 8
FULGOR
 10
-0.2081
 20
-28.6221
 30
25.8117
 70
192
 0
VERTEX
 8
FULGOR
 10
-0.3473
 20
-28.6221
 30
25.9833
 70
192
 0
VERTEX
 8
FULGOR
 10
-0.0966
 20
-28.6221
 30
25.746
 70
192
 0
VERTEX
 8
FULGOR
 10
-0.0357
 20
-28.6221
 30
25.7205
 70
192
 0
VERTEX
 8
FULGOR
 10
-0.3367
 20
-28.6221
 30
25.9581
 70
192
 0
VERTEX
 8
FULGOR
 10
-0.3236
 20
-28.6221
 30
25.9336
 70
192
 0
VERTEX
 8
FULGOR
 10
0.2513
 20
-28.6221
 30
25.661
 70
192
 0
VERTEX
 8
FULGOR
 10
0.3305
 20
-28.6221
 30
25.6571
 70
192
 0
VERTEX
 8
FULGOR
 10
0.3955
 20
-28.6221
 30
25.6575
 70
192
 0
VERTEX
 8
FULGOR
 10
0.4984
 20
-28.6221
 30
25.6635
 70
192
 0
VERTEX
 8
FULGOR
 10
-0.3023
 20
-28.6221
 30
25.9023
 70
192
 0
VERTEX
 8
FULGOR
 10
-0.2771
 20
-28.6221
 30
25.8725
 70
192
 0
VERTEX
 8
FULGOR
 10
-0.1546
 20
-28.6221
 30
25.7765
 70
192
 0
VERTEX
 8
FULGOR
 10
0.6058
 20
-28.6221
 30
26.0851
 70
192
 0
VERTEX
 8
FULGOR
 10
0.0473
 20
-28.6221
 30
25.6945
 70
192
 0
VERTEX
 8
FULGOR
 10
0.1388
 20
-28.6221
 30
25.6748
 70
192
 0
VERTEX
 8
FULGOR
 10
0.6262
 20
-28.6221
 30
25.6803
 70
192
 0
VERTEX
 8
FULGOR
 10
0.8972
 20
-28.6221
 30
25.7327
 70
192
 0
VERTEX
 8
FULGOR
 10
0.3213
 20
-28.6221
 30
25.8263
 70
192
 0
VERTEX
 8
FULGOR
 10
0.2656
 20
-28.6221
 30
25.8308
 70
192
 0
VERTEX
 8
FULGOR
 10
0.8972
 20
-28.6221
 30
26.0851
 70
192
 0
VERTEX
 8
FULGOR
 10
0.1612
 20
-28.6221
 30
25.8543
 70
192
 0
VERTEX
 8
FULGOR
 10
0.1234
 20
-28.6221
 30
25.869
 70
192
 0
VERTEX
 8
FULGOR
 10
0.6057
 20
-28.6221
 30
25.8436
 70
192
 0
VERTEX
 8
FULGOR
 10
0.5725
 20
-28.6221
 30
25.8375
 70
192
 0
VERTEX
 8
FULGOR
 10
0.0359
 20
-28.6221
 30
25.9249
 70
192
 0
VERTEX
 8
FULGOR
 10
0.4812
 20
-28.6221
 30
25.8281
 70
192
 0
VERTEX
 8
FULGOR
 10
0.4139
 20
-28.6221
 30
25.8254
 70
192
 0
VERTEX
 8
FULGOR
 10
0.2119
 20
-28.6221
 30
25.8401
 70
192
 0
VERTEX
 8
FULGOR
 10
0.0885
 20
-28.6221
 30
25.8868
 70
192
 0
VERTEX
 8
FULGOR
 10
-0.0285
 20
-28.6221
 30
26.0274
 70
192
 0
VERTEX
 8
FULGOR
 10
-0.0323
 20
-28.6221
 30
26.0448
 70
192
 0
VERTEX
 8
FULGOR
 10
-0.0347
 20
-28.6221
 30
26.0629
 70
192
 0
VERTEX
 8
FULGOR
 10
-0.0355
 20
-28.6221
 30
26.0817
 70
192
 0
VERTEX
 8
FULGOR
 10
-0.0345
 20
-28.6221
 30
26.1003
 70
192
 0
VERTEX
 8
FULGOR
 10
0.057
 20
-28.6221
 30
25.9074
 70
192
 0
VERTEX
 8
FULGOR
 10
0.0171
 20
-28.6221
 30
25.9439
 70
192
 0
VERTEX
 8
FULGOR
 10
0.0009
 20
-28.6221
 30
25.9646
 70
192
 0
VERTEX
 8
FULGOR
 10
-0.0114
 20
-28.6221
 30
26.1667
 70
192
 0
VERTEX
 8
FULGOR
 10
-0.0015
 20
-28.6221
 30
26.1812
 70
192
 0
VERTEX
 8
FULGOR
 10
0.0098
 20
-28.6221
 30
26.1949
 70
192
 0
VERTEX
 8
FULGOR
 10
-0.0126
 20
-28.6221
 30
25.9868
 70
192
 0
VERTEX
 8
FULGOR
 10
0.0511
 20
-28.6221
 30
26.2313
 70
192
 0
VERTEX
 8
FULGOR
 10
0.0751
 20
-28.6221
 30
26.2468
 70
192
 0
VERTEX
 8
FULGOR
 10
-0.0232
 20
-28.6221
 30
26.0106
 70
192
 0
VERTEX
 8
FULGOR
 10
0.156
 20
-28.6221
 30
26.283
 70
192
 0
VERTEX
 8
FULGOR
 10
0.2037
 20
-28.6221
 30
26.2966
 70
192
 0
VERTEX
 8
FULGOR
 10
-0.0314
 20
-28.6221
 30
26.1182
 70
192
 0
VERTEX
 8
FULGOR
 10
0.2873
 20
-28.6221
 30
26.3098
 70
192
 0
VERTEX
 8
FULGOR
 10
-0.0265
 20
-28.6221
 30
26.1352
 70
192
 0
VERTEX
 8
FULGOR
 10
0.5343
 20
-28.6221
 30
26.2964
 70
192
 0
VERTEX
 8
FULGOR
 10
-0.0198
 20
-28.6221
 30
26.1513
 70
192
 0
VERTEX
 8
FULGOR
 10
0.8972
 20
-28.6221
 30
26.2297
 70
192
 0
VERTEX
 8
FULGOR
 10
1.1549
 20
-28.6221
 30
26.0692
 70
192
 0
VERTEX
 8
FULGOR
 10
1.1571
 20
-28.6221
 30
26.0325
 70
192
 0
VERTEX
 8
FULGOR
 10
0.0292
 20
-28.6221
 30
26.214
 70
192
 0
VERTEX
 8
FULGOR
 10
0.1098
 20
-28.6221
 30
26.2648
 70
192
 0
VERTEX
 8
FULGOR
 10
1.1872
 20
-28.6221
 30
25.9346
 70
192
 0
VERTEX
 8
FULGOR
 10
1.2043
 20
-28.6221
 30
25.9058
 70
192
 0
VERTEX
 8
FULGOR
 10
1.2246
 20
-28.6221
 30
25.8789
 70
192
 0
VERTEX
 8
FULGOR
 10
1.2477
 20
-28.6221
 30
25.8538
 70
192
 0
VERTEX
 8
FULGOR
 10
1.2874
 20
-28.6221
 30
25.8195
 70
192
 0
VERTEX
 8
FULGOR
 10
0.2602
 20
-28.6221
 30
26.307
 70
192
 0
VERTEX
 8
FULGOR
 10
0.3884
 20
-28.6221
 30
26.3112
 70
192
 0
VERTEX
 8
FULGOR
 10
0.6819
 20
-28.6221
 30
26.2723
 70
192
 0
VERTEX
 8
FULGOR
 10
1.1633
 20
-28.6221
 30
25.9979
 70
192
 0
VERTEX
 8
FULGOR
 10
1.1735
 20
-28.6221
 30
25.9653
 70
192
 0
VERTEX
 8
FULGOR
 10
1.7785
 20
-28.6221
 30
25.6635
 70
192
 0
VERTEX
 8
FULGOR
 10
1.8847
 20
-28.6221
 30
25.6591
 70
192
 0
VERTEX
 8
FULGOR
 10
1.3322
 20
-28.6221
 30
25.789
 70
192
 0
VERTEX
 8
FULGOR
 10
2.1448
 20
-28.6221
 30
25.6844
 70
192
 0
VERTEX
 8
FULGOR
 10
1.3813
 20
-28.6221
 30
25.7622
 70
192
 0
VERTEX
 8
FULGOR
 10
1.4522
 20
-28.6221
 30
25.7318
 70
192
 0
VERTEX
 8
FULGOR
 10
1.5467
 20
-28.6221
 30
25.702
 70
192
 0
VERTEX
 8
FULGOR
 10
1.6637
 20
-28.6221
 30
25.6773
 70
192
 0
VERTEX
 8
FULGOR
 10
2.0096
 20
-28.6221
 30
25.6651
 70
192
 0
VERTEX
 8
FULGOR
 10
2.5334
 20
-28.6221
 30
25.8662
 70
192
 0
VERTEX
 8
FULGOR
 10
2.261
 20
-28.6221
 30
25.713
 70
192
 0
VERTEX
 8
FULGOR
 10
2.3532
 20
-28.6221
 30
25.7463
 70
192
 0
VERTEX
 8
FULGOR
 10
2.4211
 20
-28.6221
 30
25.7797
 70
192
 0
VERTEX
 8
FULGOR
 10
2.4674
 20
-28.6221
 30
25.809
 70
192
 0
VERTEX
 8
FULGOR
 10
2.5088
 20
-28.6221
 30
25.842
 70
192
 0
VERTEX
 8
FULGOR
 10
2.6122
 20
-28.6221
 30
26.0323
 70
192
 0
VERTEX
 8
FULGOR
 10
2.6144
 20
-28.6221
 30
26.069
 70
192
 0
VERTEX
 8
FULGOR
 10
2.6123
 20
-28.6221
 30
26.1056
 70
192
 0
VERTEX
 8
FULGOR
 10
2.6061
 20
-28.6221
 30
26.1402
 70
192
 0
VERTEX
 8
FULGOR
 10
2.5551
 20
-28.6221
 30
25.8921
 70
192
 0
VERTEX
 8
FULGOR
 10
2.5738
 20
-28.6221
 30
25.9199
 70
192
 0
VERTEX
 8
FULGOR
 10
2.5893
 20
-28.6221
 30
25.9496
 70
192
 0
VERTEX
 8
FULGOR
 10
2.545
 20
-28.6221
 30
26.2591
 70
192
 0
VERTEX
 8
FULGOR
 10
2.5219
 20
-28.6221
 30
26.2842
 70
192
 0
VERTEX
 8
FULGOR
 10
2.4822
 20
-28.6221
 30
26.3185
 70
192
 0
VERTEX
 8
FULGOR
 10
2.4374
 20
-28.6221
 30
26.3491
 70
192
 0
VERTEX
 8
FULGOR
 10
2.3883
 20
-28.6221
 30
26.3759
 70
192
 0
VERTEX
 8
FULGOR
 10
2.3174
 20
-28.6221
 30
26.4064
 70
192
 0
VERTEX
 8
FULGOR
 10
2.6013
 20
-28.6221
 30
25.9812
 70
192
 0
VERTEX
 8
FULGOR
 10
2.6095
 20
-28.6221
 30
26.0148
 70
192
 0
VERTEX
 8
FULGOR
 10
2.596
 20
-28.6221
 30
26.1728
 70
192
 0
VERTEX
 8
FULGOR
 10
2.5823
 20
-28.6221
 30
26.2035
 70
192
 0
VERTEX
 8
FULGOR
 10
1.7598
 20
-28.6221
 30
26.4734
 70
192
 0
VERTEX
 8
FULGOR
 10
2.5652
 20
-28.6221
 30
26.2322
 70
192
 0
VERTEX
 8
FULGOR
 10
2.2229
 20
-28.6221
 30
26.4362
 70
192
 0
VERTEX
 8
FULGOR
 10
2.1058
 20
-28.6221
 30
26.461
 70
192
 0
VERTEX
 8
FULGOR
 10
1.9909
 20
-28.6221
 30
26.475
 70
192
 0
VERTEX
 8
FULGOR
 10
1.3015
 20
-28.6221
 30
26.3296
 70
192
 0
VERTEX
 8
FULGOR
 10
1.2601
 20
-28.6221
 30
26.2965
 70
192
 0
VERTEX
 8
FULGOR
 10
1.2356
 20
-28.6221
 30
26.2723
 70
192
 0
VERTEX
 8
FULGOR
 10
1.2139
 20
-28.6221
 30
26.2463
 70
192
 0
VERTEX
 8
FULGOR
 10
1.1952
 20
-28.6221
 30
26.2185
 70
192
 0
VERTEX
 8
FULGOR
 10
1.1797
 20
-28.6221
 30
26.1888
 70
192
 0
VERTEX
 8
FULGOR
 10
1.1678
 20
-28.6221
 30
26.1571
 70
192
 0
VERTEX
 8
FULGOR
 10
1.8847
 20
-28.6221
 30
26.4793
 70
192
 0
VERTEX
 8
FULGOR
 10
1.157
 20
-28.6221
 30
26.1059
 70
192
 0
VERTEX
 8
FULGOR
 10
1.4828
 20
-28.6221
 30
26.069
 70
192
 0
VERTEX
 8
FULGOR
 10
1.4836
 20
-28.6221
 30
26.0491
 70
192
 0
VERTEX
 8
FULGOR
 10
1.6245
 20
-28.6221
 30
26.4542
 70
192
 0
VERTEX
 8
FULGOR
 10
1.5082
 20
-28.6221
 30
26.4256
 70
192
 0
VERTEX
 8
FULGOR
 10
1.4159
 20
-28.6221
 30
26.3922
 70
192
 0
VERTEX
 8
FULGOR
 10
1.3479
 20
-28.6221
 30
26.3588
 70
192
 0
VERTEX
 8
FULGOR
 10
1.1596
 20
-28.6221
 30
26.1235
 70
192
 0
VERTEX
 8
FULGOR
 10
1.523
 20
-28.6221
 30
25.9488
 70
192
 0
VERTEX
 8
FULGOR
 10
1.5347
 20
-28.6221
 30
25.9352
 70
192
 0
VERTEX
 8
FULGOR
 10
1.4862
 20
-28.6221
 30
26.0301
 70
192
 0
VERTEX
 8
FULGOR
 10
1.4905
 20
-28.6221
 30
26.0121
 70
192
 0
VERTEX
 8
FULGOR
 10
1.4964
 20
-28.6221
 30
25.9949
 70
192
 0
VERTEX
 8
FULGOR
 10
1.5038
 20
-28.6221
 30
25.9787
 70
192
 0
VERTEX
 8
FULGOR
 10
1.6807
 20
-28.6221
 30
25.8528
 70
192
 0
VERTEX
 8
FULGOR
 10
1.7363
 20
-28.6221
 30
25.8395
 70
192
 0
VERTEX
 8
FULGOR
 10
1.5127
 20
-28.6221
 30
25.9633
 70
192
 0
VERTEX
 8
FULGOR
 10
1.8847
 20
-28.6221
 30
25.8266
 70
192
 0
VERTEX
 8
FULGOR
 10
1.9734
 20
-28.6221
 30
25.831
 70
192
 0
VERTEX
 8
FULGOR
 10
1.5546
 20
-28.6221
 30
25.9163
 70
192
 0
VERTEX
 8
FULGOR
 10
2.0993
 20
-28.6221
 30
25.8561
 70
192
 0
VERTEX
 8
FULGOR
 10
2.1394
 20
-28.6221
 30
25.8711
 70
192
 0
VERTEX
 8
FULGOR
 10
2.1757
 20
-28.6221
 30
25.8892
 70
192
 0
VERTEX
 8
FULGOR
 10
1.5773
 20
-28.6221
 30
25.8993
 70
192
 0
VERTEX
 8
FULGOR
 10
2.2219
 20
-28.6221
 30
25.9225
 70
192
 0
VERTEX
 8
FULGOR
 10
1.6025
 20
-28.6221
 30
25.8842
 70
192
 0
VERTEX
 8
FULGOR
 10
1.6398
 20
-28.6221
 30
25.8669
 70
192
 0
VERTEX
 8
FULGOR
 10
2.2615
 20
-28.6221
 30
25.971
 70
192
 0
VERTEX
 8
FULGOR
 10
1.8084
 20
-28.6221
 30
25.8298
 70
192
 0
VERTEX
 8
FULGOR
 10
2.0446
 20
-28.6221
 30
25.8419
 70
192
 0
VERTEX
 8
FULGOR
 10
2.2001
 20
-28.6221
 30
25.9049
 70
192
 0
VERTEX
 8
FULGOR
 10
2.2849
 20
-28.6221
 30
26.0396
 70
192
 0
VERTEX
 8
FULGOR
 10
2.286
 20
-28.6221
 30
26.0491
 70
192
 0
VERTEX
 8
FULGOR
 10
2.2868
 20
-28.6221
 30
26.069
 70
192
 0
VERTEX
 8
FULGOR
 10
2.2859
 20
-28.6221
 30
26.0888
 70
192
 0
VERTEX
 8
FULGOR
 10
2.2409
 20
-28.6221
 30
25.942
 70
192
 0
VERTEX
 8
FULGOR
 10
2.2519
 20
-28.6221
 30
25.9561
 70
192
 0
VERTEX
 8
FULGOR
 10
2.2732
 20
-28.6221
 30
26.1429
 70
192
 0
VERTEX
 8
FULGOR
 10
2.2658
 20
-28.6221
 30
26.1591
 70
192
 0
VERTEX
 8
FULGOR
 10
2.2697
 20
-28.6221
 30
25.9868
 70
192
 0
VERTEX
 8
FULGOR
 10
2.2763
 20
-28.6221
 30
26.0035
 70
192
 0
VERTEX
 8
FULGOR
 10
2.2348
 20
-28.6221
 30
26.2025
 70
192
 0
VERTEX
 8
FULGOR
 10
2.2814
 20
-28.6221
 30
26.0211
 70
192
 0
VERTEX
 8
FULGOR
 10
2.2833
 20
-28.6221
 30
26.1077
 70
192
 0
VERTEX
 8
FULGOR
 10
2.1669
 20
-28.6221
 30
26.2532
 70
192
 0
VERTEX
 8
FULGOR
 10
2.1296
 20
-28.6221
 30
26.2705
 70
192
 0
VERTEX
 8
FULGOR
 10
2.2791
 20
-28.6221
 30
26.1257
 70
192
 0
VERTEX
 8
FULGOR
 10
2.2569
 20
-28.6221
 30
26.1744
 70
192
 0
VERTEX
 8
FULGOR
 10
2.2465
 20
-28.6221
 30
26.1889
 70
192
 0
VERTEX
 8
FULGOR
 10
2.2148
 20
-28.6221
 30
26.2213
 70
192
 0
VERTEX
 8
FULGOR
 10
1.7961
 20
-28.6221
 30
26.3063
 70
192
 0
VERTEX
 8
FULGOR
 10
1.725
 20
-28.6221
 30
26.2956
 70
192
 0
VERTEX
 8
FULGOR
 10
1.6703
 20
-28.6221
 30
26.2814
 70
192
 0
VERTEX
 8
FULGOR
 10
2.1921
 20
-28.6221
 30
26.2382
 70
192
 0
VERTEX
 8
FULGOR
 10
2.0886
 20
-28.6221
 30
26.2845
 70
192
 0
VERTEX
 8
FULGOR
 10
2.033
 20
-28.6221
 30
26.2978
 70
192
 0
VERTEX
 8
FULGOR
 10
1.961
 20
-28.6221
 30
26.3075
 70
192
 0
VERTEX
 8
FULGOR
 10
1.8847
 20
-28.6221
 30
26.3106
 70
192
 0
VERTEX
 8
FULGOR
 10
1.6302
 20
-28.6221
 30
26.2666
 70
192
 0
VERTEX
 8
FULGOR
 10
1.594
 20
-28.6221
 30
26.2486
 70
192
 0
VERTEX
 8
FULGOR
 10
1.5695
 20
-28.6221
 30
26.2329
 70
192
 0
VERTEX
 8
FULGOR
 10
1.5477
 20
-28.6221
 30
26.2154
 70
192
 0
VERTEX
 8
FULGOR
 10
1.5287
 20
-28.6221
 30
26.1959
 70
192
 0
VERTEX
 8
FULGOR
 10
1.5177
 20
-28.6221
 30
26.1819
 70
192
 0
VERTEX
 8
FULGOR
 10
1.5081
 20
-28.6221
 30
26.167
 70
192
 0
VERTEX
 8
FULGOR
 10
1.4999
 20
-28.6221
 30
26.1512
 70
192
 0
VERTEX
 8
FULGOR
 10
1.4932
 20
-28.6221
 30
26.1345
 70
192
 0
VERTEX
 8
FULGOR
 10
1.4882
 20
-28.6221
 30
26.1169
 70
192
 0
VERTEX
 8
FULGOR
 10
3.2801
 20
-28.6221
 30
26.0055
 70
192
 0
VERTEX
 8
FULGOR
 10
1.4847
 20
-28.6221
 30
26.0984
 70
192
 0
VERTEX
 8
FULGOR
 10
1.4836
 20
-28.6221
 30
26.0889
 70
192
 0
VERTEX
 8
FULGOR
 10
2.8719
 20
-28.6221
 30
25.6567
 70
192
 0
VERTEX
 8
FULGOR
 10
3.1257
 20
-28.6221
 30
25.6567
 70
192
 0
VERTEX
 8
FULGOR
 10
3.1257
 20
-28.6221
 30
26.0055
 70
192
 0
VERTEX
 8
FULGOR
 10
3.3181
 20
-28.6221
 30
26.0022
 70
192
 0
VERTEX
 8
FULGOR
 10
3.4592
 20
-28.6221
 30
25.9229
 70
192
 0
VERTEX
 8
FULGOR
 10
3.4789
 20
-28.6221
 30
25.9018
 70
192
 0
VERTEX
 8
FULGOR
 10
3.3417
 20
-28.6221
 30
25.9965
 70
192
 0
VERTEX
 8
FULGOR
 10
3.6571
 20
-28.6221
 30
25.6567
 70
192
 0
VERTEX
 8
FULGOR
 10
4.1098
 20
-28.6221
 30
25.6567
 70
192
 0
VERTEX
 8
FULGOR
 10
4.049
 20
-28.6221
 30
25.6886
 70
192
 0
VERTEX
 8
FULGOR
 10
3.364
 20
-28.6221
 30
25.9885
 70
192
 0
VERTEX
 8
FULGOR
 10
3.3848
 20
-28.6221
 30
25.9786
 70
192
 0
VERTEX
 8
FULGOR
 10
3.9608
 20
-28.6221
 30
25.7497
 70
192
 0
VERTEX
 8
FULGOR
 10
3.8947
 20
-28.6221
 30
25.8116
 70
192
 0
VERTEX
 8
FULGOR
 10
2.8719
 20
-28.6221
 30
26.152
 70
192
 0
VERTEX
 8
FULGOR
 10
3.8107
 20
-28.6221
 30
25.9253
 70
192
 0
VERTEX
 8
FULGOR
 10
3.7698
 20
-28.6221
 30
25.9717
 70
192
 0
VERTEX
 8
FULGOR
 10
3.7311
 20
-28.6221
 30
26.0048
 70
192
 0
VERTEX
 8
FULGOR
 10
3.4342
 20
-28.6221
 30
25.9455
 70
192
 0
VERTEX
 8
FULGOR
 10
2.0791
 20
-28.6221
 30
25.675
 70
192
 0
VERTEX
 8
FULGOR
 10
3.6381
 20
-28.6221
 30
26.0552
 70
192
 0
VERTEX
 8
FULGOR
 10
3.9979
 20
-28.6221
 30
25.7208
 70
192
 0
VERTEX
 8
FULGOR
 10
3.761
 20
-28.6221
 30
26.107
 70
192
 0
VERTEX
 8
FULGOR
 10
3.6938
 20
-28.6221
 30
26.0294
 70
192
 0
VERTEX
 8
FULGOR
 10
3.8043
 20
-28.6221
 30
26.1426
 70
192
 0
VERTEX
 8
FULGOR
 10
3.6651
 20
-28.6221
 30
26.0446
 70
192
 0
VERTEX
 8
FULGOR
 10
3.845
 20
-28.6221
 30
26.206
 70
192
 0
VERTEX
 8
FULGOR
 10
3.8541
 20
-28.6221
 30
26.2412
 70
192
 0
VERTEX
 8
FULGOR
 10
3.697
 20
-28.6221
 30
26.0738
 70
192
 0
VERTEX
 8
FULGOR
 10
3.8503
 20
-28.6221
 30
26.3091
 70
192
 0
VERTEX
 8
FULGOR
 10
3.8352
 20
-28.6221
 30
26.3429
 70
192
 0
VERTEX
 8
FULGOR
 10
3.812
 20
-28.6221
 30
26.3722
 70
192
 0
VERTEX
 8
FULGOR
 10
3.7736
 20
-28.6221
 30
26.403
 70
192
 0
VERTEX
 8
FULGOR
 10
3.8299
 20
-28.6221
 30
26.1752
 70
192
 0
VERTEX
 8
FULGOR
 10
3.5876
 20
-28.6221
 30
26.4682
 70
192
 0
VERTEX
 8
FULGOR
 10
3.5132
 20
-28.6221
 30
26.4781
 70
192
 0
VERTEX
 8
FULGOR
 10
3.856
 20
-28.6221
 30
26.2706
 70
192
 0
VERTEX
 8
FULGOR
 10
3.1257
 20
-28.6221
 30
26.3349
 70
192
 0
VERTEX
 8
FULGOR
 10
3.7069
 20
-28.6221
 30
26.4362
 70
192
 0
VERTEX
 8
FULGOR
 10
3.4404
 20
-28.6221
 30
26.4817
 70
192
 0
VERTEX
 8
FULGOR
 10
2.8719
 20
-28.6221
 30
26.4817
 70
192
 0
VERTEX
 8
FULGOR
 10
3.1257
 20
-28.6221
 30
26.1524
 70
192
 0
VERTEX
 8
FULGOR
 10
3.3571
 20
-28.6221
 30
26.152
 70
192
 0
VERTEX
 8
FULGOR
 10
3.4229
 20
-28.6221
 30
26.1575
 70
192
 0
VERTEX
 8
FULGOR
 10
3.4973
 20
-28.6221
 30
26.1844
 70
192
 0
VERTEX
 8
FULGOR
 10
3.5137
 20
-28.6221
 30
26.1977
 70
192
 0
VERTEX
 8
FULGOR
 10
3.5237
 20
-28.6221
 30
26.2105
 70
192
 0
VERTEX
 8
FULGOR
 10
3.5329
 20
-28.6221
 30
26.2555
 70
192
 0
VERTEX
 8
FULGOR
 10
3.5285
 20
-28.6221
 30
26.2716
 70
192
 0
VERTEX
 8
FULGOR
 10
3.4094
 20
-28.6221
 30
26.3321
 70
192
 0
VERTEX
 8
FULGOR
 10
3.492
 20
-28.6221
 30
26.3091
 70
192
 0
VERTEX
 8
FULGOR
 10
3.3804
 20
-28.6221
 30
26.3344
 70
192
 0
VERTEX
 8
FULGOR
 10
3.4623
 20
-28.6221
 30
26.3214
 70
192
 0
VERTEX
 8
FULGOR
 10
3.4387
 20
-28.6221
 30
26.3274
 70
192
 0
VERTEX
 8
FULGOR
 10
1.6043
 20
-28.6221
 30
25.6899
 70
192
 0
VERTEX
 8
FULGOR
 10
1.5043
 20
-28.6221
 30
25.7154
 70
192
 0
VERTEX
 8
FULGOR
 10
3.3493
 20
-28.6221
 30
26.3349
 70
192
 0
VERTEX
 8
FULGOR
 10
3.3442
 20
-28.6221
 30
26.4817
 70
192
 0
VERTEX
 8
FULGOR
 10
3.52
 20
-28.6221
 30
26.2854
 70
192
 0
VERTEX
 8
FULGOR
 10
3.5089
 20
-28.6221
 30
26.2971
 70
192
 0
VERTEX
 8
FULGOR
 10
3.5333
 20
-28.6221
 30
26.2399
 70
192
 0
VERTEX
 8
FULGOR
 10
3.5304
 20
-28.6221
 30
26.225
 70
192
 0
VERTEX
 8
FULGOR
 10
3.3037
 20
-28.6221
 30
26.1521
 70
192
 0
VERTEX
 8
FULGOR
 10
3.3298
 20
-28.6221
 30
26.1521
 70
192
 0
VERTEX
 8
FULGOR
 10
3.2799
 20
-28.6221
 30
26.1522
 70
192
 0
VERTEX
 8
FULGOR
 10
3.6478
 20
-28.6221
 30
25.6696
 70
192
 0
VERTEX
 8
FULGOR
 10
3.6348
 20
-28.6221
 30
25.6876
 70
192
 0
VERTEX
 8
FULGOR
 10
0.238
 20
-28.6221
 30
25.8356
 70
192
 0
VERTEX
 8
FULGOR
 10
3.6115
 20
-28.6221
 30
25.7199
 70
192
 0
VERTEX
 8
FULGOR
 10
3.5898
 20
-28.6221
 30
25.75
 70
192
 0
VERTEX
 8
FULGOR
 10
0.2924
 20
-28.6221
 30
25.8286
 70
192
 0
VERTEX
 8
FULGOR
 10
2.8719
 20
-28.6221
 30
26.0053
 70
192
 0
VERTEX
 8
FULGOR
 10
3.5316
 20
-28.6221
 30
25.8308
 70
192
 0
VERTEX
 8
FULGOR
 10
3.5099
 20
-28.6221
 30
25.8609
 70
192
 0
VERTEX
 8
FULGOR
 10
0
 20
0
 30
0
 70
128
 71
339
 72
340
 73
327
 74
318
 0
VERTEX
 8
FULGOR
 10
0
 20
0
 30
0
 70
128
 71
135
 72
134
 73
128
 74
127
 0
VERTEX
 8
FULGOR
 10
0
 20
0
 30
0
 70
128
 71
338
 72
339
 73
318
 74
316
 0
VERTEX
 8
FULGOR
 10
0
 20
0
 30
0
 70
128
 71
345
 72
350
 73
351
 74
333
 0
VERTEX
 8
FULGOR
 10
0
 20
0
 30
0
 70
128
 71
156
 72
167
 73
100
 74
97
 0
VERTEX
 8
FULGOR
 10
0
 20
0
 30
0
 70
128
 71
344
 72
346
 73
332
 74
326
 0
VERTEX
 8
FULGOR
 10
0
 20
0
 30
0
 70
128
 71
149
 72
162
 73
104
 74
102
 0
VERTEX
 8
FULGOR
 10
0
 20
0
 30
0
 70
128
 71
162
 72
160
 73
105
 74
104
 0
VERTEX
 8
FULGOR
 10
0
 20
0
 30
0
 70
128
 71
150
 72
149
 73
102
 74
94
 0
VERTEX
 8
FULGOR
 10
0
 20
0
 30
0
 70
128
 71
163
 72
175
 73
88
 74
81
 0
VERTEX
 8
FULGOR
 10
0
 20
0
 30
0
 70
128
 71
296
 72
295
 73
294
 74
365
 0
VERTEX
 8
FULGOR
 10
0
 20
0
 30
0
 70
128
 71
359
 72
360
 73
315
 74
303
 0
VERTEX
 8
FULGOR
 10
0
 20
0
 30
0
 70
128
 71
1
 72
138
 73
119
 74
118
 0
VERTEX
 8
FULGOR
 10
0
 20
0
 30
0
 70
128
 71
138
 72
137
 73
120
 74
119
 0
VERTEX
 8
FULGOR
 10
0
 20
0
 30
0
 70
128
 71
137
 72
135
 73
127
 74
120
 0
VERTEX
 8
FULGOR
 10
0
 20
0
 30
0
 70
128
 71
285
 72
286
 73
218
 74
217
 0
VERTEX
 8
FULGOR
 10
0
 20
0
 30
0
 70
128
 71
244
 72
245
 73
188
 74
3
 0
VERTEX
 8
FULGOR
 10
0
 20
0
 30
0
 70
128
 71
237
 72
238
 73
185
 74
348
 0
VERTEX
 8
FULGOR
 10
0
 20
0
 30
0
 70
128
 71
249
 72
237
 73
348
 74
184
 0
VERTEX
 8
FULGOR
 10
0
 20
0
 30
0
 70
128
 71
248
 72
249
 73
184
 74
349
 0
VERTEX
 8
FULGOR
 10
0
 20
0
 30
0
 70
128
 71
246
 72
248
 73
349
 74
183
 0
VERTEX
 8
FULGOR
 10
0
 20
0
 30
0
 70
128
 71
160
 72
158
 73
98
 74
105
 0
VERTEX
 8
FULGOR
 10
0
 20
0
 30
0
 70
128
 71
366
 72
309
 73
307
 74
363
 0
VERTEX
 8
FULGOR
 10
0
 20
0
 30
0
 70
128
 71
340
 72
355
 73
320
 74
327
 0
VERTEX
 8
FULGOR
 10
0
 20
0
 30
0
 70
128
 71
273
 72
274
 73
226
 74
210
 0
VERTEX
 8
FULGOR
 10
0
 20
0
 30
0
 70
128
 71
274
 72
275
 73
227
 74
226
 0
VERTEX
 8
FULGOR
 10
0
 20
0
 30
0
 70
128
 71
275
 72
281
 73
228
 74
227
 0
VERTEX
 8
FULGOR
 10
0
 20
0
 30
0
 70
128
 71
355
 72
354
 73
321
 74
320
 0
VERTEX
 8
FULGOR
 10
0
 20
0
 30
0
 70
128
 71
341
 72
342
 73
323
 74
330
 0
VERTEX
 8
FULGOR
 10
0
 20
0
 30
0
 70
128
 71
161
 72
174
 73
84
 74
89
 0
VERTEX
 8
FULGOR
 10
0
 20
0
 30
0
 70
128
 71
63
 72
60
 73
26
 74
26
 0
VERTEX
 8
FULGOR
 10
0
 20
0
 30
0
 70
128
 71
305
 72
304
 73
336
 74
314
 0
VERTEX
 8
FULGOR
 10
0
 20
0
 30
0
 70
128
 71
347
 72
343
 73
329
 74
328
 0
VERTEX
 8
FULGOR
 10
0
 20
0
 30
0
 70
128
 71
346
 72
347
 73
328
 74
332
 0
VERTEX
 8
FULGOR
 10
0
 20
0
 30
0
 70
128
 71
298
 72
312
 73
319
 74
317
 0
VERTEX
 8
FULGOR
 10
0
 20
0
 30
0
 70
128
 71
299
 72
298
 73
317
 74
311
 0
VERTEX
 8
FULGOR
 10
0
 20
0
 30
0
 70
128
 71
60
 72
53
 73
34
 74
26
 0
VERTEX
 8
FULGOR
 10
0
 20
0
 30
0
 70
128
 71
53
 72
52
 73
34
 74
34
 0
VERTEX
 8
FULGOR
 10
0
 20
0
 30
0
 70
128
 71
52
 72
51
 73
28
 74
34
 0
VERTEX
 8
FULGOR
 10
0
 20
0
 30
0
 70
128
 71
305
 72
314
 73
319
 74
312
 0
VERTEX
 8
FULGOR
 10
0
 20
0
 30
0
 70
128
 71
279
 72
280
 73
222
 74
214
 0
VERTEX
 8
FULGOR
 10
0
 20
0
 30
0
 70
128
 71
278
 72
279
 73
214
 74
213
 0
VERTEX
 8
FULGOR
 10
0
 20
0
 30
0
 70
128
 71
280
 72
273
 73
210
 74
222
 0
VERTEX
 8
FULGOR
 10
0
 20
0
 30
0
 70
128
 71
281
 72
282
 73
229
 74
228
 0
VERTEX
 8
FULGOR
 10
0
 20
0
 30
0
 70
128
 71
282
 72
283
 73
215
 74
229
 0
VERTEX
 8
FULGOR
 10
0
 20
0
 30
0
 70
128
 71
283
 72
284
 73
216
 74
215
 0
VERTEX
 8
FULGOR
 10
0
 20
0
 30
0
 70
128
 71
51
 72
50
 73
35
 74
28
 0
VERTEX
 8
FULGOR
 10
0
 20
0
 30
0
 70
128
 71
129
 72
1
 73
118
 74
117
 0
VERTEX
 8
FULGOR
 10
0
 20
0
 30
0
 70
128
 71
50
 72
49
 73
36
 74
35
 0
VERTEX
 8
FULGOR
 10
0
 20
0
 30
0
 70
128
 71
286
 72
287
 73
219
 74
218
 0
VERTEX
 8
FULGOR
 10
0
 20
0
 30
0
 70
128
 71
36
 72
49
 73
48
 74
37
 0
VERTEX
 8
FULGOR
 10
0
 20
0
 30
0
 70
128
 71
44
 72
43
 73
38
 74
56
 0
VERTEX
 8
FULGOR
 10
0
 20
0
 30
0
 70
128
 71
287
 72
288
 73
220
 74
219
 0
VERTEX
 8
FULGOR
 10
0
 20
0
 30
0
 70
128
 71
145
 72
144
 73
106
 74
99
 0
VERTEX
 8
FULGOR
 10
0
 20
0
 30
0
 70
128
 71
37
 72
48
 73
47
 74
41
 0
VERTEX
 8
FULGOR
 10
0
 20
0
 30
0
 70
128
 71
33
 72
47
 73
46
 74
42
 0
VERTEX
 8
FULGOR
 10
0
 20
0
 30
0
 70
128
 71
45
 72
55
 73
54
 74
54
 0
VERTEX
 8
FULGOR
 10
0
 20
0
 30
0
 70
128
 71
152
 72
148
 73
115
 74
112
 0
VERTEX
 8
FULGOR
 10
0
 20
0
 30
0
 70
128
 71
288
 72
289
 73
221
 74
220
 0
VERTEX
 8
FULGOR
 10
0
 20
0
 30
0
 70
128
 71
155
 72
152
 73
112
 74
109
 0
VERTEX
 8
FULGOR
 10
0
 20
0
 30
0
 70
128
 71
141
 72
155
 73
109
 74
103
 0
VERTEX
 8
FULGOR
 10
0
 20
0
 30
0
 70
128
 71
289
 72
290
 73
230
 74
221
 0
VERTEX
 8
FULGOR
 10
0
 20
0
 30
0
 70
128
 71
291
 72
358
 73
336
 74
304
 0
VERTEX
 8
FULGOR
 10
0
 20
0
 30
0
 70
128
 71
290
 72
292
 73
223
 74
230
 0
VERTEX
 8
FULGOR
 10
0
 20
0
 30
0
 70
128
 71
241
 72
252
 73
313
 74
186
 0
VERTEX
 8
FULGOR
 10
0
 20
0
 30
0
 70
128
 71
243
 72
244
 73
3
 74
181
 0
VERTEX
 8
FULGOR
 10
0
 20
0
 30
0
 70
128
 71
134
 72
124
 73
131
 74
128
 0
VERTEX
 8
FULGOR
 10
0
 20
0
 30
0
 70
128
 71
142
 72
141
 73
103
 74
108
 0
VERTEX
 8
FULGOR
 10
0
 20
0
 30
0
 70
128
 71
139
 72
361
 73
114
 74
113
 0
VERTEX
 8
FULGOR
 10
0
 20
0
 30
0
 70
128
 71
361
 72
130
 73
125
 74
114
 0
VERTEX
 8
FULGOR
 10
0
 20
0
 30
0
 70
128
 71
130
 72
364
 73
126
 74
125
 0
VERTEX
 8
FULGOR
 10
0
 20
0
 30
0
 70
128
 71
364
 72
129
 73
117
 74
126
 0
VERTEX
 8
FULGOR
 10
0
 20
0
 30
0
 70
128
 71
352
 72
353
 73
325
 74
324
 0
VERTEX
 8
FULGOR
 10
0
 20
0
 30
0
 70
128
 71
47
 72
33
 73
41
 74
41
 0
VERTEX
 8
FULGOR
 10
0
 20
0
 30
0
 70
128
 71
42
 72
46
 73
45
 74
54
 0
VERTEX
 8
FULGOR
 10
0
 20
0
 30
0
 70
128
 71
291
 72
296
 73
335
 74
358
 0
VERTEX
 8
FULGOR
 10
0
 20
0
 30
0
 70
128
 71
342
 72
352
 73
324
 74
323
 0
VERTEX
 8
FULGOR
 10
0
 20
0
 30
0
 70
128
 71
252
 72
243
 73
181
 74
313
 0
VERTEX
 8
FULGOR
 10
0
 20
0
 30
0
 70
128
 71
143
 72
142
 73
108
 74
107
 0
VERTEX
 8
FULGOR
 10
0
 20
0
 30
0
 70
128
 71
144
 72
143
 73
107
 74
106
 0
VERTEX
 8
FULGOR
 10
0
 20
0
 30
0
 70
128
 71
343
 72
345
 73
333
 74
329
 0
VERTEX
 8
FULGOR
 10
0
 20
0
 30
0
 70
128
 71
166
 72
151
 73
93
 74
92
 0
VERTEX
 8
FULGOR
 10
0
 20
0
 30
0
 70
128
 71
307
 72
306
 73
362
 74
363
 0
VERTEX
 8
FULGOR
 10
0
 20
0
 30
0
 70
128
 71
337
 72
338
 73
316
 74
322
 0
VERTEX
 8
FULGOR
 10
0
 20
0
 30
0
 70
128
 71
299
 72
311
 73
310
 74
367
 0
VERTEX
 8
FULGOR
 10
0
 20
0
 30
0
 70
128
 71
354
 72
341
 73
330
 74
321
 0
VERTEX
 8
FULGOR
 10
0
 20
0
 30
0
 70
128
 71
5
 72
8
 73
7
 74
6
 0
VERTEX
 8
FULGOR
 10
0
 20
0
 30
0
 70
128
 71
8
 72
5
 73
4
 74
4
 0
VERTEX
 8
FULGOR
 10
0
 20
0
 30
0
 70
128
 71
213
 72
212
 73
277
 74
278
 0
VERTEX
 8
FULGOR
 10
0
 20
0
 30
0
 70
128
 71
212
 72
205
 73
268
 74
277
 0
VERTEX
 8
FULGOR
 10
0
 20
0
 30
0
 70
128
 71
267
 72
268
 73
205
 74
204
 0
VERTEX
 8
FULGOR
 10
0
 20
0
 30
0
 70
128
 71
270
 72
271
 73
200
 74
211
 0
VERTEX
 8
FULGOR
 10
0
 20
0
 30
0
 70
128
 71
261
 72
270
 73
211
 74
209
 0
VERTEX
 8
FULGOR
 10
0
 20
0
 30
0
 70
128
 71
260
 72
261
 73
209
 74
208
 0
VERTEX
 8
FULGOR
 10
0
 20
0
 30
0
 70
128
 71
269
 72
260
 73
208
 74
196
 0
VERTEX
 8
FULGOR
 10
0
 20
0
 30
0
 70
128
 71
276
 72
267
 73
204
 74
203
 0
VERTEX
 8
FULGOR
 10
0
 20
0
 30
0
 70
128
 71
272
 72
276
 73
203
 74
202
 0
VERTEX
 8
FULGOR
 10
0
 20
0
 30
0
 70
128
 71
264
 72
272
 73
202
 74
201
 0
VERTEX
 8
FULGOR
 10
0
 20
0
 30
0
 70
128
 71
271
 72
264
 73
201
 74
200
 0
VERTEX
 8
FULGOR
 10
0
 20
0
 30
0
 70
128
 71
266
 72
269
 73
196
 74
195
 0
VERTEX
 8
FULGOR
 10
0
 20
0
 30
0
 70
128
 71
257
 72
266
 73
195
 74
194
 0
VERTEX
 8
FULGOR
 10
0
 20
0
 30
0
 70
128
 71
256
 72
257
 73
194
 74
193
 0
VERTEX
 8
FULGOR
 10
0
 20
0
 30
0
 70
128
 71
255
 72
256
 73
193
 74
207
 0
VERTEX
 8
FULGOR
 10
0
 20
0
 30
0
 70
128
 71
254
 72
255
 73
207
 74
206
 0
VERTEX
 8
FULGOR
 10
0
 20
0
 30
0
 70
128
 71
265
 72
254
 73
206
 74
199
 0
VERTEX
 8
FULGOR
 10
0
 20
0
 30
0
 70
128
 71
350
 72
331
 73
334
 74
351
 0
VERTEX
 8
FULGOR
 10
0
 20
0
 30
0
 70
128
 71
362
 72
306
 73
315
 74
360
 0
VERTEX
 8
FULGOR
 10
0
 20
0
 30
0
 70
128
 71
148
 72
147
 73
116
 74
115
 0
VERTEX
 8
FULGOR
 10
0
 20
0
 30
0
 70
128
 71
151
 72
150
 73
94
 74
93
 0
VERTEX
 8
FULGOR
 10
0
 20
0
 30
0
 70
128
 71
158
 72
145
 73
99
 74
98
 0
VERTEX
 8
FULGOR
 10
0
 20
0
 30
0
 70
128
 71
8
 72
4
 73
13
 74
2
 0
VERTEX
 8
FULGOR
 10
0
 20
0
 30
0
 70
128
 71
13
 72
12
 73
2
 74
2
 0
VERTEX
 8
FULGOR
 10
0
 20
0
 30
0
 70
128
 71
13
 72
4
 73
15
 74
14
 0
VERTEX
 8
FULGOR
 10
0
 20
0
 30
0
 70
128
 71
16
 72
74
 73
73
 74
9
 0
VERTEX
 8
FULGOR
 10
0
 20
0
 30
0
 70
128
 71
303
 72
302
 73
301
 74
359
 0
VERTEX
 8
FULGOR
 10
0
 20
0
 30
0
 70
128
 71
331
 72
335
 73
308
 74
334
 0
VERTEX
 8
FULGOR
 10
0
 20
0
 30
0
 70
128
 71
167
 72
154
 73
101
 74
100
 0
VERTEX
 8
FULGOR
 10
0
 20
0
 30
0
 70
128
 71
154
 72
153
 73
91
 74
101
 0
VERTEX
 8
FULGOR
 10
0
 20
0
 30
0
 70
128
 71
73
 72
72
 73
10
 74
9
 0
VERTEX
 8
FULGOR
 10
0
 20
0
 30
0
 70
128
 71
146
 72
140
 73
110
 74
122
 0
VERTEX
 8
FULGOR
 10
0
 20
0
 30
0
 70
128
 71
140
 72
133
 73
111
 74
110
 0
VERTEX
 8
FULGOR
 10
0
 20
0
 30
0
 70
128
 71
133
 72
132
 73
123
 74
111
 0
VERTEX
 8
FULGOR
 10
0
 20
0
 30
0
 70
128
 71
132
 72
139
 73
113
 74
123
 0
VERTEX
 8
FULGOR
 10
0
 20
0
 30
0
 70
128
 71
72
 72
82
 73
11
 74
10
 0
VERTEX
 8
FULGOR
 10
0
 20
0
 30
0
 70
128
 71
82
 72
70
 73
18
 74
17
 0
VERTEX
 8
FULGOR
 10
0
 20
0
 30
0
 70
128
 71
263
 72
265
 73
199
 74
198
 0
VERTEX
 8
FULGOR
 10
0
 20
0
 30
0
 70
128
 71
262
 72
263
 73
198
 74
197
 0
VERTEX
 8
FULGOR
 10
0
 20
0
 30
0
 70
128
 71
250
 72
262
 73
197
 74
187
 0
VERTEX
 8
FULGOR
 10
0
 20
0
 30
0
 70
128
 71
259
 72
250
 73
187
 74
192
 0
VERTEX
 8
FULGOR
 10
0
 20
0
 30
0
 70
128
 71
258
 72
259
 73
192
 74
191
 0
VERTEX
 8
FULGOR
 10
0
 20
0
 30
0
 70
128
 71
247
 72
258
 73
191
 74
190
 0
VERTEX
 8
FULGOR
 10
0
 20
0
 30
0
 70
128
 71
253
 72
247
 73
190
 74
189
 0
VERTEX
 8
FULGOR
 10
0
 20
0
 30
0
 70
128
 71
245
 72
253
 73
189
 74
188
 0
VERTEX
 8
FULGOR
 10
0
 20
0
 30
0
 70
128
 71
58
 72
57
 73
40
 74
39
 0
VERTEX
 8
FULGOR
 10
0
 20
0
 30
0
 70
128
 71
82
 72
17
 73
11
 74
11
 0
VERTEX
 8
FULGOR
 10
0
 20
0
 30
0
 70
128
 71
43
 72
58
 73
39
 74
38
 0
VERTEX
 8
FULGOR
 10
0
 20
0
 30
0
 70
128
 71
70
 72
69
 73
20
 74
19
 0
VERTEX
 8
FULGOR
 10
0
 20
0
 30
0
 70
128
 71
70
 72
19
 73
18
 74
18
 0
VERTEX
 8
FULGOR
 10
0
 20
0
 30
0
 70
128
 71
69
 72
68
 73
27
 74
20
 0
VERTEX
 8
FULGOR
 10
0
 20
0
 30
0
 70
128
 71
68
 72
67
 73
29
 74
27
 0
VERTEX
 8
FULGOR
 10
0
 20
0
 30
0
 70
128
 71
67
 72
66
 73
30
 74
29
 0
VERTEX
 8
FULGOR
 10
0
 20
0
 30
0
 70
128
 71
66
 72
78
 73
31
 74
30
 0
VERTEX
 8
FULGOR
 10
0
 20
0
 30
0
 70
128
 71
78
 72
77
 73
32
 74
31
 0
VERTEX
 8
FULGOR
 10
0
 20
0
 30
0
 70
128
 71
32
 72
77
 73
76
 74
21
 0
VERTEX
 8
FULGOR
 10
0
 20
0
 30
0
 70
128
 71
76
 72
62
 73
21
 74
21
 0
VERTEX
 8
FULGOR
 10
0
 20
0
 30
0
 70
128
 71
292
 72
293
 73
164
 74
223
 0
VERTEX
 8
FULGOR
 10
0
 20
0
 30
0
 70
128
 71
293
 72
224
 73
165
 74
164
 0
VERTEX
 8
FULGOR
 10
0
 20
0
 30
0
 70
128
 71
224
 72
225
 73
176
 74
165
 0
VERTEX
 8
FULGOR
 10
0
 20
0
 30
0
 70
128
 71
225
 72
233
 73
177
 74
176
 0
VERTEX
 8
FULGOR
 10
0
 20
0
 30
0
 70
128
 71
233
 72
234
 73
168
 74
177
 0
VERTEX
 8
FULGOR
 10
0
 20
0
 30
0
 70
128
 71
234
 72
235
 73
169
 74
168
 0
VERTEX
 8
FULGOR
 10
0
 20
0
 30
0
 70
128
 71
235
 72
236
 73
170
 74
169
 0
VERTEX
 8
FULGOR
 10
0
 20
0
 30
0
 70
128
 71
236
 72
239
 73
171
 74
170
 0
VERTEX
 8
FULGOR
 10
0
 20
0
 30
0
 70
128
 71
239
 72
231
 73
172
 74
171
 0
VERTEX
 8
FULGOR
 10
0
 20
0
 30
0
 70
128
 71
231
 72
232
 73
180
 74
172
 0
VERTEX
 8
FULGOR
 10
0
 20
0
 30
0
 70
128
 71
232
 72
242
 73
182
 74
180
 0
VERTEX
 8
FULGOR
 10
0
 20
0
 30
0
 70
128
 71
242
 72
246
 73
183
 74
182
 0
VERTEX
 8
FULGOR
 10
0
 20
0
 30
0
 70
128
 71
240
 72
241
 73
186
 74
179
 0
VERTEX
 8
FULGOR
 10
0
 20
0
 30
0
 70
128
 71
251
 72
240
 73
179
 74
178
 0
VERTEX
 8
FULGOR
 10
0
 20
0
 30
0
 70
128
 71
238
 72
251
 73
178
 74
185
 0
VERTEX
 8
FULGOR
 10
0
 20
0
 30
0
 70
128
 71
62
 72
61
 73
22
 74
21
 0
VERTEX
 8
FULGOR
 10
0
 20
0
 30
0
 70
128
 71
61
 72
75
 73
22
 74
22
 0
VERTEX
 8
FULGOR
 10
0
 20
0
 30
0
 70
128
 71
75
 72
59
 73
23
 74
22
 0
VERTEX
 8
FULGOR
 10
0
 20
0
 30
0
 70
128
 71
23
 72
59
 73
71
 74
24
 0
VERTEX
 8
FULGOR
 10
0
 20
0
 30
0
 70
128
 71
24
 72
71
 73
65
 74
25
 0
VERTEX
 8
FULGOR
 10
0
 20
0
 30
0
 70
128
 71
65
 72
64
 73
25
 74
25
 0
VERTEX
 8
FULGOR
 10
0
 20
0
 30
0
 70
128
 71
64
 72
63
 73
26
 74
25
 0
VERTEX
 8
FULGOR
 10
0
 20
0
 30
0
 70
128
 71
335
 72
296
 73
365
 74
308
 0
VERTEX
 8
FULGOR
 10
0
 20
0
 30
0
 70
128
 71
147
 72
136
 73
121
 74
116
 0
VERTEX
 8
FULGOR
 10
0
 20
0
 30
0
 70
128
 71
136
 72
146
 73
122
 74
121
 0
VERTEX
 8
FULGOR
 10
0
 20
0
 30
0
 70
128
 71
55
 72
45
 73
44
 74
56
 0
VERTEX
 8
FULGOR
 10
0
 20
0
 30
0
 70
128
 71
83
 72
80
 73
79
 74
85
 0
VERTEX
 8
FULGOR
 10
0
 20
0
 30
0
 70
128
 71
79
 72
87
 73
86
 74
85
 0
VERTEX
 8
FULGOR
 10
0
 20
0
 30
0
 70
128
 71
173
 72
157
 73
96
 74
95
 0
VERTEX
 8
FULGOR
 10
0
 20
0
 30
0
 70
128
 71
175
 72
161
 73
89
 74
88
 0
VERTEX
 8
FULGOR
 10
0
 20
0
 30
0
 70
128
 71
336
 72
337
 73
322
 74
314
 0
VERTEX
 8
FULGOR
 10
0
 20
0
 30
0
 70
128
 71
310
 72
309
 73
366
 74
367
 0
VERTEX
 8
FULGOR
 10
0
 20
0
 30
0
 70
128
 71
157
 72
156
 73
97
 74
96
 0
VERTEX
 8
FULGOR
 10
0
 20
0
 30
0
 70
128
 71
174
 72
159
 73
90
 74
84
 0
VERTEX
 8
FULGOR
 10
0
 20
0
 30
0
 70
128
 71
353
 72
344
 73
326
 74
325
 0
VERTEX
 8
FULGOR
 10
0
 20
0
 30
0
 70
128
 71
159
 72
173
 73
95
 74
90
 0
VERTEX
 8
FULGOR
 10
0
 20
0
 30
0
 70
128
 71
153
 72
166
 73
92
 74
91
 0
VERTEX
 8
FULGOR
 10
0
 20
0
 30
0
 70
128
 71
284
 72
285
 73
217
 74
216
 0
SEQEND
 0
POLYLINE
 8
MILANO
 66
1
 10
0.0
 20
0.0
 30
0.0
 70
64
 71
93
 72
47
 0
VERTEX
 8
MILANO
 10
0.4125
 20
-28.6224
 30
25.1112
 70
192
 0
VERTEX
 8
MILANO
 10
1.1194
 20
-28.6224
 30
24.8437
 70
192
 0
VERTEX
 8
MILANO
 10
1.1269
 20
-28.6224
 30
24.7823
 70
192
 0
VERTEX
 8
MILANO
 10
1.1537
 20
-28.6224
 30
24.7264
 70
192
 0
VERTEX
 8
MILANO
 10
1.1987
 20
-28.6224
 30
24.6827
 70
192
 0
VERTEX
 8
MILANO
 10
1.2547
 20
-28.6224
 30
24.6529
 70
192
 0
VERTEX
 8
MILANO
 10
1.316
 20
-28.6224
 30
24.6356
 70
192
 0
VERTEX
 8
MILANO
 10
1.3796
 20
-28.6224
 30
24.6289
 70
192
 0
VERTEX
 8
MILANO
 10
0.8526
 20
-28.6224
 30
24.7107
 70
192
 0
VERTEX
 8
MILANO
 10
1.4433
 20
-28.6224
 30
24.6336
 70
192
 0
VERTEX
 8
MILANO
 10
1.5049
 20
-28.6224
 30
24.6501
 70
192
 0
VERTEX
 8
MILANO
 10
1.5606
 20
-28.6224
 30
24.6802
 70
192
 0
VERTEX
 8
MILANO
 10
0.1449
 20
-28.6224
 30
24.7461
 70
192
 0
VERTEX
 8
MILANO
 10
0.2454
 20
-28.6224
 30
24.5718
 70
192
 0
VERTEX
 8
MILANO
 10
0.3279
 20
-28.6224
 30
24.5718
 70
192
 0
VERTEX
 8
MILANO
 10
1.6041
 20
-28.6224
 30
24.7253
 70
192
 0
VERTEX
 8
MILANO
 10
1.6323
 20
-28.6224
 30
24.7807
 70
192
 0
VERTEX
 8
MILANO
 10
-0.3106
 20
-28.6224
 30
24.5718
 70
192
 0
VERTEX
 8
MILANO
 10
-0.0896
 20
-28.6224
 30
24.8061
 70
192
 0
VERTEX
 8
MILANO
 10
0.1111
 20
-28.6224
 30
24.8061
 70
192
 0
VERTEX
 8
MILANO
 10
1.6414
 20
-28.6224
 30
24.8418
 70
192
 0
VERTEX
 8
MILANO
 10
1.6332
 20
-28.6224
 30
24.9031
 70
192
 0
VERTEX
 8
MILANO
 10
1.6061
 20
-28.6224
 30
24.9589
 70
192
 0
VERTEX
 8
MILANO
 10
-0.5862
 20
-28.6224
 30
25.1112
 70
192
 0
VERTEX
 8
MILANO
 10
-0.5862
 20
-28.6224
 30
24.6306
 70
192
 0
VERTEX
 8
MILANO
 10
1.5623
 20
-28.6224
 30
25.0038
 70
192
 0
VERTEX
 8
MILANO
 10
1.5066
 20
-28.6224
 30
25.0339
 70
192
 0
VERTEX
 8
MILANO
 10
1.445
 20
-28.6224
 30
25.0503
 70
192
 0
VERTEX
 8
MILANO
 10
-0.8667
 20
-28.6224
 30
25.1112
 70
192
 0
VERTEX
 8
MILANO
 10
-0.797
 20
-28.6224
 30
25.1112
 70
192
 0
VERTEX
 8
MILANO
 10
-0.797
 20
-28.6224
 30
24.5718
 70
192
 0
VERTEX
 8
MILANO
 10
-0.8667
 20
-28.6224
 30
24.5718
 70
192
 0
VERTEX
 8
MILANO
 10
-1.7043
 20
-28.6224
 30
24.5718
 70
192
 0
VERTEX
 8
MILANO
 10
-1.6176
 20
-28.6224
 30
25.1146
 70
192
 0
VERTEX
 8
MILANO
 10
-1.0895
 20
-28.6224
 30
25.1146
 70
192
 0
VERTEX
 8
MILANO
 10
-1.0636
 20
-28.6224
 30
25.1146
 70
192
 0
VERTEX
 8
MILANO
 10
-0.9721
 20
-28.6224
 30
24.5718
 70
192
 0
VERTEX
 8
MILANO
 10
-1.0477
 20
-28.6224
 30
24.5718
 70
192
 0
VERTEX
 8
MILANO
 10
-1.354
 20
-28.6224
 30
24.5718
 70
192
 0
VERTEX
 8
MILANO
 10
-1.5749
 20
-28.6224
 30
24.9359
 70
192
 0
VERTEX
 8
MILANO
 10
-0.3385
 20
-28.6224
 30
24.6306
 70
192
 0
VERTEX
 8
MILANO
 10
-0.3385
 20
-28.6224
 30
24.5718
 70
192
 0
VERTEX
 8
MILANO
 10
-0.6548
 20
-28.6224
 30
24.5718
 70
192
 0
VERTEX
 8
MILANO
 10
-1.6007
 20
-28.6224
 30
25.1146
 70
192
 0
VERTEX
 8
MILANO
 10
-1.3401
 20
-28.6224
 30
24.6826
 70
192
 0
VERTEX
 8
MILANO
 10
-1.1084
 20
-28.6224
 30
24.9359
 70
192
 0
VERTEX
 8
MILANO
 10
-1.3202
 20
-28.6224
 30
24.5718
 70
192
 0
VERTEX
 8
MILANO
 10
-1.6296
 20
-28.6224
 30
24.5718
 70
192
 0
VERTEX
 8
MILANO
 10
1.3815
 20
-28.6224
 30
25.1204
 70
192
 0
VERTEX
 8
MILANO
 10
1.298
 20
-28.6224
 30
25.116
 70
192
 0
VERTEX
 8
MILANO
 10
1.217
 20
-28.6224
 30
25.0964
 70
192
 0
VERTEX
 8
MILANO
 10
1.1455
 20
-28.6224
 30
25.0552
 70
192
 0
VERTEX
 8
MILANO
 10
1.088
 20
-28.6224
 30
24.9964
 70
192
 0
VERTEX
 8
MILANO
 10
1.0507
 20
-28.6224
 30
24.9243
 70
192
 0
VERTEX
 8
MILANO
 10
1.0391
 20
-28.6224
 30
24.8443
 70
192
 0
VERTEX
 8
MILANO
 10
1.0489
 20
-28.6224
 30
24.764
 70
192
 0
VERTEX
 8
MILANO
 10
1.084
 20
-28.6224
 30
24.6909
 70
192
 0
VERTEX
 8
MILANO
 10
1.1428
 20
-28.6224
 30
24.6337
 70
192
 0
VERTEX
 8
MILANO
 10
1.216
 20
-28.6224
 30
24.5948
 70
192
 0
VERTEX
 8
MILANO
 10
1.2962
 20
-28.6224
 30
24.5721
 70
192
 0
VERTEX
 8
MILANO
 10
1.3794
 20
-28.6224
 30
24.5634
 70
192
 0
VERTEX
 8
MILANO
 10
1.4626
 20
-28.6224
 30
24.5695
 70
192
 0
VERTEX
 8
MILANO
 10
1.5432
 20
-28.6224
 30
24.591
 70
192
 0
VERTEX
 8
MILANO
 10
1.616
 20
-28.6224
 30
24.6304
 70
192
 0
VERTEX
 8
MILANO
 10
1.673
 20
-28.6224
 30
24.6894
 70
192
 0
VERTEX
 8
MILANO
 10
1.7098
 20
-28.6224
 30
24.7618
 70
192
 0
VERTEX
 8
MILANO
 10
1.7217
 20
-28.6224
 30
24.8418
 70
192
 0
VERTEX
 8
MILANO
 10
1.711
 20
-28.6224
 30
24.9219
 70
192
 0
VERTEX
 8
MILANO
 10
1.6756
 20
-28.6224
 30
24.995
 70
192
 0
VERTEX
 8
MILANO
 10
1.6183
 20
-28.6224
 30
25.0536
 70
192
 0
VERTEX
 8
MILANO
 10
0.4125
 20
-28.6224
 30
24.5718
 70
192
 0
VERTEX
 8
MILANO
 10
0.4856
 20
-28.6224
 30
24.5718
 70
192
 0
VERTEX
 8
MILANO
 10
0.4856
 20
-28.6224
 30
24.965
 70
192
 0
VERTEX
 8
MILANO
 10
0.9011
 20
-28.6224
 30
24.5718
 70
192
 0
VERTEX
 8
MILANO
 10
0.925
 20
-28.6224
 30
24.5718
 70
192
 0
VERTEX
 8
MILANO
 10
0.925
 20
-28.6224
 30
25.1112
 70
192
 0
VERTEX
 8
MILANO
 10
0.8517
 20
-28.6224
 30
25.1112
 70
192
 0
VERTEX
 8
MILANO
 10
1.5454
 20
-28.6224
 30
25.093
 70
192
 0
VERTEX
 8
MILANO
 10
0.4397
 20
-28.6224
 30
25.1112
 70
192
 0
VERTEX
 8
MILANO
 10
-0.2188
 20
-28.6224
 30
24.5718
 70
192
 0
VERTEX
 8
MILANO
 10
-0.1256
 20
-28.6224
 30
24.7461
 70
192
 0
VERTEX
 8
MILANO
 10
1.4648
 20
-28.6224
 30
25.1144
 70
192
 0
VERTEX
 8
MILANO
 10
1.3812
 20
-28.6224
 30
25.0548
 70
192
 0
VERTEX
 8
MILANO
 10
1.3174
 20
-28.6224
 30
25.0515
 70
192
 0
VERTEX
 8
MILANO
 10
0.022
 20
-28.6224
 30
25.1112
 70
192
 0
VERTEX
 8
MILANO
 10
-0.0016
 20
-28.6224
 30
25.1112
 70
192
 0
VERTEX
 8
MILANO
 10
1.2554
 20
-28.6224
 30
25.0365
 70
192
 0
VERTEX
 8
MILANO
 10
1.2007
 20
-28.6224
 30
25.005
 70
192
 0
VERTEX
 8
MILANO
 10
1.1568
 20
-28.6224
 30
24.96
 70
192
 0
VERTEX
 8
MILANO
 10
0.0178
 20
-28.6224
 30
24.9788
 70
192
 0
VERTEX
 8
MILANO
 10
0.0014
 20
-28.6224
 30
24.9788
 70
192
 0
VERTEX
 8
MILANO
 10
-0.6608
 20
-28.6224
 30
25.1112
 70
192
 0
VERTEX
 8
MILANO
 10
1.1283
 20
-28.6224
 30
24.9049
 70
192
 0
VERTEX
 8
MILANO
 10
0
 20
0
 30
0
 70
128
 71
71
 72
1
 73
73
 74
72
 0
VERTEX
 8
MILANO
 10
0
 20
0
 30
0
 70
128
 71
1
 72
79
 73
73
 74
73
 0
VERTEX
 8
MILANO
 10
0
 20
0
 30
0
 70
128
 71
73
 72
79
 73
9
 74
74
 0
VERTEX
 8
MILANO
 10
0
 20
0
 30
0
 70
128
 71
76
 72
75
 73
9
 74
77
 0
VERTEX
 8
MILANO
 10
0
 20
0
 30
0
 70
128
 71
9
 72
75
 73
74
 74
74
 0
VERTEX
 8
MILANO
 10
0
 20
0
 30
0
 70
128
 71
18
 72
86
 73
19
 74
81
 0
VERTEX
 8
MILANO
 10
0
 20
0
 30
0
 70
128
 71
80
 72
18
 73
81
 74
81
 0
VERTEX
 8
MILANO
 10
0
 20
0
 30
0
 70
128
 71
86
 72
85
 73
90
 74
91
 0
VERTEX
 8
MILANO
 10
0
 20
0
 30
0
 70
128
 71
15
 72
13
 73
20
 74
20
 0
VERTEX
 8
MILANO
 10
0
 20
0
 30
0
 70
128
 71
86
 72
91
 73
19
 74
19
 0
VERTEX
 8
MILANO
 10
0
 20
0
 30
0
 70
128
 71
85
 72
15
 73
20
 74
90
 0
VERTEX
 8
MILANO
 10
0
 20
0
 30
0
 70
128
 71
13
 72
81
 73
19
 74
20
 0
VERTEX
 8
MILANO
 10
0
 20
0
 30
0
 70
128
 71
15
 72
14
 73
13
 74
13
 0
VERTEX
 8
MILANO
 10
0
 20
0
 30
0
 70
128
 71
92
 72
24
 73
25
 74
43
 0
VERTEX
 8
MILANO
 10
0
 20
0
 30
0
 70
128
 71
25
 72
41
 73
42
 74
43
 0
VERTEX
 8
MILANO
 10
0
 20
0
 30
0
 70
128
 71
29
 72
30
 73
31
 74
32
 0
VERTEX
 8
MILANO
 10
0
 20
0
 30
0
 70
128
 71
33
 72
34
 73
40
 74
48
 0
VERTEX
 8
MILANO
 10
0
 20
0
 30
0
 70
128
 71
34
 72
44
 73
40
 74
40
 0
VERTEX
 8
MILANO
 10
0
 20
0
 30
0
 70
128
 71
40
 72
44
 73
45
 74
39
 0
VERTEX
 8
MILANO
 10
0
 20
0
 30
0
 70
128
 71
45
 72
35
 73
46
 74
47
 0
VERTEX
 8
MILANO
 10
0
 20
0
 30
0
 70
128
 71
46
 72
36
 73
37
 74
38
 0
VERTEX
 8
MILANO
 10
0
 20
0
 30
0
 70
128
 71
45
 72
47
 73
39
 74
39
 0
VERTEX
 8
MILANO
 10
0
 20
0
 30
0
 70
128
 71
35
 72
36
 73
46
 74
46
 0
VERTEX
 8
MILANO
 10
0
 20
0
 30
0
 70
128
 71
11
 72
12
 73
64
 74
63
 0
VERTEX
 8
MILANO
 10
0
 20
0
 30
0
 70
128
 71
22
 72
23
 73
69
 74
68
 0
VERTEX
 8
MILANO
 10
0
 20
0
 30
0
 70
128
 71
50
 72
49
 73
83
 74
84
 0
VERTEX
 8
MILANO
 10
0
 20
0
 30
0
 70
128
 71
51
 72
50
 73
84
 74
87
 0
VERTEX
 8
MILANO
 10
0
 20
0
 30
0
 70
128
 71
17
 72
21
 73
67
 74
66
 0
VERTEX
 8
MILANO
 10
0
 20
0
 30
0
 70
128
 71
7
 72
8
 73
61
 74
60
 0
VERTEX
 8
MILANO
 10
0
 20
0
 30
0
 70
128
 71
10
 72
11
 73
63
 74
62
 0
VERTEX
 8
MILANO
 10
0
 20
0
 30
0
 70
128
 71
6
 72
7
 73
60
 74
59
 0
VERTEX
 8
MILANO
 10
0
 20
0
 30
0
 70
128
 71
5
 72
6
 73
59
 74
58
 0
VERTEX
 8
MILANO
 10
0
 20
0
 30
0
 70
128
 71
12
 72
16
 73
65
 74
64
 0
VERTEX
 8
MILANO
 10
0
 20
0
 30
0
 70
128
 71
16
 72
17
 73
66
 74
65
 0
VERTEX
 8
MILANO
 10
0
 20
0
 30
0
 70
128
 71
26
 72
27
 73
78
 74
70
 0
VERTEX
 8
MILANO
 10
0
 20
0
 30
0
 70
128
 71
21
 72
22
 73
68
 74
67
 0
VERTEX
 8
MILANO
 10
0
 20
0
 30
0
 70
128
 71
23
 72
26
 73
70
 74
69
 0
VERTEX
 8
MILANO
 10
0
 20
0
 30
0
 70
128
 71
28
 72
83
 73
49
 74
82
 0
VERTEX
 8
MILANO
 10
0
 20
0
 30
0
 70
128
 71
27
 72
28
 73
82
 74
78
 0
VERTEX
 8
MILANO
 10
0
 20
0
 30
0
 70
128
 71
4
 72
5
 73
58
 74
57
 0
VERTEX
 8
MILANO
 10
0
 20
0
 30
0
 70
128
 71
57
 72
56
 73
3
 74
4
 0
VERTEX
 8
MILANO
 10
0
 20
0
 30
0
 70
128
 71
56
 72
55
 73
2
 74
3
 0
VERTEX
 8
MILANO
 10
0
 20
0
 30
0
 70
128
 71
55
 72
54
 73
93
 74
2
 0
VERTEX
 8
MILANO
 10
0
 20
0
 30
0
 70
128
 71
54
 72
53
 73
89
 74
93
 0
VERTEX
 8
MILANO
 10
0
 20
0
 30
0
 70
128
 71
53
 72
52
 73
88
 74
89
 0
VERTEX
 8
MILANO
 10
0
 20
0
 30
0
 70
128
 71
52
 72
51
 73
87
 74
88
 0
VERTEX
 8
MILANO
 10
0
 20
0
 30
0
 70
128
 71
8
 72
10
 73
62
 74
61
 0
SEQEND
 0
POLYLINE
 8
CUBO_1
 66
1
 10
0.0
 20
0.0
 30
0.0
 70
64
 71
8
 72
6
 0
VERTEX
 8
CUBO_1
 10
-5.0961
 20
-28.6215
 30
22.9206
 70
192
 0
VERTEX
 8
CUBO_1
 10
-5.0961
 20
-28.6215
 30
27.3206
 70
192
 0
VERTEX
 8
CUBO_1
 10
5.1039
 20
-28.6215
 30
22.9206
 70
192
 0
VERTEX
 8
CUBO_1
 10
5.1039
 20
-28.6215
 30
27.3206
 70
192
 0
VERTEX
 8
CUBO_1
 10
5.1039
 20
-28.4715
 30
22.9206
 70
192
 0
VERTEX
 8
CUBO_1
 10
5.1039
 20
-28.4715
 30
27.3206
 70
192
 0
VERTEX
 8
CUBO_1
 10
-5.0961
 20
-28.4715
 30
22.9206
 70
192
 0
VERTEX
 8
CUBO_1
 10
-5.0961
 20
-28.4715
 30
27.3206
 70
192
 0
VERTEX
 8
CUBO_1
 10
0
 20
0
 30
0
 70
128
 71
1
 72
2
 73
4
 74
3
 0
VERTEX
 8
CUBO_1
 10
0
 20
0
 30
0
 70
128
 71
3
 72
4
 73
6
 74
5
 0
VERTEX
 8
CUBO_1
 10
0
 20
0
 30
0
 70
128
 71
5
 72
6
 73
8
 74
7
 0
VERTEX
 8
CUBO_1
 10
0
 20
0
 30
0
 70
128
 71
7
 72
8
 73
2
 74
1
 0
VERTEX
 8
CUBO_1
 10
0
 20
0
 30
0
 70
128
 71
2
 72
8
 73
6
 74
4
 0
VERTEX
 8
CUBO_1
 10
0
 20
0
 30
0
 70
128
 71
7
 72
1
 73
3
 74
5
 0
SEQEND
 0
POLYLINE
 8
CUBO
 66
1
 10
0.0
 20
0.0
 30
0.0
 70
64
 71
32
 72
32
 0
VERTEX
 8
CUBO
 10
-5.594
 20
-28.8212
 30
22.4105
 70
192
 0
VERTEX
 8
CUBO
 10
-5.594
 20
-28.8212
 30
22.9215
 70
192
 0
VERTEX
 8
CUBO
 10
-5.594
 20
-28.8212
 30
27.3215
 70
192
 0
VERTEX
 8
CUBO
 10
-5.594
 20
-28.8212
 30
29.1185
 70
192
 0
VERTEX
 8
CUBO
 10
-5.0961
 20
-28.8212
 30
22.4105
 70
192
 0
VERTEX
 8
CUBO
 10
-5.0961
 20
-28.8212
 30
22.9215
 70
192
 0
VERTEX
 8
CUBO
 10
-5.0961
 20
-28.8212
 30
27.3215
 70
192
 0
VERTEX
 8
CUBO
 10
-5.0961
 20
-28.8212
 30
29.1185
 70
192
 0
VERTEX
 8
CUBO
 10
5.1039
 20
-28.8212
 30
22.4105
 70
192
 0
VERTEX
 8
CUBO
 10
5.1039
 20
-28.8212
 30
22.9215
 70
192
 0
VERTEX
 8
CUBO
 10
5.1039
 20
-28.8212
 30
27.3215
 70
192
 0
VERTEX
 8
CUBO
 10
5.1039
 20
-28.8212
 30
29.1185
 70
192
 0
VERTEX
 8
CUBO
 10
5.6018
 20
-28.8212
 30
22.4105
 70
192
 0
VERTEX
 8
CUBO
 10
5.6018
 20
-28.8212
 30
22.9215
 70
192
 0
VERTEX
 8
CUBO
 10
5.6018
 20
-28.8212
 30
27.3215
 70
192
 0
VERTEX
 8
CUBO
 10
5.6018
 20
-28.8212
 30
29.1185
 70
192
 0
VERTEX
 8
CUBO
 10
5.6018
 20
-28.4712
 30
22.4105
 70
192
 0
VERTEX
 8
CUBO
 10
5.6018
 20
-28.4712
 30
22.9215
 70
192
 0
VERTEX
 8
CUBO
 10
5.6018
 20
-28.4712
 30
27.3215
 70
192
 0
VERTEX
 8
CUBO
 10
5.6018
 20
-28.4712
 30
29.1185
 70
192
 0
VERTEX
 8
CUBO
 10
5.1039
 20
-28.4712
 30
22.4105
 70
192
 0
VERTEX
 8
CUBO
 10
5.1039
 20
-28.4712
 30
22.9215
 70
192
 0
VERTEX
 8
CUBO
 10
5.1039
 20
-28.4712
 30
27.3215
 70
192
 0
VERTEX
 8
CUBO
 10
5.1039
 20
-28.4712
 30
29.1185
 70
192
 0
VERTEX
 8
CUBO
 10
-5.0961
 20
-28.4712
 30
22.4105
 70
192
 0
VERTEX
 8
CUBO
 10
-5.0961
 20
-28.4712
 30
22.9215
 70
192
 0
VERTEX
 8
CUBO
 10
-5.0961
 20
-28.4712
 30
27.3215
 70
192
 0
VERTEX
 8
CUBO
 10
-5.0961
 20
-28.4712
 30
29.1185
 70
192
 0
VERTEX
 8
CUBO
 10
-5.594
 20
-28.4712
 30
22.4105
 70
192
 0
VERTEX
 8
CUBO
 10
-5.594
 20
-28.4712
 30
22.9215
 70
192
 0
VERTEX
 8
CUBO
 10
-5.594
 20
-28.4712
 30
27.3215
 70
192
 0
VERTEX
 8
CUBO
 10
-5.594
 20
-28.4712
 30
29.1185
 70
192
 0
VERTEX
 8
CUBO
 10
0
 20
0
 30
0
 70
128
 71
1
 72
2
 73
6
 74
5
 0
VERTEX
 8
CUBO
 10
0
 20
0
 30
0
 70
128
 71
5
 72
6
 73
10
 74
9
 0
VERTEX
 8
CUBO
 10
0
 20
0
 30
0
 70
128
 71
9
 72
10
 73
14
 74
13
 0
VERTEX
 8
CUBO
 10
0
 20
0
 30
0
 70
128
 71
2
 72
3
 73
7
 74
6
 0
VERTEX
 8
CUBO
 10
0
 20
0
 30
0
 70
128
 71
21
 72
9
 73
13
 74
17
 0
VERTEX
 8
CUBO
 10
0
 20
0
 30
0
 70
128
 71
10
 72
11
 73
15
 74
14
 0
VERTEX
 8
CUBO
 10
0
 20
0
 30
0
 70
128
 71
3
 72
4
 73
8
 74
7
 0
VERTEX
 8
CUBO
 10
0
 20
0
 30
0
 70
128
 71
7
 72
8
 73
12
 74
11
 0
VERTEX
 8
CUBO
 10
0
 20
0
 30
0
 70
128
 71
11
 72
12
 73
16
 74
15
 0
VERTEX
 8
CUBO
 10
0
 20
0
 30
0
 70
128
 71
13
 72
14
 73
18
 74
17
 0
VERTEX
 8
CUBO
 10
0
 20
0
 30
0
 70
128
 71
14
 72
15
 73
19
 74
18
 0
VERTEX
 8
CUBO
 10
0
 20
0
 30
0
 70
128
 71
15
 72
16
 73
20
 74
19
 0
VERTEX
 8
CUBO
 10
0
 20
0
 30
0
 70
128
 71
17
 72
18
 73
22
 74
21
 0
VERTEX
 8
CUBO
 10
0
 20
0
 30
0
 70
128
 71
21
 72
22
 73
26
 74
25
 0
VERTEX
 8
CUBO
 10
0
 20
0
 30
0
 70
128
 71
25
 72
26
 73
30
 74
29
 0
VERTEX
 8
CUBO
 10
0
 20
0
 30
0
 70
128
 71
18
 72
19
 73
23
 74
22
 0
VERTEX
 8
CUBO
 10
0
 20
0
 30
0
 70
128
 71
25
 72
5
 73
9
 74
21
 0
VERTEX
 8
CUBO
 10
0
 20
0
 30
0
 70
128
 71
26
 72
27
 73
31
 74
30
 0
VERTEX
 8
CUBO
 10
0
 20
0
 30
0
 70
128
 71
19
 72
20
 73
24
 74
23
 0
VERTEX
 8
CUBO
 10
0
 20
0
 30
0
 70
128
 71
23
 72
24
 73
28
 74
27
 0
VERTEX
 8
CUBO
 10
0
 20
0
 30
0
 70
128
 71
27
 72
28
 73
32
 74
31
 0
VERTEX
 8
CUBO
 10
0
 20
0
 30
0
 70
128
 71
29
 72
30
 73
2
 74
1
 0
VERTEX
 8
CUBO
 10
0
 20
0
 30
0
 70
128
 71
30
 72
31
 73
3
 74
2
 0
VERTEX
 8
CUBO
 10
0
 20
0
 30
0
 70
128
 71
31
 72
32
 73
4
 74
3
 0
VERTEX
 8
CUBO
 10
0
 20
0
 30
0
 70
128
 71
4
 72
32
 73
28
 74
8
 0
VERTEX
 8
CUBO
 10
0
 20
0
 30
0
 70
128
 71
8
 72
28
 73
24
 74
12
 0
VERTEX
 8
CUBO
 10
0
 20
0
 30
0
 70
128
 71
12
 72
24
 73
20
 74
16
 0
VERTEX
 8
CUBO
 10
0
 20
0
 30
0
 70
128
 71
29
 72
1
 73
5
 74
25
 0
VERTEX
 8
CUBO
 10
0
 20
0
 30
0
 70
128
 71
7
 72
11
 73
23
 74
27
 0
VERTEX
 8
CUBO
 10
0
 20
0
 30
0
 70
128
 71
11
 72
10
 73
22
 74
23
 0
VERTEX
 8
CUBO
 10
0
 20
0
 30
0
 70
128
 71
6
 72
7
 73
27
 74
26
 0
VERTEX
 8
CUBO
 10
0
 20
0
 30
0
 70
128
 71
10
 72
6
 73
26
 74
22
 0
SEQEND
 0
POLYLINE
 8
CILINDRO_7
 66
1
 10
0.0
 20
0.0
 30
0.0
 70
64
 71
146
 72
108
 0
VERTEX
 8
CILINDRO_7
 10
-23.0001
 20
20.3525
 30
1.5014
 70
192
 0
VERTEX
 8
CILINDRO_7
 10
-23.0001
 20
20.3525
 30
5.4808
 70
192
 0
VERTEX
 8
CILINDRO_7
 10
-23.0001
 20
19.3577
 30
1.5014
 70
192
 0
VERTEX
 8
CILINDRO_7
 10
-23.0001
 20
19.3577
 30
1.5014
 70
192
 0
VERTEX
 8
CILINDRO_7
 10
-23.0001
 20
19.3577
 30
5.4808
 70
192
 0
VERTEX
 8
CILINDRO_7
 10
-23.0001
 20
19.3577
 30
5.4808
 70
192
 0
VERTEX
 8
CILINDRO_7
 10
-22.8273
 20
19.3728
 30
1.5014
 70
192
 0
VERTEX
 8
CILINDRO_7
 10
-22.8273
 20
19.3728
 30
1.5014
 70
192
 0
VERTEX
 8
CILINDRO_7
 10
-22.8273
 20
19.3728
 30
5.4808
 70
192
 0
VERTEX
 8
CILINDRO_7
 10
-22.8273
 20
19.3728
 30
5.4808
 70
192
 0
VERTEX
 8
CILINDRO_7
 10
-22.6598
 20
19.4177
 30
1.5014
 70
192
 0
VERTEX
 8
CILINDRO_7
 10
-22.6598
 20
19.4177
 30
1.5014
 70
192
 0
VERTEX
 8
CILINDRO_7
 10
-22.6598
 20
19.4177
 30
5.4808
 70
192
 0
VERTEX
 8
CILINDRO_7
 10
-22.6598
 20
19.4177
 30
5.4808
 70
192
 0
VERTEX
 8
CILINDRO_7
 10
-22.5026
 20
19.491
 30
1.5014
 70
192
 0
VERTEX
 8
CILINDRO_7
 10
-22.5026
 20
19.491
 30
1.5014
 70
192
 0
VERTEX
 8
CILINDRO_7
 10
-22.5026
 20
19.491
 30
5.4808
 70
192
 0
VERTEX
 8
CILINDRO_7
 10
-22.5026
 20
19.491
 30
5.4808
 70
192
 0
VERTEX
 8
CILINDRO_7
 10
-22.3606
 20
19.5904
 30
1.5014
 70
192
 0
VERTEX
 8
CILINDRO_7
 10
-22.3606
 20
19.5904
 30
1.5014
 70
192
 0
VERTEX
 8
CILINDRO_7
 10
-22.3606
 20
19.5904
 30
5.4808
 70
192
 0
VERTEX
 8
CILINDRO_7
 10
-22.3606
 20
19.5904
 30
5.4808
 70
192
 0
VERTEX
 8
CILINDRO_7
 10
-22.2379
 20
19.713
 30
1.5014
 70
192
 0
VERTEX
 8
CILINDRO_7
 10
-22.2379
 20
19.713
 30
1.5014
 70
192
 0
VERTEX
 8
CILINDRO_7
 10
-22.2379
 20
19.713
 30
5.4808
 70
192
 0
VERTEX
 8
CILINDRO_7
 10
-22.2379
 20
19.713
 30
5.4808
 70
192
 0
VERTEX
 8
CILINDRO_7
 10
-22.1385
 20
19.8551
 30
1.5014
 70
192
 0
VERTEX
 8
CILINDRO_7
 10
-22.1385
 20
19.8551
 30
1.5014
 70
192
 0
VERTEX
 8
CILINDRO_7
 10
-22.1385
 20
19.8551
 30
5.4808
 70
192
 0
VERTEX
 8
CILINDRO_7
 10
-22.1385
 20
19.8551
 30
5.4808
 70
192
 0
VERTEX
 8
CILINDRO_7
 10
-22.0652
 20
20.0123
 30
1.5014
 70
192
 0
VERTEX
 8
CILINDRO_7
 10
-22.0652
 20
20.0123
 30
1.5014
 70
192
 0
VERTEX
 8
CILINDRO_7
 10
-22.0652
 20
20.0123
 30
5.4808
 70
192
 0
VERTEX
 8
CILINDRO_7
 10
-22.0652
 20
20.0123
 30
5.4808
 70
192
 0
VERTEX
 8
CILINDRO_7
 10
-22.0203
 20
20.1798
 30
1.5014
 70
192
 0
VERTEX
 8
CILINDRO_7
 10
-22.0203
 20
20.1798
 30
1.5014
 70
192
 0
VERTEX
 8
CILINDRO_7
 10
-22.0203
 20
20.1798
 30
5.4808
 70
192
 0
VERTEX
 8
CILINDRO_7
 10
-22.0203
 20
20.1798
 30
5.4808
 70
192
 0
VERTEX
 8
CILINDRO_7
 10
-22.0052
 20
20.3525
 30
1.5014
 70
192
 0
VERTEX
 8
CILINDRO_7
 10
-22.0052
 20
20.3525
 30
1.5014
 70
192
 0
VERTEX
 8
CILINDRO_7
 10
-22.0052
 20
20.3525
 30
5.4808
 70
192
 0
VERTEX
 8
CILINDRO_7
 10
-22.0052
 20
20.3525
 30
5.4808
 70
192
 0
VERTEX
 8
CILINDRO_7
 10
-22.0203
 20
20.5253
 30
1.5014
 70
192
 0
VERTEX
 8
CILINDRO_7
 10
-22.0203
 20
20.5253
 30
1.5014
 70
192
 0
VERTEX
 8
CILINDRO_7
 10
-22.0203
 20
20.5253
 30
5.4808
 70
192
 0
VERTEX
 8
CILINDRO_7
 10
-22.0203
 20
20.5253
 30
5.4808
 70
192
 0
VERTEX
 8
CILINDRO_7
 10
-22.0652
 20
20.6928
 30
1.5014
 70
192
 0
VERTEX
 8
CILINDRO_7
 10
-22.0652
 20
20.6928
 30
1.5014
 70
192
 0
VERTEX
 8
CILINDRO_7
 10
-22.0652
 20
20.6928
 30
5.4808
 70
192
 0
VERTEX
 8
CILINDRO_7
 10
-22.0652
 20
20.6928
 30
5.4808
 70
192
 0
VERTEX
 8
CILINDRO_7
 10
-22.1385
 20
20.85
 30
1.5014
 70
192
 0
VERTEX
 8
CILINDRO_7
 10
-22.1385
 20
20.85
 30
1.5014
 70
192
 0
VERTEX
 8
CILINDRO_7
 10
-22.1385
 20
20.85
 30
5.4808
 70
192
 0
VERTEX
 8
CILINDRO_7
 10
-22.1385
 20
20.85
 30
5.4808
 70
192
 0
VERTEX
 8
CILINDRO_7
 10
-22.2379
 20
20.992
 30
1.5014
 70
192
 0
VERTEX
 8
CILINDRO_7
 10
-22.2379
 20
20.992
 30
1.5014
 70
192
 0
VERTEX
 8
CILINDRO_7
 10
-22.2379
 20
20.992
 30
5.4808
 70
192
 0
VERTEX
 8
CILINDRO_7
 10
-22.2379
 20
20.992
 30
5.4808
 70
192
 0
VERTEX
 8
CILINDRO_7
 10
-22.3606
 20
21.1146
 30
1.5014
 70
192
 0
VERTEX
 8
CILINDRO_7
 10
-22.3606
 20
21.1146
 30
1.5014
 70
192
 0
VERTEX
 8
CILINDRO_7
 10
-22.3606
 20
21.1146
 30
5.4808
 70
192
 0
VERTEX
 8
CILINDRO_7
 10
-22.3606
 20
21.1146
 30
5.4808
 70
192
 0
VERTEX
 8
CILINDRO_7
 10
-22.5026
 20
21.2141
 30
1.5014
 70
192
 0
VERTEX
 8
CILINDRO_7
 10
-22.5026
 20
21.2141
 30
1.5014
 70
192
 0
VERTEX
 8
CILINDRO_7
 10
-22.5026
 20
21.2141
 30
5.4808
 70
192
 0
VERTEX
 8
CILINDRO_7
 10
-22.5026
 20
21.2141
 30
5.4808
 70
192
 0
VERTEX
 8
CILINDRO_7
 10
-22.6598
 20
21.2874
 30
1.5014
 70
192
 0
VERTEX
 8
CILINDRO_7
 10
-22.6598
 20
21.2874
 30
1.5014
 70
192
 0
VERTEX
 8
CILINDRO_7
 10
-22.6598
 20
21.2874
 30
5.4808
 70
192
 0
VERTEX
 8
CILINDRO_7
 10
-22.6598
 20
21.2874
 30
5.4808
 70
192
 0
VERTEX
 8
CILINDRO_7
 10
-22.8273
 20
21.3323
 30
1.5014
 70
192
 0
VERTEX
 8
CILINDRO_7
 10
-22.8273
 20
21.3323
 30
1.5014
 70
192
 0
VERTEX
 8
CILINDRO_7
 10
-22.8273
 20
21.3323
 30
5.4808
 70
192
 0
VERTEX
 8
CILINDRO_7
 10
-22.8273
 20
21.3323
 30
5.4808
 70
192
 0
VERTEX
 8
CILINDRO_7
 10
-23.0001
 20
21.3474
 30
1.5014
 70
192
 0
VERTEX
 8
CILINDRO_7
 10
-23.0001
 20
21.3474
 30
1.5014
 70
192
 0
VERTEX
 8
CILINDRO_7
 10
-23.0001
 20
21.3474
 30
5.4808
 70
192
 0
VERTEX
 8
CILINDRO_7
 10
-23.0001
 20
21.3474
 30
5.4808
 70
192
 0
VERTEX
 8
CILINDRO_7
 10
-23.1728
 20
21.3323
 30
1.5014
 70
192
 0
VERTEX
 8
CILINDRO_7
 10
-23.1728
 20
21.3323
 30
1.5014
 70
192
 0
VERTEX
 8
CILINDRO_7
 10
-23.1728
 20
21.3323
 30
5.4808
 70
192
 0
VERTEX
 8
CILINDRO_7
 10
-23.1728
 20
21.3323
 30
5.4808
 70
192
 0
VERTEX
 8
CILINDRO_7
 10
-23.3403
 20
21.2874
 30
1.5014
 70
192
 0
VERTEX
 8
CILINDRO_7
 10
-23.3403
 20
21.2874
 30
1.5014
 70
192
 0
VERTEX
 8
CILINDRO_7
 10
-23.3403
 20
21.2874
 30
5.4808
 70
192
 0
VERTEX
 8
CILINDRO_7
 10
-23.3403
 20
21.2874
 30
5.4808
 70
192
 0
VERTEX
 8
CILINDRO_7
 10
-23.4975
 20
21.2141
 30
1.5014
 70
192
 0
VERTEX
 8
CILINDRO_7
 10
-23.4975
 20
21.2141
 30
1.5014
 70
192
 0
VERTEX
 8
CILINDRO_7
 10
-23.4975
 20
21.2141
 30
5.4808
 70
192
 0
VERTEX
 8
CILINDRO_7
 10
-23.4975
 20
21.2141
 30
5.4808
 70
192
 0
VERTEX
 8
CILINDRO_7
 10
-23.6395
 20
21.1146
 30
1.5014
 70
192
 0
VERTEX
 8
CILINDRO_7
 10
-23.6395
 20
21.1146
 30
1.5014
 70
192
 0
VERTEX
 8
CILINDRO_7
 10
-23.6395
 20
21.1146
 30
5.4808
 70
192
 0
VERTEX
 8
CILINDRO_7
 10
-23.6395
 20
21.1146
 30
5.4808
 70
192
 0
VERTEX
 8
CILINDRO_7
 10
-23.7622
 20
20.992
 30
1.5014
 70
192
 0
VERTEX
 8
CILINDRO_7
 10
-23.7622
 20
20.992
 30
1.5014
 70
192
 0
VERTEX
 8
CILINDRO_7
 10
-23.7622
 20
20.992
 30
5.4808
 70
192
 0
VERTEX
 8
CILINDRO_7
 10
-23.7622
 20
20.992
 30
5.4808
 70
192
 0
VERTEX
 8
CILINDRO_7
 10
-23.8616
 20
20.85
 30
1.5014
 70
192
 0
VERTEX
 8
CILINDRO_7
 10
-23.8616
 20
20.85
 30
1.5014
 70
192
 0
VERTEX
 8
CILINDRO_7
 10
-23.8616
 20
20.85
 30
5.4808
 70
192
 0
VERTEX
 8
CILINDRO_7
 10
-23.8616
 20
20.85
 30
5.4808
 70
192
 0
VERTEX
 8
CILINDRO_7
 10
-23.9349
 20
20.6928
 30
1.5014
 70
192
 0
VERTEX
 8
CILINDRO_7
 10
-23.9349
 20
20.6928
 30
1.5014
 70
192
 0
VERTEX
 8
CILINDRO_7
 10
-23.9349
 20
20.6928
 30
5.4808
 70
192
 0
VERTEX
 8
CILINDRO_7
 10
-23.9349
 20
20.6928
 30
5.4808
 70
192
 0
VERTEX
 8
CILINDRO_7
 10
-23.9798
 20
20.5253
 30
1.5014
 70
192
 0
VERTEX
 8
CILINDRO_7
 10
-23.9798
 20
20.5253
 30
1.5014
 70
192
 0
VERTEX
 8
CILINDRO_7
 10
-23.9798
 20
20.5253
 30
5.4808
 70
192
 0
VERTEX
 8
CILINDRO_7
 10
-23.9798
 20
20.5253
 30
5.4808
 70
192
 0
VERTEX
 8
CILINDRO_7
 10
-23.9949
 20
20.3525
 30
1.5014
 70
192
 0
VERTEX
 8
CILINDRO_7
 10
-23.9949
 20
20.3525
 30
1.5014
 70
192
 0
VERTEX
 8
CILINDRO_7
 10
-23.9949
 20
20.3525
 30
5.4808
 70
192
 0
VERTEX
 8
CILINDRO_7
 10
-23.9949
 20
20.3525
 30
5.4808
 70
192
 0
VERTEX
 8
CILINDRO_7
 10
-23.9798
 20
20.1798
 30
1.5014
 70
192
 0
VERTEX
 8
CILINDRO_7
 10
-23.9798
 20
20.1798
 30
1.5014
 70
192
 0
VERTEX
 8
CILINDRO_7
 10
-23.9798
 20
20.1798
 30
5.4808
 70
192
 0
VERTEX
 8
CILINDRO_7
 10
-23.9798
 20
20.1798
 30
5.4808
 70
192
 0
VERTEX
 8
CILINDRO_7
 10
-23.9349
 20
20.0123
 30
1.5014
 70
192
 0
VERTEX
 8
CILINDRO_7
 10
-23.9349
 20
20.0123
 30
1.5014
 70
192
 0
VERTEX
 8
CILINDRO_7
 10
-23.9349
 20
20.0123
 30
5.4808
 70
192
 0
VERTEX
 8
CILINDRO_7
 10
-23.9349
 20
20.0123
 30
5.4808
 70
192
 0
VERTEX
 8
CILINDRO_7
 10
-23.8616
 20
19.8551
 30
1.5014
 70
192
 0
VERTEX
 8
CILINDRO_7
 10
-23.8616
 20
19.8551
 30
1.5014
 70
192
 0
VERTEX
 8
CILINDRO_7
 10
-23.8616
 20
19.8551
 30
5.4808
 70
192
 0
VERTEX
 8
CILINDRO_7
 10
-23.8616
 20
19.8551
 30
5.4808
 70
192
 0
VERTEX
 8
CILINDRO_7
 10
-23.7622
 20
19.713
 30
1.5014
 70
192
 0
VERTEX
 8
CILINDRO_7
 10
-23.7622
 20
19.713
 30
1.5014
 70
192
 0
VERTEX
 8
CILINDRO_7
 10
-23.7622
 20
19.713
 30
5.4808
 70
192
 0
VERTEX
 8
CILINDRO_7
 10
-23.7622
 20
19.713
 30
5.4808
 70
192
 0
VERTEX
 8
CILINDRO_7
 10
-23.6395
 20
19.5904
 30
1.5014
 70
192
 0
VERTEX
 8
CILINDRO_7
 10
-23.6395
 20
19.5904
 30
1.5014
 70
192
 0
VERTEX
 8
CILINDRO_7
 10
-23.6395
 20
19.5904
 30
5.4808
 70
192
 0
VERTEX
 8
CILINDRO_7
 10
-23.6395
 20
19.5904
 30
5.4808
 70
192
 0
VERTEX
 8
CILINDRO_7
 10
-23.4975
 20
19.491
 30
1.5014
 70
192
 0
VERTEX
 8
CILINDRO_7
 10
-23.4975
 20
19.491
 30
1.5014
 70
192
 0
VERTEX
 8
CILINDRO_7
 10
-23.4975
 20
19.491
 30
5.4808
 70
192
 0
VERTEX
 8
CILINDRO_7
 10
-23.4975
 20
19.491
 30
5.4808
 70
192
 0
VERTEX
 8
CILINDRO_7
 10
-23.3403
 20
19.4177
 30
1.5014
 70
192
 0
VERTEX
 8
CILINDRO_7
 10
-23.3403
 20
19.4177
 30
1.5014
 70
192
 0
VERTEX
 8
CILINDRO_7
 10
-23.3403
 20
19.4177
 30
5.4808
 70
192
 0
VERTEX
 8
CILINDRO_7
 10
-23.3403
 20
19.4177
 30
5.4808
 70
192
 0
VERTEX
 8
CILINDRO_7
 10
-23.1728
 20
19.3728
 30
1.5014
 70
192
 0
VERTEX
 8
CILINDRO_7
 10
-23.1728
 20
19.3728
 30
1.5014
 70
192
 0
VERTEX
 8
CILINDRO_7
 10
-23.1728
 20
19.3728
 30
5.4808
 70
192
 0
VERTEX
 8
CILINDRO_7
 10
-23.1728
 20
19.3728
 30
5.4808
 70
192
 0
VERTEX
 8
CILINDRO_7
 10
0
 20
0
 30
0
 70
128
 71
1
 72
3
 73
7
 74
7
 0
VERTEX
 8
CILINDRO_7
 10
0
 20
0
 30
0
 70
128
 71
4
 72
5
 73
9
 74
8
 0
VERTEX
 8
CILINDRO_7
 10
0
 20
0
 30
0
 70
128
 71
6
 72
2
 73
10
 74
10
 0
VERTEX
 8
CILINDRO_7
 10
0
 20
0
 30
0
 70
128
 71
1
 72
7
 73
11
 74
11
 0
VERTEX
 8
CILINDRO_7
 10
0
 20
0
 30
0
 70
128
 71
8
 72
9
 73
13
 74
12
 0
VERTEX
 8
CILINDRO_7
 10
0
 20
0
 30
0
 70
128
 71
10
 72
2
 73
14
 74
14
 0
VERTEX
 8
CILINDRO_7
 10
0
 20
0
 30
0
 70
128
 71
1
 72
11
 73
15
 74
15
 0
VERTEX
 8
CILINDRO_7
 10
0
 20
0
 30
0
 70
128
 71
12
 72
13
 73
17
 74
16
 0
VERTEX
 8
CILINDRO_7
 10
0
 20
0
 30
0
 70
128
 71
14
 72
2
 73
18
 74
18
 0
VERTEX
 8
CILINDRO_7
 10
0
 20
0
 30
0
 70
128
 71
1
 72
15
 73
19
 74
19
 0
VERTEX
 8
CILINDRO_7
 10
0
 20
0
 30
0
 70
128
 71
16
 72
17
 73
21
 74
20
 0
VERTEX
 8
CILINDRO_7
 10
0
 20
0
 30
0
 70
128
 71
18
 72
2
 73
22
 74
22
 0
VERTEX
 8
CILINDRO_7
 10
0
 20
0
 30
0
 70
128
 71
1
 72
19
 73
23
 74
23
 0
VERTEX
 8
CILINDRO_7
 10
0
 20
0
 30
0
 70
128
 71
20
 72
21
 73
25
 74
24
 0
VERTEX
 8
CILINDRO_7
 10
0
 20
0
 30
0
 70
128
 71
22
 72
2
 73
26
 74
26
 0
VERTEX
 8
CILINDRO_7
 10
0
 20
0
 30
0
 70
128
 71
1
 72
23
 73
27
 74
27
 0
VERTEX
 8
CILINDRO_7
 10
0
 20
0
 30
0
 70
128
 71
24
 72
25
 73
29
 74
28
 0
VERTEX
 8
CILINDRO_7
 10
0
 20
0
 30
0
 70
128
 71
26
 72
2
 73
30
 74
30
 0
VERTEX
 8
CILINDRO_7
 10
0
 20
0
 30
0
 70
128
 71
1
 72
27
 73
31
 74
31
 0
VERTEX
 8
CILINDRO_7
 10
0
 20
0
 30
0
 70
128
 71
28
 72
29
 73
33
 74
32
 0
VERTEX
 8
CILINDRO_7
 10
0
 20
0
 30
0
 70
128
 71
30
 72
2
 73
34
 74
34
 0
VERTEX
 8
CILINDRO_7
 10
0
 20
0
 30
0
 70
128
 71
1
 72
31
 73
35
 74
35
 0
VERTEX
 8
CILINDRO_7
 10
0
 20
0
 30
0
 70
128
 71
32
 72
33
 73
37
 74
36
 0
VERTEX
 8
CILINDRO_7
 10
0
 20
0
 30
0
 70
128
 71
34
 72
2
 73
38
 74
38
 0
VERTEX
 8
CILINDRO_7
 10
0
 20
0
 30
0
 70
128
 71
1
 72
35
 73
39
 74
39
 0
VERTEX
 8
CILINDRO_7
 10
0
 20
0
 30
0
 70
128
 71
36
 72
37
 73
41
 74
40
 0
VERTEX
 8
CILINDRO_7
 10
0
 20
0
 30
0
 70
128
 71
38
 72
2
 73
42
 74
42
 0
VERTEX
 8
CILINDRO_7
 10
0
 20
0
 30
0
 70
128
 71
1
 72
39
 73
43
 74
43
 0
VERTEX
 8
CILINDRO_7
 10
0
 20
0
 30
0
 70
128
 71
40
 72
41
 73
45
 74
44
 0
VERTEX
 8
CILINDRO_7
 10
0
 20
0
 30
0
 70
128
 71
42
 72
2
 73
46
 74
46
 0
VERTEX
 8
CILINDRO_7
 10
0
 20
0
 30
0
 70
128
 71
1
 72
43
 73
47
 74
47
 0
VERTEX
 8
CILINDRO_7
 10
0
 20
0
 30
0
 70
128
 71
44
 72
45
 73
49
 74
48
 0
VERTEX
 8
CILINDRO_7
 10
0
 20
0
 30
0
 70
128
 71
46
 72
2
 73
50
 74
50
 0
VERTEX
 8
CILINDRO_7
 10
0
 20
0
 30
0
 70
128
 71
1
 72
47
 73
51
 74
51
 0
VERTEX
 8
CILINDRO_7
 10
0
 20
0
 30
0
 70
128
 71
48
 72
49
 73
53
 74
52
 0
VERTEX
 8
CILINDRO_7
 10
0
 20
0
 30
0
 70
128
 71
50
 72
2
 73
54
 74
54
 0
VERTEX
 8
CILINDRO_7
 10
0
 20
0
 30
0
 70
128
 71
1
 72
51
 73
55
 74
55
 0
VERTEX
 8
CILINDRO_7
 10
0
 20
0
 30
0
 70
128
 71
52
 72
53
 73
57
 74
56
 0
VERTEX
 8
CILINDRO_7
 10
0
 20
0
 30
0
 70
128
 71
54
 72
2
 73
58
 74
58
 0
VERTEX
 8
CILINDRO_7
 10
0
 20
0
 30
0
 70
128
 71
1
 72
55
 73
59
 74
59
 0
VERTEX
 8
CILINDRO_7
 10
0
 20
0
 30
0
 70
128
 71
56
 72
57
 73
61
 74
60
 0
VERTEX
 8
CILINDRO_7
 10
0
 20
0
 30
0
 70
128
 71
58
 72
2
 73
62
 74
62
 0
VERTEX
 8
CILINDRO_7
 10
0
 20
0
 30
0
 70
128
 71
1
 72
59
 73
63
 74
63
 0
VERTEX
 8
CILINDRO_7
 10
0
 20
0
 30
0
 70
128
 71
60
 72
61
 73
65
 74
64
 0
VERTEX
 8
CILINDRO_7
 10
0
 20
0
 30
0
 70
128
 71
62
 72
2
 73
66
 74
66
 0
VERTEX
 8
CILINDRO_7
 10
0
 20
0
 30
0
 70
128
 71
1
 72
63
 73
67
 74
67
 0
VERTEX
 8
CILINDRO_7
 10
0
 20
0
 30
0
 70
128
 71
64
 72
65
 73
69
 74
68
 0
VERTEX
 8
CILINDRO_7
 10
0
 20
0
 30
0
 70
128
 71
66
 72
2
 73
70
 74
70
 0
VERTEX
 8
CILINDRO_7
 10
0
 20
0
 30
0
 70
128
 71
1
 72
67
 73
71
 74
71
 0
VERTEX
 8
CILINDRO_7
 10
0
 20
0
 30
0
 70
128
 71
68
 72
69
 73
73
 74
72
 0
VERTEX
 8
CILINDRO_7
 10
0
 20
0
 30
0
 70
128
 71
70
 72
2
 73
74
 74
74
 0
VERTEX
 8
CILINDRO_7
 10
0
 20
0
 30
0
 70
128
 71
1
 72
71
 73
75
 74
75
 0
VERTEX
 8
CILINDRO_7
 10
0
 20
0
 30
0
 70
128
 71
72
 72
73
 73
77
 74
76
 0
VERTEX
 8
CILINDRO_7
 10
0
 20
0
 30
0
 70
128
 71
74
 72
2
 73
78
 74
78
 0
VERTEX
 8
CILINDRO_7
 10
0
 20
0
 30
0
 70
128
 71
1
 72
75
 73
79
 74
79
 0
VERTEX
 8
CILINDRO_7
 10
0
 20
0
 30
0
 70
128
 71
76
 72
77
 73
81
 74
80
 0
VERTEX
 8
CILINDRO_7
 10
0
 20
0
 30
0
 70
128
 71
78
 72
2
 73
82
 74
82
 0
VERTEX
 8
CILINDRO_7
 10
0
 20
0
 30
0
 70
128
 71
1
 72
79
 73
83
 74
83
 0
VERTEX
 8
CILINDRO_7
 10
0
 20
0
 30
0
 70
128
 71
80
 72
81
 73
85
 74
84
 0
VERTEX
 8
CILINDRO_7
 10
0
 20
0
 30
0
 70
128
 71
82
 72
2
 73
86
 74
86
 0
VERTEX
 8
CILINDRO_7
 10
0
 20
0
 30
0
 70
128
 71
1
 72
83
 73
87
 74
87
 0
VERTEX
 8
CILINDRO_7
 10
0
 20
0
 30
0
 70
128
 71
84
 72
85
 73
89
 74
88
 0
VERTEX
 8
CILINDRO_7
 10
0
 20
0
 30
0
 70
128
 71
86
 72
2
 73
90
 74
90
 0
VERTEX
 8
CILINDRO_7
 10
0
 20
0
 30
0
 70
128
 71
1
 72
87
 73
91
 74
91
 0
VERTEX
 8
CILINDRO_7
 10
0
 20
0
 30
0
 70
128
 71
88
 72
89
 73
93
 74
92
 0
VERTEX
 8
CILINDRO_7
 10
0
 20
0
 30
0
 70
128
 71
90
 72
2
 73
94
 74
94
 0
VERTEX
 8
CILINDRO_7
 10
0
 20
0
 30
0
 70
128
 71
1
 72
91
 73
95
 74
95
 0
VERTEX
 8
CILINDRO_7
 10
0
 20
0
 30
0
 70
128
 71
92
 72
93
 73
97
 74
96
 0
VERTEX
 8
CILINDRO_7
 10
0
 20
0
 30
0
 70
128
 71
94
 72
2
 73
98
 74
98
 0
VERTEX
 8
CILINDRO_7
 10
0
 20
0
 30
0
 70
128
 71
1
 72
95
 73
99
 74
99
 0
VERTEX
 8
CILINDRO_7
 10
0
 20
0
 30
0
 70
128
 71
96
 72
97
 73
101
 74
100
 0
VERTEX
 8
CILINDRO_7
 10
0
 20
0
 30
0
 70
128
 71
98
 72
2
 73
102
 74
102
 0
VERTEX
 8
CILINDRO_7
 10
0
 20
0
 30
0
 70
128
 71
1
 72
99
 73
103
 74
103
 0
VERTEX
 8
CILINDRO_7
 10
0
 20
0
 30
0
 70
128
 71
100
 72
101
 73
105
 74
104
 0
VERTEX
 8
CILINDRO_7
 10
0
 20
0
 30
0
 70
128
 71
102
 72
2
 73
106
 74
106
 0
VERTEX
 8
CILINDRO_7
 10
0
 20
0
 30
0
 70
128
 71
1
 72
103
 73
107
 74
107
 0
VERTEX
 8
CILINDRO_7
 10
0
 20
0
 30
0
 70
128
 71
104
 72
105
 73
109
 74
108
 0
VERTEX
 8
CILINDRO_7
 10
0
 20
0
 30
0
 70
128
 71
106
 72
2
 73
110
 74
110
 0
VERTEX
 8
CILINDRO_7
 10
0
 20
0
 30
0
 70
128
 71
1
 72
107
 73
111
 74
111
 0
VERTEX
 8
CILINDRO_7
 10
0
 20
0
 30
0
 70
128
 71
108
 72
109
 73
113
 74
112
 0
VERTEX
 8
CILINDRO_7
 10
0
 20
0
 30
0
 70
128
 71
110
 72
2
 73
114
 74
114
 0
VERTEX
 8
CILINDRO_7
 10
0
 20
0
 30
0
 70
128
 71
1
 72
111
 73
115
 74
115
 0
VERTEX
 8
CILINDRO_7
 10
0
 20
0
 30
0
 70
128
 71
112
 72
113
 73
117
 74
116
 0
VERTEX
 8
CILINDRO_7
 10
0
 20
0
 30
0
 70
128
 71
114
 72
2
 73
118
 74
118
 0
VERTEX
 8
CILINDRO_7
 10
0
 20
0
 30
0
 70
128
 71
1
 72
115
 73
119
 74
119
 0
VERTEX
 8
CILINDRO_7
 10
0
 20
0
 30
0
 70
128
 71
116
 72
117
 73
121
 74
120
 0
VERTEX
 8
CILINDRO_7
 10
0
 20
0
 30
0
 70
128
 71
118
 72
2
 73
122
 74
122
 0
VERTEX
 8
CILINDRO_7
 10
0
 20
0
 30
0
 70
128
 71
1
 72
119
 73
123
 74
123
 0
VERTEX
 8
CILINDRO_7
 10
0
 20
0
 30
0
 70
128
 71
120
 72
121
 73
125
 74
124
 0
VERTEX
 8
CILINDRO_7
 10
0
 20
0
 30
0
 70
128
 71
122
 72
2
 73
126
 74
126
 0
VERTEX
 8
CILINDRO_7
 10
0
 20
0
 30
0
 70
128
 71
1
 72
123
 73
127
 74
127
 0
VERTEX
 8
CILINDRO_7
 10
0
 20
0
 30
0
 70
128
 71
124
 72
125
 73
129
 74
128
 0
VERTEX
 8
CILINDRO_7
 10
0
 20
0
 30
0
 70
128
 71
126
 72
2
 73
130
 74
130
 0
VERTEX
 8
CILINDRO_7
 10
0
 20
0
 30
0
 70
128
 71
1
 72
127
 73
131
 74
131
 0
VERTEX
 8
CILINDRO_7
 10
0
 20
0
 30
0
 70
128
 71
128
 72
129
 73
133
 74
132
 0
VERTEX
 8
CILINDRO_7
 10
0
 20
0
 30
0
 70
128
 71
130
 72
2
 73
134
 74
134
 0
VERTEX
 8
CILINDRO_7
 10
0
 20
0
 30
0
 70
128
 71
1
 72
131
 73
135
 74
135
 0
VERTEX
 8
CILINDRO_7
 10
0
 20
0
 30
0
 70
128
 71
132
 72
133
 73
137
 74
136
 0
VERTEX
 8
CILINDRO_7
 10
0
 20
0
 30
0
 70
128
 71
134
 72
2
 73
138
 74
138
 0
VERTEX
 8
CILINDRO_7
 10
0
 20
0
 30
0
 70
128
 71
1
 72
135
 73
139
 74
139
 0
VERTEX
 8
CILINDRO_7
 10
0
 20
0
 30
0
 70
128
 71
136
 72
137
 73
141
 74
140
 0
VERTEX
 8
CILINDRO_7
 10
0
 20
0
 30
0
 70
128
 71
138
 72
2
 73
142
 74
142
 0
VERTEX
 8
CILINDRO_7
 10
0
 20
0
 30
0
 70
128
 71
1
 72
139
 73
143
 74
143
 0
VERTEX
 8
CILINDRO_7
 10
0
 20
0
 30
0
 70
128
 71
140
 72
141
 73
145
 74
144
 0
VERTEX
 8
CILINDRO_7
 10
0
 20
0
 30
0
 70
128
 71
142
 72
2
 73
146
 74
146
 0
VERTEX
 8
CILINDRO_7
 10
0
 20
0
 30
0
 70
128
 71
1
 72
143
 73
3
 74
3
 0
VERTEX
 8
CILINDRO_7
 10
0
 20
0
 30
0
 70
128
 71
144
 72
145
 73
5
 74
4
 0
VERTEX
 8
CILINDRO_7
 10
0
 20
0
 30
0
 70
128
 71
146
 72
2
 73
6
 74
6
 0
SEQEND
 0
POLYLINE
 8
CILINDRO_6
 66
1
 10
0.0
 20
0.0
 30
0.0
 70
64
 71
290
 72
324
 0
VERTEX
 8
CILINDRO_6
 10
-22.9999
 20
20.3525
 30
0.0004
 70
192
 0
VERTEX
 8
CILINDRO_6
 10
-22.9999
 20
20.3525
 30
1.4997
 70
192
 0
VERTEX
 8
CILINDRO_6
 10
-22.9999
 20
17.3396
 30
1.4997
 70
192
 0
VERTEX
 8
CILINDRO_6
 10
-22.4767
 20
17.3854
 30
1.4997
 70
192
 0
VERTEX
 8
CILINDRO_6
 10
-21.9694
 20
17.5213
 30
1.4997
 70
192
 0
VERTEX
 8
CILINDRO_6
 10
-21.4934
 20
17.7433
 30
1.4997
 70
192
 0
VERTEX
 8
CILINDRO_6
 10
-21.0632
 20
18.0445
 30
1.4997
 70
192
 0
VERTEX
 8
CILINDRO_6
 10
-20.6918
 20
18.4159
 30
1.4997
 70
192
 0
VERTEX
 8
CILINDRO_6
 10
-20.3906
 20
18.8461
 30
1.4997
 70
192
 0
VERTEX
 8
CILINDRO_6
 10
-20.1687
 20
19.3221
 30
1.4997
 70
192
 0
VERTEX
 8
CILINDRO_6
 10
-20.0327
 20
19.8293
 30
1.4997
 70
192
 0
VERTEX
 8
CILINDRO_6
 10
-19.987
 20
20.3525
 30
1.4997
 70
192
 0
VERTEX
 8
CILINDRO_6
 10
-20.0327
 20
20.8757
 30
1.4997
 70
192
 0
VERTEX
 8
CILINDRO_6
 10
-20.1687
 20
21.383
 30
1.4997
 70
192
 0
VERTEX
 8
CILINDRO_6
 10
-20.3906
 20
21.859
 30
1.4997
 70
192
 0
VERTEX
 8
CILINDRO_6
 10
-20.6918
 20
22.2892
 30
1.4997
 70
192
 0
VERTEX
 8
CILINDRO_6
 10
-21.0632
 20
22.6605
 30
1.4997
 70
192
 0
VERTEX
 8
CILINDRO_6
 10
-21.4934
 20
22.9618
 30
1.4997
 70
192
 0
VERTEX
 8
CILINDRO_6
 10
-21.9694
 20
23.1837
 30
1.4997
 70
192
 0
VERTEX
 8
CILINDRO_6
 10
-22.4767
 20
23.3197
 30
1.4997
 70
192
 0
VERTEX
 8
CILINDRO_6
 10
-22.9999
 20
23.3654
 30
1.4997
 70
192
 0
VERTEX
 8
CILINDRO_6
 10
-23.523
 20
23.3197
 30
1.4997
 70
192
 0
VERTEX
 8
CILINDRO_6
 10
-24.0303
 20
23.1837
 30
1.4997
 70
192
 0
VERTEX
 8
CILINDRO_6
 10
-24.5063
 20
22.9618
 30
1.4997
 70
192
 0
VERTEX
 8
CILINDRO_6
 10
-24.9365
 20
22.6605
 30
1.4997
 70
192
 0
VERTEX
 8
CILINDRO_6
 10
-25.3079
 20
22.2892
 30
1.4997
 70
192
 0
VERTEX
 8
CILINDRO_6
 10
-25.6091
 20
21.859
 30
1.4997
 70
192
 0
VERTEX
 8
CILINDRO_6
 10
-25.8311
 20
21.383
 30
1.4997
 70
192
 0
VERTEX
 8
CILINDRO_6
 10
-25.967
 20
20.8757
 30
1.4997
 70
192
 0
VERTEX
 8
CILINDRO_6
 10
-26.0128
 20
20.3525
 30
1.4997
 70
192
 0
VERTEX
 8
CILINDRO_6
 10
-25.967
 20
19.8293
 30
1.4997
 70
192
 0
VERTEX
 8
CILINDRO_6
 10
-25.8311
 20
19.3221
 30
1.4997
 70
192
 0
VERTEX
 8
CILINDRO_6
 10
-25.6091
 20
18.8461
 30
1.4997
 70
192
 0
VERTEX
 8
CILINDRO_6
 10
-25.3079
 20
18.4159
 30
1.4997
 70
192
 0
VERTEX
 8
CILINDRO_6
 10
-24.9365
 20
18.0445
 30
1.4997
 70
192
 0
VERTEX
 8
CILINDRO_6
 10
-24.5063
 20
17.7433
 30
1.4997
 70
192
 0
VERTEX
 8
CILINDRO_6
 10
-24.0303
 20
17.5213
 30
1.4997
 70
192
 0
VERTEX
 8
CILINDRO_6
 10
-23.523
 20
17.3854
 30
1.4997
 70
192
 0
VERTEX
 8
CILINDRO_6
 10
-22.5638
 20
17.8797
 30
0.0004
 70
192
 0
VERTEX
 8
CILINDRO_6
 10
-22.9999
 20
17.3396
 30
0.5004
 70
192
 0
VERTEX
 8
CILINDRO_6
 10
-22.1411
 20
17.993
 30
0.0004
 70
192
 0
VERTEX
 8
CILINDRO_6
 10
-22.4767
 20
17.3854
 30
0.5004
 70
192
 0
VERTEX
 8
CILINDRO_6
 10
-21.7444
 20
18.1779
 30
0.0004
 70
192
 0
VERTEX
 8
CILINDRO_6
 10
-21.9694
 20
17.5213
 30
0.5004
 70
192
 0
VERTEX
 8
CILINDRO_6
 10
-21.3858
 20
18.429
 30
0.0004
 70
192
 0
VERTEX
 8
CILINDRO_6
 10
-21.4934
 20
17.7433
 30
0.5004
 70
192
 0
VERTEX
 8
CILINDRO_6
 10
-21.0763
 20
18.7385
 30
0.0004
 70
192
 0
VERTEX
 8
CILINDRO_6
 10
-21.0632
 20
18.0445
 30
0.5004
 70
192
 0
VERTEX
 8
CILINDRO_6
 10
-20.8253
 20
19.097
 30
0.0004
 70
192
 0
VERTEX
 8
CILINDRO_6
 10
-20.6918
 20
18.4159
 30
0.5004
 70
192
 0
VERTEX
 8
CILINDRO_6
 10
-20.3906
 20
18.8461
 30
0.5004
 70
192
 0
VERTEX
 8
CILINDRO_6
 10
-20.6403
 20
19.4937
 30
0.0004
 70
192
 0
VERTEX
 8
CILINDRO_6
 10
-20.527
 20
19.9165
 30
0.0004
 70
192
 0
VERTEX
 8
CILINDRO_6
 10
-20.1687
 20
19.3221
 30
0.5004
 70
192
 0
VERTEX
 8
CILINDRO_6
 10
-20.0327
 20
19.8293
 30
0.5004
 70
192
 0
VERTEX
 8
CILINDRO_6
 10
-20.4889
 20
20.3525
 30
0.0004
 70
192
 0
VERTEX
 8
CILINDRO_6
 10
-20.527
 20
20.7886
 30
0.0004
 70
192
 0
VERTEX
 8
CILINDRO_6
 10
-19.987
 20
20.3525
 30
0.5004
 70
192
 0
VERTEX
 8
CILINDRO_6
 10
-20.0327
 20
20.8757
 30
0.5004
 70
192
 0
VERTEX
 8
CILINDRO_6
 10
-20.6403
 20
21.2113
 30
0.0004
 70
192
 0
VERTEX
 8
CILINDRO_6
 10
-20.1687
 20
21.383
 30
0.5004
 70
192
 0
VERTEX
 8
CILINDRO_6
 10
-20.8253
 20
21.608
 30
0.0004
 70
192
 0
VERTEX
 8
CILINDRO_6
 10
-21.3858
 20
22.2761
 30
0.0004
 70
192
 0
VERTEX
 8
CILINDRO_6
 10
-21.0763
 20
21.9666
 30
0.0004
 70
192
 0
VERTEX
 8
CILINDRO_6
 10
-20.3906
 20
21.859
 30
0.5004
 70
192
 0
VERTEX
 8
CILINDRO_6
 10
-21.7444
 20
22.5271
 30
0.0004
 70
192
 0
VERTEX
 8
CILINDRO_6
 10
-21.0632
 20
22.6605
 30
0.5004
 70
192
 0
VERTEX
 8
CILINDRO_6
 10
-20.6918
 20
22.2892
 30
0.5004
 70
192
 0
VERTEX
 8
CILINDRO_6
 10
-21.4934
 20
22.9618
 30
0.5004
 70
192
 0
VERTEX
 8
CILINDRO_6
 10
-23.523
 20
17.3854
 30
0.5004
 70
192
 0
VERTEX
 8
CILINDRO_6
 10
-22.1411
 20
22.7121
 30
0.0004
 70
192
 0
VERTEX
 8
CILINDRO_6
 10
-22.9999
 20
17.8415
 30
0.0004
 70
192
 0
VERTEX
 8
CILINDRO_6
 10
-22.9999
 20
22.8635
 30
0.0004
 70
192
 0
VERTEX
 8
CILINDRO_6
 10
-21.9694
 20
23.1837
 30
0.5004
 70
192
 0
VERTEX
 8
CILINDRO_6
 10
-22.5638
 20
22.8254
 30
0.0004
 70
192
 0
VERTEX
 8
CILINDRO_6
 10
-22.9999
 20
23.3654
 30
0.5004
 70
192
 0
VERTEX
 8
CILINDRO_6
 10
-23.4359
 20
22.8254
 30
0.0004
 70
192
 0
VERTEX
 8
CILINDRO_6
 10
-22.4767
 20
23.3197
 30
0.5004
 70
192
 0
VERTEX
 8
CILINDRO_6
 10
-23.523
 20
23.3197
 30
0.5004
 70
192
 0
VERTEX
 8
CILINDRO_6
 10
-23.8587
 20
22.7121
 30
0.0004
 70
192
 0
VERTEX
 8
CILINDRO_6
 10
-24.0303
 20
23.1837
 30
0.5004
 70
192
 0
VERTEX
 8
CILINDRO_6
 10
-24.2554
 20
22.5271
 30
0.0004
 70
192
 0
VERTEX
 8
CILINDRO_6
 10
-24.5063
 20
22.9618
 30
0.5004
 70
192
 0
VERTEX
 8
CILINDRO_6
 10
-24.6139
 20
22.2761
 30
0.0004
 70
192
 0
VERTEX
 8
CILINDRO_6
 10
-24.9365
 20
22.6605
 30
0.5004
 70
192
 0
VERTEX
 8
CILINDRO_6
 10
-24.9234
 20
21.9666
 30
0.0004
 70
192
 0
VERTEX
 8
CILINDRO_6
 10
-25.3079
 20
22.2892
 30
0.5004
 70
192
 0
VERTEX
 8
CILINDRO_6
 10
-25.1744
 20
21.608
 30
0.0004
 70
192
 0
VERTEX
 8
CILINDRO_6
 10
-25.6091
 20
21.859
 30
0.5004
 70
192
 0
VERTEX
 8
CILINDRO_6
 10
-25.3594
 20
21.2113
 30
0.0004
 70
192
 0
VERTEX
 8
CILINDRO_6
 10
-25.8311
 20
21.383
 30
0.5004
 70
192
 0
VERTEX
 8
CILINDRO_6
 10
-25.4727
 20
20.7886
 30
0.0004
 70
192
 0
VERTEX
 8
CILINDRO_6
 10
-25.967
 20
20.8757
 30
0.5004
 70
192
 0
VERTEX
 8
CILINDRO_6
 10
-25.5109
 20
20.3525
 30
0.0004
 70
192
 0
VERTEX
 8
CILINDRO_6
 10
-26.0128
 20
20.3525
 30
0.5004
 70
192
 0
VERTEX
 8
CILINDRO_6
 10
-25.4727
 20
19.9165
 30
0.0004
 70
192
 0
VERTEX
 8
CILINDRO_6
 10
-25.967
 20
19.8293
 30
0.5004
 70
192
 0
VERTEX
 8
CILINDRO_6
 10
-25.3594
 20
19.4937
 30
0.0004
 70
192
 0
VERTEX
 8
CILINDRO_6
 10
-25.8311
 20
19.3221
 30
0.5004
 70
192
 0
VERTEX
 8
CILINDRO_6
 10
-25.1744
 20
19.097
 30
0.0004
 70
192
 0
VERTEX
 8
CILINDRO_6
 10
-25.6091
 20
18.8461
 30
0.5004
 70
192
 0
VERTEX
 8
CILINDRO_6
 10
-24.9234
 20
18.7385
 30
0.0004
 70
192
 0
VERTEX
 8
CILINDRO_6
 10
-25.3079
 20
18.4159
 30
0.5004
 70
192
 0
VERTEX
 8
CILINDRO_6
 10
-24.6139
 20
18.429
 30
0.0004
 70
192
 0
VERTEX
 8
CILINDRO_6
 10
-24.9365
 20
18.0445
 30
0.5004
 70
192
 0
VERTEX
 8
CILINDRO_6
 10
-24.2554
 20
18.1779
 30
0.0004
 70
192
 0
VERTEX
 8
CILINDRO_6
 10
-24.5063
 20
17.7433
 30
0.5004
 70
192
 0
VERTEX
 8
CILINDRO_6
 10
-23.8587
 20
17.993
 30
0.0004
 70
192
 0
VERTEX
 8
CILINDRO_6
 10
-24.0303
 20
17.5213
 30
0.5004
 70
192
 0
VERTEX
 8
CILINDRO_6
 10
-23.4359
 20
17.8797
 30
0.0004
 70
192
 0
VERTEX
 8
CILINDRO_6
 10
-24.0251
 20
17.5356
 30
0.3784
 70
192
 0
VERTEX
 8
CILINDRO_6
 10
-24.0084
 20
17.5816
 30
0.2559
 70
192
 0
VERTEX
 8
CILINDRO_6
 10
-23.9801
 20
17.6595
 30
0.1469
 70
192
 0
VERTEX
 8
CILINDRO_6
 10
-23.9426
 20
17.7623
 30
0.0643
 70
192
 0
VERTEX
 8
CILINDRO_6
 10
-23.9006
 20
17.8779
 30
0.0156
 70
192
 0
VERTEX
 8
CILINDRO_6
 10
-22.9999
 20
17.719
 30
0.0156
 70
192
 0
VERTEX
 8
CILINDRO_6
 10
-22.9999
 20
17.5961
 30
0.0643
 70
192
 0
VERTEX
 8
CILINDRO_6
 10
-22.9999
 20
17.4866
 30
0.1469
 70
192
 0
VERTEX
 8
CILINDRO_6
 10
-22.9999
 20
17.4037
 30
0.2559
 70
192
 0
VERTEX
 8
CILINDRO_6
 10
-22.9999
 20
17.3548
 30
0.3784
 70
192
 0
VERTEX
 8
CILINDRO_6
 10
-25.2963
 20
18.4256
 30
0.3784
 70
192
 0
VERTEX
 8
CILINDRO_6
 10
-25.2588
 20
18.4571
 30
0.2559
 70
192
 0
VERTEX
 8
CILINDRO_6
 10
-25.1953
 20
18.5104
 30
0.1469
 70
192
 0
VERTEX
 8
CILINDRO_6
 10
-25.1114
 20
18.5807
 30
0.0643
 70
192
 0
VERTEX
 8
CILINDRO_6
 10
-25.0172
 20
18.6598
 30
0.0156
 70
192
 0
VERTEX
 8
CILINDRO_6
 10
-22.5426
 20
17.7591
 30
0.0156
 70
192
 0
VERTEX
 8
CILINDRO_6
 10
-22.5212
 20
17.638
 30
0.0643
 70
192
 0
VERTEX
 8
CILINDRO_6
 10
-22.5022
 20
17.5302
 30
0.1469
 70
192
 0
VERTEX
 8
CILINDRO_6
 10
-22.4878
 20
17.4485
 30
0.2559
 70
192
 0
VERTEX
 8
CILINDRO_6
 10
-22.4793
 20
17.4003
 30
0.3784
 70
192
 0
VERTEX
 8
CILINDRO_6
 10
-24.9268
 20
18.0561
 30
0.3784
 70
192
 0
VERTEX
 8
CILINDRO_6
 10
-24.8953
 20
18.0936
 30
0.2559
 70
192
 0
VERTEX
 8
CILINDRO_6
 10
-24.842
 20
18.1571
 30
0.1469
 70
192
 0
VERTEX
 8
CILINDRO_6
 10
-24.7717
 20
18.241
 30
0.0643
 70
192
 0
VERTEX
 8
CILINDRO_6
 10
-24.6926
 20
18.3352
 30
0.0156
 70
192
 0
VERTEX
 8
CILINDRO_6
 10
-22.0992
 20
17.8779
 30
0.0156
 70
192
 0
VERTEX
 8
CILINDRO_6
 10
-22.0571
 20
17.7623
 30
0.0643
 70
192
 0
VERTEX
 8
CILINDRO_6
 10
-22.0197
 20
17.6595
 30
0.1469
 70
192
 0
VERTEX
 8
CILINDRO_6
 10
-21.9913
 20
17.5816
 30
0.2559
 70
192
 0
VERTEX
 8
CILINDRO_6
 10
-21.9746
 20
17.5356
 30
0.3784
 70
192
 0
VERTEX
 8
CILINDRO_6
 10
-21.6831
 20
18.0719
 30
0.0156
 70
192
 0
VERTEX
 8
CILINDRO_6
 10
-21.6216
 20
17.9654
 30
0.0643
 70
192
 0
VERTEX
 8
CILINDRO_6
 10
-21.5669
 20
17.8706
 30
0.1469
 70
192
 0
VERTEX
 8
CILINDRO_6
 10
-21.5255
 20
17.7988
 30
0.2559
 70
192
 0
VERTEX
 8
CILINDRO_6
 10
-21.501
 20
17.7564
 30
0.3784
 70
192
 0
VERTEX
 8
CILINDRO_6
 10
-21.3071
 20
18.3352
 30
0.0156
 70
192
 0
VERTEX
 8
CILINDRO_6
 10
-21.2281
 20
18.241
 30
0.0643
 70
192
 0
VERTEX
 8
CILINDRO_6
 10
-21.1577
 20
18.1571
 30
0.1469
 70
192
 0
VERTEX
 8
CILINDRO_6
 10
-21.1044
 20
18.0936
 30
0.2559
 70
192
 0
VERTEX
 8
CILINDRO_6
 10
-21.073
 20
18.0561
 30
0.3784
 70
192
 0
VERTEX
 8
CILINDRO_6
 10
-23.5204
 20
17.4003
 30
0.3784
 70
192
 0
VERTEX
 8
CILINDRO_6
 10
-23.5119
 20
17.4485
 30
0.2559
 70
192
 0
VERTEX
 8
CILINDRO_6
 10
-23.4975
 20
17.5302
 30
0.1469
 70
192
 0
VERTEX
 8
CILINDRO_6
 10
-23.4785
 20
17.638
 30
0.0643
 70
192
 0
VERTEX
 8
CILINDRO_6
 10
-23.4572
 20
17.7591
 30
0.0156
 70
192
 0
VERTEX
 8
CILINDRO_6
 10
-20.9825
 20
18.6598
 30
0.0156
 70
192
 0
VERTEX
 8
CILINDRO_6
 10
-20.8883
 20
18.5807
 30
0.0643
 70
192
 0
VERTEX
 8
CILINDRO_6
 10
-20.8045
 20
18.5104
 30
0.1469
 70
192
 0
VERTEX
 8
CILINDRO_6
 10
-20.741
 20
18.4571
 30
0.2559
 70
192
 0
VERTEX
 8
CILINDRO_6
 10
-20.7035
 20
18.4256
 30
0.3784
 70
192
 0
VERTEX
 8
CILINDRO_6
 10
-20.7192
 20
19.0358
 30
0.0156
 70
192
 0
VERTEX
 8
CILINDRO_6
 10
-20.6127
 20
18.9743
 30
0.0643
 70
192
 0
VERTEX
 8
CILINDRO_6
 10
-20.5179
 20
18.9196
 30
0.1469
 70
192
 0
VERTEX
 8
CILINDRO_6
 10
-20.4461
 20
18.8781
 30
0.2559
 70
192
 0
VERTEX
 8
CILINDRO_6
 10
-20.4038
 20
18.8537
 30
0.3784
 70
192
 0
VERTEX
 8
CILINDRO_6
 10
-20.1829
 20
19.3272
 30
0.3784
 70
192
 0
VERTEX
 8
CILINDRO_6
 10
-20.2289
 20
19.344
 30
0.2559
 70
192
 0
VERTEX
 8
CILINDRO_6
 10
-20.3068
 20
19.3723
 30
0.1469
 70
192
 0
VERTEX
 8
CILINDRO_6
 10
-20.4097
 20
19.4098
 30
0.0643
 70
192
 0
VERTEX
 8
CILINDRO_6
 10
-20.5252
 20
19.4518
 30
0.0156
 70
192
 0
VERTEX
 8
CILINDRO_6
 10
-20.4064
 20
19.8952
 30
0.0156
 70
192
 0
VERTEX
 8
CILINDRO_6
 10
-20.2853
 20
19.8739
 30
0.0643
 70
192
 0
VERTEX
 8
CILINDRO_6
 10
-20.1775
 20
19.8549
 30
0.1469
 70
192
 0
VERTEX
 8
CILINDRO_6
 10
-20.0959
 20
19.8405
 30
0.2559
 70
192
 0
VERTEX
 8
CILINDRO_6
 10
-20.0477
 20
19.832
 30
0.3784
 70
192
 0
VERTEX
 8
CILINDRO_6
 10
-20.0021
 20
20.3525
 30
0.3784
 70
192
 0
VERTEX
 8
CILINDRO_6
 10
-20.0511
 20
20.3525
 30
0.2559
 70
192
 0
VERTEX
 8
CILINDRO_6
 10
-20.134
 20
20.3525
 30
0.1469
 70
192
 0
VERTEX
 8
CILINDRO_6
 10
-20.2434
 20
20.3525
 30
0.0643
 70
192
 0
VERTEX
 8
CILINDRO_6
 10
-20.3664
 20
20.3525
 30
0.0156
 70
192
 0
VERTEX
 8
CILINDRO_6
 10
-20.4064
 20
20.8098
 30
0.0156
 70
192
 0
VERTEX
 8
CILINDRO_6
 10
-20.2853
 20
20.8312
 30
0.0643
 70
192
 0
VERTEX
 8
CILINDRO_6
 10
-20.1775
 20
20.8502
 30
0.1469
 70
192
 0
VERTEX
 8
CILINDRO_6
 10
-20.0959
 20
20.8646
 30
0.2559
 70
192
 0
VERTEX
 8
CILINDRO_6
 10
-20.0477
 20
20.8731
 30
0.3784
 70
192
 0
VERTEX
 8
CILINDRO_6
 10
-20.1829
 20
21.3778
 30
0.3784
 70
192
 0
VERTEX
 8
CILINDRO_6
 10
-20.2289
 20
21.3611
 30
0.2559
 70
192
 0
VERTEX
 8
CILINDRO_6
 10
-20.3068
 20
21.3327
 30
0.1469
 70
192
 0
VERTEX
 8
CILINDRO_6
 10
-20.4097
 20
21.2953
 30
0.0643
 70
192
 0
VERTEX
 8
CILINDRO_6
 10
-20.5252
 20
21.2532
 30
0.0156
 70
192
 0
VERTEX
 8
CILINDRO_6
 10
-20.4038
 20
21.8514
 30
0.3784
 70
192
 0
VERTEX
 8
CILINDRO_6
 10
-20.4461
 20
21.8269
 30
0.2559
 70
192
 0
VERTEX
 8
CILINDRO_6
 10
-20.5179
 20
21.7855
 30
0.1469
 70
192
 0
VERTEX
 8
CILINDRO_6
 10
-20.6127
 20
21.7308
 30
0.0643
 70
192
 0
VERTEX
 8
CILINDRO_6
 10
-20.7192
 20
21.6693
 30
0.0156
 70
192
 0
VERTEX
 8
CILINDRO_6
 10
-20.9825
 20
22.0453
 30
0.0156
 70
192
 0
VERTEX
 8
CILINDRO_6
 10
-20.8883
 20
22.1243
 30
0.0643
 70
192
 0
VERTEX
 8
CILINDRO_6
 10
-20.8045
 20
22.1947
 30
0.1469
 70
192
 0
VERTEX
 8
CILINDRO_6
 10
-20.741
 20
22.248
 30
0.2559
 70
192
 0
VERTEX
 8
CILINDRO_6
 10
-20.7035
 20
22.2794
 30
0.3784
 70
192
 0
VERTEX
 8
CILINDRO_6
 10
-21.3071
 20
22.3699
 30
0.0156
 70
192
 0
VERTEX
 8
CILINDRO_6
 10
-21.2281
 20
22.4641
 30
0.0643
 70
192
 0
VERTEX
 8
CILINDRO_6
 10
-21.1577
 20
22.5479
 30
0.1469
 70
192
 0
VERTEX
 8
CILINDRO_6
 10
-21.1044
 20
22.6114
 30
0.2559
 70
192
 0
VERTEX
 8
CILINDRO_6
 10
-21.073
 20
22.6489
 30
0.3784
 70
192
 0
VERTEX
 8
CILINDRO_6
 10
-21.6831
 20
22.6332
 30
0.0156
 70
192
 0
VERTEX
 8
CILINDRO_6
 10
-21.6216
 20
22.7397
 30
0.0643
 70
192
 0
VERTEX
 8
CILINDRO_6
 10
-21.5669
 20
22.8345
 30
0.1469
 70
192
 0
VERTEX
 8
CILINDRO_6
 10
-21.5255
 20
22.9063
 30
0.2559
 70
192
 0
VERTEX
 8
CILINDRO_6
 10
-21.501
 20
22.9486
 30
0.3784
 70
192
 0
VERTEX
 8
CILINDRO_6
 10
-21.9746
 20
23.1695
 30
0.3784
 70
192
 0
VERTEX
 8
CILINDRO_6
 10
-21.9913
 20
23.1235
 30
0.2559
 70
192
 0
VERTEX
 8
CILINDRO_6
 10
-22.0197
 20
23.0456
 30
0.1469
 70
192
 0
VERTEX
 8
CILINDRO_6
 10
-22.0571
 20
22.9427
 30
0.0643
 70
192
 0
VERTEX
 8
CILINDRO_6
 10
-22.0992
 20
22.8272
 30
0.0156
 70
192
 0
VERTEX
 8
CILINDRO_6
 10
-22.5426
 20
22.946
 30
0.0156
 70
192
 0
VERTEX
 8
CILINDRO_6
 10
-22.5212
 20
23.0671
 30
0.0643
 70
192
 0
VERTEX
 8
CILINDRO_6
 10
-22.5022
 20
23.1749
 30
0.1469
 70
192
 0
VERTEX
 8
CILINDRO_6
 10
-22.4878
 20
23.2565
 30
0.2559
 70
192
 0
VERTEX
 8
CILINDRO_6
 10
-22.4793
 20
23.3047
 30
0.3784
 70
192
 0
VERTEX
 8
CILINDRO_6
 10
-22.9999
 20
22.986
 30
0.0156
 70
192
 0
VERTEX
 8
CILINDRO_6
 10
-22.9999
 20
23.109
 30
0.0643
 70
192
 0
VERTEX
 8
CILINDRO_6
 10
-22.9999
 20
23.2184
 30
0.1469
 70
192
 0
VERTEX
 8
CILINDRO_6
 10
-22.9999
 20
23.3013
 30
0.2559
 70
192
 0
VERTEX
 8
CILINDRO_6
 10
-22.9999
 20
23.3503
 30
0.3784
 70
192
 0
VERTEX
 8
CILINDRO_6
 10
-23.5204
 20
23.3047
 30
0.3784
 70
192
 0
VERTEX
 8
CILINDRO_6
 10
-23.5119
 20
23.2565
 30
0.2559
 70
192
 0
VERTEX
 8
CILINDRO_6
 10
-23.4975
 20
23.1749
 30
0.1469
 70
192
 0
VERTEX
 8
CILINDRO_6
 10
-23.4785
 20
23.0671
 30
0.0643
 70
192
 0
VERTEX
 8
CILINDRO_6
 10
-23.4572
 20
22.946
 30
0.0156
 70
192
 0
VERTEX
 8
CILINDRO_6
 10
-24.0251
 20
23.1695
 30
0.3784
 70
192
 0
VERTEX
 8
CILINDRO_6
 10
-24.0084
 20
23.1235
 30
0.2559
 70
192
 0
VERTEX
 8
CILINDRO_6
 10
-23.9801
 20
23.0456
 30
0.1469
 70
192
 0
VERTEX
 8
CILINDRO_6
 10
-23.9426
 20
22.9427
 30
0.0643
 70
192
 0
VERTEX
 8
CILINDRO_6
 10
-23.9006
 20
22.8272
 30
0.0156
 70
192
 0
VERTEX
 8
CILINDRO_6
 10
-24.4987
 20
22.9486
 30
0.3784
 70
192
 0
VERTEX
 8
CILINDRO_6
 10
-24.4743
 20
22.9063
 30
0.2559
 70
192
 0
VERTEX
 8
CILINDRO_6
 10
-24.4328
 20
22.8345
 30
0.1469
 70
192
 0
VERTEX
 8
CILINDRO_6
 10
-24.3781
 20
22.7397
 30
0.0643
 70
192
 0
VERTEX
 8
CILINDRO_6
 10
-24.3166
 20
22.6332
 30
0.0156
 70
192
 0
VERTEX
 8
CILINDRO_6
 10
-24.9268
 20
22.6489
 30
0.3784
 70
192
 0
VERTEX
 8
CILINDRO_6
 10
-24.8953
 20
22.6114
 30
0.2559
 70
192
 0
VERTEX
 8
CILINDRO_6
 10
-24.842
 20
22.5479
 30
0.1469
 70
192
 0
VERTEX
 8
CILINDRO_6
 10
-24.7717
 20
22.4641
 30
0.0643
 70
192
 0
VERTEX
 8
CILINDRO_6
 10
-24.6926
 20
22.3699
 30
0.0156
 70
192
 0
VERTEX
 8
CILINDRO_6
 10
-25.2963
 20
22.2794
 30
0.3784
 70
192
 0
VERTEX
 8
CILINDRO_6
 10
-25.2588
 20
22.248
 30
0.2559
 70
192
 0
VERTEX
 8
CILINDRO_6
 10
-25.1953
 20
22.1947
 30
0.1469
 70
192
 0
VERTEX
 8
CILINDRO_6
 10
-25.1114
 20
22.1243
 30
0.0643
 70
192
 0
VERTEX
 8
CILINDRO_6
 10
-25.0172
 20
22.0453
 30
0.0156
 70
192
 0
VERTEX
 8
CILINDRO_6
 10
-25.596
 20
21.8514
 30
0.3784
 70
192
 0
VERTEX
 8
CILINDRO_6
 10
-25.5536
 20
21.8269
 30
0.2559
 70
192
 0
VERTEX
 8
CILINDRO_6
 10
-25.4818
 20
21.7855
 30
0.1469
 70
192
 0
VERTEX
 8
CILINDRO_6
 10
-25.387
 20
21.7308
 30
0.0643
 70
192
 0
VERTEX
 8
CILINDRO_6
 10
-25.2805
 20
21.6693
 30
0.0156
 70
192
 0
VERTEX
 8
CILINDRO_6
 10
-25.8168
 20
21.3778
 30
0.3784
 70
192
 0
VERTEX
 8
CILINDRO_6
 10
-25.7708
 20
21.3611
 30
0.2559
 70
192
 0
VERTEX
 8
CILINDRO_6
 10
-25.6929
 20
21.3327
 30
0.1469
 70
192
 0
VERTEX
 8
CILINDRO_6
 10
-25.5901
 20
21.2953
 30
0.0643
 70
192
 0
VERTEX
 8
CILINDRO_6
 10
-25.4745
 20
21.2532
 30
0.0156
 70
192
 0
VERTEX
 8
CILINDRO_6
 10
-25.952
 20
20.8731
 30
0.3784
 70
192
 0
VERTEX
 8
CILINDRO_6
 10
-25.9039
 20
20.8646
 30
0.2559
 70
192
 0
VERTEX
 8
CILINDRO_6
 10
-25.8222
 20
20.8502
 30
0.1469
 70
192
 0
VERTEX
 8
CILINDRO_6
 10
-25.7144
 20
20.8312
 30
0.0643
 70
192
 0
VERTEX
 8
CILINDRO_6
 10
-25.5933
 20
20.8098
 30
0.0156
 70
192
 0
VERTEX
 8
CILINDRO_6
 10
-25.9976
 20
20.3525
 30
0.3784
 70
192
 0
VERTEX
 8
CILINDRO_6
 10
-25.9487
 20
20.3525
 30
0.2559
 70
192
 0
VERTEX
 8
CILINDRO_6
 10
-25.8658
 20
20.3525
 30
0.1469
 70
192
 0
VERTEX
 8
CILINDRO_6
 10
-25.7563
 20
20.3525
 30
0.0643
 70
192
 0
VERTEX
 8
CILINDRO_6
 10
-25.6333
 20
20.3525
 30
0.0156
 70
192
 0
VERTEX
 8
CILINDRO_6
 10
-25.952
 20
19.832
 30
0.3784
 70
192
 0
VERTEX
 8
CILINDRO_6
 10
-25.9039
 20
19.8405
 30
0.2559
 70
192
 0
VERTEX
 8
CILINDRO_6
 10
-25.8222
 20
19.8549
 30
0.1469
 70
192
 0
VERTEX
 8
CILINDRO_6
 10
-25.7144
 20
19.8739
 30
0.0643
 70
192
 0
VERTEX
 8
CILINDRO_6
 10
-25.5933
 20
19.8952
 30
0.0156
 70
192
 0
VERTEX
 8
CILINDRO_6
 10
-25.8168
 20
19.3272
 30
0.3784
 70
192
 0
VERTEX
 8
CILINDRO_6
 10
-25.7708
 20
19.344
 30
0.2559
 70
192
 0
VERTEX
 8
CILINDRO_6
 10
-25.6929
 20
19.3723
 30
0.1469
 70
192
 0
VERTEX
 8
CILINDRO_6
 10
-25.5901
 20
19.4098
 30
0.0643
 70
192
 0
VERTEX
 8
CILINDRO_6
 10
-25.4745
 20
19.4518
 30
0.0156
 70
192
 0
VERTEX
 8
CILINDRO_6
 10
-25.596
 20
18.8537
 30
0.3784
 70
192
 0
VERTEX
 8
CILINDRO_6
 10
-25.5536
 20
18.8781
 30
0.2559
 70
192
 0
VERTEX
 8
CILINDRO_6
 10
-25.4818
 20
18.9196
 30
0.1469
 70
192
 0
VERTEX
 8
CILINDRO_6
 10
-25.387
 20
18.9743
 30
0.0643
 70
192
 0
VERTEX
 8
CILINDRO_6
 10
-25.2805
 20
19.0358
 30
0.0156
 70
192
 0
VERTEX
 8
CILINDRO_6
 10
-24.4987
 20
17.7564
 30
0.3784
 70
192
 0
VERTEX
 8
CILINDRO_6
 10
-24.4743
 20
17.7988
 30
0.2559
 70
192
 0
VERTEX
 8
CILINDRO_6
 10
-24.4328
 20
17.8706
 30
0.1469
 70
192
 0
VERTEX
 8
CILINDRO_6
 10
-24.3781
 20
17.9654
 30
0.0643
 70
192
 0
VERTEX
 8
CILINDRO_6
 10
-24.3166
 20
18.0719
 30
0.0156
 70
192
 0
VERTEX
 8
CILINDRO_6
 10
0
 20
0
 30
0
 70
128
 71
1
 72
72
 73
39
 74
39
 0
VERTEX
 8
CILINDRO_6
 10
0
 20
0
 30
0
 70
128
 71
40
 72
3
 73
4
 74
42
 0
VERTEX
 8
CILINDRO_6
 10
0
 20
0
 30
0
 70
128
 71
3
 72
2
 73
4
 74
4
 0
VERTEX
 8
CILINDRO_6
 10
0
 20
0
 30
0
 70
128
 71
1
 72
39
 73
41
 74
41
 0
VERTEX
 8
CILINDRO_6
 10
0
 20
0
 30
0
 70
128
 71
42
 72
4
 73
5
 74
44
 0
VERTEX
 8
CILINDRO_6
 10
0
 20
0
 30
0
 70
128
 71
4
 72
2
 73
5
 74
5
 0
VERTEX
 8
CILINDRO_6
 10
0
 20
0
 30
0
 70
128
 71
1
 72
41
 73
43
 74
43
 0
VERTEX
 8
CILINDRO_6
 10
0
 20
0
 30
0
 70
128
 71
44
 72
5
 73
6
 74
46
 0
VERTEX
 8
CILINDRO_6
 10
0
 20
0
 30
0
 70
128
 71
5
 72
2
 73
6
 74
6
 0
VERTEX
 8
CILINDRO_6
 10
0
 20
0
 30
0
 70
128
 71
1
 72
43
 73
45
 74
45
 0
VERTEX
 8
CILINDRO_6
 10
0
 20
0
 30
0
 70
128
 71
46
 72
6
 73
7
 74
48
 0
VERTEX
 8
CILINDRO_6
 10
0
 20
0
 30
0
 70
128
 71
6
 72
2
 73
7
 74
7
 0
VERTEX
 8
CILINDRO_6
 10
0
 20
0
 30
0
 70
128
 71
1
 72
45
 73
47
 74
47
 0
VERTEX
 8
CILINDRO_6
 10
0
 20
0
 30
0
 70
128
 71
48
 72
7
 73
8
 74
50
 0
VERTEX
 8
CILINDRO_6
 10
0
 20
0
 30
0
 70
128
 71
7
 72
2
 73
8
 74
8
 0
VERTEX
 8
CILINDRO_6
 10
0
 20
0
 30
0
 70
128
 71
1
 72
47
 73
49
 74
49
 0
VERTEX
 8
CILINDRO_6
 10
0
 20
0
 30
0
 70
128
 71
50
 72
8
 73
9
 74
51
 0
VERTEX
 8
CILINDRO_6
 10
0
 20
0
 30
0
 70
128
 71
8
 72
2
 73
9
 74
9
 0
VERTEX
 8
CILINDRO_6
 10
0
 20
0
 30
0
 70
128
 71
1
 72
49
 73
52
 74
52
 0
VERTEX
 8
CILINDRO_6
 10
0
 20
0
 30
0
 70
128
 71
51
 72
9
 73
10
 74
54
 0
VERTEX
 8
CILINDRO_6
 10
0
 20
0
 30
0
 70
128
 71
9
 72
2
 73
10
 74
10
 0
VERTEX
 8
CILINDRO_6
 10
0
 20
0
 30
0
 70
128
 71
1
 72
52
 73
53
 74
53
 0
VERTEX
 8
CILINDRO_6
 10
0
 20
0
 30
0
 70
128
 71
54
 72
10
 73
11
 74
55
 0
VERTEX
 8
CILINDRO_6
 10
0
 20
0
 30
0
 70
128
 71
10
 72
2
 73
11
 74
11
 0
VERTEX
 8
CILINDRO_6
 10
0
 20
0
 30
0
 70
128
 71
1
 72
53
 73
56
 74
56
 0
VERTEX
 8
CILINDRO_6
 10
0
 20
0
 30
0
 70
128
 71
55
 72
11
 73
12
 74
58
 0
VERTEX
 8
CILINDRO_6
 10
0
 20
0
 30
0
 70
128
 71
11
 72
2
 73
12
 74
12
 0
VERTEX
 8
CILINDRO_6
 10
0
 20
0
 30
0
 70
128
 71
1
 72
56
 73
57
 74
57
 0
VERTEX
 8
CILINDRO_6
 10
0
 20
0
 30
0
 70
128
 71
58
 72
12
 73
13
 74
59
 0
VERTEX
 8
CILINDRO_6
 10
0
 20
0
 30
0
 70
128
 71
12
 72
2
 73
13
 74
13
 0
VERTEX
 8
CILINDRO_6
 10
0
 20
0
 30
0
 70
128
 71
1
 72
57
 73
60
 74
60
 0
VERTEX
 8
CILINDRO_6
 10
0
 20
0
 30
0
 70
128
 71
59
 72
13
 73
14
 74
61
 0
VERTEX
 8
CILINDRO_6
 10
0
 20
0
 30
0
 70
128
 71
13
 72
2
 73
14
 74
14
 0
VERTEX
 8
CILINDRO_6
 10
0
 20
0
 30
0
 70
128
 71
1
 72
60
 73
62
 74
62
 0
VERTEX
 8
CILINDRO_6
 10
0
 20
0
 30
0
 70
128
 71
61
 72
14
 73
15
 74
65
 0
VERTEX
 8
CILINDRO_6
 10
0
 20
0
 30
0
 70
128
 71
14
 72
2
 73
15
 74
15
 0
VERTEX
 8
CILINDRO_6
 10
0
 20
0
 30
0
 70
128
 71
1
 72
62
 73
64
 74
64
 0
VERTEX
 8
CILINDRO_6
 10
0
 20
0
 30
0
 70
128
 71
65
 72
15
 73
16
 74
68
 0
VERTEX
 8
CILINDRO_6
 10
0
 20
0
 30
0
 70
128
 71
15
 72
2
 73
16
 74
16
 0
VERTEX
 8
CILINDRO_6
 10
0
 20
0
 30
0
 70
128
 71
1
 72
64
 73
63
 74
63
 0
VERTEX
 8
CILINDRO_6
 10
0
 20
0
 30
0
 70
128
 71
68
 72
16
 73
17
 74
67
 0
VERTEX
 8
CILINDRO_6
 10
0
 20
0
 30
0
 70
128
 71
16
 72
2
 73
17
 74
17
 0
VERTEX
 8
CILINDRO_6
 10
0
 20
0
 30
0
 70
128
 71
1
 72
63
 73
66
 74
66
 0
VERTEX
 8
CILINDRO_6
 10
0
 20
0
 30
0
 70
128
 71
67
 72
17
 73
18
 74
69
 0
VERTEX
 8
CILINDRO_6
 10
0
 20
0
 30
0
 70
128
 71
17
 72
2
 73
18
 74
18
 0
VERTEX
 8
CILINDRO_6
 10
0
 20
0
 30
0
 70
128
 71
1
 72
66
 73
71
 74
71
 0
VERTEX
 8
CILINDRO_6
 10
0
 20
0
 30
0
 70
128
 71
69
 72
18
 73
19
 74
74
 0
VERTEX
 8
CILINDRO_6
 10
0
 20
0
 30
0
 70
128
 71
18
 72
2
 73
19
 74
19
 0
VERTEX
 8
CILINDRO_6
 10
0
 20
0
 30
0
 70
128
 71
1
 72
71
 73
75
 74
75
 0
VERTEX
 8
CILINDRO_6
 10
0
 20
0
 30
0
 70
128
 71
74
 72
19
 73
20
 74
78
 0
VERTEX
 8
CILINDRO_6
 10
0
 20
0
 30
0
 70
128
 71
19
 72
2
 73
20
 74
20
 0
VERTEX
 8
CILINDRO_6
 10
0
 20
0
 30
0
 70
128
 71
1
 72
75
 73
73
 74
73
 0
VERTEX
 8
CILINDRO_6
 10
0
 20
0
 30
0
 70
128
 71
78
 72
20
 73
21
 74
76
 0
VERTEX
 8
CILINDRO_6
 10
0
 20
0
 30
0
 70
128
 71
20
 72
2
 73
21
 74
21
 0
VERTEX
 8
CILINDRO_6
 10
0
 20
0
 30
0
 70
128
 71
1
 72
73
 73
77
 74
77
 0
VERTEX
 8
CILINDRO_6
 10
0
 20
0
 30
0
 70
128
 71
76
 72
21
 73
22
 74
79
 0
VERTEX
 8
CILINDRO_6
 10
0
 20
0
 30
0
 70
128
 71
21
 72
2
 73
22
 74
22
 0
VERTEX
 8
CILINDRO_6
 10
0
 20
0
 30
0
 70
128
 71
1
 72
77
 73
80
 74
80
 0
VERTEX
 8
CILINDRO_6
 10
0
 20
0
 30
0
 70
128
 71
79
 72
22
 73
23
 74
81
 0
VERTEX
 8
CILINDRO_6
 10
0
 20
0
 30
0
 70
128
 71
22
 72
2
 73
23
 74
23
 0
VERTEX
 8
CILINDRO_6
 10
0
 20
0
 30
0
 70
128
 71
1
 72
80
 73
82
 74
82
 0
VERTEX
 8
CILINDRO_6
 10
0
 20
0
 30
0
 70
128
 71
81
 72
23
 73
24
 74
83
 0
VERTEX
 8
CILINDRO_6
 10
0
 20
0
 30
0
 70
128
 71
23
 72
2
 73
24
 74
24
 0
VERTEX
 8
CILINDRO_6
 10
0
 20
0
 30
0
 70
128
 71
1
 72
82
 73
84
 74
84
 0
VERTEX
 8
CILINDRO_6
 10
0
 20
0
 30
0
 70
128
 71
83
 72
24
 73
25
 74
85
 0
VERTEX
 8
CILINDRO_6
 10
0
 20
0
 30
0
 70
128
 71
24
 72
2
 73
25
 74
25
 0
VERTEX
 8
CILINDRO_6
 10
0
 20
0
 30
0
 70
128
 71
1
 72
84
 73
86
 74
86
 0
VERTEX
 8
CILINDRO_6
 10
0
 20
0
 30
0
 70
128
 71
85
 72
25
 73
26
 74
87
 0
VERTEX
 8
CILINDRO_6
 10
0
 20
0
 30
0
 70
128
 71
25
 72
2
 73
26
 74
26
 0
VERTEX
 8
CILINDRO_6
 10
0
 20
0
 30
0
 70
128
 71
1
 72
86
 73
88
 74
88
 0
VERTEX
 8
CILINDRO_6
 10
0
 20
0
 30
0
 70
128
 71
87
 72
26
 73
27
 74
89
 0
VERTEX
 8
CILINDRO_6
 10
0
 20
0
 30
0
 70
128
 71
26
 72
2
 73
27
 74
27
 0
VERTEX
 8
CILINDRO_6
 10
0
 20
0
 30
0
 70
128
 71
1
 72
88
 73
90
 74
90
 0
VERTEX
 8
CILINDRO_6
 10
0
 20
0
 30
0
 70
128
 71
89
 72
27
 73
28
 74
91
 0
VERTEX
 8
CILINDRO_6
 10
0
 20
0
 30
0
 70
128
 71
27
 72
2
 73
28
 74
28
 0
VERTEX
 8
CILINDRO_6
 10
0
 20
0
 30
0
 70
128
 71
1
 72
90
 73
92
 74
92
 0
VERTEX
 8
CILINDRO_6
 10
0
 20
0
 30
0
 70
128
 71
91
 72
28
 73
29
 74
93
 0
VERTEX
 8
CILINDRO_6
 10
0
 20
0
 30
0
 70
128
 71
28
 72
2
 73
29
 74
29
 0
VERTEX
 8
CILINDRO_6
 10
0
 20
0
 30
0
 70
128
 71
1
 72
92
 73
94
 74
94
 0
VERTEX
 8
CILINDRO_6
 10
0
 20
0
 30
0
 70
128
 71
93
 72
29
 73
30
 74
95
 0
VERTEX
 8
CILINDRO_6
 10
0
 20
0
 30
0
 70
128
 71
29
 72
2
 73
30
 74
30
 0
VERTEX
 8
CILINDRO_6
 10
0
 20
0
 30
0
 70
128
 71
1
 72
94
 73
96
 74
96
 0
VERTEX
 8
CILINDRO_6
 10
0
 20
0
 30
0
 70
128
 71
95
 72
30
 73
31
 74
97
 0
VERTEX
 8
CILINDRO_6
 10
0
 20
0
 30
0
 70
128
 71
30
 72
2
 73
31
 74
31
 0
VERTEX
 8
CILINDRO_6
 10
0
 20
0
 30
0
 70
128
 71
1
 72
96
 73
98
 74
98
 0
VERTEX
 8
CILINDRO_6
 10
0
 20
0
 30
0
 70
128
 71
97
 72
31
 73
32
 74
99
 0
VERTEX
 8
CILINDRO_6
 10
0
 20
0
 30
0
 70
128
 71
31
 72
2
 73
32
 74
32
 0
VERTEX
 8
CILINDRO_6
 10
0
 20
0
 30
0
 70
128
 71
1
 72
98
 73
100
 74
100
 0
VERTEX
 8
CILINDRO_6
 10
0
 20
0
 30
0
 70
128
 71
99
 72
32
 73
33
 74
101
 0
VERTEX
 8
CILINDRO_6
 10
0
 20
0
 30
0
 70
128
 71
32
 72
2
 73
33
 74
33
 0
VERTEX
 8
CILINDRO_6
 10
0
 20
0
 30
0
 70
128
 71
1
 72
100
 73
102
 74
102
 0
VERTEX
 8
CILINDRO_6
 10
0
 20
0
 30
0
 70
128
 71
101
 72
33
 73
34
 74
103
 0
VERTEX
 8
CILINDRO_6
 10
0
 20
0
 30
0
 70
128
 71
33
 72
2
 73
34
 74
34
 0
VERTEX
 8
CILINDRO_6
 10
0
 20
0
 30
0
 70
128
 71
1
 72
102
 73
104
 74
104
 0
VERTEX
 8
CILINDRO_6
 10
0
 20
0
 30
0
 70
128
 71
103
 72
34
 73
35
 74
105
 0
VERTEX
 8
CILINDRO_6
 10
0
 20
0
 30
0
 70
128
 71
34
 72
2
 73
35
 74
35
 0
VERTEX
 8
CILINDRO_6
 10
0
 20
0
 30
0
 70
128
 71
1
 72
104
 73
106
 74
106
 0
VERTEX
 8
CILINDRO_6
 10
0
 20
0
 30
0
 70
128
 71
105
 72
35
 73
36
 74
107
 0
VERTEX
 8
CILINDRO_6
 10
0
 20
0
 30
0
 70
128
 71
35
 72
2
 73
36
 74
36
 0
VERTEX
 8
CILINDRO_6
 10
0
 20
0
 30
0
 70
128
 71
1
 72
106
 73
108
 74
108
 0
VERTEX
 8
CILINDRO_6
 10
0
 20
0
 30
0
 70
128
 71
107
 72
36
 73
37
 74
109
 0
VERTEX
 8
CILINDRO_6
 10
0
 20
0
 30
0
 70
128
 71
36
 72
2
 73
37
 74
37
 0
VERTEX
 8
CILINDRO_6
 10
0
 20
0
 30
0
 70
128
 71
1
 72
108
 73
110
 74
110
 0
VERTEX
 8
CILINDRO_6
 10
0
 20
0
 30
0
 70
128
 71
109
 72
37
 73
38
 74
70
 0
VERTEX
 8
CILINDRO_6
 10
0
 20
0
 30
0
 70
128
 71
37
 72
2
 73
38
 74
38
 0
VERTEX
 8
CILINDRO_6
 10
0
 20
0
 30
0
 70
128
 71
1
 72
110
 73
72
 74
72
 0
VERTEX
 8
CILINDRO_6
 10
0
 20
0
 30
0
 70
128
 71
70
 72
38
 73
3
 74
40
 0
VERTEX
 8
CILINDRO_6
 10
0
 20
0
 30
0
 70
128
 71
38
 72
2
 73
3
 74
3
 0
VERTEX
 8
CILINDRO_6
 10
0
 20
0
 30
0
 70
128
 71
42
 72
130
 73
120
 74
40
 0
VERTEX
 8
CILINDRO_6
 10
0
 20
0
 30
0
 70
128
 71
44
 72
140
 73
130
 74
42
 0
VERTEX
 8
CILINDRO_6
 10
0
 20
0
 30
0
 70
128
 71
46
 72
145
 73
140
 74
44
 0
VERTEX
 8
CILINDRO_6
 10
0
 20
0
 30
0
 70
128
 71
48
 72
150
 73
145
 74
46
 0
VERTEX
 8
CILINDRO_6
 10
0
 20
0
 30
0
 70
128
 71
50
 72
160
 73
150
 74
48
 0
VERTEX
 8
CILINDRO_6
 10
0
 20
0
 30
0
 70
128
 71
51
 72
165
 73
160
 74
50
 0
VERTEX
 8
CILINDRO_6
 10
0
 20
0
 30
0
 70
128
 71
54
 72
166
 73
165
 74
51
 0
VERTEX
 8
CILINDRO_6
 10
0
 20
0
 30
0
 70
128
 71
55
 72
175
 73
166
 74
54
 0
VERTEX
 8
CILINDRO_6
 10
0
 20
0
 30
0
 70
128
 71
58
 72
176
 73
175
 74
55
 0
VERTEX
 8
CILINDRO_6
 10
0
 20
0
 30
0
 70
128
 71
59
 72
185
 73
176
 74
58
 0
VERTEX
 8
CILINDRO_6
 10
0
 20
0
 30
0
 70
128
 71
61
 72
186
 73
185
 74
59
 0
VERTEX
 8
CILINDRO_6
 10
0
 20
0
 30
0
 70
128
 71
65
 72
191
 73
186
 74
61
 0
VERTEX
 8
CILINDRO_6
 10
0
 20
0
 30
0
 70
128
 71
68
 72
200
 73
191
 74
65
 0
VERTEX
 8
CILINDRO_6
 10
0
 20
0
 30
0
 70
128
 71
67
 72
205
 73
200
 74
68
 0
VERTEX
 8
CILINDRO_6
 10
0
 20
0
 30
0
 70
128
 71
69
 72
210
 73
205
 74
67
 0
VERTEX
 8
CILINDRO_6
 10
0
 20
0
 30
0
 70
128
 71
74
 72
211
 73
210
 74
69
 0
VERTEX
 8
CILINDRO_6
 10
0
 20
0
 30
0
 70
128
 71
78
 72
220
 73
211
 74
74
 0
VERTEX
 8
CILINDRO_6
 10
0
 20
0
 30
0
 70
128
 71
76
 72
225
 73
220
 74
78
 0
VERTEX
 8
CILINDRO_6
 10
0
 20
0
 30
0
 70
128
 71
79
 72
226
 73
225
 74
76
 0
VERTEX
 8
CILINDRO_6
 10
0
 20
0
 30
0
 70
128
 71
81
 72
231
 73
226
 74
79
 0
VERTEX
 8
CILINDRO_6
 10
0
 20
0
 30
0
 70
128
 71
83
 72
236
 73
231
 74
81
 0
VERTEX
 8
CILINDRO_6
 10
0
 20
0
 30
0
 70
128
 71
85
 72
241
 73
236
 74
83
 0
VERTEX
 8
CILINDRO_6
 10
0
 20
0
 30
0
 70
128
 71
87
 72
246
 73
241
 74
85
 0
VERTEX
 8
CILINDRO_6
 10
0
 20
0
 30
0
 70
128
 71
89
 72
251
 73
246
 74
87
 0
VERTEX
 8
CILINDRO_6
 10
0
 20
0
 30
0
 70
128
 71
91
 72
256
 73
251
 74
89
 0
VERTEX
 8
CILINDRO_6
 10
0
 20
0
 30
0
 70
128
 71
93
 72
261
 73
256
 74
91
 0
VERTEX
 8
CILINDRO_6
 10
0
 20
0
 30
0
 70
128
 71
95
 72
266
 73
261
 74
93
 0
VERTEX
 8
CILINDRO_6
 10
0
 20
0
 30
0
 70
128
 71
97
 72
271
 73
266
 74
95
 0
VERTEX
 8
CILINDRO_6
 10
0
 20
0
 30
0
 70
128
 71
99
 72
276
 73
271
 74
97
 0
VERTEX
 8
CILINDRO_6
 10
0
 20
0
 30
0
 70
128
 71
101
 72
281
 73
276
 74
99
 0
VERTEX
 8
CILINDRO_6
 10
0
 20
0
 30
0
 70
128
 71
103
 72
121
 73
281
 74
101
 0
VERTEX
 8
CILINDRO_6
 10
0
 20
0
 30
0
 70
128
 71
105
 72
131
 73
121
 74
103
 0
VERTEX
 8
CILINDRO_6
 10
0
 20
0
 30
0
 70
128
 71
107
 72
286
 73
131
 74
105
 0
VERTEX
 8
CILINDRO_6
 10
0
 20
0
 30
0
 70
128
 71
109
 72
111
 73
286
 74
107
 0
VERTEX
 8
CILINDRO_6
 10
0
 20
0
 30
0
 70
128
 71
70
 72
151
 73
111
 74
109
 0
VERTEX
 8
CILINDRO_6
 10
0
 20
0
 30
0
 70
128
 71
40
 72
120
 73
151
 74
70
 0
VERTEX
 8
CILINDRO_6
 10
0
 20
0
 30
0
 70
128
 71
130
 72
129
 73
119
 74
120
 0
VERTEX
 8
CILINDRO_6
 10
0
 20
0
 30
0
 70
128
 71
129
 72
128
 73
118
 74
119
 0
VERTEX
 8
CILINDRO_6
 10
0
 20
0
 30
0
 70
128
 71
128
 72
127
 73
117
 74
118
 0
VERTEX
 8
CILINDRO_6
 10
0
 20
0
 30
0
 70
128
 71
127
 72
126
 73
116
 74
117
 0
VERTEX
 8
CILINDRO_6
 10
0
 20
0
 30
0
 70
128
 71
126
 72
39
 73
72
 74
116
 0
VERTEX
 8
CILINDRO_6
 10
0
 20
0
 30
0
 70
128
 71
140
 72
139
 73
129
 74
130
 0
VERTEX
 8
CILINDRO_6
 10
0
 20
0
 30
0
 70
128
 71
139
 72
138
 73
128
 74
129
 0
VERTEX
 8
CILINDRO_6
 10
0
 20
0
 30
0
 70
128
 71
138
 72
137
 73
127
 74
128
 0
VERTEX
 8
CILINDRO_6
 10
0
 20
0
 30
0
 70
128
 71
137
 72
136
 73
126
 74
127
 0
VERTEX
 8
CILINDRO_6
 10
0
 20
0
 30
0
 70
128
 71
136
 72
41
 73
39
 74
126
 0
VERTEX
 8
CILINDRO_6
 10
0
 20
0
 30
0
 70
128
 71
145
 72
144
 73
139
 74
140
 0
VERTEX
 8
CILINDRO_6
 10
0
 20
0
 30
0
 70
128
 71
144
 72
143
 73
138
 74
139
 0
VERTEX
 8
CILINDRO_6
 10
0
 20
0
 30
0
 70
128
 71
143
 72
142
 73
137
 74
138
 0
VERTEX
 8
CILINDRO_6
 10
0
 20
0
 30
0
 70
128
 71
142
 72
141
 73
136
 74
137
 0
VERTEX
 8
CILINDRO_6
 10
0
 20
0
 30
0
 70
128
 71
141
 72
43
 73
41
 74
136
 0
VERTEX
 8
CILINDRO_6
 10
0
 20
0
 30
0
 70
128
 71
150
 72
149
 73
144
 74
145
 0
VERTEX
 8
CILINDRO_6
 10
0
 20
0
 30
0
 70
128
 71
149
 72
148
 73
143
 74
144
 0
VERTEX
 8
CILINDRO_6
 10
0
 20
0
 30
0
 70
128
 71
148
 72
147
 73
142
 74
143
 0
VERTEX
 8
CILINDRO_6
 10
0
 20
0
 30
0
 70
128
 71
147
 72
146
 73
141
 74
142
 0
VERTEX
 8
CILINDRO_6
 10
0
 20
0
 30
0
 70
128
 71
146
 72
45
 73
43
 74
141
 0
VERTEX
 8
CILINDRO_6
 10
0
 20
0
 30
0
 70
128
 71
160
 72
159
 73
149
 74
150
 0
VERTEX
 8
CILINDRO_6
 10
0
 20
0
 30
0
 70
128
 71
159
 72
158
 73
148
 74
149
 0
VERTEX
 8
CILINDRO_6
 10
0
 20
0
 30
0
 70
128
 71
158
 72
157
 73
147
 74
148
 0
VERTEX
 8
CILINDRO_6
 10
0
 20
0
 30
0
 70
128
 71
157
 72
156
 73
146
 74
147
 0
VERTEX
 8
CILINDRO_6
 10
0
 20
0
 30
0
 70
128
 71
156
 72
47
 73
45
 74
146
 0
VERTEX
 8
CILINDRO_6
 10
0
 20
0
 30
0
 70
128
 71
165
 72
164
 73
159
 74
160
 0
VERTEX
 8
CILINDRO_6
 10
0
 20
0
 30
0
 70
128
 71
164
 72
163
 73
158
 74
159
 0
VERTEX
 8
CILINDRO_6
 10
0
 20
0
 30
0
 70
128
 71
163
 72
162
 73
157
 74
158
 0
VERTEX
 8
CILINDRO_6
 10
0
 20
0
 30
0
 70
128
 71
162
 72
161
 73
156
 74
157
 0
VERTEX
 8
CILINDRO_6
 10
0
 20
0
 30
0
 70
128
 71
161
 72
49
 73
47
 74
156
 0
VERTEX
 8
CILINDRO_6
 10
0
 20
0
 30
0
 70
128
 71
166
 72
167
 73
164
 74
165
 0
VERTEX
 8
CILINDRO_6
 10
0
 20
0
 30
0
 70
128
 71
167
 72
168
 73
163
 74
164
 0
VERTEX
 8
CILINDRO_6
 10
0
 20
0
 30
0
 70
128
 71
168
 72
169
 73
162
 74
163
 0
VERTEX
 8
CILINDRO_6
 10
0
 20
0
 30
0
 70
128
 71
169
 72
170
 73
161
 74
162
 0
VERTEX
 8
CILINDRO_6
 10
0
 20
0
 30
0
 70
128
 71
170
 72
52
 73
49
 74
161
 0
VERTEX
 8
CILINDRO_6
 10
0
 20
0
 30
0
 70
128
 71
175
 72
174
 73
167
 74
166
 0
VERTEX
 8
CILINDRO_6
 10
0
 20
0
 30
0
 70
128
 71
174
 72
173
 73
168
 74
167
 0
VERTEX
 8
CILINDRO_6
 10
0
 20
0
 30
0
 70
128
 71
173
 72
172
 73
169
 74
168
 0
VERTEX
 8
CILINDRO_6
 10
0
 20
0
 30
0
 70
128
 71
172
 72
171
 73
170
 74
169
 0
VERTEX
 8
CILINDRO_6
 10
0
 20
0
 30
0
 70
128
 71
171
 72
53
 73
52
 74
170
 0
VERTEX
 8
CILINDRO_6
 10
0
 20
0
 30
0
 70
128
 71
176
 72
177
 73
174
 74
175
 0
VERTEX
 8
CILINDRO_6
 10
0
 20
0
 30
0
 70
128
 71
177
 72
178
 73
173
 74
174
 0
VERTEX
 8
CILINDRO_6
 10
0
 20
0
 30
0
 70
128
 71
178
 72
179
 73
172
 74
173
 0
VERTEX
 8
CILINDRO_6
 10
0
 20
0
 30
0
 70
128
 71
179
 72
180
 73
171
 74
172
 0
VERTEX
 8
CILINDRO_6
 10
0
 20
0
 30
0
 70
128
 71
180
 72
56
 73
53
 74
171
 0
VERTEX
 8
CILINDRO_6
 10
0
 20
0
 30
0
 70
128
 71
185
 72
184
 73
177
 74
176
 0
VERTEX
 8
CILINDRO_6
 10
0
 20
0
 30
0
 70
128
 71
184
 72
183
 73
178
 74
177
 0
VERTEX
 8
CILINDRO_6
 10
0
 20
0
 30
0
 70
128
 71
183
 72
182
 73
179
 74
178
 0
VERTEX
 8
CILINDRO_6
 10
0
 20
0
 30
0
 70
128
 71
182
 72
181
 73
180
 74
179
 0
VERTEX
 8
CILINDRO_6
 10
0
 20
0
 30
0
 70
128
 71
181
 72
57
 73
56
 74
180
 0
VERTEX
 8
CILINDRO_6
 10
0
 20
0
 30
0
 70
128
 71
186
 72
187
 73
184
 74
185
 0
VERTEX
 8
CILINDRO_6
 10
0
 20
0
 30
0
 70
128
 71
187
 72
188
 73
183
 74
184
 0
VERTEX
 8
CILINDRO_6
 10
0
 20
0
 30
0
 70
128
 71
188
 72
189
 73
182
 74
183
 0
VERTEX
 8
CILINDRO_6
 10
0
 20
0
 30
0
 70
128
 71
189
 72
190
 73
181
 74
182
 0
VERTEX
 8
CILINDRO_6
 10
0
 20
0
 30
0
 70
128
 71
190
 72
60
 73
57
 74
181
 0
VERTEX
 8
CILINDRO_6
 10
0
 20
0
 30
0
 70
128
 71
191
 72
192
 73
187
 74
186
 0
VERTEX
 8
CILINDRO_6
 10
0
 20
0
 30
0
 70
128
 71
192
 72
193
 73
188
 74
187
 0
VERTEX
 8
CILINDRO_6
 10
0
 20
0
 30
0
 70
128
 71
193
 72
194
 73
189
 74
188
 0
VERTEX
 8
CILINDRO_6
 10
0
 20
0
 30
0
 70
128
 71
194
 72
195
 73
190
 74
189
 0
VERTEX
 8
CILINDRO_6
 10
0
 20
0
 30
0
 70
128
 71
195
 72
62
 73
60
 74
190
 0
VERTEX
 8
CILINDRO_6
 10
0
 20
0
 30
0
 70
128
 71
200
 72
199
 73
192
 74
191
 0
VERTEX
 8
CILINDRO_6
 10
0
 20
0
 30
0
 70
128
 71
199
 72
198
 73
193
 74
192
 0
VERTEX
 8
CILINDRO_6
 10
0
 20
0
 30
0
 70
128
 71
198
 72
197
 73
194
 74
193
 0
VERTEX
 8
CILINDRO_6
 10
0
 20
0
 30
0
 70
128
 71
197
 72
196
 73
195
 74
194
 0
VERTEX
 8
CILINDRO_6
 10
0
 20
0
 30
0
 70
128
 71
196
 72
64
 73
62
 74
195
 0
VERTEX
 8
CILINDRO_6
 10
0
 20
0
 30
0
 70
128
 71
205
 72
204
 73
199
 74
200
 0
VERTEX
 8
CILINDRO_6
 10
0
 20
0
 30
0
 70
128
 71
204
 72
203
 73
198
 74
199
 0
VERTEX
 8
CILINDRO_6
 10
0
 20
0
 30
0
 70
128
 71
203
 72
202
 73
197
 74
198
 0
VERTEX
 8
CILINDRO_6
 10
0
 20
0
 30
0
 70
128
 71
202
 72
201
 73
196
 74
197
 0
VERTEX
 8
CILINDRO_6
 10
0
 20
0
 30
0
 70
128
 71
201
 72
63
 73
64
 74
196
 0
VERTEX
 8
CILINDRO_6
 10
0
 20
0
 30
0
 70
128
 71
210
 72
209
 73
204
 74
205
 0
VERTEX
 8
CILINDRO_6
 10
0
 20
0
 30
0
 70
128
 71
209
 72
208
 73
203
 74
204
 0
VERTEX
 8
CILINDRO_6
 10
0
 20
0
 30
0
 70
128
 71
208
 72
207
 73
202
 74
203
 0
VERTEX
 8
CILINDRO_6
 10
0
 20
0
 30
0
 70
128
 71
207
 72
206
 73
201
 74
202
 0
VERTEX
 8
CILINDRO_6
 10
0
 20
0
 30
0
 70
128
 71
206
 72
66
 73
63
 74
201
 0
VERTEX
 8
CILINDRO_6
 10
0
 20
0
 30
0
 70
128
 71
211
 72
212
 73
209
 74
210
 0
VERTEX
 8
CILINDRO_6
 10
0
 20
0
 30
0
 70
128
 71
212
 72
213
 73
208
 74
209
 0
VERTEX
 8
CILINDRO_6
 10
0
 20
0
 30
0
 70
128
 71
213
 72
214
 73
207
 74
208
 0
VERTEX
 8
CILINDRO_6
 10
0
 20
0
 30
0
 70
128
 71
214
 72
215
 73
206
 74
207
 0
VERTEX
 8
CILINDRO_6
 10
0
 20
0
 30
0
 70
128
 71
215
 72
71
 73
66
 74
206
 0
VERTEX
 8
CILINDRO_6
 10
0
 20
0
 30
0
 70
128
 71
220
 72
219
 73
212
 74
211
 0
VERTEX
 8
CILINDRO_6
 10
0
 20
0
 30
0
 70
128
 71
219
 72
218
 73
213
 74
212
 0
VERTEX
 8
CILINDRO_6
 10
0
 20
0
 30
0
 70
128
 71
218
 72
217
 73
214
 74
213
 0
VERTEX
 8
CILINDRO_6
 10
0
 20
0
 30
0
 70
128
 71
217
 72
216
 73
215
 74
214
 0
VERTEX
 8
CILINDRO_6
 10
0
 20
0
 30
0
 70
128
 71
216
 72
75
 73
71
 74
215
 0
VERTEX
 8
CILINDRO_6
 10
0
 20
0
 30
0
 70
128
 71
225
 72
224
 73
219
 74
220
 0
VERTEX
 8
CILINDRO_6
 10
0
 20
0
 30
0
 70
128
 71
224
 72
223
 73
218
 74
219
 0
VERTEX
 8
CILINDRO_6
 10
0
 20
0
 30
0
 70
128
 71
223
 72
222
 73
217
 74
218
 0
VERTEX
 8
CILINDRO_6
 10
0
 20
0
 30
0
 70
128
 71
222
 72
221
 73
216
 74
217
 0
VERTEX
 8
CILINDRO_6
 10
0
 20
0
 30
0
 70
128
 71
221
 72
73
 73
75
 74
216
 0
VERTEX
 8
CILINDRO_6
 10
0
 20
0
 30
0
 70
128
 71
226
 72
227
 73
224
 74
225
 0
VERTEX
 8
CILINDRO_6
 10
0
 20
0
 30
0
 70
128
 71
227
 72
228
 73
223
 74
224
 0
VERTEX
 8
CILINDRO_6
 10
0
 20
0
 30
0
 70
128
 71
228
 72
229
 73
222
 74
223
 0
VERTEX
 8
CILINDRO_6
 10
0
 20
0
 30
0
 70
128
 71
229
 72
230
 73
221
 74
222
 0
VERTEX
 8
CILINDRO_6
 10
0
 20
0
 30
0
 70
128
 71
230
 72
77
 73
73
 74
221
 0
VERTEX
 8
CILINDRO_6
 10
0
 20
0
 30
0
 70
128
 71
231
 72
232
 73
227
 74
226
 0
VERTEX
 8
CILINDRO_6
 10
0
 20
0
 30
0
 70
128
 71
232
 72
233
 73
228
 74
227
 0
VERTEX
 8
CILINDRO_6
 10
0
 20
0
 30
0
 70
128
 71
233
 72
234
 73
229
 74
228
 0
VERTEX
 8
CILINDRO_6
 10
0
 20
0
 30
0
 70
128
 71
234
 72
235
 73
230
 74
229
 0
VERTEX
 8
CILINDRO_6
 10
0
 20
0
 30
0
 70
128
 71
235
 72
80
 73
77
 74
230
 0
VERTEX
 8
CILINDRO_6
 10
0
 20
0
 30
0
 70
128
 71
236
 72
237
 73
232
 74
231
 0
VERTEX
 8
CILINDRO_6
 10
0
 20
0
 30
0
 70
128
 71
237
 72
238
 73
233
 74
232
 0
VERTEX
 8
CILINDRO_6
 10
0
 20
0
 30
0
 70
128
 71
238
 72
239
 73
234
 74
233
 0
VERTEX
 8
CILINDRO_6
 10
0
 20
0
 30
0
 70
128
 71
239
 72
240
 73
235
 74
234
 0
VERTEX
 8
CILINDRO_6
 10
0
 20
0
 30
0
 70
128
 71
240
 72
82
 73
80
 74
235
 0
VERTEX
 8
CILINDRO_6
 10
0
 20
0
 30
0
 70
128
 71
241
 72
242
 73
237
 74
236
 0
VERTEX
 8
CILINDRO_6
 10
0
 20
0
 30
0
 70
128
 71
242
 72
243
 73
238
 74
237
 0
VERTEX
 8
CILINDRO_6
 10
0
 20
0
 30
0
 70
128
 71
243
 72
244
 73
239
 74
238
 0
VERTEX
 8
CILINDRO_6
 10
0
 20
0
 30
0
 70
128
 71
244
 72
245
 73
240
 74
239
 0
VERTEX
 8
CILINDRO_6
 10
0
 20
0
 30
0
 70
128
 71
245
 72
84
 73
82
 74
240
 0
VERTEX
 8
CILINDRO_6
 10
0
 20
0
 30
0
 70
128
 71
246
 72
247
 73
242
 74
241
 0
VERTEX
 8
CILINDRO_6
 10
0
 20
0
 30
0
 70
128
 71
247
 72
248
 73
243
 74
242
 0
VERTEX
 8
CILINDRO_6
 10
0
 20
0
 30
0
 70
128
 71
248
 72
249
 73
244
 74
243
 0
VERTEX
 8
CILINDRO_6
 10
0
 20
0
 30
0
 70
128
 71
249
 72
250
 73
245
 74
244
 0
VERTEX
 8
CILINDRO_6
 10
0
 20
0
 30
0
 70
128
 71
250
 72
86
 73
84
 74
245
 0
VERTEX
 8
CILINDRO_6
 10
0
 20
0
 30
0
 70
128
 71
251
 72
252
 73
247
 74
246
 0
VERTEX
 8
CILINDRO_6
 10
0
 20
0
 30
0
 70
128
 71
252
 72
253
 73
248
 74
247
 0
VERTEX
 8
CILINDRO_6
 10
0
 20
0
 30
0
 70
128
 71
253
 72
254
 73
249
 74
248
 0
VERTEX
 8
CILINDRO_6
 10
0
 20
0
 30
0
 70
128
 71
254
 72
255
 73
250
 74
249
 0
VERTEX
 8
CILINDRO_6
 10
0
 20
0
 30
0
 70
128
 71
255
 72
88
 73
86
 74
250
 0
VERTEX
 8
CILINDRO_6
 10
0
 20
0
 30
0
 70
128
 71
256
 72
257
 73
252
 74
251
 0
VERTEX
 8
CILINDRO_6
 10
0
 20
0
 30
0
 70
128
 71
257
 72
258
 73
253
 74
252
 0
VERTEX
 8
CILINDRO_6
 10
0
 20
0
 30
0
 70
128
 71
258
 72
259
 73
254
 74
253
 0
VERTEX
 8
CILINDRO_6
 10
0
 20
0
 30
0
 70
128
 71
259
 72
260
 73
255
 74
254
 0
VERTEX
 8
CILINDRO_6
 10
0
 20
0
 30
0
 70
128
 71
260
 72
90
 73
88
 74
255
 0
VERTEX
 8
CILINDRO_6
 10
0
 20
0
 30
0
 70
128
 71
261
 72
262
 73
257
 74
256
 0
VERTEX
 8
CILINDRO_6
 10
0
 20
0
 30
0
 70
128
 71
262
 72
263
 73
258
 74
257
 0
VERTEX
 8
CILINDRO_6
 10
0
 20
0
 30
0
 70
128
 71
263
 72
264
 73
259
 74
258
 0
VERTEX
 8
CILINDRO_6
 10
0
 20
0
 30
0
 70
128
 71
264
 72
265
 73
260
 74
259
 0
VERTEX
 8
CILINDRO_6
 10
0
 20
0
 30
0
 70
128
 71
265
 72
92
 73
90
 74
260
 0
VERTEX
 8
CILINDRO_6
 10
0
 20
0
 30
0
 70
128
 71
266
 72
267
 73
262
 74
261
 0
VERTEX
 8
CILINDRO_6
 10
0
 20
0
 30
0
 70
128
 71
267
 72
268
 73
263
 74
262
 0
VERTEX
 8
CILINDRO_6
 10
0
 20
0
 30
0
 70
128
 71
268
 72
269
 73
264
 74
263
 0
VERTEX
 8
CILINDRO_6
 10
0
 20
0
 30
0
 70
128
 71
269
 72
270
 73
265
 74
264
 0
VERTEX
 8
CILINDRO_6
 10
0
 20
0
 30
0
 70
128
 71
270
 72
94
 73
92
 74
265
 0
VERTEX
 8
CILINDRO_6
 10
0
 20
0
 30
0
 70
128
 71
271
 72
272
 73
267
 74
266
 0
VERTEX
 8
CILINDRO_6
 10
0
 20
0
 30
0
 70
128
 71
272
 72
273
 73
268
 74
267
 0
VERTEX
 8
CILINDRO_6
 10
0
 20
0
 30
0
 70
128
 71
273
 72
274
 73
269
 74
268
 0
VERTEX
 8
CILINDRO_6
 10
0
 20
0
 30
0
 70
128
 71
274
 72
275
 73
270
 74
269
 0
VERTEX
 8
CILINDRO_6
 10
0
 20
0
 30
0
 70
128
 71
275
 72
96
 73
94
 74
270
 0
VERTEX
 8
CILINDRO_6
 10
0
 20
0
 30
0
 70
128
 71
276
 72
277
 73
272
 74
271
 0
VERTEX
 8
CILINDRO_6
 10
0
 20
0
 30
0
 70
128
 71
277
 72
278
 73
273
 74
272
 0
VERTEX
 8
CILINDRO_6
 10
0
 20
0
 30
0
 70
128
 71
278
 72
279
 73
274
 74
273
 0
VERTEX
 8
CILINDRO_6
 10
0
 20
0
 30
0
 70
128
 71
279
 72
280
 73
275
 74
274
 0
VERTEX
 8
CILINDRO_6
 10
0
 20
0
 30
0
 70
128
 71
280
 72
98
 73
96
 74
275
 0
VERTEX
 8
CILINDRO_6
 10
0
 20
0
 30
0
 70
128
 71
281
 72
282
 73
277
 74
276
 0
VERTEX
 8
CILINDRO_6
 10
0
 20
0
 30
0
 70
128
 71
282
 72
283
 73
278
 74
277
 0
VERTEX
 8
CILINDRO_6
 10
0
 20
0
 30
0
 70
128
 71
283
 72
284
 73
279
 74
278
 0
VERTEX
 8
CILINDRO_6
 10
0
 20
0
 30
0
 70
128
 71
284
 72
285
 73
280
 74
279
 0
VERTEX
 8
CILINDRO_6
 10
0
 20
0
 30
0
 70
128
 71
285
 72
100
 73
98
 74
280
 0
VERTEX
 8
CILINDRO_6
 10
0
 20
0
 30
0
 70
128
 71
121
 72
122
 73
282
 74
281
 0
VERTEX
 8
CILINDRO_6
 10
0
 20
0
 30
0
 70
128
 71
122
 72
123
 73
283
 74
282
 0
VERTEX
 8
CILINDRO_6
 10
0
 20
0
 30
0
 70
128
 71
123
 72
124
 73
284
 74
283
 0
VERTEX
 8
CILINDRO_6
 10
0
 20
0
 30
0
 70
128
 71
124
 72
125
 73
285
 74
284
 0
VERTEX
 8
CILINDRO_6
 10
0
 20
0
 30
0
 70
128
 71
125
 72
102
 73
100
 74
285
 0
VERTEX
 8
CILINDRO_6
 10
0
 20
0
 30
0
 70
128
 71
131
 72
132
 73
122
 74
121
 0
VERTEX
 8
CILINDRO_6
 10
0
 20
0
 30
0
 70
128
 71
132
 72
133
 73
123
 74
122
 0
VERTEX
 8
CILINDRO_6
 10
0
 20
0
 30
0
 70
128
 71
133
 72
134
 73
124
 74
123
 0
VERTEX
 8
CILINDRO_6
 10
0
 20
0
 30
0
 70
128
 71
134
 72
135
 73
125
 74
124
 0
VERTEX
 8
CILINDRO_6
 10
0
 20
0
 30
0
 70
128
 71
135
 72
104
 73
102
 74
125
 0
VERTEX
 8
CILINDRO_6
 10
0
 20
0
 30
0
 70
128
 71
286
 72
287
 73
132
 74
131
 0
VERTEX
 8
CILINDRO_6
 10
0
 20
0
 30
0
 70
128
 71
287
 72
288
 73
133
 74
132
 0
VERTEX
 8
CILINDRO_6
 10
0
 20
0
 30
0
 70
128
 71
288
 72
289
 73
134
 74
133
 0
VERTEX
 8
CILINDRO_6
 10
0
 20
0
 30
0
 70
128
 71
289
 72
290
 73
135
 74
134
 0
VERTEX
 8
CILINDRO_6
 10
0
 20
0
 30
0
 70
128
 71
290
 72
106
 73
104
 74
135
 0
VERTEX
 8
CILINDRO_6
 10
0
 20
0
 30
0
 70
128
 71
111
 72
112
 73
287
 74
286
 0
VERTEX
 8
CILINDRO_6
 10
0
 20
0
 30
0
 70
128
 71
112
 72
113
 73
288
 74
287
 0
VERTEX
 8
CILINDRO_6
 10
0
 20
0
 30
0
 70
128
 71
113
 72
114
 73
289
 74
288
 0
VERTEX
 8
CILINDRO_6
 10
0
 20
0
 30
0
 70
128
 71
114
 72
115
 73
290
 74
289
 0
VERTEX
 8
CILINDRO_6
 10
0
 20
0
 30
0
 70
128
 71
115
 72
108
 73
106
 74
290
 0
VERTEX
 8
CILINDRO_6
 10
0
 20
0
 30
0
 70
128
 71
151
 72
152
 73
112
 74
111
 0
VERTEX
 8
CILINDRO_6
 10
0
 20
0
 30
0
 70
128
 71
152
 72
153
 73
113
 74
112
 0
VERTEX
 8
CILINDRO_6
 10
0
 20
0
 30
0
 70
128
 71
153
 72
154
 73
114
 74
113
 0
VERTEX
 8
CILINDRO_6
 10
0
 20
0
 30
0
 70
128
 71
154
 72
155
 73
115
 74
114
 0
VERTEX
 8
CILINDRO_6
 10
0
 20
0
 30
0
 70
128
 71
155
 72
110
 73
108
 74
115
 0
VERTEX
 8
CILINDRO_6
 10
0
 20
0
 30
0
 70
128
 71
120
 72
119
 73
152
 74
151
 0
VERTEX
 8
CILINDRO_6
 10
0
 20
0
 30
0
 70
128
 71
119
 72
118
 73
153
 74
152
 0
VERTEX
 8
CILINDRO_6
 10
0
 20
0
 30
0
 70
128
 71
118
 72
117
 73
154
 74
153
 0
VERTEX
 8
CILINDRO_6
 10
0
 20
0
 30
0
 70
128
 71
117
 72
116
 73
155
 74
154
 0
VERTEX
 8
CILINDRO_6
 10
0
 20
0
 30
0
 70
128
 71
116
 72
72
 73
110
 74
155
 0
SEQEND
 0
POLYLINE
 8
CILINDRO_5
 66
1
 10
0.0
 20
0.0
 30
0.0
 70
64
 71
146
 72
108
 0
VERTEX
 8
CILINDRO_5
 10
-23.0001
 20
-6.7108
 30
1.5014
 70
192
 0
VERTEX
 8
CILINDRO_5
 10
-23.0001
 20
-6.7108
 30
5.4808
 70
192
 0
VERTEX
 8
CILINDRO_5
 10
-23.0001
 20
-7.7056
 30
1.5014
 70
192
 0
VERTEX
 8
CILINDRO_5
 10
-23.0001
 20
-7.7056
 30
1.5014
 70
192
 0
VERTEX
 8
CILINDRO_5
 10
-23.0001
 20
-7.7056
 30
5.4808
 70
192
 0
VERTEX
 8
CILINDRO_5
 10
-23.0001
 20
-7.7056
 30
5.4808
 70
192
 0
VERTEX
 8
CILINDRO_5
 10
-22.8273
 20
-7.6905
 30
1.5014
 70
192
 0
VERTEX
 8
CILINDRO_5
 10
-22.8273
 20
-7.6905
 30
1.5014
 70
192
 0
VERTEX
 8
CILINDRO_5
 10
-22.8273
 20
-7.6905
 30
5.4808
 70
192
 0
VERTEX
 8
CILINDRO_5
 10
-22.8273
 20
-7.6905
 30
5.4808
 70
192
 0
VERTEX
 8
CILINDRO_5
 10
-22.6598
 20
-7.6456
 30
1.5014
 70
192
 0
VERTEX
 8
CILINDRO_5
 10
-22.6598
 20
-7.6456
 30
1.5014
 70
192
 0
VERTEX
 8
CILINDRO_5
 10
-22.6598
 20
-7.6456
 30
5.4808
 70
192
 0
VERTEX
 8
CILINDRO_5
 10
-22.6598
 20
-7.6456
 30
5.4808
 70
192
 0
VERTEX
 8
CILINDRO_5
 10
-22.5026
 20
-7.5724
 30
1.5014
 70
192
 0
VERTEX
 8
CILINDRO_5
 10
-22.5026
 20
-7.5724
 30
1.5014
 70
192
 0
VERTEX
 8
CILINDRO_5
 10
-22.5026
 20
-7.5724
 30
5.4808
 70
192
 0
VERTEX
 8
CILINDRO_5
 10
-22.5026
 20
-7.5724
 30
5.4808
 70
192
 0
VERTEX
 8
CILINDRO_5
 10
-22.3606
 20
-7.4729
 30
1.5014
 70
192
 0
VERTEX
 8
CILINDRO_5
 10
-22.3606
 20
-7.4729
 30
1.5014
 70
192
 0
VERTEX
 8
CILINDRO_5
 10
-22.3606
 20
-7.4729
 30
5.4808
 70
192
 0
VERTEX
 8
CILINDRO_5
 10
-22.3606
 20
-7.4729
 30
5.4808
 70
192
 0
VERTEX
 8
CILINDRO_5
 10
-22.2379
 20
-7.3503
 30
1.5014
 70
192
 0
VERTEX
 8
CILINDRO_5
 10
-22.2379
 20
-7.3503
 30
1.5014
 70
192
 0
VERTEX
 8
CILINDRO_5
 10
-22.2379
 20
-7.3503
 30
5.4808
 70
192
 0
VERTEX
 8
CILINDRO_5
 10
-22.2379
 20
-7.3503
 30
5.4808
 70
192
 0
VERTEX
 8
CILINDRO_5
 10
-22.1385
 20
-7.2082
 30
1.5014
 70
192
 0
VERTEX
 8
CILINDRO_5
 10
-22.1385
 20
-7.2082
 30
1.5014
 70
192
 0
VERTEX
 8
CILINDRO_5
 10
-22.1385
 20
-7.2082
 30
5.4808
 70
192
 0
VERTEX
 8
CILINDRO_5
 10
-22.1385
 20
-7.2082
 30
5.4808
 70
192
 0
VERTEX
 8
CILINDRO_5
 10
-22.0652
 20
-7.051
 30
1.5014
 70
192
 0
VERTEX
 8
CILINDRO_5
 10
-22.0652
 20
-7.051
 30
1.5014
 70
192
 0
VERTEX
 8
CILINDRO_5
 10
-22.0652
 20
-7.051
 30
5.4808
 70
192
 0
VERTEX
 8
CILINDRO_5
 10
-22.0652
 20
-7.051
 30
5.4808
 70
192
 0
VERTEX
 8
CILINDRO_5
 10
-22.0203
 20
-6.8835
 30
1.5014
 70
192
 0
VERTEX
 8
CILINDRO_5
 10
-22.0203
 20
-6.8835
 30
1.5014
 70
192
 0
VERTEX
 8
CILINDRO_5
 10
-22.0203
 20
-6.8835
 30
5.4808
 70
192
 0
VERTEX
 8
CILINDRO_5
 10
-22.0203
 20
-6.8835
 30
5.4808
 70
192
 0
VERTEX
 8
CILINDRO_5
 10
-22.0052
 20
-6.7108
 30
1.5014
 70
192
 0
VERTEX
 8
CILINDRO_5
 10
-22.0052
 20
-6.7108
 30
1.5014
 70
192
 0
VERTEX
 8
CILINDRO_5
 10
-22.0052
 20
-6.7108
 30
5.4808
 70
192
 0
VERTEX
 8
CILINDRO_5
 10
-22.0052
 20
-6.7108
 30
5.4808
 70
192
 0
VERTEX
 8
CILINDRO_5
 10
-22.0203
 20
-6.538
 30
1.5014
 70
192
 0
VERTEX
 8
CILINDRO_5
 10
-22.0203
 20
-6.538
 30
1.5014
 70
192
 0
VERTEX
 8
CILINDRO_5
 10
-22.0203
 20
-6.538
 30
5.4808
 70
192
 0
VERTEX
 8
CILINDRO_5
 10
-22.0203
 20
-6.538
 30
5.4808
 70
192
 0
VERTEX
 8
CILINDRO_5
 10
-22.0652
 20
-6.3705
 30
1.5014
 70
192
 0
VERTEX
 8
CILINDRO_5
 10
-22.0652
 20
-6.3705
 30
1.5014
 70
192
 0
VERTEX
 8
CILINDRO_5
 10
-22.0652
 20
-6.3705
 30
5.4808
 70
192
 0
VERTEX
 8
CILINDRO_5
 10
-22.0652
 20
-6.3705
 30
5.4808
 70
192
 0
VERTEX
 8
CILINDRO_5
 10
-22.1385
 20
-6.2134
 30
1.5014
 70
192
 0
VERTEX
 8
CILINDRO_5
 10
-22.1385
 20
-6.2134
 30
1.5014
 70
192
 0
VERTEX
 8
CILINDRO_5
 10
-22.1385
 20
-6.2134
 30
5.4808
 70
192
 0
VERTEX
 8
CILINDRO_5
 10
-22.1385
 20
-6.2134
 30
5.4808
 70
192
 0
VERTEX
 8
CILINDRO_5
 10
-22.2379
 20
-6.0713
 30
1.5014
 70
192
 0
VERTEX
 8
CILINDRO_5
 10
-22.2379
 20
-6.0713
 30
1.5014
 70
192
 0
VERTEX
 8
CILINDRO_5
 10
-22.2379
 20
-6.0713
 30
5.4808
 70
192
 0
VERTEX
 8
CILINDRO_5
 10
-22.2379
 20
-6.0713
 30
5.4808
 70
192
 0
VERTEX
 8
CILINDRO_5
 10
-22.3606
 20
-5.9487
 30
1.5014
 70
192
 0
VERTEX
 8
CILINDRO_5
 10
-22.3606
 20
-5.9487
 30
1.5014
 70
192
 0
VERTEX
 8
CILINDRO_5
 10
-22.3606
 20
-5.9487
 30
5.4808
 70
192
 0
VERTEX
 8
CILINDRO_5
 10
-22.3606
 20
-5.9487
 30
5.4808
 70
192
 0
VERTEX
 8
CILINDRO_5
 10
-22.5026
 20
-5.8492
 30
1.5014
 70
192
 0
VERTEX
 8
CILINDRO_5
 10
-22.5026
 20
-5.8492
 30
1.5014
 70
192
 0
VERTEX
 8
CILINDRO_5
 10
-22.5026
 20
-5.8492
 30
5.4808
 70
192
 0
VERTEX
 8
CILINDRO_5
 10
-22.5026
 20
-5.8492
 30
5.4808
 70
192
 0
VERTEX
 8
CILINDRO_5
 10
-22.6598
 20
-5.7759
 30
1.5014
 70
192
 0
VERTEX
 8
CILINDRO_5
 10
-22.6598
 20
-5.7759
 30
1.5014
 70
192
 0
VERTEX
 8
CILINDRO_5
 10
-22.6598
 20
-5.7759
 30
5.4808
 70
192
 0
VERTEX
 8
CILINDRO_5
 10
-22.6598
 20
-5.7759
 30
5.4808
 70
192
 0
VERTEX
 8
CILINDRO_5
 10
-22.8273
 20
-5.731
 30
1.5014
 70
192
 0
VERTEX
 8
CILINDRO_5
 10
-22.8273
 20
-5.731
 30
1.5014
 70
192
 0
VERTEX
 8
CILINDRO_5
 10
-22.8273
 20
-5.731
 30
5.4808
 70
192
 0
VERTEX
 8
CILINDRO_5
 10
-22.8273
 20
-5.731
 30
5.4808
 70
192
 0
VERTEX
 8
CILINDRO_5
 10
-23.0001
 20
-5.7159
 30
1.5014
 70
192
 0
VERTEX
 8
CILINDRO_5
 10
-23.0001
 20
-5.7159
 30
1.5014
 70
192
 0
VERTEX
 8
CILINDRO_5
 10
-23.0001
 20
-5.7159
 30
5.4808
 70
192
 0
VERTEX
 8
CILINDRO_5
 10
-23.0001
 20
-5.7159
 30
5.4808
 70
192
 0
VERTEX
 8
CILINDRO_5
 10
-23.1728
 20
-5.731
 30
1.5014
 70
192
 0
VERTEX
 8
CILINDRO_5
 10
-23.1728
 20
-5.731
 30
1.5014
 70
192
 0
VERTEX
 8
CILINDRO_5
 10
-23.1728
 20
-5.731
 30
5.4808
 70
192
 0
VERTEX
 8
CILINDRO_5
 10
-23.1728
 20
-5.731
 30
5.4808
 70
192
 0
VERTEX
 8
CILINDRO_5
 10
-23.3403
 20
-5.7759
 30
1.5014
 70
192
 0
VERTEX
 8
CILINDRO_5
 10
-23.3403
 20
-5.7759
 30
1.5014
 70
192
 0
VERTEX
 8
CILINDRO_5
 10
-23.3403
 20
-5.7759
 30
5.4808
 70
192
 0
VERTEX
 8
CILINDRO_5
 10
-23.3403
 20
-5.7759
 30
5.4808
 70
192
 0
VERTEX
 8
CILINDRO_5
 10
-23.4975
 20
-5.8492
 30
1.5014
 70
192
 0
VERTEX
 8
CILINDRO_5
 10
-23.4975
 20
-5.8492
 30
1.5014
 70
192
 0
VERTEX
 8
CILINDRO_5
 10
-23.4975
 20
-5.8492
 30
5.4808
 70
192
 0
VERTEX
 8
CILINDRO_5
 10
-23.4975
 20
-5.8492
 30
5.4808
 70
192
 0
VERTEX
 8
CILINDRO_5
 10
-23.6395
 20
-5.9487
 30
1.5014
 70
192
 0
VERTEX
 8
CILINDRO_5
 10
-23.6395
 20
-5.9487
 30
1.5014
 70
192
 0
VERTEX
 8
CILINDRO_5
 10
-23.6395
 20
-5.9487
 30
5.4808
 70
192
 0
VERTEX
 8
CILINDRO_5
 10
-23.6395
 20
-5.9487
 30
5.4808
 70
192
 0
VERTEX
 8
CILINDRO_5
 10
-23.7622
 20
-6.0713
 30
1.5014
 70
192
 0
VERTEX
 8
CILINDRO_5
 10
-23.7622
 20
-6.0713
 30
1.5014
 70
192
 0
VERTEX
 8
CILINDRO_5
 10
-23.7622
 20
-6.0713
 30
5.4808
 70
192
 0
VERTEX
 8
CILINDRO_5
 10
-23.7622
 20
-6.0713
 30
5.4808
 70
192
 0
VERTEX
 8
CILINDRO_5
 10
-23.8616
 20
-6.2134
 30
1.5014
 70
192
 0
VERTEX
 8
CILINDRO_5
 10
-23.8616
 20
-6.2134
 30
1.5014
 70
192
 0
VERTEX
 8
CILINDRO_5
 10
-23.8616
 20
-6.2134
 30
5.4808
 70
192
 0
VERTEX
 8
CILINDRO_5
 10
-23.8616
 20
-6.2134
 30
5.4808
 70
192
 0
VERTEX
 8
CILINDRO_5
 10
-23.9349
 20
-6.3705
 30
1.5014
 70
192
 0
VERTEX
 8
CILINDRO_5
 10
-23.9349
 20
-6.3705
 30
1.5014
 70
192
 0
VERTEX
 8
CILINDRO_5
 10
-23.9349
 20
-6.3705
 30
5.4808
 70
192
 0
VERTEX
 8
CILINDRO_5
 10
-23.9349
 20
-6.3705
 30
5.4808
 70
192
 0
VERTEX
 8
CILINDRO_5
 10
-23.9798
 20
-6.538
 30
1.5014
 70
192
 0
VERTEX
 8
CILINDRO_5
 10
-23.9798
 20
-6.538
 30
1.5014
 70
192
 0
VERTEX
 8
CILINDRO_5
 10
-23.9798
 20
-6.538
 30
5.4808
 70
192
 0
VERTEX
 8
CILINDRO_5
 10
-23.9798
 20
-6.538
 30
5.4808
 70
192
 0
VERTEX
 8
CILINDRO_5
 10
-23.9949
 20
-6.7108
 30
1.5014
 70
192
 0
VERTEX
 8
CILINDRO_5
 10
-23.9949
 20
-6.7108
 30
1.5014
 70
192
 0
VERTEX
 8
CILINDRO_5
 10
-23.9949
 20
-6.7108
 30
5.4808
 70
192
 0
VERTEX
 8
CILINDRO_5
 10
-23.9949
 20
-6.7108
 30
5.4808
 70
192
 0
VERTEX
 8
CILINDRO_5
 10
-23.9798
 20
-6.8835
 30
1.5014
 70
192
 0
VERTEX
 8
CILINDRO_5
 10
-23.9798
 20
-6.8835
 30
1.5014
 70
192
 0
VERTEX
 8
CILINDRO_5
 10
-23.9798
 20
-6.8835
 30
5.4808
 70
192
 0
VERTEX
 8
CILINDRO_5
 10
-23.9798
 20
-6.8835
 30
5.4808
 70
192
 0
VERTEX
 8
CILINDRO_5
 10
-23.9349
 20
-7.051
 30
1.5014
 70
192
 0
VERTEX
 8
CILINDRO_5
 10
-23.9349
 20
-7.051
 30
1.5014
 70
192
 0
VERTEX
 8
CILINDRO_5
 10
-23.9349
 20
-7.051
 30
5.4808
 70
192
 0
VERTEX
 8
CILINDRO_5
 10
-23.9349
 20
-7.051
 30
5.4808
 70
192
 0
VERTEX
 8
CILINDRO_5
 10
-23.8616
 20
-7.2082
 30
1.5014
 70
192
 0
VERTEX
 8
CILINDRO_5
 10
-23.8616
 20
-7.2082
 30
1.5014
 70
192
 0
VERTEX
 8
CILINDRO_5
 10
-23.8616
 20
-7.2082
 30
5.4808
 70
192
 0
VERTEX
 8
CILINDRO_5
 10
-23.8616
 20
-7.2082
 30
5.4808
 70
192
 0
VERTEX
 8
CILINDRO_5
 10
-23.7622
 20
-7.3503
 30
1.5014
 70
192
 0
VERTEX
 8
CILINDRO_5
 10
-23.7622
 20
-7.3503
 30
1.5014
 70
192
 0
VERTEX
 8
CILINDRO_5
 10
-23.7622
 20
-7.3503
 30
5.4808
 70
192
 0
VERTEX
 8
CILINDRO_5
 10
-23.7622
 20
-7.3503
 30
5.4808
 70
192
 0
VERTEX
 8
CILINDRO_5
 10
-23.6395
 20
-7.4729
 30
1.5014
 70
192
 0
VERTEX
 8
CILINDRO_5
 10
-23.6395
 20
-7.4729
 30
1.5014
 70
192
 0
VERTEX
 8
CILINDRO_5
 10
-23.6395
 20
-7.4729
 30
5.4808
 70
192
 0
VERTEX
 8
CILINDRO_5
 10
-23.6395
 20
-7.4729
 30
5.4808
 70
192
 0
VERTEX
 8
CILINDRO_5
 10
-23.4975
 20
-7.5724
 30
1.5014
 70
192
 0
VERTEX
 8
CILINDRO_5
 10
-23.4975
 20
-7.5724
 30
1.5014
 70
192
 0
VERTEX
 8
CILINDRO_5
 10
-23.4975
 20
-7.5724
 30
5.4808
 70
192
 0
VERTEX
 8
CILINDRO_5
 10
-23.4975
 20
-7.5724
 30
5.4808
 70
192
 0
VERTEX
 8
CILINDRO_5
 10
-23.3403
 20
-7.6456
 30
1.5014
 70
192
 0
VERTEX
 8
CILINDRO_5
 10
-23.3403
 20
-7.6456
 30
1.5014
 70
192
 0
VERTEX
 8
CILINDRO_5
 10
-23.3403
 20
-7.6456
 30
5.4808
 70
192
 0
VERTEX
 8
CILINDRO_5
 10
-23.3403
 20
-7.6456
 30
5.4808
 70
192
 0
VERTEX
 8
CILINDRO_5
 10
-23.1728
 20
-7.6905
 30
1.5014
 70
192
 0
VERTEX
 8
CILINDRO_5
 10
-23.1728
 20
-7.6905
 30
1.5014
 70
192
 0
VERTEX
 8
CILINDRO_5
 10
-23.1728
 20
-7.6905
 30
5.4808
 70
192
 0
VERTEX
 8
CILINDRO_5
 10
-23.1728
 20
-7.6905
 30
5.4808
 70
192
 0
VERTEX
 8
CILINDRO_5
 10
0
 20
0
 30
0
 70
128
 71
1
 72
3
 73
7
 74
7
 0
VERTEX
 8
CILINDRO_5
 10
0
 20
0
 30
0
 70
128
 71
4
 72
5
 73
9
 74
8
 0
VERTEX
 8
CILINDRO_5
 10
0
 20
0
 30
0
 70
128
 71
6
 72
2
 73
10
 74
10
 0
VERTEX
 8
CILINDRO_5
 10
0
 20
0
 30
0
 70
128
 71
1
 72
7
 73
11
 74
11
 0
VERTEX
 8
CILINDRO_5
 10
0
 20
0
 30
0
 70
128
 71
8
 72
9
 73
13
 74
12
 0
VERTEX
 8
CILINDRO_5
 10
0
 20
0
 30
0
 70
128
 71
10
 72
2
 73
14
 74
14
 0
VERTEX
 8
CILINDRO_5
 10
0
 20
0
 30
0
 70
128
 71
1
 72
11
 73
15
 74
15
 0
VERTEX
 8
CILINDRO_5
 10
0
 20
0
 30
0
 70
128
 71
12
 72
13
 73
17
 74
16
 0
VERTEX
 8
CILINDRO_5
 10
0
 20
0
 30
0
 70
128
 71
14
 72
2
 73
18
 74
18
 0
VERTEX
 8
CILINDRO_5
 10
0
 20
0
 30
0
 70
128
 71
1
 72
15
 73
19
 74
19
 0
VERTEX
 8
CILINDRO_5
 10
0
 20
0
 30
0
 70
128
 71
16
 72
17
 73
21
 74
20
 0
VERTEX
 8
CILINDRO_5
 10
0
 20
0
 30
0
 70
128
 71
18
 72
2
 73
22
 74
22
 0
VERTEX
 8
CILINDRO_5
 10
0
 20
0
 30
0
 70
128
 71
1
 72
19
 73
23
 74
23
 0
VERTEX
 8
CILINDRO_5
 10
0
 20
0
 30
0
 70
128
 71
20
 72
21
 73
25
 74
24
 0
VERTEX
 8
CILINDRO_5
 10
0
 20
0
 30
0
 70
128
 71
22
 72
2
 73
26
 74
26
 0
VERTEX
 8
CILINDRO_5
 10
0
 20
0
 30
0
 70
128
 71
1
 72
23
 73
27
 74
27
 0
VERTEX
 8
CILINDRO_5
 10
0
 20
0
 30
0
 70
128
 71
24
 72
25
 73
29
 74
28
 0
VERTEX
 8
CILINDRO_5
 10
0
 20
0
 30
0
 70
128
 71
26
 72
2
 73
30
 74
30
 0
VERTEX
 8
CILINDRO_5
 10
0
 20
0
 30
0
 70
128
 71
1
 72
27
 73
31
 74
31
 0
VERTEX
 8
CILINDRO_5
 10
0
 20
0
 30
0
 70
128
 71
28
 72
29
 73
33
 74
32
 0
VERTEX
 8
CILINDRO_5
 10
0
 20
0
 30
0
 70
128
 71
30
 72
2
 73
34
 74
34
 0
VERTEX
 8
CILINDRO_5
 10
0
 20
0
 30
0
 70
128
 71
1
 72
31
 73
35
 74
35
 0
VERTEX
 8
CILINDRO_5
 10
0
 20
0
 30
0
 70
128
 71
32
 72
33
 73
37
 74
36
 0
VERTEX
 8
CILINDRO_5
 10
0
 20
0
 30
0
 70
128
 71
34
 72
2
 73
38
 74
38
 0
VERTEX
 8
CILINDRO_5
 10
0
 20
0
 30
0
 70
128
 71
1
 72
35
 73
39
 74
39
 0
VERTEX
 8
CILINDRO_5
 10
0
 20
0
 30
0
 70
128
 71
36
 72
37
 73
41
 74
40
 0
VERTEX
 8
CILINDRO_5
 10
0
 20
0
 30
0
 70
128
 71
38
 72
2
 73
42
 74
42
 0
VERTEX
 8
CILINDRO_5
 10
0
 20
0
 30
0
 70
128
 71
1
 72
39
 73
43
 74
43
 0
VERTEX
 8
CILINDRO_5
 10
0
 20
0
 30
0
 70
128
 71
40
 72
41
 73
45
 74
44
 0
VERTEX
 8
CILINDRO_5
 10
0
 20
0
 30
0
 70
128
 71
42
 72
2
 73
46
 74
46
 0
VERTEX
 8
CILINDRO_5
 10
0
 20
0
 30
0
 70
128
 71
1
 72
43
 73
47
 74
47
 0
VERTEX
 8
CILINDRO_5
 10
0
 20
0
 30
0
 70
128
 71
44
 72
45
 73
49
 74
48
 0
VERTEX
 8
CILINDRO_5
 10
0
 20
0
 30
0
 70
128
 71
46
 72
2
 73
50
 74
50
 0
VERTEX
 8
CILINDRO_5
 10
0
 20
0
 30
0
 70
128
 71
1
 72
47
 73
51
 74
51
 0
VERTEX
 8
CILINDRO_5
 10
0
 20
0
 30
0
 70
128
 71
48
 72
49
 73
53
 74
52
 0
VERTEX
 8
CILINDRO_5
 10
0
 20
0
 30
0
 70
128
 71
50
 72
2
 73
54
 74
54
 0
VERTEX
 8
CILINDRO_5
 10
0
 20
0
 30
0
 70
128
 71
1
 72
51
 73
55
 74
55
 0
VERTEX
 8
CILINDRO_5
 10
0
 20
0
 30
0
 70
128
 71
52
 72
53
 73
57
 74
56
 0
VERTEX
 8
CILINDRO_5
 10
0
 20
0
 30
0
 70
128
 71
54
 72
2
 73
58
 74
58
 0
VERTEX
 8
CILINDRO_5
 10
0
 20
0
 30
0
 70
128
 71
1
 72
55
 73
59
 74
59
 0
VERTEX
 8
CILINDRO_5
 10
0
 20
0
 30
0
 70
128
 71
56
 72
57
 73
61
 74
60
 0
VERTEX
 8
CILINDRO_5
 10
0
 20
0
 30
0
 70
128
 71
58
 72
2
 73
62
 74
62
 0
VERTEX
 8
CILINDRO_5
 10
0
 20
0
 30
0
 70
128
 71
1
 72
59
 73
63
 74
63
 0
VERTEX
 8
CILINDRO_5
 10
0
 20
0
 30
0
 70
128
 71
60
 72
61
 73
65
 74
64
 0
VERTEX
 8
CILINDRO_5
 10
0
 20
0
 30
0
 70
128
 71
62
 72
2
 73
66
 74
66
 0
VERTEX
 8
CILINDRO_5
 10
0
 20
0
 30
0
 70
128
 71
1
 72
63
 73
67
 74
67
 0
VERTEX
 8
CILINDRO_5
 10
0
 20
0
 30
0
 70
128
 71
64
 72
65
 73
69
 74
68
 0
VERTEX
 8
CILINDRO_5
 10
0
 20
0
 30
0
 70
128
 71
66
 72
2
 73
70
 74
70
 0
VERTEX
 8
CILINDRO_5
 10
0
 20
0
 30
0
 70
128
 71
1
 72
67
 73
71
 74
71
 0
VERTEX
 8
CILINDRO_5
 10
0
 20
0
 30
0
 70
128
 71
68
 72
69
 73
73
 74
72
 0
VERTEX
 8
CILINDRO_5
 10
0
 20
0
 30
0
 70
128
 71
70
 72
2
 73
74
 74
74
 0
VERTEX
 8
CILINDRO_5
 10
0
 20
0
 30
0
 70
128
 71
1
 72
71
 73
75
 74
75
 0
VERTEX
 8
CILINDRO_5
 10
0
 20
0
 30
0
 70
128
 71
72
 72
73
 73
77
 74
76
 0
VERTEX
 8
CILINDRO_5
 10
0
 20
0
 30
0
 70
128
 71
74
 72
2
 73
78
 74
78
 0
VERTEX
 8
CILINDRO_5
 10
0
 20
0
 30
0
 70
128
 71
1
 72
75
 73
79
 74
79
 0
VERTEX
 8
CILINDRO_5
 10
0
 20
0
 30
0
 70
128
 71
76
 72
77
 73
81
 74
80
 0
VERTEX
 8
CILINDRO_5
 10
0
 20
0
 30
0
 70
128
 71
78
 72
2
 73
82
 74
82
 0
VERTEX
 8
CILINDRO_5
 10
0
 20
0
 30
0
 70
128
 71
1
 72
79
 73
83
 74
83
 0
VERTEX
 8
CILINDRO_5
 10
0
 20
0
 30
0
 70
128
 71
80
 72
81
 73
85
 74
84
 0
VERTEX
 8
CILINDRO_5
 10
0
 20
0
 30
0
 70
128
 71
82
 72
2
 73
86
 74
86
 0
VERTEX
 8
CILINDRO_5
 10
0
 20
0
 30
0
 70
128
 71
1
 72
83
 73
87
 74
87
 0
VERTEX
 8
CILINDRO_5
 10
0
 20
0
 30
0
 70
128
 71
84
 72
85
 73
89
 74
88
 0
VERTEX
 8
CILINDRO_5
 10
0
 20
0
 30
0
 70
128
 71
86
 72
2
 73
90
 74
90
 0
VERTEX
 8
CILINDRO_5
 10
0
 20
0
 30
0
 70
128
 71
1
 72
87
 73
91
 74
91
 0
VERTEX
 8
CILINDRO_5
 10
0
 20
0
 30
0
 70
128
 71
88
 72
89
 73
93
 74
92
 0
VERTEX
 8
CILINDRO_5
 10
0
 20
0
 30
0
 70
128
 71
90
 72
2
 73
94
 74
94
 0
VERTEX
 8
CILINDRO_5
 10
0
 20
0
 30
0
 70
128
 71
1
 72
91
 73
95
 74
95
 0
VERTEX
 8
CILINDRO_5
 10
0
 20
0
 30
0
 70
128
 71
92
 72
93
 73
97
 74
96
 0
VERTEX
 8
CILINDRO_5
 10
0
 20
0
 30
0
 70
128
 71
94
 72
2
 73
98
 74
98
 0
VERTEX
 8
CILINDRO_5
 10
0
 20
0
 30
0
 70
128
 71
1
 72
95
 73
99
 74
99
 0
VERTEX
 8
CILINDRO_5
 10
0
 20
0
 30
0
 70
128
 71
96
 72
97
 73
101
 74
100
 0
VERTEX
 8
CILINDRO_5
 10
0
 20
0
 30
0
 70
128
 71
98
 72
2
 73
102
 74
102
 0
VERTEX
 8
CILINDRO_5
 10
0
 20
0
 30
0
 70
128
 71
1
 72
99
 73
103
 74
103
 0
VERTEX
 8
CILINDRO_5
 10
0
 20
0
 30
0
 70
128
 71
100
 72
101
 73
105
 74
104
 0
VERTEX
 8
CILINDRO_5
 10
0
 20
0
 30
0
 70
128
 71
102
 72
2
 73
106
 74
106
 0
VERTEX
 8
CILINDRO_5
 10
0
 20
0
 30
0
 70
128
 71
1
 72
103
 73
107
 74
107
 0
VERTEX
 8
CILINDRO_5
 10
0
 20
0
 30
0
 70
128
 71
104
 72
105
 73
109
 74
108
 0
VERTEX
 8
CILINDRO_5
 10
0
 20
0
 30
0
 70
128
 71
106
 72
2
 73
110
 74
110
 0
VERTEX
 8
CILINDRO_5
 10
0
 20
0
 30
0
 70
128
 71
1
 72
107
 73
111
 74
111
 0
VERTEX
 8
CILINDRO_5
 10
0
 20
0
 30
0
 70
128
 71
108
 72
109
 73
113
 74
112
 0
VERTEX
 8
CILINDRO_5
 10
0
 20
0
 30
0
 70
128
 71
110
 72
2
 73
114
 74
114
 0
VERTEX
 8
CILINDRO_5
 10
0
 20
0
 30
0
 70
128
 71
1
 72
111
 73
115
 74
115
 0
VERTEX
 8
CILINDRO_5
 10
0
 20
0
 30
0
 70
128
 71
112
 72
113
 73
117
 74
116
 0
VERTEX
 8
CILINDRO_5
 10
0
 20
0
 30
0
 70
128
 71
114
 72
2
 73
118
 74
118
 0
VERTEX
 8
CILINDRO_5
 10
0
 20
0
 30
0
 70
128
 71
1
 72
115
 73
119
 74
119
 0
VERTEX
 8
CILINDRO_5
 10
0
 20
0
 30
0
 70
128
 71
116
 72
117
 73
121
 74
120
 0
VERTEX
 8
CILINDRO_5
 10
0
 20
0
 30
0
 70
128
 71
118
 72
2
 73
122
 74
122
 0
VERTEX
 8
CILINDRO_5
 10
0
 20
0
 30
0
 70
128
 71
1
 72
119
 73
123
 74
123
 0
VERTEX
 8
CILINDRO_5
 10
0
 20
0
 30
0
 70
128
 71
120
 72
121
 73
125
 74
124
 0
VERTEX
 8
CILINDRO_5
 10
0
 20
0
 30
0
 70
128
 71
122
 72
2
 73
126
 74
126
 0
VERTEX
 8
CILINDRO_5
 10
0
 20
0
 30
0
 70
128
 71
1
 72
123
 73
127
 74
127
 0
VERTEX
 8
CILINDRO_5
 10
0
 20
0
 30
0
 70
128
 71
124
 72
125
 73
129
 74
128
 0
VERTEX
 8
CILINDRO_5
 10
0
 20
0
 30
0
 70
128
 71
126
 72
2
 73
130
 74
130
 0
VERTEX
 8
CILINDRO_5
 10
0
 20
0
 30
0
 70
128
 71
1
 72
127
 73
131
 74
131
 0
VERTEX
 8
CILINDRO_5
 10
0
 20
0
 30
0
 70
128
 71
128
 72
129
 73
133
 74
132
 0
VERTEX
 8
CILINDRO_5
 10
0
 20
0
 30
0
 70
128
 71
130
 72
2
 73
134
 74
134
 0
VERTEX
 8
CILINDRO_5
 10
0
 20
0
 30
0
 70
128
 71
1
 72
131
 73
135
 74
135
 0
VERTEX
 8
CILINDRO_5
 10
0
 20
0
 30
0
 70
128
 71
132
 72
133
 73
137
 74
136
 0
VERTEX
 8
CILINDRO_5
 10
0
 20
0
 30
0
 70
128
 71
134
 72
2
 73
138
 74
138
 0
VERTEX
 8
CILINDRO_5
 10
0
 20
0
 30
0
 70
128
 71
1
 72
135
 73
139
 74
139
 0
VERTEX
 8
CILINDRO_5
 10
0
 20
0
 30
0
 70
128
 71
136
 72
137
 73
141
 74
140
 0
VERTEX
 8
CILINDRO_5
 10
0
 20
0
 30
0
 70
128
 71
138
 72
2
 73
142
 74
142
 0
VERTEX
 8
CILINDRO_5
 10
0
 20
0
 30
0
 70
128
 71
1
 72
139
 73
143
 74
143
 0
VERTEX
 8
CILINDRO_5
 10
0
 20
0
 30
0
 70
128
 71
140
 72
141
 73
145
 74
144
 0
VERTEX
 8
CILINDRO_5
 10
0
 20
0
 30
0
 70
128
 71
142
 72
2
 73
146
 74
146
 0
VERTEX
 8
CILINDRO_5
 10
0
 20
0
 30
0
 70
128
 71
1
 72
143
 73
3
 74
3
 0
VERTEX
 8
CILINDRO_5
 10
0
 20
0
 30
0
 70
128
 71
144
 72
145
 73
5
 74
4
 0
VERTEX
 8
CILINDRO_5
 10
0
 20
0
 30
0
 70
128
 71
146
 72
2
 73
6
 74
6
 0
SEQEND
 0
POLYLINE
 8
CILINDRO_4
 66
1
 10
0.0
 20
0.0
 30
0.0
 70
64
 71
290
 72
324
 0
VERTEX
 8
CILINDRO_4
 10
-22.9999
 20
-6.7108
 30
0.0004
 70
192
 0
VERTEX
 8
CILINDRO_4
 10
-22.9999
 20
-6.7108
 30
1.4997
 70
192
 0
VERTEX
 8
CILINDRO_4
 10
-22.9999
 20
-9.7237
 30
1.4997
 70
192
 0
VERTEX
 8
CILINDRO_4
 10
-22.4767
 20
-9.6779
 30
1.4997
 70
192
 0
VERTEX
 8
CILINDRO_4
 10
-21.9694
 20
-9.542
 30
1.4997
 70
192
 0
VERTEX
 8
CILINDRO_4
 10
-21.4934
 20
-9.32
 30
1.4997
 70
192
 0
VERTEX
 8
CILINDRO_4
 10
-21.0632
 20
-9.0188
 30
1.4997
 70
192
 0
VERTEX
 8
CILINDRO_4
 10
-20.6918
 20
-8.6474
 30
1.4997
 70
192
 0
VERTEX
 8
CILINDRO_4
 10
-20.3906
 20
-8.2172
 30
1.4997
 70
192
 0
VERTEX
 8
CILINDRO_4
 10
-20.1687
 20
-7.7413
 30
1.4997
 70
192
 0
VERTEX
 8
CILINDRO_4
 10
-20.0327
 20
-7.234
 30
1.4997
 70
192
 0
VERTEX
 8
CILINDRO_4
 10
-19.987
 20
-6.7108
 30
1.4997
 70
192
 0
VERTEX
 8
CILINDRO_4
 10
-20.0327
 20
-6.1876
 30
1.4997
 70
192
 0
VERTEX
 8
CILINDRO_4
 10
-20.1687
 20
-5.6803
 30
1.4997
 70
192
 0
VERTEX
 8
CILINDRO_4
 10
-20.3906
 20
-5.2043
 30
1.4997
 70
192
 0
VERTEX
 8
CILINDRO_4
 10
-20.6918
 20
-4.7741
 30
1.4997
 70
192
 0
VERTEX
 8
CILINDRO_4
 10
-21.0632
 20
-4.4028
 30
1.4997
 70
192
 0
VERTEX
 8
CILINDRO_4
 10
-21.4934
 20
-4.1015
 30
1.4997
 70
192
 0
VERTEX
 8
CILINDRO_4
 10
-21.9694
 20
-3.8796
 30
1.4997
 70
192
 0
VERTEX
 8
CILINDRO_4
 10
-22.4767
 20
-3.7437
 30
1.4997
 70
192
 0
VERTEX
 8
CILINDRO_4
 10
-22.9999
 20
-3.6979
 30
1.4997
 70
192
 0
VERTEX
 8
CILINDRO_4
 10
-23.523
 20
-3.7437
 30
1.4997
 70
192
 0
VERTEX
 8
CILINDRO_4
 10
-24.0303
 20
-3.8796
 30
1.4997
 70
192
 0
VERTEX
 8
CILINDRO_4
 10
-24.5063
 20
-4.1015
 30
1.4997
 70
192
 0
VERTEX
 8
CILINDRO_4
 10
-24.9365
 20
-4.4028
 30
1.4997
 70
192
 0
VERTEX
 8
CILINDRO_4
 10
-25.3079
 20
-4.7741
 30
1.4997
 70
192
 0
VERTEX
 8
CILINDRO_4
 10
-25.6091
 20
-5.2043
 30
1.4997
 70
192
 0
VERTEX
 8
CILINDRO_4
 10
-25.8311
 20
-5.6803
 30
1.4997
 70
192
 0
VERTEX
 8
CILINDRO_4
 10
-25.967
 20
-6.1876
 30
1.4997
 70
192
 0
VERTEX
 8
CILINDRO_4
 10
-26.0128
 20
-6.7108
 30
1.4997
 70
192
 0
VERTEX
 8
CILINDRO_4
 10
-25.967
 20
-7.234
 30
1.4997
 70
192
 0
VERTEX
 8
CILINDRO_4
 10
-25.8311
 20
-7.7413
 30
1.4997
 70
192
 0
VERTEX
 8
CILINDRO_4
 10
-25.6091
 20
-8.2172
 30
1.4997
 70
192
 0
VERTEX
 8
CILINDRO_4
 10
-25.3079
 20
-8.6474
 30
1.4997
 70
192
 0
VERTEX
 8
CILINDRO_4
 10
-24.9365
 20
-9.0188
 30
1.4997
 70
192
 0
VERTEX
 8
CILINDRO_4
 10
-24.5063
 20
-9.32
 30
1.4997
 70
192
 0
VERTEX
 8
CILINDRO_4
 10
-24.0303
 20
-9.542
 30
1.4997
 70
192
 0
VERTEX
 8
CILINDRO_4
 10
-23.523
 20
-9.6779
 30
1.4997
 70
192
 0
VERTEX
 8
CILINDRO_4
 10
-22.5638
 20
-9.1836
 30
0.0004
 70
192
 0
VERTEX
 8
CILINDRO_4
 10
-22.9999
 20
-9.7237
 30
0.5004
 70
192
 0
VERTEX
 8
CILINDRO_4
 10
-22.1411
 20
-9.0703
 30
0.0004
 70
192
 0
VERTEX
 8
CILINDRO_4
 10
-22.4767
 20
-9.6779
 30
0.5004
 70
192
 0
VERTEX
 8
CILINDRO_4
 10
-21.7444
 20
-8.8854
 30
0.0004
 70
192
 0
VERTEX
 8
CILINDRO_4
 10
-21.9694
 20
-9.542
 30
0.5004
 70
192
 0
VERTEX
 8
CILINDRO_4
 10
-21.3858
 20
-8.6343
 30
0.0004
 70
192
 0
VERTEX
 8
CILINDRO_4
 10
-21.4934
 20
-9.32
 30
0.5004
 70
192
 0
VERTEX
 8
CILINDRO_4
 10
-21.0763
 20
-8.3248
 30
0.0004
 70
192
 0
VERTEX
 8
CILINDRO_4
 10
-21.0632
 20
-9.0188
 30
0.5004
 70
192
 0
VERTEX
 8
CILINDRO_4
 10
-20.8253
 20
-7.9663
 30
0.0004
 70
192
 0
VERTEX
 8
CILINDRO_4
 10
-20.6918
 20
-8.6474
 30
0.5004
 70
192
 0
VERTEX
 8
CILINDRO_4
 10
-20.3906
 20
-8.2172
 30
0.5004
 70
192
 0
VERTEX
 8
CILINDRO_4
 10
-20.6403
 20
-7.5696
 30
0.0004
 70
192
 0
VERTEX
 8
CILINDRO_4
 10
-20.527
 20
-7.1468
 30
0.0004
 70
192
 0
VERTEX
 8
CILINDRO_4
 10
-20.1687
 20
-7.7413
 30
0.5004
 70
192
 0
VERTEX
 8
CILINDRO_4
 10
-20.0327
 20
-7.234
 30
0.5004
 70
192
 0
VERTEX
 8
CILINDRO_4
 10
-20.4889
 20
-6.7108
 30
0.0004
 70
192
 0
VERTEX
 8
CILINDRO_4
 10
-20.527
 20
-6.2748
 30
0.0004
 70
192
 0
VERTEX
 8
CILINDRO_4
 10
-19.987
 20
-6.7108
 30
0.5004
 70
192
 0
VERTEX
 8
CILINDRO_4
 10
-20.0327
 20
-6.1876
 30
0.5004
 70
192
 0
VERTEX
 8
CILINDRO_4
 10
-20.6403
 20
-5.852
 30
0.0004
 70
192
 0
VERTEX
 8
CILINDRO_4
 10
-20.1687
 20
-5.6803
 30
0.5004
 70
192
 0
VERTEX
 8
CILINDRO_4
 10
-20.8253
 20
-5.4553
 30
0.0004
 70
192
 0
VERTEX
 8
CILINDRO_4
 10
-21.3858
 20
-4.7873
 30
0.0004
 70
192
 0
VERTEX
 8
CILINDRO_4
 10
-21.0763
 20
-5.0968
 30
0.0004
 70
192
 0
VERTEX
 8
CILINDRO_4
 10
-20.3906
 20
-5.2043
 30
0.5004
 70
192
 0
VERTEX
 8
CILINDRO_4
 10
-21.7444
 20
-4.5362
 30
0.0004
 70
192
 0
VERTEX
 8
CILINDRO_4
 10
-21.0632
 20
-4.4028
 30
0.5004
 70
192
 0
VERTEX
 8
CILINDRO_4
 10
-20.6918
 20
-4.7741
 30
0.5004
 70
192
 0
VERTEX
 8
CILINDRO_4
 10
-21.4934
 20
-4.1015
 30
0.5004
 70
192
 0
VERTEX
 8
CILINDRO_4
 10
-23.523
 20
-9.6779
 30
0.5004
 70
192
 0
VERTEX
 8
CILINDRO_4
 10
-22.1411
 20
-4.3512
 30
0.0004
 70
192
 0
VERTEX
 8
CILINDRO_4
 10
-22.9999
 20
-9.2218
 30
0.0004
 70
192
 0
VERTEX
 8
CILINDRO_4
 10
-22.9999
 20
-4.1998
 30
0.0004
 70
192
 0
VERTEX
 8
CILINDRO_4
 10
-21.9694
 20
-3.8796
 30
0.5004
 70
192
 0
VERTEX
 8
CILINDRO_4
 10
-22.5638
 20
-4.2379
 30
0.0004
 70
192
 0
VERTEX
 8
CILINDRO_4
 10
-22.9999
 20
-3.6979
 30
0.5004
 70
192
 0
VERTEX
 8
CILINDRO_4
 10
-23.4359
 20
-4.2379
 30
0.0004
 70
192
 0
VERTEX
 8
CILINDRO_4
 10
-22.4767
 20
-3.7437
 30
0.5004
 70
192
 0
VERTEX
 8
CILINDRO_4
 10
-23.523
 20
-3.7437
 30
0.5004
 70
192
 0
VERTEX
 8
CILINDRO_4
 10
-23.8587
 20
-4.3512
 30
0.0004
 70
192
 0
VERTEX
 8
CILINDRO_4
 10
-24.0303
 20
-3.8796
 30
0.5004
 70
192
 0
VERTEX
 8
CILINDRO_4
 10
-24.2554
 20
-4.5362
 30
0.0004
 70
192
 0
VERTEX
 8
CILINDRO_4
 10
-24.5063
 20
-4.1015
 30
0.5004
 70
192
 0
VERTEX
 8
CILINDRO_4
 10
-24.6139
 20
-4.7873
 30
0.0004
 70
192
 0
VERTEX
 8
CILINDRO_4
 10
-24.9365
 20
-4.4028
 30
0.5004
 70
192
 0
VERTEX
 8
CILINDRO_4
 10
-24.9234
 20
-5.0968
 30
0.0004
 70
192
 0
VERTEX
 8
CILINDRO_4
 10
-25.3079
 20
-4.7741
 30
0.5004
 70
192
 0
VERTEX
 8
CILINDRO_4
 10
-25.1744
 20
-5.4553
 30
0.0004
 70
192
 0
VERTEX
 8
CILINDRO_4
 10
-25.6091
 20
-5.2043
 30
0.5004
 70
192
 0
VERTEX
 8
CILINDRO_4
 10
-25.3594
 20
-5.852
 30
0.0004
 70
192
 0
VERTEX
 8
CILINDRO_4
 10
-25.8311
 20
-5.6803
 30
0.5004
 70
192
 0
VERTEX
 8
CILINDRO_4
 10
-25.4727
 20
-6.2748
 30
0.0004
 70
192
 0
VERTEX
 8
CILINDRO_4
 10
-25.967
 20
-6.1876
 30
0.5004
 70
192
 0
VERTEX
 8
CILINDRO_4
 10
-25.5109
 20
-6.7108
 30
0.0004
 70
192
 0
VERTEX
 8
CILINDRO_4
 10
-26.0128
 20
-6.7108
 30
0.5004
 70
192
 0
VERTEX
 8
CILINDRO_4
 10
-25.4727
 20
-7.1468
 30
0.0004
 70
192
 0
VERTEX
 8
CILINDRO_4
 10
-25.967
 20
-7.234
 30
0.5004
 70
192
 0
VERTEX
 8
CILINDRO_4
 10
-25.3594
 20
-7.5696
 30
0.0004
 70
192
 0
VERTEX
 8
CILINDRO_4
 10
-25.8311
 20
-7.7413
 30
0.5004
 70
192
 0
VERTEX
 8
CILINDRO_4
 10
-25.1744
 20
-7.9663
 30
0.0004
 70
192
 0
VERTEX
 8
CILINDRO_4
 10
-25.6091
 20
-8.2172
 30
0.5004
 70
192
 0
VERTEX
 8
CILINDRO_4
 10
-24.9234
 20
-8.3248
 30
0.0004
 70
192
 0
VERTEX
 8
CILINDRO_4
 10
-25.3079
 20
-8.6474
 30
0.5004
 70
192
 0
VERTEX
 8
CILINDRO_4
 10
-24.6139
 20
-8.6343
 30
0.0004
 70
192
 0
VERTEX
 8
CILINDRO_4
 10
-24.9365
 20
-9.0188
 30
0.5004
 70
192
 0
VERTEX
 8
CILINDRO_4
 10
-24.2554
 20
-8.8854
 30
0.0004
 70
192
 0
VERTEX
 8
CILINDRO_4
 10
-24.5063
 20
-9.32
 30
0.5004
 70
192
 0
VERTEX
 8
CILINDRO_4
 10
-23.8587
 20
-9.0703
 30
0.0004
 70
192
 0
VERTEX
 8
CILINDRO_4
 10
-24.0303
 20
-9.542
 30
0.5004
 70
192
 0
VERTEX
 8
CILINDRO_4
 10
-23.4359
 20
-9.1836
 30
0.0004
 70
192
 0
VERTEX
 8
CILINDRO_4
 10
-24.0251
 20
-9.5277
 30
0.3784
 70
192
 0
VERTEX
 8
CILINDRO_4
 10
-24.0084
 20
-9.4817
 30
0.2559
 70
192
 0
VERTEX
 8
CILINDRO_4
 10
-23.9801
 20
-9.4038
 30
0.1469
 70
192
 0
VERTEX
 8
CILINDRO_4
 10
-23.9426
 20
-9.301
 30
0.0643
 70
192
 0
VERTEX
 8
CILINDRO_4
 10
-23.9006
 20
-9.1854
 30
0.0156
 70
192
 0
VERTEX
 8
CILINDRO_4
 10
-22.9999
 20
-9.3443
 30
0.0156
 70
192
 0
VERTEX
 8
CILINDRO_4
 10
-22.9999
 20
-9.4672
 30
0.0643
 70
192
 0
VERTEX
 8
CILINDRO_4
 10
-22.9999
 20
-9.5767
 30
0.1469
 70
192
 0
VERTEX
 8
CILINDRO_4
 10
-22.9999
 20
-9.6596
 30
0.2559
 70
192
 0
VERTEX
 8
CILINDRO_4
 10
-22.9999
 20
-9.7085
 30
0.3784
 70
192
 0
VERTEX
 8
CILINDRO_4
 10
-25.2963
 20
-8.6377
 30
0.3784
 70
192
 0
VERTEX
 8
CILINDRO_4
 10
-25.2588
 20
-8.6062
 30
0.2559
 70
192
 0
VERTEX
 8
CILINDRO_4
 10
-25.1953
 20
-8.5529
 30
0.1469
 70
192
 0
VERTEX
 8
CILINDRO_4
 10
-25.1114
 20
-8.4826
 30
0.0643
 70
192
 0
VERTEX
 8
CILINDRO_4
 10
-25.0172
 20
-8.4036
 30
0.0156
 70
192
 0
VERTEX
 8
CILINDRO_4
 10
-22.5426
 20
-9.3043
 30
0.0156
 70
192
 0
VERTEX
 8
CILINDRO_4
 10
-22.5212
 20
-9.4254
 30
0.0643
 70
192
 0
VERTEX
 8
CILINDRO_4
 10
-22.5022
 20
-9.5331
 30
0.1469
 70
192
 0
VERTEX
 8
CILINDRO_4
 10
-22.4878
 20
-9.6148
 30
0.2559
 70
192
 0
VERTEX
 8
CILINDRO_4
 10
-22.4793
 20
-9.663
 30
0.3784
 70
192
 0
VERTEX
 8
CILINDRO_4
 10
-24.9268
 20
-9.0072
 30
0.3784
 70
192
 0
VERTEX
 8
CILINDRO_4
 10
-24.8953
 20
-8.9697
 30
0.2559
 70
192
 0
VERTEX
 8
CILINDRO_4
 10
-24.842
 20
-8.9062
 30
0.1469
 70
192
 0
VERTEX
 8
CILINDRO_4
 10
-24.7717
 20
-8.8223
 30
0.0643
 70
192
 0
VERTEX
 8
CILINDRO_4
 10
-24.6926
 20
-8.7281
 30
0.0156
 70
192
 0
VERTEX
 8
CILINDRO_4
 10
-22.0992
 20
-9.1854
 30
0.0156
 70
192
 0
VERTEX
 8
CILINDRO_4
 10
-22.0571
 20
-9.301
 30
0.0643
 70
192
 0
VERTEX
 8
CILINDRO_4
 10
-22.0197
 20
-9.4038
 30
0.1469
 70
192
 0
VERTEX
 8
CILINDRO_4
 10
-21.9913
 20
-9.4817
 30
0.2559
 70
192
 0
VERTEX
 8
CILINDRO_4
 10
-21.9746
 20
-9.5277
 30
0.3784
 70
192
 0
VERTEX
 8
CILINDRO_4
 10
-21.6831
 20
-8.9914
 30
0.0156
 70
192
 0
VERTEX
 8
CILINDRO_4
 10
-21.6216
 20
-9.0979
 30
0.0643
 70
192
 0
VERTEX
 8
CILINDRO_4
 10
-21.5669
 20
-9.1927
 30
0.1469
 70
192
 0
VERTEX
 8
CILINDRO_4
 10
-21.5255
 20
-9.2645
 30
0.2559
 70
192
 0
VERTEX
 8
CILINDRO_4
 10
-21.501
 20
-9.3069
 30
0.3784
 70
192
 0
VERTEX
 8
CILINDRO_4
 10
-21.3071
 20
-8.7281
 30
0.0156
 70
192
 0
VERTEX
 8
CILINDRO_4
 10
-21.2281
 20
-8.8223
 30
0.0643
 70
192
 0
VERTEX
 8
CILINDRO_4
 10
-21.1577
 20
-8.9062
 30
0.1469
 70
192
 0
VERTEX
 8
CILINDRO_4
 10
-21.1044
 20
-8.9697
 30
0.2559
 70
192
 0
VERTEX
 8
CILINDRO_4
 10
-21.073
 20
-9.0072
 30
0.3784
 70
192
 0
VERTEX
 8
CILINDRO_4
 10
-23.5204
 20
-9.663
 30
0.3784
 70
192
 0
VERTEX
 8
CILINDRO_4
 10
-23.5119
 20
-9.6148
 30
0.2559
 70
192
 0
VERTEX
 8
CILINDRO_4
 10
-23.4975
 20
-9.5331
 30
0.1469
 70
192
 0
VERTEX
 8
CILINDRO_4
 10
-23.4785
 20
-9.4254
 30
0.0643
 70
192
 0
VERTEX
 8
CILINDRO_4
 10
-23.4572
 20
-9.3043
 30
0.0156
 70
192
 0
VERTEX
 8
CILINDRO_4
 10
-20.9825
 20
-8.4036
 30
0.0156
 70
192
 0
VERTEX
 8
CILINDRO_4
 10
-20.8883
 20
-8.4826
 30
0.0643
 70
192
 0
VERTEX
 8
CILINDRO_4
 10
-20.8045
 20
-8.5529
 30
0.1469
 70
192
 0
VERTEX
 8
CILINDRO_4
 10
-20.741
 20
-8.6062
 30
0.2559
 70
192
 0
VERTEX
 8
CILINDRO_4
 10
-20.7035
 20
-8.6377
 30
0.3784
 70
192
 0
VERTEX
 8
CILINDRO_4
 10
-20.7192
 20
-8.0275
 30
0.0156
 70
192
 0
VERTEX
 8
CILINDRO_4
 10
-20.6127
 20
-8.089
 30
0.0643
 70
192
 0
VERTEX
 8
CILINDRO_4
 10
-20.5179
 20
-8.1437
 30
0.1469
 70
192
 0
VERTEX
 8
CILINDRO_4
 10
-20.4461
 20
-8.1852
 30
0.2559
 70
192
 0
VERTEX
 8
CILINDRO_4
 10
-20.4038
 20
-8.2096
 30
0.3784
 70
192
 0
VERTEX
 8
CILINDRO_4
 10
-20.1829
 20
-7.7361
 30
0.3784
 70
192
 0
VERTEX
 8
CILINDRO_4
 10
-20.2289
 20
-7.7193
 30
0.2559
 70
192
 0
VERTEX
 8
CILINDRO_4
 10
-20.3068
 20
-7.691
 30
0.1469
 70
192
 0
VERTEX
 8
CILINDRO_4
 10
-20.4097
 20
-7.6535
 30
0.0643
 70
192
 0
VERTEX
 8
CILINDRO_4
 10
-20.5252
 20
-7.6115
 30
0.0156
 70
192
 0
VERTEX
 8
CILINDRO_4
 10
-20.4064
 20
-7.1681
 30
0.0156
 70
192
 0
VERTEX
 8
CILINDRO_4
 10
-20.2853
 20
-7.1894
 30
0.0643
 70
192
 0
VERTEX
 8
CILINDRO_4
 10
-20.1775
 20
-7.2084
 30
0.1469
 70
192
 0
VERTEX
 8
CILINDRO_4
 10
-20.0959
 20
-7.2228
 30
0.2559
 70
192
 0
VERTEX
 8
CILINDRO_4
 10
-20.0477
 20
-7.2313
 30
0.3784
 70
192
 0
VERTEX
 8
CILINDRO_4
 10
-20.0021
 20
-6.7108
 30
0.3784
 70
192
 0
VERTEX
 8
CILINDRO_4
 10
-20.0511
 20
-6.7108
 30
0.2559
 70
192
 0
VERTEX
 8
CILINDRO_4
 10
-20.134
 20
-6.7108
 30
0.1469
 70
192
 0
VERTEX
 8
CILINDRO_4
 10
-20.2434
 20
-6.7108
 30
0.0643
 70
192
 0
VERTEX
 8
CILINDRO_4
 10
-20.3664
 20
-6.7108
 30
0.0156
 70
192
 0
VERTEX
 8
CILINDRO_4
 10
-20.4064
 20
-6.2535
 30
0.0156
 70
192
 0
VERTEX
 8
CILINDRO_4
 10
-20.2853
 20
-6.2321
 30
0.0643
 70
192
 0
VERTEX
 8
CILINDRO_4
 10
-20.1775
 20
-6.2131
 30
0.1469
 70
192
 0
VERTEX
 8
CILINDRO_4
 10
-20.0959
 20
-6.1987
 30
0.2559
 70
192
 0
VERTEX
 8
CILINDRO_4
 10
-20.0477
 20
-6.1902
 30
0.3784
 70
192
 0
VERTEX
 8
CILINDRO_4
 10
-20.1829
 20
-5.6855
 30
0.3784
 70
192
 0
VERTEX
 8
CILINDRO_4
 10
-20.2289
 20
-5.7022
 30
0.2559
 70
192
 0
VERTEX
 8
CILINDRO_4
 10
-20.3068
 20
-5.7306
 30
0.1469
 70
192
 0
VERTEX
 8
CILINDRO_4
 10
-20.4097
 20
-5.768
 30
0.0643
 70
192
 0
VERTEX
 8
CILINDRO_4
 10
-20.5252
 20
-5.8101
 30
0.0156
 70
192
 0
VERTEX
 8
CILINDRO_4
 10
-20.4038
 20
-5.2119
 30
0.3784
 70
192
 0
VERTEX
 8
CILINDRO_4
 10
-20.4461
 20
-5.2364
 30
0.2559
 70
192
 0
VERTEX
 8
CILINDRO_4
 10
-20.5179
 20
-5.2778
 30
0.1469
 70
192
 0
VERTEX
 8
CILINDRO_4
 10
-20.6127
 20
-5.3326
 30
0.0643
 70
192
 0
VERTEX
 8
CILINDRO_4
 10
-20.7192
 20
-5.394
 30
0.0156
 70
192
 0
VERTEX
 8
CILINDRO_4
 10
-20.9825
 20
-5.018
 30
0.0156
 70
192
 0
VERTEX
 8
CILINDRO_4
 10
-20.8883
 20
-4.939
 30
0.0643
 70
192
 0
VERTEX
 8
CILINDRO_4
 10
-20.8045
 20
-4.8686
 30
0.1469
 70
192
 0
VERTEX
 8
CILINDRO_4
 10
-20.741
 20
-4.8153
 30
0.2559
 70
192
 0
VERTEX
 8
CILINDRO_4
 10
-20.7035
 20
-4.7839
 30
0.3784
 70
192
 0
VERTEX
 8
CILINDRO_4
 10
-21.3071
 20
-4.6934
 30
0.0156
 70
192
 0
VERTEX
 8
CILINDRO_4
 10
-21.2281
 20
-4.5992
 30
0.0643
 70
192
 0
VERTEX
 8
CILINDRO_4
 10
-21.1577
 20
-4.5154
 30
0.1469
 70
192
 0
VERTEX
 8
CILINDRO_4
 10
-21.1044
 20
-4.4519
 30
0.2559
 70
192
 0
VERTEX
 8
CILINDRO_4
 10
-21.073
 20
-4.4144
 30
0.3784
 70
192
 0
VERTEX
 8
CILINDRO_4
 10
-21.6831
 20
-4.4301
 30
0.0156
 70
192
 0
VERTEX
 8
CILINDRO_4
 10
-21.6216
 20
-4.3236
 30
0.0643
 70
192
 0
VERTEX
 8
CILINDRO_4
 10
-21.5669
 20
-4.2288
 30
0.1469
 70
192
 0
VERTEX
 8
CILINDRO_4
 10
-21.5255
 20
-4.1571
 30
0.2559
 70
192
 0
VERTEX
 8
CILINDRO_4
 10
-21.501
 20
-4.1147
 30
0.3784
 70
192
 0
VERTEX
 8
CILINDRO_4
 10
-21.9746
 20
-3.8938
 30
0.3784
 70
192
 0
VERTEX
 8
CILINDRO_4
 10
-21.9913
 20
-3.9398
 30
0.2559
 70
192
 0
VERTEX
 8
CILINDRO_4
 10
-22.0197
 20
-4.0177
 30
0.1469
 70
192
 0
VERTEX
 8
CILINDRO_4
 10
-22.0571
 20
-4.1206
 30
0.0643
 70
192
 0
VERTEX
 8
CILINDRO_4
 10
-22.0992
 20
-4.2361
 30
0.0156
 70
192
 0
VERTEX
 8
CILINDRO_4
 10
-22.5426
 20
-4.1173
 30
0.0156
 70
192
 0
VERTEX
 8
CILINDRO_4
 10
-22.5212
 20
-3.9962
 30
0.0643
 70
192
 0
VERTEX
 8
CILINDRO_4
 10
-22.5022
 20
-3.8884
 30
0.1469
 70
192
 0
VERTEX
 8
CILINDRO_4
 10
-22.4878
 20
-3.8068
 30
0.2559
 70
192
 0
VERTEX
 8
CILINDRO_4
 10
-22.4793
 20
-3.7586
 30
0.3784
 70
192
 0
VERTEX
 8
CILINDRO_4
 10
-22.9999
 20
-4.0773
 30
0.0156
 70
192
 0
VERTEX
 8
CILINDRO_4
 10
-22.9999
 20
-3.9543
 30
0.0643
 70
192
 0
VERTEX
 8
CILINDRO_4
 10
-22.9999
 20
-3.8449
 30
0.1469
 70
192
 0
VERTEX
 8
CILINDRO_4
 10
-22.9999
 20
-3.762
 30
0.2559
 70
192
 0
VERTEX
 8
CILINDRO_4
 10
-22.9999
 20
-3.7131
 30
0.3784
 70
192
 0
VERTEX
 8
CILINDRO_4
 10
-23.5204
 20
-3.7586
 30
0.3784
 70
192
 0
VERTEX
 8
CILINDRO_4
 10
-23.5119
 20
-3.8068
 30
0.2559
 70
192
 0
VERTEX
 8
CILINDRO_4
 10
-23.4975
 20
-3.8884
 30
0.1469
 70
192
 0
VERTEX
 8
CILINDRO_4
 10
-23.4785
 20
-3.9962
 30
0.0643
 70
192
 0
VERTEX
 8
CILINDRO_4
 10
-23.4572
 20
-4.1173
 30
0.0156
 70
192
 0
VERTEX
 8
CILINDRO_4
 10
-24.0251
 20
-3.8938
 30
0.3784
 70
192
 0
VERTEX
 8
CILINDRO_4
 10
-24.0084
 20
-3.9398
 30
0.2559
 70
192
 0
VERTEX
 8
CILINDRO_4
 10
-23.9801
 20
-4.0177
 30
0.1469
 70
192
 0
VERTEX
 8
CILINDRO_4
 10
-23.9426
 20
-4.1206
 30
0.0643
 70
192
 0
VERTEX
 8
CILINDRO_4
 10
-23.9006
 20
-4.2361
 30
0.0156
 70
192
 0
VERTEX
 8
CILINDRO_4
 10
-24.4987
 20
-4.1147
 30
0.3784
 70
192
 0
VERTEX
 8
CILINDRO_4
 10
-24.4743
 20
-4.1571
 30
0.2559
 70
192
 0
VERTEX
 8
CILINDRO_4
 10
-24.4328
 20
-4.2288
 30
0.1469
 70
192
 0
VERTEX
 8
CILINDRO_4
 10
-24.3781
 20
-4.3236
 30
0.0643
 70
192
 0
VERTEX
 8
CILINDRO_4
 10
-24.3166
 20
-4.4301
 30
0.0156
 70
192
 0
VERTEX
 8
CILINDRO_4
 10
-24.9268
 20
-4.4144
 30
0.3784
 70
192
 0
VERTEX
 8
CILINDRO_4
 10
-24.8953
 20
-4.4519
 30
0.2559
 70
192
 0
VERTEX
 8
CILINDRO_4
 10
-24.842
 20
-4.5154
 30
0.1469
 70
192
 0
VERTEX
 8
CILINDRO_4
 10
-24.7717
 20
-4.5992
 30
0.0643
 70
192
 0
VERTEX
 8
CILINDRO_4
 10
-24.6926
 20
-4.6934
 30
0.0156
 70
192
 0
VERTEX
 8
CILINDRO_4
 10
-25.2963
 20
-4.7839
 30
0.3784
 70
192
 0
VERTEX
 8
CILINDRO_4
 10
-25.2588
 20
-4.8153
 30
0.2559
 70
192
 0
VERTEX
 8
CILINDRO_4
 10
-25.1953
 20
-4.8686
 30
0.1469
 70
192
 0
VERTEX
 8
CILINDRO_4
 10
-25.1114
 20
-4.939
 30
0.0643
 70
192
 0
VERTEX
 8
CILINDRO_4
 10
-25.0172
 20
-5.018
 30
0.0156
 70
192
 0
VERTEX
 8
CILINDRO_4
 10
-25.596
 20
-5.2119
 30
0.3784
 70
192
 0
VERTEX
 8
CILINDRO_4
 10
-25.5536
 20
-5.2364
 30
0.2559
 70
192
 0
VERTEX
 8
CILINDRO_4
 10
-25.4818
 20
-5.2778
 30
0.1469
 70
192
 0
VERTEX
 8
CILINDRO_4
 10
-25.387
 20
-5.3326
 30
0.0643
 70
192
 0
VERTEX
 8
CILINDRO_4
 10
-25.2805
 20
-5.394
 30
0.0156
 70
192
 0
VERTEX
 8
CILINDRO_4
 10
-25.8168
 20
-5.6855
 30
0.3784
 70
192
 0
VERTEX
 8
CILINDRO_4
 10
-25.7708
 20
-5.7022
 30
0.2559
 70
192
 0
VERTEX
 8
CILINDRO_4
 10
-25.6929
 20
-5.7306
 30
0.1469
 70
192
 0
VERTEX
 8
CILINDRO_4
 10
-25.5901
 20
-5.768
 30
0.0643
 70
192
 0
VERTEX
 8
CILINDRO_4
 10
-25.4745
 20
-5.8101
 30
0.0156
 70
192
 0
VERTEX
 8
CILINDRO_4
 10
-25.952
 20
-6.1902
 30
0.3784
 70
192
 0
VERTEX
 8
CILINDRO_4
 10
-25.9039
 20
-6.1987
 30
0.2559
 70
192
 0
VERTEX
 8
CILINDRO_4
 10
-25.8222
 20
-6.2131
 30
0.1469
 70
192
 0
VERTEX
 8
CILINDRO_4
 10
-25.7144
 20
-6.2321
 30
0.0643
 70
192
 0
VERTEX
 8
CILINDRO_4
 10
-25.5933
 20
-6.2535
 30
0.0156
 70
192
 0
VERTEX
 8
CILINDRO_4
 10
-25.9976
 20
-6.7108
 30
0.3784
 70
192
 0
VERTEX
 8
CILINDRO_4
 10
-25.9487
 20
-6.7108
 30
0.2559
 70
192
 0
VERTEX
 8
CILINDRO_4
 10
-25.8658
 20
-6.7108
 30
0.1469
 70
192
 0
VERTEX
 8
CILINDRO_4
 10
-25.7563
 20
-6.7108
 30
0.0643
 70
192
 0
VERTEX
 8
CILINDRO_4
 10
-25.6333
 20
-6.7108
 30
0.0156
 70
192
 0
VERTEX
 8
CILINDRO_4
 10
-25.952
 20
-7.2313
 30
0.3784
 70
192
 0
VERTEX
 8
CILINDRO_4
 10
-25.9039
 20
-7.2228
 30
0.2559
 70
192
 0
VERTEX
 8
CILINDRO_4
 10
-25.8222
 20
-7.2084
 30
0.1469
 70
192
 0
VERTEX
 8
CILINDRO_4
 10
-25.7144
 20
-7.1894
 30
0.0643
 70
192
 0
VERTEX
 8
CILINDRO_4
 10
-25.5933
 20
-7.1681
 30
0.0156
 70
192
 0
VERTEX
 8
CILINDRO_4
 10
-25.8168
 20
-7.7361
 30
0.3784
 70
192
 0
VERTEX
 8
CILINDRO_4
 10
-25.7708
 20
-7.7193
 30
0.2559
 70
192
 0
VERTEX
 8
CILINDRO_4
 10
-25.6929
 20
-7.691
 30
0.1469
 70
192
 0
VERTEX
 8
CILINDRO_4
 10
-25.5901
 20
-7.6535
 30
0.0643
 70
192
 0
VERTEX
 8
CILINDRO_4
 10
-25.4745
 20
-7.6115
 30
0.0156
 70
192
 0
VERTEX
 8
CILINDRO_4
 10
-25.596
 20
-8.2096
 30
0.3784
 70
192
 0
VERTEX
 8
CILINDRO_4
 10
-25.5536
 20
-8.1852
 30
0.2559
 70
192
 0
VERTEX
 8
CILINDRO_4
 10
-25.4818
 20
-8.1437
 30
0.1469
 70
192
 0
VERTEX
 8
CILINDRO_4
 10
-25.387
 20
-8.089
 30
0.0643
 70
192
 0
VERTEX
 8
CILINDRO_4
 10
-25.2805
 20
-8.0275
 30
0.0156
 70
192
 0
VERTEX
 8
CILINDRO_4
 10
-24.4987
 20
-9.3069
 30
0.3784
 70
192
 0
VERTEX
 8
CILINDRO_4
 10
-24.4743
 20
-9.2645
 30
0.2559
 70
192
 0
VERTEX
 8
CILINDRO_4
 10
-24.4328
 20
-9.1927
 30
0.1469
 70
192
 0
VERTEX
 8
CILINDRO_4
 10
-24.3781
 20
-9.0979
 30
0.0643
 70
192
 0
VERTEX
 8
CILINDRO_4
 10
-24.3166
 20
-8.9914
 30
0.0156
 70
192
 0
VERTEX
 8
CILINDRO_4
 10
0
 20
0
 30
0
 70
128
 71
1
 72
72
 73
39
 74
39
 0
VERTEX
 8
CILINDRO_4
 10
0
 20
0
 30
0
 70
128
 71
40
 72
3
 73
4
 74
42
 0
VERTEX
 8
CILINDRO_4
 10
0
 20
0
 30
0
 70
128
 71
3
 72
2
 73
4
 74
4
 0
VERTEX
 8
CILINDRO_4
 10
0
 20
0
 30
0
 70
128
 71
1
 72
39
 73
41
 74
41
 0
VERTEX
 8
CILINDRO_4
 10
0
 20
0
 30
0
 70
128
 71
42
 72
4
 73
5
 74
44
 0
VERTEX
 8
CILINDRO_4
 10
0
 20
0
 30
0
 70
128
 71
4
 72
2
 73
5
 74
5
 0
VERTEX
 8
CILINDRO_4
 10
0
 20
0
 30
0
 70
128
 71
1
 72
41
 73
43
 74
43
 0
VERTEX
 8
CILINDRO_4
 10
0
 20
0
 30
0
 70
128
 71
44
 72
5
 73
6
 74
46
 0
VERTEX
 8
CILINDRO_4
 10
0
 20
0
 30
0
 70
128
 71
5
 72
2
 73
6
 74
6
 0
VERTEX
 8
CILINDRO_4
 10
0
 20
0
 30
0
 70
128
 71
1
 72
43
 73
45
 74
45
 0
VERTEX
 8
CILINDRO_4
 10
0
 20
0
 30
0
 70
128
 71
46
 72
6
 73
7
 74
48
 0
VERTEX
 8
CILINDRO_4
 10
0
 20
0
 30
0
 70
128
 71
6
 72
2
 73
7
 74
7
 0
VERTEX
 8
CILINDRO_4
 10
0
 20
0
 30
0
 70
128
 71
1
 72
45
 73
47
 74
47
 0
VERTEX
 8
CILINDRO_4
 10
0
 20
0
 30
0
 70
128
 71
48
 72
7
 73
8
 74
50
 0
VERTEX
 8
CILINDRO_4
 10
0
 20
0
 30
0
 70
128
 71
7
 72
2
 73
8
 74
8
 0
VERTEX
 8
CILINDRO_4
 10
0
 20
0
 30
0
 70
128
 71
1
 72
47
 73
49
 74
49
 0
VERTEX
 8
CILINDRO_4
 10
0
 20
0
 30
0
 70
128
 71
50
 72
8
 73
9
 74
51
 0
VERTEX
 8
CILINDRO_4
 10
0
 20
0
 30
0
 70
128
 71
8
 72
2
 73
9
 74
9
 0
VERTEX
 8
CILINDRO_4
 10
0
 20
0
 30
0
 70
128
 71
1
 72
49
 73
52
 74
52
 0
VERTEX
 8
CILINDRO_4
 10
0
 20
0
 30
0
 70
128
 71
51
 72
9
 73
10
 74
54
 0
VERTEX
 8
CILINDRO_4
 10
0
 20
0
 30
0
 70
128
 71
9
 72
2
 73
10
 74
10
 0
VERTEX
 8
CILINDRO_4
 10
0
 20
0
 30
0
 70
128
 71
1
 72
52
 73
53
 74
53
 0
VERTEX
 8
CILINDRO_4
 10
0
 20
0
 30
0
 70
128
 71
54
 72
10
 73
11
 74
55
 0
VERTEX
 8
CILINDRO_4
 10
0
 20
0
 30
0
 70
128
 71
10
 72
2
 73
11
 74
11
 0
VERTEX
 8
CILINDRO_4
 10
0
 20
0
 30
0
 70
128
 71
1
 72
53
 73
56
 74
56
 0
VERTEX
 8
CILINDRO_4
 10
0
 20
0
 30
0
 70
128
 71
55
 72
11
 73
12
 74
58
 0
VERTEX
 8
CILINDRO_4
 10
0
 20
0
 30
0
 70
128
 71
11
 72
2
 73
12
 74
12
 0
VERTEX
 8
CILINDRO_4
 10
0
 20
0
 30
0
 70
128
 71
1
 72
56
 73
57
 74
57
 0
VERTEX
 8
CILINDRO_4
 10
0
 20
0
 30
0
 70
128
 71
58
 72
12
 73
13
 74
59
 0
VERTEX
 8
CILINDRO_4
 10
0
 20
0
 30
0
 70
128
 71
12
 72
2
 73
13
 74
13
 0
VERTEX
 8
CILINDRO_4
 10
0
 20
0
 30
0
 70
128
 71
1
 72
57
 73
60
 74
60
 0
VERTEX
 8
CILINDRO_4
 10
0
 20
0
 30
0
 70
128
 71
59
 72
13
 73
14
 74
61
 0
VERTEX
 8
CILINDRO_4
 10
0
 20
0
 30
0
 70
128
 71
13
 72
2
 73
14
 74
14
 0
VERTEX
 8
CILINDRO_4
 10
0
 20
0
 30
0
 70
128
 71
1
 72
60
 73
62
 74
62
 0
VERTEX
 8
CILINDRO_4
 10
0
 20
0
 30
0
 70
128
 71
61
 72
14
 73
15
 74
65
 0
VERTEX
 8
CILINDRO_4
 10
0
 20
0
 30
0
 70
128
 71
14
 72
2
 73
15
 74
15
 0
VERTEX
 8
CILINDRO_4
 10
0
 20
0
 30
0
 70
128
 71
1
 72
62
 73
64
 74
64
 0
VERTEX
 8
CILINDRO_4
 10
0
 20
0
 30
0
 70
128
 71
65
 72
15
 73
16
 74
68
 0
VERTEX
 8
CILINDRO_4
 10
0
 20
0
 30
0
 70
128
 71
15
 72
2
 73
16
 74
16
 0
VERTEX
 8
CILINDRO_4
 10
0
 20
0
 30
0
 70
128
 71
1
 72
64
 73
63
 74
63
 0
VERTEX
 8
CILINDRO_4
 10
0
 20
0
 30
0
 70
128
 71
68
 72
16
 73
17
 74
67
 0
VERTEX
 8
CILINDRO_4
 10
0
 20
0
 30
0
 70
128
 71
16
 72
2
 73
17
 74
17
 0
VERTEX
 8
CILINDRO_4
 10
0
 20
0
 30
0
 70
128
 71
1
 72
63
 73
66
 74
66
 0
VERTEX
 8
CILINDRO_4
 10
0
 20
0
 30
0
 70
128
 71
67
 72
17
 73
18
 74
69
 0
VERTEX
 8
CILINDRO_4
 10
0
 20
0
 30
0
 70
128
 71
17
 72
2
 73
18
 74
18
 0
VERTEX
 8
CILINDRO_4
 10
0
 20
0
 30
0
 70
128
 71
1
 72
66
 73
71
 74
71
 0
VERTEX
 8
CILINDRO_4
 10
0
 20
0
 30
0
 70
128
 71
69
 72
18
 73
19
 74
74
 0
VERTEX
 8
CILINDRO_4
 10
0
 20
0
 30
0
 70
128
 71
18
 72
2
 73
19
 74
19
 0
VERTEX
 8
CILINDRO_4
 10
0
 20
0
 30
0
 70
128
 71
1
 72
71
 73
75
 74
75
 0
VERTEX
 8
CILINDRO_4
 10
0
 20
0
 30
0
 70
128
 71
74
 72
19
 73
20
 74
78
 0
VERTEX
 8
CILINDRO_4
 10
0
 20
0
 30
0
 70
128
 71
19
 72
2
 73
20
 74
20
 0
VERTEX
 8
CILINDRO_4
 10
0
 20
0
 30
0
 70
128
 71
1
 72
75
 73
73
 74
73
 0
VERTEX
 8
CILINDRO_4
 10
0
 20
0
 30
0
 70
128
 71
78
 72
20
 73
21
 74
76
 0
VERTEX
 8
CILINDRO_4
 10
0
 20
0
 30
0
 70
128
 71
20
 72
2
 73
21
 74
21
 0
VERTEX
 8
CILINDRO_4
 10
0
 20
0
 30
0
 70
128
 71
1
 72
73
 73
77
 74
77
 0
VERTEX
 8
CILINDRO_4
 10
0
 20
0
 30
0
 70
128
 71
76
 72
21
 73
22
 74
79
 0
VERTEX
 8
CILINDRO_4
 10
0
 20
0
 30
0
 70
128
 71
21
 72
2
 73
22
 74
22
 0
VERTEX
 8
CILINDRO_4
 10
0
 20
0
 30
0
 70
128
 71
1
 72
77
 73
80
 74
80
 0
VERTEX
 8
CILINDRO_4
 10
0
 20
0
 30
0
 70
128
 71
79
 72
22
 73
23
 74
81
 0
VERTEX
 8
CILINDRO_4
 10
0
 20
0
 30
0
 70
128
 71
22
 72
2
 73
23
 74
23
 0
VERTEX
 8
CILINDRO_4
 10
0
 20
0
 30
0
 70
128
 71
1
 72
80
 73
82
 74
82
 0
VERTEX
 8
CILINDRO_4
 10
0
 20
0
 30
0
 70
128
 71
81
 72
23
 73
24
 74
83
 0
VERTEX
 8
CILINDRO_4
 10
0
 20
0
 30
0
 70
128
 71
23
 72
2
 73
24
 74
24
 0
VERTEX
 8
CILINDRO_4
 10
0
 20
0
 30
0
 70
128
 71
1
 72
82
 73
84
 74
84
 0
VERTEX
 8
CILINDRO_4
 10
0
 20
0
 30
0
 70
128
 71
83
 72
24
 73
25
 74
85
 0
VERTEX
 8
CILINDRO_4
 10
0
 20
0
 30
0
 70
128
 71
24
 72
2
 73
25
 74
25
 0
VERTEX
 8
CILINDRO_4
 10
0
 20
0
 30
0
 70
128
 71
1
 72
84
 73
86
 74
86
 0
VERTEX
 8
CILINDRO_4
 10
0
 20
0
 30
0
 70
128
 71
85
 72
25
 73
26
 74
87
 0
VERTEX
 8
CILINDRO_4
 10
0
 20
0
 30
0
 70
128
 71
25
 72
2
 73
26
 74
26
 0
VERTEX
 8
CILINDRO_4
 10
0
 20
0
 30
0
 70
128
 71
1
 72
86
 73
88
 74
88
 0
VERTEX
 8
CILINDRO_4
 10
0
 20
0
 30
0
 70
128
 71
87
 72
26
 73
27
 74
89
 0
VERTEX
 8
CILINDRO_4
 10
0
 20
0
 30
0
 70
128
 71
26
 72
2
 73
27
 74
27
 0
VERTEX
 8
CILINDRO_4
 10
0
 20
0
 30
0
 70
128
 71
1
 72
88
 73
90
 74
90
 0
VERTEX
 8
CILINDRO_4
 10
0
 20
0
 30
0
 70
128
 71
89
 72
27
 73
28
 74
91
 0
VERTEX
 8
CILINDRO_4
 10
0
 20
0
 30
0
 70
128
 71
27
 72
2
 73
28
 74
28
 0
VERTEX
 8
CILINDRO_4
 10
0
 20
0
 30
0
 70
128
 71
1
 72
90
 73
92
 74
92
 0
VERTEX
 8
CILINDRO_4
 10
0
 20
0
 30
0
 70
128
 71
91
 72
28
 73
29
 74
93
 0
VERTEX
 8
CILINDRO_4
 10
0
 20
0
 30
0
 70
128
 71
28
 72
2
 73
29
 74
29
 0
VERTEX
 8
CILINDRO_4
 10
0
 20
0
 30
0
 70
128
 71
1
 72
92
 73
94
 74
94
 0
VERTEX
 8
CILINDRO_4
 10
0
 20
0
 30
0
 70
128
 71
93
 72
29
 73
30
 74
95
 0
VERTEX
 8
CILINDRO_4
 10
0
 20
0
 30
0
 70
128
 71
29
 72
2
 73
30
 74
30
 0
VERTEX
 8
CILINDRO_4
 10
0
 20
0
 30
0
 70
128
 71
1
 72
94
 73
96
 74
96
 0
VERTEX
 8
CILINDRO_4
 10
0
 20
0
 30
0
 70
128
 71
95
 72
30
 73
31
 74
97
 0
VERTEX
 8
CILINDRO_4
 10
0
 20
0
 30
0
 70
128
 71
30
 72
2
 73
31
 74
31
 0
VERTEX
 8
CILINDRO_4
 10
0
 20
0
 30
0
 70
128
 71
1
 72
96
 73
98
 74
98
 0
VERTEX
 8
CILINDRO_4
 10
0
 20
0
 30
0
 70
128
 71
97
 72
31
 73
32
 74
99
 0
VERTEX
 8
CILINDRO_4
 10
0
 20
0
 30
0
 70
128
 71
31
 72
2
 73
32
 74
32
 0
VERTEX
 8
CILINDRO_4
 10
0
 20
0
 30
0
 70
128
 71
1
 72
98
 73
100
 74
100
 0
VERTEX
 8
CILINDRO_4
 10
0
 20
0
 30
0
 70
128
 71
99
 72
32
 73
33
 74
101
 0
VERTEX
 8
CILINDRO_4
 10
0
 20
0
 30
0
 70
128
 71
32
 72
2
 73
33
 74
33
 0
VERTEX
 8
CILINDRO_4
 10
0
 20
0
 30
0
 70
128
 71
1
 72
100
 73
102
 74
102
 0
VERTEX
 8
CILINDRO_4
 10
0
 20
0
 30
0
 70
128
 71
101
 72
33
 73
34
 74
103
 0
VERTEX
 8
CILINDRO_4
 10
0
 20
0
 30
0
 70
128
 71
33
 72
2
 73
34
 74
34
 0
VERTEX
 8
CILINDRO_4
 10
0
 20
0
 30
0
 70
128
 71
1
 72
102
 73
104
 74
104
 0
VERTEX
 8
CILINDRO_4
 10
0
 20
0
 30
0
 70
128
 71
103
 72
34
 73
35
 74
105
 0
VERTEX
 8
CILINDRO_4
 10
0
 20
0
 30
0
 70
128
 71
34
 72
2
 73
35
 74
35
 0
VERTEX
 8
CILINDRO_4
 10
0
 20
0
 30
0
 70
128
 71
1
 72
104
 73
106
 74
106
 0
VERTEX
 8
CILINDRO_4
 10
0
 20
0
 30
0
 70
128
 71
105
 72
35
 73
36
 74
107
 0
VERTEX
 8
CILINDRO_4
 10
0
 20
0
 30
0
 70
128
 71
35
 72
2
 73
36
 74
36
 0
VERTEX
 8
CILINDRO_4
 10
0
 20
0
 30
0
 70
128
 71
1
 72
106
 73
108
 74
108
 0
VERTEX
 8
CILINDRO_4
 10
0
 20
0
 30
0
 70
128
 71
107
 72
36
 73
37
 74
109
 0
VERTEX
 8
CILINDRO_4
 10
0
 20
0
 30
0
 70
128
 71
36
 72
2
 73
37
 74
37
 0
VERTEX
 8
CILINDRO_4
 10
0
 20
0
 30
0
 70
128
 71
1
 72
108
 73
110
 74
110
 0
VERTEX
 8
CILINDRO_4
 10
0
 20
0
 30
0
 70
128
 71
109
 72
37
 73
38
 74
70
 0
VERTEX
 8
CILINDRO_4
 10
0
 20
0
 30
0
 70
128
 71
37
 72
2
 73
38
 74
38
 0
VERTEX
 8
CILINDRO_4
 10
0
 20
0
 30
0
 70
128
 71
1
 72
110
 73
72
 74
72
 0
VERTEX
 8
CILINDRO_4
 10
0
 20
0
 30
0
 70
128
 71
70
 72
38
 73
3
 74
40
 0
VERTEX
 8
CILINDRO_4
 10
0
 20
0
 30
0
 70
128
 71
38
 72
2
 73
3
 74
3
 0
VERTEX
 8
CILINDRO_4
 10
0
 20
0
 30
0
 70
128
 71
42
 72
130
 73
120
 74
40
 0
VERTEX
 8
CILINDRO_4
 10
0
 20
0
 30
0
 70
128
 71
44
 72
140
 73
130
 74
42
 0
VERTEX
 8
CILINDRO_4
 10
0
 20
0
 30
0
 70
128
 71
46
 72
145
 73
140
 74
44
 0
VERTEX
 8
CILINDRO_4
 10
0
 20
0
 30
0
 70
128
 71
48
 72
150
 73
145
 74
46
 0
VERTEX
 8
CILINDRO_4
 10
0
 20
0
 30
0
 70
128
 71
50
 72
160
 73
150
 74
48
 0
VERTEX
 8
CILINDRO_4
 10
0
 20
0
 30
0
 70
128
 71
51
 72
165
 73
160
 74
50
 0
VERTEX
 8
CILINDRO_4
 10
0
 20
0
 30
0
 70
128
 71
54
 72
166
 73
165
 74
51
 0
VERTEX
 8
CILINDRO_4
 10
0
 20
0
 30
0
 70
128
 71
55
 72
175
 73
166
 74
54
 0
VERTEX
 8
CILINDRO_4
 10
0
 20
0
 30
0
 70
128
 71
58
 72
176
 73
175
 74
55
 0
VERTEX
 8
CILINDRO_4
 10
0
 20
0
 30
0
 70
128
 71
59
 72
185
 73
176
 74
58
 0
VERTEX
 8
CILINDRO_4
 10
0
 20
0
 30
0
 70
128
 71
61
 72
186
 73
185
 74
59
 0
VERTEX
 8
CILINDRO_4
 10
0
 20
0
 30
0
 70
128
 71
65
 72
191
 73
186
 74
61
 0
VERTEX
 8
CILINDRO_4
 10
0
 20
0
 30
0
 70
128
 71
68
 72
200
 73
191
 74
65
 0
VERTEX
 8
CILINDRO_4
 10
0
 20
0
 30
0
 70
128
 71
67
 72
205
 73
200
 74
68
 0
VERTEX
 8
CILINDRO_4
 10
0
 20
0
 30
0
 70
128
 71
69
 72
210
 73
205
 74
67
 0
VERTEX
 8
CILINDRO_4
 10
0
 20
0
 30
0
 70
128
 71
74
 72
211
 73
210
 74
69
 0
VERTEX
 8
CILINDRO_4
 10
0
 20
0
 30
0
 70
128
 71
78
 72
220
 73
211
 74
74
 0
VERTEX
 8
CILINDRO_4
 10
0
 20
0
 30
0
 70
128
 71
76
 72
225
 73
220
 74
78
 0
VERTEX
 8
CILINDRO_4
 10
0
 20
0
 30
0
 70
128
 71
79
 72
226
 73
225
 74
76
 0
VERTEX
 8
CILINDRO_4
 10
0
 20
0
 30
0
 70
128
 71
81
 72
231
 73
226
 74
79
 0
VERTEX
 8
CILINDRO_4
 10
0
 20
0
 30
0
 70
128
 71
83
 72
236
 73
231
 74
81
 0
VERTEX
 8
CILINDRO_4
 10
0
 20
0
 30
0
 70
128
 71
85
 72
241
 73
236
 74
83
 0
VERTEX
 8
CILINDRO_4
 10
0
 20
0
 30
0
 70
128
 71
87
 72
246
 73
241
 74
85
 0
VERTEX
 8
CILINDRO_4
 10
0
 20
0
 30
0
 70
128
 71
89
 72
251
 73
246
 74
87
 0
VERTEX
 8
CILINDRO_4
 10
0
 20
0
 30
0
 70
128
 71
91
 72
256
 73
251
 74
89
 0
VERTEX
 8
CILINDRO_4
 10
0
 20
0
 30
0
 70
128
 71
93
 72
261
 73
256
 74
91
 0
VERTEX
 8
CILINDRO_4
 10
0
 20
0
 30
0
 70
128
 71
95
 72
266
 73
261
 74
93
 0
VERTEX
 8
CILINDRO_4
 10
0
 20
0
 30
0
 70
128
 71
97
 72
271
 73
266
 74
95
 0
VERTEX
 8
CILINDRO_4
 10
0
 20
0
 30
0
 70
128
 71
99
 72
276
 73
271
 74
97
 0
VERTEX
 8
CILINDRO_4
 10
0
 20
0
 30
0
 70
128
 71
101
 72
281
 73
276
 74
99
 0
VERTEX
 8
CILINDRO_4
 10
0
 20
0
 30
0
 70
128
 71
103
 72
121
 73
281
 74
101
 0
VERTEX
 8
CILINDRO_4
 10
0
 20
0
 30
0
 70
128
 71
105
 72
131
 73
121
 74
103
 0
VERTEX
 8
CILINDRO_4
 10
0
 20
0
 30
0
 70
128
 71
107
 72
286
 73
131
 74
105
 0
VERTEX
 8
CILINDRO_4
 10
0
 20
0
 30
0
 70
128
 71
109
 72
111
 73
286
 74
107
 0
VERTEX
 8
CILINDRO_4
 10
0
 20
0
 30
0
 70
128
 71
70
 72
151
 73
111
 74
109
 0
VERTEX
 8
CILINDRO_4
 10
0
 20
0
 30
0
 70
128
 71
40
 72
120
 73
151
 74
70
 0
VERTEX
 8
CILINDRO_4
 10
0
 20
0
 30
0
 70
128
 71
130
 72
129
 73
119
 74
120
 0
VERTEX
 8
CILINDRO_4
 10
0
 20
0
 30
0
 70
128
 71
129
 72
128
 73
118
 74
119
 0
VERTEX
 8
CILINDRO_4
 10
0
 20
0
 30
0
 70
128
 71
128
 72
127
 73
117
 74
118
 0
VERTEX
 8
CILINDRO_4
 10
0
 20
0
 30
0
 70
128
 71
127
 72
126
 73
116
 74
117
 0
VERTEX
 8
CILINDRO_4
 10
0
 20
0
 30
0
 70
128
 71
126
 72
39
 73
72
 74
116
 0
VERTEX
 8
CILINDRO_4
 10
0
 20
0
 30
0
 70
128
 71
140
 72
139
 73
129
 74
130
 0
VERTEX
 8
CILINDRO_4
 10
0
 20
0
 30
0
 70
128
 71
139
 72
138
 73
128
 74
129
 0
VERTEX
 8
CILINDRO_4
 10
0
 20
0
 30
0
 70
128
 71
138
 72
137
 73
127
 74
128
 0
VERTEX
 8
CILINDRO_4
 10
0
 20
0
 30
0
 70
128
 71
137
 72
136
 73
126
 74
127
 0
VERTEX
 8
CILINDRO_4
 10
0
 20
0
 30
0
 70
128
 71
136
 72
41
 73
39
 74
126
 0
VERTEX
 8
CILINDRO_4
 10
0
 20
0
 30
0
 70
128
 71
145
 72
144
 73
139
 74
140
 0
VERTEX
 8
CILINDRO_4
 10
0
 20
0
 30
0
 70
128
 71
144
 72
143
 73
138
 74
139
 0
VERTEX
 8
CILINDRO_4
 10
0
 20
0
 30
0
 70
128
 71
143
 72
142
 73
137
 74
138
 0
VERTEX
 8
CILINDRO_4
 10
0
 20
0
 30
0
 70
128
 71
142
 72
141
 73
136
 74
137
 0
VERTEX
 8
CILINDRO_4
 10
0
 20
0
 30
0
 70
128
 71
141
 72
43
 73
41
 74
136
 0
VERTEX
 8
CILINDRO_4
 10
0
 20
0
 30
0
 70
128
 71
150
 72
149
 73
144
 74
145
 0
VERTEX
 8
CILINDRO_4
 10
0
 20
0
 30
0
 70
128
 71
149
 72
148
 73
143
 74
144
 0
VERTEX
 8
CILINDRO_4
 10
0
 20
0
 30
0
 70
128
 71
148
 72
147
 73
142
 74
143
 0
VERTEX
 8
CILINDRO_4
 10
0
 20
0
 30
0
 70
128
 71
147
 72
146
 73
141
 74
142
 0
VERTEX
 8
CILINDRO_4
 10
0
 20
0
 30
0
 70
128
 71
146
 72
45
 73
43
 74
141
 0
VERTEX
 8
CILINDRO_4
 10
0
 20
0
 30
0
 70
128
 71
160
 72
159
 73
149
 74
150
 0
VERTEX
 8
CILINDRO_4
 10
0
 20
0
 30
0
 70
128
 71
159
 72
158
 73
148
 74
149
 0
VERTEX
 8
CILINDRO_4
 10
0
 20
0
 30
0
 70
128
 71
158
 72
157
 73
147
 74
148
 0
VERTEX
 8
CILINDRO_4
 10
0
 20
0
 30
0
 70
128
 71
157
 72
156
 73
146
 74
147
 0
VERTEX
 8
CILINDRO_4
 10
0
 20
0
 30
0
 70
128
 71
156
 72
47
 73
45
 74
146
 0
VERTEX
 8
CILINDRO_4
 10
0
 20
0
 30
0
 70
128
 71
165
 72
164
 73
159
 74
160
 0
VERTEX
 8
CILINDRO_4
 10
0
 20
0
 30
0
 70
128
 71
164
 72
163
 73
158
 74
159
 0
VERTEX
 8
CILINDRO_4
 10
0
 20
0
 30
0
 70
128
 71
163
 72
162
 73
157
 74
158
 0
VERTEX
 8
CILINDRO_4
 10
0
 20
0
 30
0
 70
128
 71
162
 72
161
 73
156
 74
157
 0
VERTEX
 8
CILINDRO_4
 10
0
 20
0
 30
0
 70
128
 71
161
 72
49
 73
47
 74
156
 0
VERTEX
 8
CILINDRO_4
 10
0
 20
0
 30
0
 70
128
 71
166
 72
167
 73
164
 74
165
 0
VERTEX
 8
CILINDRO_4
 10
0
 20
0
 30
0
 70
128
 71
167
 72
168
 73
163
 74
164
 0
VERTEX
 8
CILINDRO_4
 10
0
 20
0
 30
0
 70
128
 71
168
 72
169
 73
162
 74
163
 0
VERTEX
 8
CILINDRO_4
 10
0
 20
0
 30
0
 70
128
 71
169
 72
170
 73
161
 74
162
 0
VERTEX
 8
CILINDRO_4
 10
0
 20
0
 30
0
 70
128
 71
170
 72
52
 73
49
 74
161
 0
VERTEX
 8
CILINDRO_4
 10
0
 20
0
 30
0
 70
128
 71
175
 72
174
 73
167
 74
166
 0
VERTEX
 8
CILINDRO_4
 10
0
 20
0
 30
0
 70
128
 71
174
 72
173
 73
168
 74
167
 0
VERTEX
 8
CILINDRO_4
 10
0
 20
0
 30
0
 70
128
 71
173
 72
172
 73
169
 74
168
 0
VERTEX
 8
CILINDRO_4
 10
0
 20
0
 30
0
 70
128
 71
172
 72
171
 73
170
 74
169
 0
VERTEX
 8
CILINDRO_4
 10
0
 20
0
 30
0
 70
128
 71
171
 72
53
 73
52
 74
170
 0
VERTEX
 8
CILINDRO_4
 10
0
 20
0
 30
0
 70
128
 71
176
 72
177
 73
174
 74
175
 0
VERTEX
 8
CILINDRO_4
 10
0
 20
0
 30
0
 70
128
 71
177
 72
178
 73
173
 74
174
 0
VERTEX
 8
CILINDRO_4
 10
0
 20
0
 30
0
 70
128
 71
178
 72
179
 73
172
 74
173
 0
VERTEX
 8
CILINDRO_4
 10
0
 20
0
 30
0
 70
128
 71
179
 72
180
 73
171
 74
172
 0
VERTEX
 8
CILINDRO_4
 10
0
 20
0
 30
0
 70
128
 71
180
 72
56
 73
53
 74
171
 0
VERTEX
 8
CILINDRO_4
 10
0
 20
0
 30
0
 70
128
 71
185
 72
184
 73
177
 74
176
 0
VERTEX
 8
CILINDRO_4
 10
0
 20
0
 30
0
 70
128
 71
184
 72
183
 73
178
 74
177
 0
VERTEX
 8
CILINDRO_4
 10
0
 20
0
 30
0
 70
128
 71
183
 72
182
 73
179
 74
178
 0
VERTEX
 8
CILINDRO_4
 10
0
 20
0
 30
0
 70
128
 71
182
 72
181
 73
180
 74
179
 0
VERTEX
 8
CILINDRO_4
 10
0
 20
0
 30
0
 70
128
 71
181
 72
57
 73
56
 74
180
 0
VERTEX
 8
CILINDRO_4
 10
0
 20
0
 30
0
 70
128
 71
186
 72
187
 73
184
 74
185
 0
VERTEX
 8
CILINDRO_4
 10
0
 20
0
 30
0
 70
128
 71
187
 72
188
 73
183
 74
184
 0
VERTEX
 8
CILINDRO_4
 10
0
 20
0
 30
0
 70
128
 71
188
 72
189
 73
182
 74
183
 0
VERTEX
 8
CILINDRO_4
 10
0
 20
0
 30
0
 70
128
 71
189
 72
190
 73
181
 74
182
 0
VERTEX
 8
CILINDRO_4
 10
0
 20
0
 30
0
 70
128
 71
190
 72
60
 73
57
 74
181
 0
VERTEX
 8
CILINDRO_4
 10
0
 20
0
 30
0
 70
128
 71
191
 72
192
 73
187
 74
186
 0
VERTEX
 8
CILINDRO_4
 10
0
 20
0
 30
0
 70
128
 71
192
 72
193
 73
188
 74
187
 0
VERTEX
 8
CILINDRO_4
 10
0
 20
0
 30
0
 70
128
 71
193
 72
194
 73
189
 74
188
 0
VERTEX
 8
CILINDRO_4
 10
0
 20
0
 30
0
 70
128
 71
194
 72
195
 73
190
 74
189
 0
VERTEX
 8
CILINDRO_4
 10
0
 20
0
 30
0
 70
128
 71
195
 72
62
 73
60
 74
190
 0
VERTEX
 8
CILINDRO_4
 10
0
 20
0
 30
0
 70
128
 71
200
 72
199
 73
192
 74
191
 0
VERTEX
 8
CILINDRO_4
 10
0
 20
0
 30
0
 70
128
 71
199
 72
198
 73
193
 74
192
 0
VERTEX
 8
CILINDRO_4
 10
0
 20
0
 30
0
 70
128
 71
198
 72
197
 73
194
 74
193
 0
VERTEX
 8
CILINDRO_4
 10
0
 20
0
 30
0
 70
128
 71
197
 72
196
 73
195
 74
194
 0
VERTEX
 8
CILINDRO_4
 10
0
 20
0
 30
0
 70
128
 71
196
 72
64
 73
62
 74
195
 0
VERTEX
 8
CILINDRO_4
 10
0
 20
0
 30
0
 70
128
 71
205
 72
204
 73
199
 74
200
 0
VERTEX
 8
CILINDRO_4
 10
0
 20
0
 30
0
 70
128
 71
204
 72
203
 73
198
 74
199
 0
VERTEX
 8
CILINDRO_4
 10
0
 20
0
 30
0
 70
128
 71
203
 72
202
 73
197
 74
198
 0
VERTEX
 8
CILINDRO_4
 10
0
 20
0
 30
0
 70
128
 71
202
 72
201
 73
196
 74
197
 0
VERTEX
 8
CILINDRO_4
 10
0
 20
0
 30
0
 70
128
 71
201
 72
63
 73
64
 74
196
 0
VERTEX
 8
CILINDRO_4
 10
0
 20
0
 30
0
 70
128
 71
210
 72
209
 73
204
 74
205
 0
VERTEX
 8
CILINDRO_4
 10
0
 20
0
 30
0
 70
128
 71
209
 72
208
 73
203
 74
204
 0
VERTEX
 8
CILINDRO_4
 10
0
 20
0
 30
0
 70
128
 71
208
 72
207
 73
202
 74
203
 0
VERTEX
 8
CILINDRO_4
 10
0
 20
0
 30
0
 70
128
 71
207
 72
206
 73
201
 74
202
 0
VERTEX
 8
CILINDRO_4
 10
0
 20
0
 30
0
 70
128
 71
206
 72
66
 73
63
 74
201
 0
VERTEX
 8
CILINDRO_4
 10
0
 20
0
 30
0
 70
128
 71
211
 72
212
 73
209
 74
210
 0
VERTEX
 8
CILINDRO_4
 10
0
 20
0
 30
0
 70
128
 71
212
 72
213
 73
208
 74
209
 0
VERTEX
 8
CILINDRO_4
 10
0
 20
0
 30
0
 70
128
 71
213
 72
214
 73
207
 74
208
 0
VERTEX
 8
CILINDRO_4
 10
0
 20
0
 30
0
 70
128
 71
214
 72
215
 73
206
 74
207
 0
VERTEX
 8
CILINDRO_4
 10
0
 20
0
 30
0
 70
128
 71
215
 72
71
 73
66
 74
206
 0
VERTEX
 8
CILINDRO_4
 10
0
 20
0
 30
0
 70
128
 71
220
 72
219
 73
212
 74
211
 0
VERTEX
 8
CILINDRO_4
 10
0
 20
0
 30
0
 70
128
 71
219
 72
218
 73
213
 74
212
 0
VERTEX
 8
CILINDRO_4
 10
0
 20
0
 30
0
 70
128
 71
218
 72
217
 73
214
 74
213
 0
VERTEX
 8
CILINDRO_4
 10
0
 20
0
 30
0
 70
128
 71
217
 72
216
 73
215
 74
214
 0
VERTEX
 8
CILINDRO_4
 10
0
 20
0
 30
0
 70
128
 71
216
 72
75
 73
71
 74
215
 0
VERTEX
 8
CILINDRO_4
 10
0
 20
0
 30
0
 70
128
 71
225
 72
224
 73
219
 74
220
 0
VERTEX
 8
CILINDRO_4
 10
0
 20
0
 30
0
 70
128
 71
224
 72
223
 73
218
 74
219
 0
VERTEX
 8
CILINDRO_4
 10
0
 20
0
 30
0
 70
128
 71
223
 72
222
 73
217
 74
218
 0
VERTEX
 8
CILINDRO_4
 10
0
 20
0
 30
0
 70
128
 71
222
 72
221
 73
216
 74
217
 0
VERTEX
 8
CILINDRO_4
 10
0
 20
0
 30
0
 70
128
 71
221
 72
73
 73
75
 74
216
 0
VERTEX
 8
CILINDRO_4
 10
0
 20
0
 30
0
 70
128
 71
226
 72
227
 73
224
 74
225
 0
VERTEX
 8
CILINDRO_4
 10
0
 20
0
 30
0
 70
128
 71
227
 72
228
 73
223
 74
224
 0
VERTEX
 8
CILINDRO_4
 10
0
 20
0
 30
0
 70
128
 71
228
 72
229
 73
222
 74
223
 0
VERTEX
 8
CILINDRO_4
 10
0
 20
0
 30
0
 70
128
 71
229
 72
230
 73
221
 74
222
 0
VERTEX
 8
CILINDRO_4
 10
0
 20
0
 30
0
 70
128
 71
230
 72
77
 73
73
 74
221
 0
VERTEX
 8
CILINDRO_4
 10
0
 20
0
 30
0
 70
128
 71
231
 72
232
 73
227
 74
226
 0
VERTEX
 8
CILINDRO_4
 10
0
 20
0
 30
0
 70
128
 71
232
 72
233
 73
228
 74
227
 0
VERTEX
 8
CILINDRO_4
 10
0
 20
0
 30
0
 70
128
 71
233
 72
234
 73
229
 74
228
 0
VERTEX
 8
CILINDRO_4
 10
0
 20
0
 30
0
 70
128
 71
234
 72
235
 73
230
 74
229
 0
VERTEX
 8
CILINDRO_4
 10
0
 20
0
 30
0
 70
128
 71
235
 72
80
 73
77
 74
230
 0
VERTEX
 8
CILINDRO_4
 10
0
 20
0
 30
0
 70
128
 71
236
 72
237
 73
232
 74
231
 0
VERTEX
 8
CILINDRO_4
 10
0
 20
0
 30
0
 70
128
 71
237
 72
238
 73
233
 74
232
 0
VERTEX
 8
CILINDRO_4
 10
0
 20
0
 30
0
 70
128
 71
238
 72
239
 73
234
 74
233
 0
VERTEX
 8
CILINDRO_4
 10
0
 20
0
 30
0
 70
128
 71
239
 72
240
 73
235
 74
234
 0
VERTEX
 8
CILINDRO_4
 10
0
 20
0
 30
0
 70
128
 71
240
 72
82
 73
80
 74
235
 0
VERTEX
 8
CILINDRO_4
 10
0
 20
0
 30
0
 70
128
 71
241
 72
242
 73
237
 74
236
 0
VERTEX
 8
CILINDRO_4
 10
0
 20
0
 30
0
 70
128
 71
242
 72
243
 73
238
 74
237
 0
VERTEX
 8
CILINDRO_4
 10
0
 20
0
 30
0
 70
128
 71
243
 72
244
 73
239
 74
238
 0
VERTEX
 8
CILINDRO_4
 10
0
 20
0
 30
0
 70
128
 71
244
 72
245
 73
240
 74
239
 0
VERTEX
 8
CILINDRO_4
 10
0
 20
0
 30
0
 70
128
 71
245
 72
84
 73
82
 74
240
 0
VERTEX
 8
CILINDRO_4
 10
0
 20
0
 30
0
 70
128
 71
246
 72
247
 73
242
 74
241
 0
VERTEX
 8
CILINDRO_4
 10
0
 20
0
 30
0
 70
128
 71
247
 72
248
 73
243
 74
242
 0
VERTEX
 8
CILINDRO_4
 10
0
 20
0
 30
0
 70
128
 71
248
 72
249
 73
244
 74
243
 0
VERTEX
 8
CILINDRO_4
 10
0
 20
0
 30
0
 70
128
 71
249
 72
250
 73
245
 74
244
 0
VERTEX
 8
CILINDRO_4
 10
0
 20
0
 30
0
 70
128
 71
250
 72
86
 73
84
 74
245
 0
VERTEX
 8
CILINDRO_4
 10
0
 20
0
 30
0
 70
128
 71
251
 72
252
 73
247
 74
246
 0
VERTEX
 8
CILINDRO_4
 10
0
 20
0
 30
0
 70
128
 71
252
 72
253
 73
248
 74
247
 0
VERTEX
 8
CILINDRO_4
 10
0
 20
0
 30
0
 70
128
 71
253
 72
254
 73
249
 74
248
 0
VERTEX
 8
CILINDRO_4
 10
0
 20
0
 30
0
 70
128
 71
254
 72
255
 73
250
 74
249
 0
VERTEX
 8
CILINDRO_4
 10
0
 20
0
 30
0
 70
128
 71
255
 72
88
 73
86
 74
250
 0
VERTEX
 8
CILINDRO_4
 10
0
 20
0
 30
0
 70
128
 71
256
 72
257
 73
252
 74
251
 0
VERTEX
 8
CILINDRO_4
 10
0
 20
0
 30
0
 70
128
 71
257
 72
258
 73
253
 74
252
 0
VERTEX
 8
CILINDRO_4
 10
0
 20
0
 30
0
 70
128
 71
258
 72
259
 73
254
 74
253
 0
VERTEX
 8
CILINDRO_4
 10
0
 20
0
 30
0
 70
128
 71
259
 72
260
 73
255
 74
254
 0
VERTEX
 8
CILINDRO_4
 10
0
 20
0
 30
0
 70
128
 71
260
 72
90
 73
88
 74
255
 0
VERTEX
 8
CILINDRO_4
 10
0
 20
0
 30
0
 70
128
 71
261
 72
262
 73
257
 74
256
 0
VERTEX
 8
CILINDRO_4
 10
0
 20
0
 30
0
 70
128
 71
262
 72
263
 73
258
 74
257
 0
VERTEX
 8
CILINDRO_4
 10
0
 20
0
 30
0
 70
128
 71
263
 72
264
 73
259
 74
258
 0
VERTEX
 8
CILINDRO_4
 10
0
 20
0
 30
0
 70
128
 71
264
 72
265
 73
260
 74
259
 0
VERTEX
 8
CILINDRO_4
 10
0
 20
0
 30
0
 70
128
 71
265
 72
92
 73
90
 74
260
 0
VERTEX
 8
CILINDRO_4
 10
0
 20
0
 30
0
 70
128
 71
266
 72
267
 73
262
 74
261
 0
VERTEX
 8
CILINDRO_4
 10
0
 20
0
 30
0
 70
128
 71
267
 72
268
 73
263
 74
262
 0
VERTEX
 8
CILINDRO_4
 10
0
 20
0
 30
0
 70
128
 71
268
 72
269
 73
264
 74
263
 0
VERTEX
 8
CILINDRO_4
 10
0
 20
0
 30
0
 70
128
 71
269
 72
270
 73
265
 74
264
 0
VERTEX
 8
CILINDRO_4
 10
0
 20
0
 30
0
 70
128
 71
270
 72
94
 73
92
 74
265
 0
VERTEX
 8
CILINDRO_4
 10
0
 20
0
 30
0
 70
128
 71
271
 72
272
 73
267
 74
266
 0
VERTEX
 8
CILINDRO_4
 10
0
 20
0
 30
0
 70
128
 71
272
 72
273
 73
268
 74
267
 0
VERTEX
 8
CILINDRO_4
 10
0
 20
0
 30
0
 70
128
 71
273
 72
274
 73
269
 74
268
 0
VERTEX
 8
CILINDRO_4
 10
0
 20
0
 30
0
 70
128
 71
274
 72
275
 73
270
 74
269
 0
VERTEX
 8
CILINDRO_4
 10
0
 20
0
 30
0
 70
128
 71
275
 72
96
 73
94
 74
270
 0
VERTEX
 8
CILINDRO_4
 10
0
 20
0
 30
0
 70
128
 71
276
 72
277
 73
272
 74
271
 0
VERTEX
 8
CILINDRO_4
 10
0
 20
0
 30
0
 70
128
 71
277
 72
278
 73
273
 74
272
 0
VERTEX
 8
CILINDRO_4
 10
0
 20
0
 30
0
 70
128
 71
278
 72
279
 73
274
 74
273
 0
VERTEX
 8
CILINDRO_4
 10
0
 20
0
 30
0
 70
128
 71
279
 72
280
 73
275
 74
274
 0
VERTEX
 8
CILINDRO_4
 10
0
 20
0
 30
0
 70
128
 71
280
 72
98
 73
96
 74
275
 0
VERTEX
 8
CILINDRO_4
 10
0
 20
0
 30
0
 70
128
 71
281
 72
282
 73
277
 74
276
 0
VERTEX
 8
CILINDRO_4
 10
0
 20
0
 30
0
 70
128
 71
282
 72
283
 73
278
 74
277
 0
VERTEX
 8
CILINDRO_4
 10
0
 20
0
 30
0
 70
128
 71
283
 72
284
 73
279
 74
278
 0
VERTEX
 8
CILINDRO_4
 10
0
 20
0
 30
0
 70
128
 71
284
 72
285
 73
280
 74
279
 0
VERTEX
 8
CILINDRO_4
 10
0
 20
0
 30
0
 70
128
 71
285
 72
100
 73
98
 74
280
 0
VERTEX
 8
CILINDRO_4
 10
0
 20
0
 30
0
 70
128
 71
121
 72
122
 73
282
 74
281
 0
VERTEX
 8
CILINDRO_4
 10
0
 20
0
 30
0
 70
128
 71
122
 72
123
 73
283
 74
282
 0
VERTEX
 8
CILINDRO_4
 10
0
 20
0
 30
0
 70
128
 71
123
 72
124
 73
284
 74
283
 0
VERTEX
 8
CILINDRO_4
 10
0
 20
0
 30
0
 70
128
 71
124
 72
125
 73
285
 74
284
 0
VERTEX
 8
CILINDRO_4
 10
0
 20
0
 30
0
 70
128
 71
125
 72
102
 73
100
 74
285
 0
VERTEX
 8
CILINDRO_4
 10
0
 20
0
 30
0
 70
128
 71
131
 72
132
 73
122
 74
121
 0
VERTEX
 8
CILINDRO_4
 10
0
 20
0
 30
0
 70
128
 71
132
 72
133
 73
123
 74
122
 0
VERTEX
 8
CILINDRO_4
 10
0
 20
0
 30
0
 70
128
 71
133
 72
134
 73
124
 74
123
 0
VERTEX
 8
CILINDRO_4
 10
0
 20
0
 30
0
 70
128
 71
134
 72
135
 73
125
 74
124
 0
VERTEX
 8
CILINDRO_4
 10
0
 20
0
 30
0
 70
128
 71
135
 72
104
 73
102
 74
125
 0
VERTEX
 8
CILINDRO_4
 10
0
 20
0
 30
0
 70
128
 71
286
 72
287
 73
132
 74
131
 0
VERTEX
 8
CILINDRO_4
 10
0
 20
0
 30
0
 70
128
 71
287
 72
288
 73
133
 74
132
 0
VERTEX
 8
CILINDRO_4
 10
0
 20
0
 30
0
 70
128
 71
288
 72
289
 73
134
 74
133
 0
VERTEX
 8
CILINDRO_4
 10
0
 20
0
 30
0
 70
128
 71
289
 72
290
 73
135
 74
134
 0
VERTEX
 8
CILINDRO_4
 10
0
 20
0
 30
0
 70
128
 71
290
 72
106
 73
104
 74
135
 0
VERTEX
 8
CILINDRO_4
 10
0
 20
0
 30
0
 70
128
 71
111
 72
112
 73
287
 74
286
 0
VERTEX
 8
CILINDRO_4
 10
0
 20
0
 30
0
 70
128
 71
112
 72
113
 73
288
 74
287
 0
VERTEX
 8
CILINDRO_4
 10
0
 20
0
 30
0
 70
128
 71
113
 72
114
 73
289
 74
288
 0
VERTEX
 8
CILINDRO_4
 10
0
 20
0
 30
0
 70
128
 71
114
 72
115
 73
290
 74
289
 0
VERTEX
 8
CILINDRO_4
 10
0
 20
0
 30
0
 70
128
 71
115
 72
108
 73
106
 74
290
 0
VERTEX
 8
CILINDRO_4
 10
0
 20
0
 30
0
 70
128
 71
151
 72
152
 73
112
 74
111
 0
VERTEX
 8
CILINDRO_4
 10
0
 20
0
 30
0
 70
128
 71
152
 72
153
 73
113
 74
112
 0
VERTEX
 8
CILINDRO_4
 10
0
 20
0
 30
0
 70
128
 71
153
 72
154
 73
114
 74
113
 0
VERTEX
 8
CILINDRO_4
 10
0
 20
0
 30
0
 70
128
 71
154
 72
155
 73
115
 74
114
 0
VERTEX
 8
CILINDRO_4
 10
0
 20
0
 30
0
 70
128
 71
155
 72
110
 73
108
 74
115
 0
VERTEX
 8
CILINDRO_4
 10
0
 20
0
 30
0
 70
128
 71
120
 72
119
 73
152
 74
151
 0
VERTEX
 8
CILINDRO_4
 10
0
 20
0
 30
0
 70
128
 71
119
 72
118
 73
153
 74
152
 0
VERTEX
 8
CILINDRO_4
 10
0
 20
0
 30
0
 70
128
 71
118
 72
117
 73
154
 74
153
 0
VERTEX
 8
CILINDRO_4
 10
0
 20
0
 30
0
 70
128
 71
117
 72
116
 73
155
 74
154
 0
VERTEX
 8
CILINDRO_4
 10
0
 20
0
 30
0
 70
128
 71
116
 72
72
 73
110
 74
155
 0
SEQEND
 0
POLYLINE
 8
CILINDRO_3
 66
1
 10
0.0
 20
0.0
 30
0.0
 70
64
 71
146
 72
108
 0
VERTEX
 8
CILINDRO_3
 10
22.9999
 20
20.3525
 30
1.5014
 70
192
 0
VERTEX
 8
CILINDRO_3
 10
22.9999
 20
20.3525
 30
5.4808
 70
192
 0
VERTEX
 8
CILINDRO_3
 10
22.9999
 20
19.3577
 30
1.5014
 70
192
 0
VERTEX
 8
CILINDRO_3
 10
22.9999
 20
19.3577
 30
1.5014
 70
192
 0
VERTEX
 8
CILINDRO_3
 10
22.9999
 20
19.3577
 30
5.4808
 70
192
 0
VERTEX
 8
CILINDRO_3
 10
22.9999
 20
19.3577
 30
5.4808
 70
192
 0
VERTEX
 8
CILINDRO_3
 10
23.1727
 20
19.3728
 30
1.5014
 70
192
 0
VERTEX
 8
CILINDRO_3
 10
23.1727
 20
19.3728
 30
1.5014
 70
192
 0
VERTEX
 8
CILINDRO_3
 10
23.1727
 20
19.3728
 30
5.4808
 70
192
 0
VERTEX
 8
CILINDRO_3
 10
23.1727
 20
19.3728
 30
5.4808
 70
192
 0
VERTEX
 8
CILINDRO_3
 10
23.3402
 20
19.4177
 30
1.5014
 70
192
 0
VERTEX
 8
CILINDRO_3
 10
23.3402
 20
19.4177
 30
1.5014
 70
192
 0
VERTEX
 8
CILINDRO_3
 10
23.3402
 20
19.4177
 30
5.4808
 70
192
 0
VERTEX
 8
CILINDRO_3
 10
23.3402
 20
19.4177
 30
5.4808
 70
192
 0
VERTEX
 8
CILINDRO_3
 10
23.4974
 20
19.491
 30
1.5014
 70
192
 0
VERTEX
 8
CILINDRO_3
 10
23.4974
 20
19.491
 30
1.5014
 70
192
 0
VERTEX
 8
CILINDRO_3
 10
23.4974
 20
19.491
 30
5.4808
 70
192
 0
VERTEX
 8
CILINDRO_3
 10
23.4974
 20
19.491
 30
5.4808
 70
192
 0
VERTEX
 8
CILINDRO_3
 10
23.6394
 20
19.5904
 30
1.5014
 70
192
 0
VERTEX
 8
CILINDRO_3
 10
23.6394
 20
19.5904
 30
1.5014
 70
192
 0
VERTEX
 8
CILINDRO_3
 10
23.6394
 20
19.5904
 30
5.4808
 70
192
 0
VERTEX
 8
CILINDRO_3
 10
23.6394
 20
19.5904
 30
5.4808
 70
192
 0
VERTEX
 8
CILINDRO_3
 10
23.7621
 20
19.713
 30
1.5014
 70
192
 0
VERTEX
 8
CILINDRO_3
 10
23.7621
 20
19.713
 30
1.5014
 70
192
 0
VERTEX
 8
CILINDRO_3
 10
23.7621
 20
19.713
 30
5.4808
 70
192
 0
VERTEX
 8
CILINDRO_3
 10
23.7621
 20
19.713
 30
5.4808
 70
192
 0
VERTEX
 8
CILINDRO_3
 10
23.8615
 20
19.8551
 30
1.5014
 70
192
 0
VERTEX
 8
CILINDRO_3
 10
23.8615
 20
19.8551
 30
1.5014
 70
192
 0
VERTEX
 8
CILINDRO_3
 10
23.8615
 20
19.8551
 30
5.4808
 70
192
 0
VERTEX
 8
CILINDRO_3
 10
23.8615
 20
19.8551
 30
5.4808
 70
192
 0
VERTEX
 8
CILINDRO_3
 10
23.9348
 20
20.0123
 30
1.5014
 70
192
 0
VERTEX
 8
CILINDRO_3
 10
23.9348
 20
20.0123
 30
1.5014
 70
192
 0
VERTEX
 8
CILINDRO_3
 10
23.9348
 20
20.0123
 30
5.4808
 70
192
 0
VERTEX
 8
CILINDRO_3
 10
23.9348
 20
20.0123
 30
5.4808
 70
192
 0
VERTEX
 8
CILINDRO_3
 10
23.9797
 20
20.1798
 30
1.5014
 70
192
 0
VERTEX
 8
CILINDRO_3
 10
23.9797
 20
20.1798
 30
1.5014
 70
192
 0
VERTEX
 8
CILINDRO_3
 10
23.9797
 20
20.1798
 30
5.4808
 70
192
 0
VERTEX
 8
CILINDRO_3
 10
23.9797
 20
20.1798
 30
5.4808
 70
192
 0
VERTEX
 8
CILINDRO_3
 10
23.9948
 20
20.3525
 30
1.5014
 70
192
 0
VERTEX
 8
CILINDRO_3
 10
23.9948
 20
20.3525
 30
1.5014
 70
192
 0
VERTEX
 8
CILINDRO_3
 10
23.9948
 20
20.3525
 30
5.4808
 70
192
 0
VERTEX
 8
CILINDRO_3
 10
23.9948
 20
20.3525
 30
5.4808
 70
192
 0
VERTEX
 8
CILINDRO_3
 10
23.9797
 20
20.5253
 30
1.5014
 70
192
 0
VERTEX
 8
CILINDRO_3
 10
23.9797
 20
20.5253
 30
1.5014
 70
192
 0
VERTEX
 8
CILINDRO_3
 10
23.9797
 20
20.5253
 30
5.4808
 70
192
 0
VERTEX
 8
CILINDRO_3
 10
23.9797
 20
20.5253
 30
5.4808
 70
192
 0
VERTEX
 8
CILINDRO_3
 10
23.9348
 20
20.6928
 30
1.5014
 70
192
 0
VERTEX
 8
CILINDRO_3
 10
23.9348
 20
20.6928
 30
1.5014
 70
192
 0
VERTEX
 8
CILINDRO_3
 10
23.9348
 20
20.6928
 30
5.4808
 70
192
 0
VERTEX
 8
CILINDRO_3
 10
23.9348
 20
20.6928
 30
5.4808
 70
192
 0
VERTEX
 8
CILINDRO_3
 10
23.8615
 20
20.85
 30
1.5014
 70
192
 0
VERTEX
 8
CILINDRO_3
 10
23.8615
 20
20.85
 30
1.5014
 70
192
 0
VERTEX
 8
CILINDRO_3
 10
23.8615
 20
20.85
 30
5.4808
 70
192
 0
VERTEX
 8
CILINDRO_3
 10
23.8615
 20
20.85
 30
5.4808
 70
192
 0
VERTEX
 8
CILINDRO_3
 10
23.7621
 20
20.992
 30
1.5014
 70
192
 0
VERTEX
 8
CILINDRO_3
 10
23.7621
 20
20.992
 30
1.5014
 70
192
 0
VERTEX
 8
CILINDRO_3
 10
23.7621
 20
20.992
 30
5.4808
 70
192
 0
VERTEX
 8
CILINDRO_3
 10
23.7621
 20
20.992
 30
5.4808
 70
192
 0
VERTEX
 8
CILINDRO_3
 10
23.6394
 20
21.1146
 30
1.5014
 70
192
 0
VERTEX
 8
CILINDRO_3
 10
23.6394
 20
21.1146
 30
1.5014
 70
192
 0
VERTEX
 8
CILINDRO_3
 10
23.6394
 20
21.1146
 30
5.4808
 70
192
 0
VERTEX
 8
CILINDRO_3
 10
23.6394
 20
21.1146
 30
5.4808
 70
192
 0
VERTEX
 8
CILINDRO_3
 10
23.4974
 20
21.2141
 30
1.5014
 70
192
 0
VERTEX
 8
CILINDRO_3
 10
23.4974
 20
21.2141
 30
1.5014
 70
192
 0
VERTEX
 8
CILINDRO_3
 10
23.4974
 20
21.2141
 30
5.4808
 70
192
 0
VERTEX
 8
CILINDRO_3
 10
23.4974
 20
21.2141
 30
5.4808
 70
192
 0
VERTEX
 8
CILINDRO_3
 10
23.3402
 20
21.2874
 30
1.5014
 70
192
 0
VERTEX
 8
CILINDRO_3
 10
23.3402
 20
21.2874
 30
1.5014
 70
192
 0
VERTEX
 8
CILINDRO_3
 10
23.3402
 20
21.2874
 30
5.4808
 70
192
 0
VERTEX
 8
CILINDRO_3
 10
23.3402
 20
21.2874
 30
5.4808
 70
192
 0
VERTEX
 8
CILINDRO_3
 10
23.1727
 20
21.3323
 30
1.5014
 70
192
 0
VERTEX
 8
CILINDRO_3
 10
23.1727
 20
21.3323
 30
1.5014
 70
192
 0
VERTEX
 8
CILINDRO_3
 10
23.1727
 20
21.3323
 30
5.4808
 70
192
 0
VERTEX
 8
CILINDRO_3
 10
23.1727
 20
21.3323
 30
5.4808
 70
192
 0
VERTEX
 8
CILINDRO_3
 10
22.9999
 20
21.3474
 30
1.5014
 70
192
 0
VERTEX
 8
CILINDRO_3
 10
22.9999
 20
21.3474
 30
1.5014
 70
192
 0
VERTEX
 8
CILINDRO_3
 10
22.9999
 20
21.3474
 30
5.4808
 70
192
 0
VERTEX
 8
CILINDRO_3
 10
22.9999
 20
21.3474
 30
5.4808
 70
192
 0
VERTEX
 8
CILINDRO_3
 10
22.8272
 20
21.3323
 30
1.5014
 70
192
 0
VERTEX
 8
CILINDRO_3
 10
22.8272
 20
21.3323
 30
1.5014
 70
192
 0
VERTEX
 8
CILINDRO_3
 10
22.8272
 20
21.3323
 30
5.4808
 70
192
 0
VERTEX
 8
CILINDRO_3
 10
22.8272
 20
21.3323
 30
5.4808
 70
192
 0
VERTEX
 8
CILINDRO_3
 10
22.6597
 20
21.2874
 30
1.5014
 70
192
 0
VERTEX
 8
CILINDRO_3
 10
22.6597
 20
21.2874
 30
1.5014
 70
192
 0
VERTEX
 8
CILINDRO_3
 10
22.6597
 20
21.2874
 30
5.4808
 70
192
 0
VERTEX
 8
CILINDRO_3
 10
22.6597
 20
21.2874
 30
5.4808
 70
192
 0
VERTEX
 8
CILINDRO_3
 10
22.5025
 20
21.2141
 30
1.5014
 70
192
 0
VERTEX
 8
CILINDRO_3
 10
22.5025
 20
21.2141
 30
1.5014
 70
192
 0
VERTEX
 8
CILINDRO_3
 10
22.5025
 20
21.2141
 30
5.4808
 70
192
 0
VERTEX
 8
CILINDRO_3
 10
22.5025
 20
21.2141
 30
5.4808
 70
192
 0
VERTEX
 8
CILINDRO_3
 10
22.3605
 20
21.1146
 30
1.5014
 70
192
 0
VERTEX
 8
CILINDRO_3
 10
22.3605
 20
21.1146
 30
1.5014
 70
192
 0
VERTEX
 8
CILINDRO_3
 10
22.3605
 20
21.1146
 30
5.4808
 70
192
 0
VERTEX
 8
CILINDRO_3
 10
22.3605
 20
21.1146
 30
5.4808
 70
192
 0
VERTEX
 8
CILINDRO_3
 10
22.2378
 20
20.992
 30
1.5014
 70
192
 0
VERTEX
 8
CILINDRO_3
 10
22.2378
 20
20.992
 30
1.5014
 70
192
 0
VERTEX
 8
CILINDRO_3
 10
22.2378
 20
20.992
 30
5.4808
 70
192
 0
VERTEX
 8
CILINDRO_3
 10
22.2378
 20
20.992
 30
5.4808
 70
192
 0
VERTEX
 8
CILINDRO_3
 10
22.1384
 20
20.85
 30
1.5014
 70
192
 0
VERTEX
 8
CILINDRO_3
 10
22.1384
 20
20.85
 30
1.5014
 70
192
 0
VERTEX
 8
CILINDRO_3
 10
22.1384
 20
20.85
 30
5.4808
 70
192
 0
VERTEX
 8
CILINDRO_3
 10
22.1384
 20
20.85
 30
5.4808
 70
192
 0
VERTEX
 8
CILINDRO_3
 10
22.0651
 20
20.6928
 30
1.5014
 70
192
 0
VERTEX
 8
CILINDRO_3
 10
22.0651
 20
20.6928
 30
1.5014
 70
192
 0
VERTEX
 8
CILINDRO_3
 10
22.0651
 20
20.6928
 30
5.4808
 70
192
 0
VERTEX
 8
CILINDRO_3
 10
22.0651
 20
20.6928
 30
5.4808
 70
192
 0
VERTEX
 8
CILINDRO_3
 10
22.0202
 20
20.5253
 30
1.5014
 70
192
 0
VERTEX
 8
CILINDRO_3
 10
22.0202
 20
20.5253
 30
1.5014
 70
192
 0
VERTEX
 8
CILINDRO_3
 10
22.0202
 20
20.5253
 30
5.4808
 70
192
 0
VERTEX
 8
CILINDRO_3
 10
22.0202
 20
20.5253
 30
5.4808
 70
192
 0
VERTEX
 8
CILINDRO_3
 10
22.0051
 20
20.3525
 30
1.5014
 70
192
 0
VERTEX
 8
CILINDRO_3
 10
22.0051
 20
20.3525
 30
1.5014
 70
192
 0
VERTEX
 8
CILINDRO_3
 10
22.0051
 20
20.3525
 30
5.4808
 70
192
 0
VERTEX
 8
CILINDRO_3
 10
22.0051
 20
20.3525
 30
5.4808
 70
192
 0
VERTEX
 8
CILINDRO_3
 10
22.0202
 20
20.1798
 30
1.5014
 70
192
 0
VERTEX
 8
CILINDRO_3
 10
22.0202
 20
20.1798
 30
1.5014
 70
192
 0
VERTEX
 8
CILINDRO_3
 10
22.0202
 20
20.1798
 30
5.4808
 70
192
 0
VERTEX
 8
CILINDRO_3
 10
22.0202
 20
20.1798
 30
5.4808
 70
192
 0
VERTEX
 8
CILINDRO_3
 10
22.0651
 20
20.0123
 30
1.5014
 70
192
 0
VERTEX
 8
CILINDRO_3
 10
22.0651
 20
20.0123
 30
1.5014
 70
192
 0
VERTEX
 8
CILINDRO_3
 10
22.0651
 20
20.0123
 30
5.4808
 70
192
 0
VERTEX
 8
CILINDRO_3
 10
22.0651
 20
20.0123
 30
5.4808
 70
192
 0
VERTEX
 8
CILINDRO_3
 10
22.1384
 20
19.8551
 30
1.5014
 70
192
 0
VERTEX
 8
CILINDRO_3
 10
22.1384
 20
19.8551
 30
1.5014
 70
192
 0
VERTEX
 8
CILINDRO_3
 10
22.1384
 20
19.8551
 30
5.4808
 70
192
 0
VERTEX
 8
CILINDRO_3
 10
22.1384
 20
19.8551
 30
5.4808
 70
192
 0
VERTEX
 8
CILINDRO_3
 10
22.2378
 20
19.713
 30
1.5014
 70
192
 0
VERTEX
 8
CILINDRO_3
 10
22.2378
 20
19.713
 30
1.5014
 70
192
 0
VERTEX
 8
CILINDRO_3
 10
22.2378
 20
19.713
 30
5.4808
 70
192
 0
VERTEX
 8
CILINDRO_3
 10
22.2378
 20
19.713
 30
5.4808
 70
192
 0
VERTEX
 8
CILINDRO_3
 10
22.3605
 20
19.5904
 30
1.5014
 70
192
 0
VERTEX
 8
CILINDRO_3
 10
22.3605
 20
19.5904
 30
1.5014
 70
192
 0
VERTEX
 8
CILINDRO_3
 10
22.3605
 20
19.5904
 30
5.4808
 70
192
 0
VERTEX
 8
CILINDRO_3
 10
22.3605
 20
19.5904
 30
5.4808
 70
192
 0
VERTEX
 8
CILINDRO_3
 10
22.5025
 20
19.491
 30
1.5014
 70
192
 0
VERTEX
 8
CILINDRO_3
 10
22.5025
 20
19.491
 30
1.5014
 70
192
 0
VERTEX
 8
CILINDRO_3
 10
22.5025
 20
19.491
 30
5.4808
 70
192
 0
VERTEX
 8
CILINDRO_3
 10
22.5025
 20
19.491
 30
5.4808
 70
192
 0
VERTEX
 8
CILINDRO_3
 10
22.6597
 20
19.4177
 30
1.5014
 70
192
 0
VERTEX
 8
CILINDRO_3
 10
22.6597
 20
19.4177
 30
1.5014
 70
192
 0
VERTEX
 8
CILINDRO_3
 10
22.6597
 20
19.4177
 30
5.4808
 70
192
 0
VERTEX
 8
CILINDRO_3
 10
22.6597
 20
19.4177
 30
5.4808
 70
192
 0
VERTEX
 8
CILINDRO_3
 10
22.8272
 20
19.3728
 30
1.5014
 70
192
 0
VERTEX
 8
CILINDRO_3
 10
22.8272
 20
19.3728
 30
1.5014
 70
192
 0
VERTEX
 8
CILINDRO_3
 10
22.8272
 20
19.3728
 30
5.4808
 70
192
 0
VERTEX
 8
CILINDRO_3
 10
22.8272
 20
19.3728
 30
5.4808
 70
192
 0
VERTEX
 8
CILINDRO_3
 10
0
 20
0
 30
0
 70
128
 71
1
 72
3
 73
7
 74
7
 0
VERTEX
 8
CILINDRO_3
 10
0
 20
0
 30
0
 70
128
 71
4
 72
5
 73
9
 74
8
 0
VERTEX
 8
CILINDRO_3
 10
0
 20
0
 30
0
 70
128
 71
6
 72
2
 73
10
 74
10
 0
VERTEX
 8
CILINDRO_3
 10
0
 20
0
 30
0
 70
128
 71
1
 72
7
 73
11
 74
11
 0
VERTEX
 8
CILINDRO_3
 10
0
 20
0
 30
0
 70
128
 71
8
 72
9
 73
13
 74
12
 0
VERTEX
 8
CILINDRO_3
 10
0
 20
0
 30
0
 70
128
 71
10
 72
2
 73
14
 74
14
 0
VERTEX
 8
CILINDRO_3
 10
0
 20
0
 30
0
 70
128
 71
1
 72
11
 73
15
 74
15
 0
VERTEX
 8
CILINDRO_3
 10
0
 20
0
 30
0
 70
128
 71
12
 72
13
 73
17
 74
16
 0
VERTEX
 8
CILINDRO_3
 10
0
 20
0
 30
0
 70
128
 71
14
 72
2
 73
18
 74
18
 0
VERTEX
 8
CILINDRO_3
 10
0
 20
0
 30
0
 70
128
 71
1
 72
15
 73
19
 74
19
 0
VERTEX
 8
CILINDRO_3
 10
0
 20
0
 30
0
 70
128
 71
16
 72
17
 73
21
 74
20
 0
VERTEX
 8
CILINDRO_3
 10
0
 20
0
 30
0
 70
128
 71
18
 72
2
 73
22
 74
22
 0
VERTEX
 8
CILINDRO_3
 10
0
 20
0
 30
0
 70
128
 71
1
 72
19
 73
23
 74
23
 0
VERTEX
 8
CILINDRO_3
 10
0
 20
0
 30
0
 70
128
 71
20
 72
21
 73
25
 74
24
 0
VERTEX
 8
CILINDRO_3
 10
0
 20
0
 30
0
 70
128
 71
22
 72
2
 73
26
 74
26
 0
VERTEX
 8
CILINDRO_3
 10
0
 20
0
 30
0
 70
128
 71
1
 72
23
 73
27
 74
27
 0
VERTEX
 8
CILINDRO_3
 10
0
 20
0
 30
0
 70
128
 71
24
 72
25
 73
29
 74
28
 0
VERTEX
 8
CILINDRO_3
 10
0
 20
0
 30
0
 70
128
 71
26
 72
2
 73
30
 74
30
 0
VERTEX
 8
CILINDRO_3
 10
0
 20
0
 30
0
 70
128
 71
1
 72
27
 73
31
 74
31
 0
VERTEX
 8
CILINDRO_3
 10
0
 20
0
 30
0
 70
128
 71
28
 72
29
 73
33
 74
32
 0
VERTEX
 8
CILINDRO_3
 10
0
 20
0
 30
0
 70
128
 71
30
 72
2
 73
34
 74
34
 0
VERTEX
 8
CILINDRO_3
 10
0
 20
0
 30
0
 70
128
 71
1
 72
31
 73
35
 74
35
 0
VERTEX
 8
CILINDRO_3
 10
0
 20
0
 30
0
 70
128
 71
32
 72
33
 73
37
 74
36
 0
VERTEX
 8
CILINDRO_3
 10
0
 20
0
 30
0
 70
128
 71
34
 72
2
 73
38
 74
38
 0
VERTEX
 8
CILINDRO_3
 10
0
 20
0
 30
0
 70
128
 71
1
 72
35
 73
39
 74
39
 0
VERTEX
 8
CILINDRO_3
 10
0
 20
0
 30
0
 70
128
 71
36
 72
37
 73
41
 74
40
 0
VERTEX
 8
CILINDRO_3
 10
0
 20
0
 30
0
 70
128
 71
38
 72
2
 73
42
 74
42
 0
VERTEX
 8
CILINDRO_3
 10
0
 20
0
 30
0
 70
128
 71
1
 72
39
 73
43
 74
43
 0
VERTEX
 8
CILINDRO_3
 10
0
 20
0
 30
0
 70
128
 71
40
 72
41
 73
45
 74
44
 0
VERTEX
 8
CILINDRO_3
 10
0
 20
0
 30
0
 70
128
 71
42
 72
2
 73
46
 74
46
 0
VERTEX
 8
CILINDRO_3
 10
0
 20
0
 30
0
 70
128
 71
1
 72
43
 73
47
 74
47
 0
VERTEX
 8
CILINDRO_3
 10
0
 20
0
 30
0
 70
128
 71
44
 72
45
 73
49
 74
48
 0
VERTEX
 8
CILINDRO_3
 10
0
 20
0
 30
0
 70
128
 71
46
 72
2
 73
50
 74
50
 0
VERTEX
 8
CILINDRO_3
 10
0
 20
0
 30
0
 70
128
 71
1
 72
47
 73
51
 74
51
 0
VERTEX
 8
CILINDRO_3
 10
0
 20
0
 30
0
 70
128
 71
48
 72
49
 73
53
 74
52
 0
VERTEX
 8
CILINDRO_3
 10
0
 20
0
 30
0
 70
128
 71
50
 72
2
 73
54
 74
54
 0
VERTEX
 8
CILINDRO_3
 10
0
 20
0
 30
0
 70
128
 71
1
 72
51
 73
55
 74
55
 0
VERTEX
 8
CILINDRO_3
 10
0
 20
0
 30
0
 70
128
 71
52
 72
53
 73
57
 74
56
 0
VERTEX
 8
CILINDRO_3
 10
0
 20
0
 30
0
 70
128
 71
54
 72
2
 73
58
 74
58
 0
VERTEX
 8
CILINDRO_3
 10
0
 20
0
 30
0
 70
128
 71
1
 72
55
 73
59
 74
59
 0
VERTEX
 8
CILINDRO_3
 10
0
 20
0
 30
0
 70
128
 71
56
 72
57
 73
61
 74
60
 0
VERTEX
 8
CILINDRO_3
 10
0
 20
0
 30
0
 70
128
 71
58
 72
2
 73
62
 74
62
 0
VERTEX
 8
CILINDRO_3
 10
0
 20
0
 30
0
 70
128
 71
1
 72
59
 73
63
 74
63
 0
VERTEX
 8
CILINDRO_3
 10
0
 20
0
 30
0
 70
128
 71
60
 72
61
 73
65
 74
64
 0
VERTEX
 8
CILINDRO_3
 10
0
 20
0
 30
0
 70
128
 71
62
 72
2
 73
66
 74
66
 0
VERTEX
 8
CILINDRO_3
 10
0
 20
0
 30
0
 70
128
 71
1
 72
63
 73
67
 74
67
 0
VERTEX
 8
CILINDRO_3
 10
0
 20
0
 30
0
 70
128
 71
64
 72
65
 73
69
 74
68
 0
VERTEX
 8
CILINDRO_3
 10
0
 20
0
 30
0
 70
128
 71
66
 72
2
 73
70
 74
70
 0
VERTEX
 8
CILINDRO_3
 10
0
 20
0
 30
0
 70
128
 71
1
 72
67
 73
71
 74
71
 0
VERTEX
 8
CILINDRO_3
 10
0
 20
0
 30
0
 70
128
 71
68
 72
69
 73
73
 74
72
 0
VERTEX
 8
CILINDRO_3
 10
0
 20
0
 30
0
 70
128
 71
70
 72
2
 73
74
 74
74
 0
VERTEX
 8
CILINDRO_3
 10
0
 20
0
 30
0
 70
128
 71
1
 72
71
 73
75
 74
75
 0
VERTEX
 8
CILINDRO_3
 10
0
 20
0
 30
0
 70
128
 71
72
 72
73
 73
77
 74
76
 0
VERTEX
 8
CILINDRO_3
 10
0
 20
0
 30
0
 70
128
 71
74
 72
2
 73
78
 74
78
 0
VERTEX
 8
CILINDRO_3
 10
0
 20
0
 30
0
 70
128
 71
1
 72
75
 73
79
 74
79
 0
VERTEX
 8
CILINDRO_3
 10
0
 20
0
 30
0
 70
128
 71
76
 72
77
 73
81
 74
80
 0
VERTEX
 8
CILINDRO_3
 10
0
 20
0
 30
0
 70
128
 71
78
 72
2
 73
82
 74
82
 0
VERTEX
 8
CILINDRO_3
 10
0
 20
0
 30
0
 70
128
 71
1
 72
79
 73
83
 74
83
 0
VERTEX
 8
CILINDRO_3
 10
0
 20
0
 30
0
 70
128
 71
80
 72
81
 73
85
 74
84
 0
VERTEX
 8
CILINDRO_3
 10
0
 20
0
 30
0
 70
128
 71
82
 72
2
 73
86
 74
86
 0
VERTEX
 8
CILINDRO_3
 10
0
 20
0
 30
0
 70
128
 71
1
 72
83
 73
87
 74
87
 0
VERTEX
 8
CILINDRO_3
 10
0
 20
0
 30
0
 70
128
 71
84
 72
85
 73
89
 74
88
 0
VERTEX
 8
CILINDRO_3
 10
0
 20
0
 30
0
 70
128
 71
86
 72
2
 73
90
 74
90
 0
VERTEX
 8
CILINDRO_3
 10
0
 20
0
 30
0
 70
128
 71
1
 72
87
 73
91
 74
91
 0
VERTEX
 8
CILINDRO_3
 10
0
 20
0
 30
0
 70
128
 71
88
 72
89
 73
93
 74
92
 0
VERTEX
 8
CILINDRO_3
 10
0
 20
0
 30
0
 70
128
 71
90
 72
2
 73
94
 74
94
 0
VERTEX
 8
CILINDRO_3
 10
0
 20
0
 30
0
 70
128
 71
1
 72
91
 73
95
 74
95
 0
VERTEX
 8
CILINDRO_3
 10
0
 20
0
 30
0
 70
128
 71
92
 72
93
 73
97
 74
96
 0
VERTEX
 8
CILINDRO_3
 10
0
 20
0
 30
0
 70
128
 71
94
 72
2
 73
98
 74
98
 0
VERTEX
 8
CILINDRO_3
 10
0
 20
0
 30
0
 70
128
 71
1
 72
95
 73
99
 74
99
 0
VERTEX
 8
CILINDRO_3
 10
0
 20
0
 30
0
 70
128
 71
96
 72
97
 73
101
 74
100
 0
VERTEX
 8
CILINDRO_3
 10
0
 20
0
 30
0
 70
128
 71
98
 72
2
 73
102
 74
102
 0
VERTEX
 8
CILINDRO_3
 10
0
 20
0
 30
0
 70
128
 71
1
 72
99
 73
103
 74
103
 0
VERTEX
 8
CILINDRO_3
 10
0
 20
0
 30
0
 70
128
 71
100
 72
101
 73
105
 74
104
 0
VERTEX
 8
CILINDRO_3
 10
0
 20
0
 30
0
 70
128
 71
102
 72
2
 73
106
 74
106
 0
VERTEX
 8
CILINDRO_3
 10
0
 20
0
 30
0
 70
128
 71
1
 72
103
 73
107
 74
107
 0
VERTEX
 8
CILINDRO_3
 10
0
 20
0
 30
0
 70
128
 71
104
 72
105
 73
109
 74
108
 0
VERTEX
 8
CILINDRO_3
 10
0
 20
0
 30
0
 70
128
 71
106
 72
2
 73
110
 74
110
 0
VERTEX
 8
CILINDRO_3
 10
0
 20
0
 30
0
 70
128
 71
1
 72
107
 73
111
 74
111
 0
VERTEX
 8
CILINDRO_3
 10
0
 20
0
 30
0
 70
128
 71
108
 72
109
 73
113
 74
112
 0
VERTEX
 8
CILINDRO_3
 10
0
 20
0
 30
0
 70
128
 71
110
 72
2
 73
114
 74
114
 0
VERTEX
 8
CILINDRO_3
 10
0
 20
0
 30
0
 70
128
 71
1
 72
111
 73
115
 74
115
 0
VERTEX
 8
CILINDRO_3
 10
0
 20
0
 30
0
 70
128
 71
112
 72
113
 73
117
 74
116
 0
VERTEX
 8
CILINDRO_3
 10
0
 20
0
 30
0
 70
128
 71
114
 72
2
 73
118
 74
118
 0
VERTEX
 8
CILINDRO_3
 10
0
 20
0
 30
0
 70
128
 71
1
 72
115
 73
119
 74
119
 0
VERTEX
 8
CILINDRO_3
 10
0
 20
0
 30
0
 70
128
 71
116
 72
117
 73
121
 74
120
 0
VERTEX
 8
CILINDRO_3
 10
0
 20
0
 30
0
 70
128
 71
118
 72
2
 73
122
 74
122
 0
VERTEX
 8
CILINDRO_3
 10
0
 20
0
 30
0
 70
128
 71
1
 72
119
 73
123
 74
123
 0
VERTEX
 8
CILINDRO_3
 10
0
 20
0
 30
0
 70
128
 71
120
 72
121
 73
125
 74
124
 0
VERTEX
 8
CILINDRO_3
 10
0
 20
0
 30
0
 70
128
 71
122
 72
2
 73
126
 74
126
 0
VERTEX
 8
CILINDRO_3
 10
0
 20
0
 30
0
 70
128
 71
1
 72
123
 73
127
 74
127
 0
VERTEX
 8
CILINDRO_3
 10
0
 20
0
 30
0
 70
128
 71
124
 72
125
 73
129
 74
128
 0
VERTEX
 8
CILINDRO_3
 10
0
 20
0
 30
0
 70
128
 71
126
 72
2
 73
130
 74
130
 0
VERTEX
 8
CILINDRO_3
 10
0
 20
0
 30
0
 70
128
 71
1
 72
127
 73
131
 74
131
 0
VERTEX
 8
CILINDRO_3
 10
0
 20
0
 30
0
 70
128
 71
128
 72
129
 73
133
 74
132
 0
VERTEX
 8
CILINDRO_3
 10
0
 20
0
 30
0
 70
128
 71
130
 72
2
 73
134
 74
134
 0
VERTEX
 8
CILINDRO_3
 10
0
 20
0
 30
0
 70
128
 71
1
 72
131
 73
135
 74
135
 0
VERTEX
 8
CILINDRO_3
 10
0
 20
0
 30
0
 70
128
 71
132
 72
133
 73
137
 74
136
 0
VERTEX
 8
CILINDRO_3
 10
0
 20
0
 30
0
 70
128
 71
134
 72
2
 73
138
 74
138
 0
VERTEX
 8
CILINDRO_3
 10
0
 20
0
 30
0
 70
128
 71
1
 72
135
 73
139
 74
139
 0
VERTEX
 8
CILINDRO_3
 10
0
 20
0
 30
0
 70
128
 71
136
 72
137
 73
141
 74
140
 0
VERTEX
 8
CILINDRO_3
 10
0
 20
0
 30
0
 70
128
 71
138
 72
2
 73
142
 74
142
 0
VERTEX
 8
CILINDRO_3
 10
0
 20
0
 30
0
 70
128
 71
1
 72
139
 73
143
 74
143
 0
VERTEX
 8
CILINDRO_3
 10
0
 20
0
 30
0
 70
128
 71
140
 72
141
 73
145
 74
144
 0
VERTEX
 8
CILINDRO_3
 10
0
 20
0
 30
0
 70
128
 71
142
 72
2
 73
146
 74
146
 0
VERTEX
 8
CILINDRO_3
 10
0
 20
0
 30
0
 70
128
 71
1
 72
143
 73
3
 74
3
 0
VERTEX
 8
CILINDRO_3
 10
0
 20
0
 30
0
 70
128
 71
144
 72
145
 73
5
 74
4
 0
VERTEX
 8
CILINDRO_3
 10
0
 20
0
 30
0
 70
128
 71
146
 72
2
 73
6
 74
6
 0
SEQEND
 0
POLYLINE
 8
CILINDRO_2
 66
1
 10
0.0
 20
0.0
 30
0.0
 70
64
 71
290
 72
324
 0
VERTEX
 8
CILINDRO_2
 10
23.0001
 20
20.3525
 30
0.0004
 70
192
 0
VERTEX
 8
CILINDRO_2
 10
23.0001
 20
20.3525
 30
1.4997
 70
192
 0
VERTEX
 8
CILINDRO_2
 10
23.0001
 20
17.3396
 30
1.4997
 70
192
 0
VERTEX
 8
CILINDRO_2
 10
23.5233
 20
17.3854
 30
1.4997
 70
192
 0
VERTEX
 8
CILINDRO_2
 10
24.0306
 20
17.5213
 30
1.4997
 70
192
 0
VERTEX
 8
CILINDRO_2
 10
24.5066
 20
17.7433
 30
1.4997
 70
192
 0
VERTEX
 8
CILINDRO_2
 10
24.9368
 20
18.0445
 30
1.4997
 70
192
 0
VERTEX
 8
CILINDRO_2
 10
25.3082
 20
18.4159
 30
1.4997
 70
192
 0
VERTEX
 8
CILINDRO_2
 10
25.6094
 20
18.8461
 30
1.4997
 70
192
 0
VERTEX
 8
CILINDRO_2
 10
25.8313
 20
19.3221
 30
1.4997
 70
192
 0
VERTEX
 8
CILINDRO_2
 10
25.9673
 20
19.8293
 30
1.4997
 70
192
 0
VERTEX
 8
CILINDRO_2
 10
26.013
 20
20.3525
 30
1.4997
 70
192
 0
VERTEX
 8
CILINDRO_2
 10
25.9673
 20
20.8757
 30
1.4997
 70
192
 0
VERTEX
 8
CILINDRO_2
 10
25.8313
 20
21.383
 30
1.4997
 70
192
 0
VERTEX
 8
CILINDRO_2
 10
25.6094
 20
21.859
 30
1.4997
 70
192
 0
VERTEX
 8
CILINDRO_2
 10
25.3082
 20
22.2892
 30
1.4997
 70
192
 0
VERTEX
 8
CILINDRO_2
 10
24.9368
 20
22.6605
 30
1.4997
 70
192
 0
VERTEX
 8
CILINDRO_2
 10
24.5066
 20
22.9618
 30
1.4997
 70
192
 0
VERTEX
 8
CILINDRO_2
 10
24.0306
 20
23.1837
 30
1.4997
 70
192
 0
VERTEX
 8
CILINDRO_2
 10
23.5233
 20
23.3197
 30
1.4997
 70
192
 0
VERTEX
 8
CILINDRO_2
 10
23.0001
 20
23.3654
 30
1.4997
 70
192
 0
VERTEX
 8
CILINDRO_2
 10
22.477
 20
23.3197
 30
1.4997
 70
192
 0
VERTEX
 8
CILINDRO_2
 10
21.9697
 20
23.1837
 30
1.4997
 70
192
 0
VERTEX
 8
CILINDRO_2
 10
21.4937
 20
22.9618
 30
1.4997
 70
192
 0
VERTEX
 8
CILINDRO_2
 10
21.0635
 20
22.6605
 30
1.4997
 70
192
 0
VERTEX
 8
CILINDRO_2
 10
20.6921
 20
22.2892
 30
1.4997
 70
192
 0
VERTEX
 8
CILINDRO_2
 10
20.3909
 20
21.859
 30
1.4997
 70
192
 0
VERTEX
 8
CILINDRO_2
 10
20.1689
 20
21.383
 30
1.4997
 70
192
 0
VERTEX
 8
CILINDRO_2
 10
20.033
 20
20.8757
 30
1.4997
 70
192
 0
VERTEX
 8
CILINDRO_2
 10
19.9872
 20
20.3525
 30
1.4997
 70
192
 0
VERTEX
 8
CILINDRO_2
 10
20.033
 20
19.8293
 30
1.4997
 70
192
 0
VERTEX
 8
CILINDRO_2
 10
20.1689
 20
19.3221
 30
1.4997
 70
192
 0
VERTEX
 8
CILINDRO_2
 10
20.3909
 20
18.8461
 30
1.4997
 70
192
 0
VERTEX
 8
CILINDRO_2
 10
20.6921
 20
18.4159
 30
1.4997
 70
192
 0
VERTEX
 8
CILINDRO_2
 10
21.0635
 20
18.0445
 30
1.4997
 70
192
 0
VERTEX
 8
CILINDRO_2
 10
21.4937
 20
17.7433
 30
1.4997
 70
192
 0
VERTEX
 8
CILINDRO_2
 10
21.9697
 20
17.5213
 30
1.4997
 70
192
 0
VERTEX
 8
CILINDRO_2
 10
22.477
 20
17.3854
 30
1.4997
 70
192
 0
VERTEX
 8
CILINDRO_2
 10
23.4362
 20
17.8797
 30
0.0004
 70
192
 0
VERTEX
 8
CILINDRO_2
 10
23.0001
 20
17.3396
 30
0.5004
 70
192
 0
VERTEX
 8
CILINDRO_2
 10
23.8589
 20
17.993
 30
0.0004
 70
192
 0
VERTEX
 8
CILINDRO_2
 10
23.5233
 20
17.3854
 30
0.5004
 70
192
 0
VERTEX
 8
CILINDRO_2
 10
24.2556
 20
18.1779
 30
0.0004
 70
192
 0
VERTEX
 8
CILINDRO_2
 10
24.0306
 20
17.5213
 30
0.5004
 70
192
 0
VERTEX
 8
CILINDRO_2
 10
24.6142
 20
18.429
 30
0.0004
 70
192
 0
VERTEX
 8
CILINDRO_2
 10
24.5066
 20
17.7433
 30
0.5004
 70
192
 0
VERTEX
 8
CILINDRO_2
 10
24.9237
 20
18.7385
 30
0.0004
 70
192
 0
VERTEX
 8
CILINDRO_2
 10
24.9368
 20
18.0445
 30
0.5004
 70
192
 0
VERTEX
 8
CILINDRO_2
 10
25.1747
 20
19.097
 30
0.0004
 70
192
 0
VERTEX
 8
CILINDRO_2
 10
25.3082
 20
18.4159
 30
0.5004
 70
192
 0
VERTEX
 8
CILINDRO_2
 10
25.6094
 20
18.8461
 30
0.5004
 70
192
 0
VERTEX
 8
CILINDRO_2
 10
25.3597
 20
19.4937
 30
0.0004
 70
192
 0
VERTEX
 8
CILINDRO_2
 10
25.473
 20
19.9165
 30
0.0004
 70
192
 0
VERTEX
 8
CILINDRO_2
 10
25.8313
 20
19.3221
 30
0.5004
 70
192
 0
VERTEX
 8
CILINDRO_2
 10
25.9673
 20
19.8293
 30
0.5004
 70
192
 0
VERTEX
 8
CILINDRO_2
 10
25.5111
 20
20.3525
 30
0.0004
 70
192
 0
VERTEX
 8
CILINDRO_2
 10
25.473
 20
20.7886
 30
0.0004
 70
192
 0
VERTEX
 8
CILINDRO_2
 10
26.013
 20
20.3525
 30
0.5004
 70
192
 0
VERTEX
 8
CILINDRO_2
 10
25.9673
 20
20.8757
 30
0.5004
 70
192
 0
VERTEX
 8
CILINDRO_2
 10
25.3597
 20
21.2113
 30
0.0004
 70
192
 0
VERTEX
 8
CILINDRO_2
 10
25.8313
 20
21.383
 30
0.5004
 70
192
 0
VERTEX
 8
CILINDRO_2
 10
25.1747
 20
21.608
 30
0.0004
 70
192
 0
VERTEX
 8
CILINDRO_2
 10
24.6142
 20
22.2761
 30
0.0004
 70
192
 0
VERTEX
 8
CILINDRO_2
 10
24.9237
 20
21.9666
 30
0.0004
 70
192
 0
VERTEX
 8
CILINDRO_2
 10
25.6094
 20
21.859
 30
0.5004
 70
192
 0
VERTEX
 8
CILINDRO_2
 10
24.2556
 20
22.5271
 30
0.0004
 70
192
 0
VERTEX
 8
CILINDRO_2
 10
24.9368
 20
22.6605
 30
0.5004
 70
192
 0
VERTEX
 8
CILINDRO_2
 10
25.3082
 20
22.2892
 30
0.5004
 70
192
 0
VERTEX
 8
CILINDRO_2
 10
24.5066
 20
22.9618
 30
0.5004
 70
192
 0
VERTEX
 8
CILINDRO_2
 10
22.477
 20
17.3854
 30
0.5004
 70
192
 0
VERTEX
 8
CILINDRO_2
 10
23.8589
 20
22.7121
 30
0.0004
 70
192
 0
VERTEX
 8
CILINDRO_2
 10
23.0001
 20
17.8415
 30
0.0004
 70
192
 0
VERTEX
 8
CILINDRO_2
 10
23.0001
 20
22.8635
 30
0.0004
 70
192
 0
VERTEX
 8
CILINDRO_2
 10
24.0306
 20
23.1837
 30
0.5004
 70
192
 0
VERTEX
 8
CILINDRO_2
 10
23.4362
 20
22.8254
 30
0.0004
 70
192
 0
VERTEX
 8
CILINDRO_2
 10
23.0001
 20
23.3654
 30
0.5004
 70
192
 0
VERTEX
 8
CILINDRO_2
 10
22.5641
 20
22.8254
 30
0.0004
 70
192
 0
VERTEX
 8
CILINDRO_2
 10
23.5233
 20
23.3197
 30
0.5004
 70
192
 0
VERTEX
 8
CILINDRO_2
 10
22.477
 20
23.3197
 30
0.5004
 70
192
 0
VERTEX
 8
CILINDRO_2
 10
22.1413
 20
22.7121
 30
0.0004
 70
192
 0
VERTEX
 8
CILINDRO_2
 10
21.9697
 20
23.1837
 30
0.5004
 70
192
 0
VERTEX
 8
CILINDRO_2
 10
21.7446
 20
22.5271
 30
0.0004
 70
192
 0
VERTEX
 8
CILINDRO_2
 10
21.4937
 20
22.9618
 30
0.5004
 70
192
 0
VERTEX
 8
CILINDRO_2
 10
21.3861
 20
22.2761
 30
0.0004
 70
192
 0
VERTEX
 8
CILINDRO_2
 10
21.0635
 20
22.6605
 30
0.5004
 70
192
 0
VERTEX
 8
CILINDRO_2
 10
21.0766
 20
21.9666
 30
0.0004
 70
192
 0
VERTEX
 8
CILINDRO_2
 10
20.6921
 20
22.2892
 30
0.5004
 70
192
 0
VERTEX
 8
CILINDRO_2
 10
20.8256
 20
21.608
 30
0.0004
 70
192
 0
VERTEX
 8
CILINDRO_2
 10
20.3909
 20
21.859
 30
0.5004
 70
192
 0
VERTEX
 8
CILINDRO_2
 10
20.6406
 20
21.2113
 30
0.0004
 70
192
 0
VERTEX
 8
CILINDRO_2
 10
20.1689
 20
21.383
 30
0.5004
 70
192
 0
VERTEX
 8
CILINDRO_2
 10
20.5273
 20
20.7886
 30
0.0004
 70
192
 0
VERTEX
 8
CILINDRO_2
 10
20.033
 20
20.8757
 30
0.5004
 70
192
 0
VERTEX
 8
CILINDRO_2
 10
20.4891
 20
20.3525
 30
0.0004
 70
192
 0
VERTEX
 8
CILINDRO_2
 10
19.9872
 20
20.3525
 30
0.5004
 70
192
 0
VERTEX
 8
CILINDRO_2
 10
20.5273
 20
19.9165
 30
0.0004
 70
192
 0
VERTEX
 8
CILINDRO_2
 10
20.033
 20
19.8293
 30
0.5004
 70
192
 0
VERTEX
 8
CILINDRO_2
 10
20.6406
 20
19.4937
 30
0.0004
 70
192
 0
VERTEX
 8
CILINDRO_2
 10
20.1689
 20
19.3221
 30
0.5004
 70
192
 0
VERTEX
 8
CILINDRO_2
 10
20.8256
 20
19.097
 30
0.0004
 70
192
 0
VERTEX
 8
CILINDRO_2
 10
20.3909
 20
18.8461
 30
0.5004
 70
192
 0
VERTEX
 8
CILINDRO_2
 10
21.0766
 20
18.7385
 30
0.0004
 70
192
 0
VERTEX
 8
CILINDRO_2
 10
20.6921
 20
18.4159
 30
0.5004
 70
192
 0
VERTEX
 8
CILINDRO_2
 10
21.3861
 20
18.429
 30
0.0004
 70
192
 0
VERTEX
 8
CILINDRO_2
 10
21.0635
 20
18.0445
 30
0.5004
 70
192
 0
VERTEX
 8
CILINDRO_2
 10
21.7446
 20
18.1779
 30
0.0004
 70
192
 0
VERTEX
 8
CILINDRO_2
 10
21.4937
 20
17.7433
 30
0.5004
 70
192
 0
VERTEX
 8
CILINDRO_2
 10
22.1413
 20
17.993
 30
0.0004
 70
192
 0
VERTEX
 8
CILINDRO_2
 10
21.9697
 20
17.5213
 30
0.5004
 70
192
 0
VERTEX
 8
CILINDRO_2
 10
22.5641
 20
17.8797
 30
0.0004
 70
192
 0
VERTEX
 8
CILINDRO_2
 10
21.9749
 20
17.5356
 30
0.3784
 70
192
 0
VERTEX
 8
CILINDRO_2
 10
21.9916
 20
17.5816
 30
0.2559
 70
192
 0
VERTEX
 8
CILINDRO_2
 10
22.0199
 20
17.6595
 30
0.1469
 70
192
 0
VERTEX
 8
CILINDRO_2
 10
22.0574
 20
17.7623
 30
0.0643
 70
192
 0
VERTEX
 8
CILINDRO_2
 10
22.0994
 20
17.8779
 30
0.0156
 70
192
 0
VERTEX
 8
CILINDRO_2
 10
23.0001
 20
17.719
 30
0.0156
 70
192
 0
VERTEX
 8
CILINDRO_2
 10
23.0001
 20
17.5961
 30
0.0643
 70
192
 0
VERTEX
 8
CILINDRO_2
 10
23.0001
 20
17.4866
 30
0.1469
 70
192
 0
VERTEX
 8
CILINDRO_2
 10
23.0001
 20
17.4037
 30
0.2559
 70
192
 0
VERTEX
 8
CILINDRO_2
 10
23.0001
 20
17.3548
 30
0.3784
 70
192
 0
VERTEX
 8
CILINDRO_2
 10
20.7037
 20
18.4256
 30
0.3784
 70
192
 0
VERTEX
 8
CILINDRO_2
 10
20.7412
 20
18.4571
 30
0.2559
 70
192
 0
VERTEX
 8
CILINDRO_2
 10
20.8047
 20
18.5104
 30
0.1469
 70
192
 0
VERTEX
 8
CILINDRO_2
 10
20.8886
 20
18.5807
 30
0.0643
 70
192
 0
VERTEX
 8
CILINDRO_2
 10
20.9828
 20
18.6598
 30
0.0156
 70
192
 0
VERTEX
 8
CILINDRO_2
 10
23.4574
 20
17.7591
 30
0.0156
 70
192
 0
VERTEX
 8
CILINDRO_2
 10
23.4788
 20
17.638
 30
0.0643
 70
192
 0
VERTEX
 8
CILINDRO_2
 10
23.4978
 20
17.5302
 30
0.1469
 70
192
 0
VERTEX
 8
CILINDRO_2
 10
23.5122
 20
17.4485
 30
0.2559
 70
192
 0
VERTEX
 8
CILINDRO_2
 10
23.5207
 20
17.4003
 30
0.3784
 70
192
 0
VERTEX
 8
CILINDRO_2
 10
21.0732
 20
18.0561
 30
0.3784
 70
192
 0
VERTEX
 8
CILINDRO_2
 10
21.1047
 20
18.0936
 30
0.2559
 70
192
 0
VERTEX
 8
CILINDRO_2
 10
21.158
 20
18.1571
 30
0.1469
 70
192
 0
VERTEX
 8
CILINDRO_2
 10
21.2283
 20
18.241
 30
0.0643
 70
192
 0
VERTEX
 8
CILINDRO_2
 10
21.3074
 20
18.3352
 30
0.0156
 70
192
 0
VERTEX
 8
CILINDRO_2
 10
23.9008
 20
17.8779
 30
0.0156
 70
192
 0
VERTEX
 8
CILINDRO_2
 10
23.9429
 20
17.7623
 30
0.0643
 70
192
 0
VERTEX
 8
CILINDRO_2
 10
23.9803
 20
17.6595
 30
0.1469
 70
192
 0
VERTEX
 8
CILINDRO_2
 10
24.0087
 20
17.5816
 30
0.2559
 70
192
 0
VERTEX
 8
CILINDRO_2
 10
24.0254
 20
17.5356
 30
0.3784
 70
192
 0
VERTEX
 8
CILINDRO_2
 10
24.3169
 20
18.0719
 30
0.0156
 70
192
 0
VERTEX
 8
CILINDRO_2
 10
24.3784
 20
17.9654
 30
0.0643
 70
192
 0
VERTEX
 8
CILINDRO_2
 10
24.4331
 20
17.8706
 30
0.1469
 70
192
 0
VERTEX
 8
CILINDRO_2
 10
24.4745
 20
17.7988
 30
0.2559
 70
192
 0
VERTEX
 8
CILINDRO_2
 10
24.499
 20
17.7564
 30
0.3784
 70
192
 0
VERTEX
 8
CILINDRO_2
 10
24.6929
 20
18.3352
 30
0.0156
 70
192
 0
VERTEX
 8
CILINDRO_2
 10
24.7719
 20
18.241
 30
0.0643
 70
192
 0
VERTEX
 8
CILINDRO_2
 10
24.8423
 20
18.1571
 30
0.1469
 70
192
 0
VERTEX
 8
CILINDRO_2
 10
24.8956
 20
18.0936
 30
0.2559
 70
192
 0
VERTEX
 8
CILINDRO_2
 10
24.927
 20
18.0561
 30
0.3784
 70
192
 0
VERTEX
 8
CILINDRO_2
 10
22.4796
 20
17.4003
 30
0.3784
 70
192
 0
VERTEX
 8
CILINDRO_2
 10
22.4881
 20
17.4485
 30
0.2559
 70
192
 0
VERTEX
 8
CILINDRO_2
 10
22.5025
 20
17.5302
 30
0.1469
 70
192
 0
VERTEX
 8
CILINDRO_2
 10
22.5215
 20
17.638
 30
0.0643
 70
192
 0
VERTEX
 8
CILINDRO_2
 10
22.5428
 20
17.7591
 30
0.0156
 70
192
 0
VERTEX
 8
CILINDRO_2
 10
25.0175
 20
18.6598
 30
0.0156
 70
192
 0
VERTEX
 8
CILINDRO_2
 10
25.1117
 20
18.5807
 30
0.0643
 70
192
 0
VERTEX
 8
CILINDRO_2
 10
25.1955
 20
18.5104
 30
0.1469
 70
192
 0
VERTEX
 8
CILINDRO_2
 10
25.259
 20
18.4571
 30
0.2559
 70
192
 0
VERTEX
 8
CILINDRO_2
 10
25.2965
 20
18.4256
 30
0.3784
 70
192
 0
VERTEX
 8
CILINDRO_2
 10
25.2808
 20
19.0358
 30
0.0156
 70
192
 0
VERTEX
 8
CILINDRO_2
 10
25.3873
 20
18.9743
 30
0.0643
 70
192
 0
VERTEX
 8
CILINDRO_2
 10
25.4821
 20
18.9196
 30
0.1469
 70
192
 0
VERTEX
 8
CILINDRO_2
 10
25.5539
 20
18.8781
 30
0.2559
 70
192
 0
VERTEX
 8
CILINDRO_2
 10
25.5962
 20
18.8537
 30
0.3784
 70
192
 0
VERTEX
 8
CILINDRO_2
 10
25.8171
 20
19.3272
 30
0.3784
 70
192
 0
VERTEX
 8
CILINDRO_2
 10
25.7711
 20
19.344
 30
0.2559
 70
192
 0
VERTEX
 8
CILINDRO_2
 10
25.6932
 20
19.3723
 30
0.1469
 70
192
 0
VERTEX
 8
CILINDRO_2
 10
25.5903
 20
19.4098
 30
0.0643
 70
192
 0
VERTEX
 8
CILINDRO_2
 10
25.4748
 20
19.4518
 30
0.0156
 70
192
 0
VERTEX
 8
CILINDRO_2
 10
25.5936
 20
19.8952
 30
0.0156
 70
192
 0
VERTEX
 8
CILINDRO_2
 10
25.7147
 20
19.8739
 30
0.0643
 70
192
 0
VERTEX
 8
CILINDRO_2
 10
25.8225
 20
19.8549
 30
0.1469
 70
192
 0
VERTEX
 8
CILINDRO_2
 10
25.9041
 20
19.8405
 30
0.2559
 70
192
 0
VERTEX
 8
CILINDRO_2
 10
25.9523
 20
19.832
 30
0.3784
 70
192
 0
VERTEX
 8
CILINDRO_2
 10
25.9979
 20
20.3525
 30
0.3784
 70
192
 0
VERTEX
 8
CILINDRO_2
 10
25.9489
 20
20.3525
 30
0.2559
 70
192
 0
VERTEX
 8
CILINDRO_2
 10
25.866
 20
20.3525
 30
0.1469
 70
192
 0
VERTEX
 8
CILINDRO_2
 10
25.7566
 20
20.3525
 30
0.0643
 70
192
 0
VERTEX
 8
CILINDRO_2
 10
25.6336
 20
20.3525
 30
0.0156
 70
192
 0
VERTEX
 8
CILINDRO_2
 10
25.5936
 20
20.8098
 30
0.0156
 70
192
 0
VERTEX
 8
CILINDRO_2
 10
25.7147
 20
20.8312
 30
0.0643
 70
192
 0
VERTEX
 8
CILINDRO_2
 10
25.8225
 20
20.8502
 30
0.1469
 70
192
 0
VERTEX
 8
CILINDRO_2
 10
25.9041
 20
20.8646
 30
0.2559
 70
192
 0
VERTEX
 8
CILINDRO_2
 10
25.9523
 20
20.8731
 30
0.3784
 70
192
 0
VERTEX
 8
CILINDRO_2
 10
25.8171
 20
21.3778
 30
0.3784
 70
192
 0
VERTEX
 8
CILINDRO_2
 10
25.7711
 20
21.3611
 30
0.2559
 70
192
 0
VERTEX
 8
CILINDRO_2
 10
25.6932
 20
21.3327
 30
0.1469
 70
192
 0
VERTEX
 8
CILINDRO_2
 10
25.5903
 20
21.2953
 30
0.0643
 70
192
 0
VERTEX
 8
CILINDRO_2
 10
25.4748
 20
21.2532
 30
0.0156
 70
192
 0
VERTEX
 8
CILINDRO_2
 10
25.5962
 20
21.8514
 30
0.3784
 70
192
 0
VERTEX
 8
CILINDRO_2
 10
25.5539
 20
21.8269
 30
0.2559
 70
192
 0
VERTEX
 8
CILINDRO_2
 10
25.4821
 20
21.7855
 30
0.1469
 70
192
 0
VERTEX
 8
CILINDRO_2
 10
25.3873
 20
21.7308
 30
0.0643
 70
192
 0
VERTEX
 8
CILINDRO_2
 10
25.2808
 20
21.6693
 30
0.0156
 70
192
 0
VERTEX
 8
CILINDRO_2
 10
25.0175
 20
22.0453
 30
0.0156
 70
192
 0
VERTEX
 8
CILINDRO_2
 10
25.1117
 20
22.1243
 30
0.0643
 70
192
 0
VERTEX
 8
CILINDRO_2
 10
25.1955
 20
22.1947
 30
0.1469
 70
192
 0
VERTEX
 8
CILINDRO_2
 10
25.259
 20
22.248
 30
0.2559
 70
192
 0
VERTEX
 8
CILINDRO_2
 10
25.2965
 20
22.2794
 30
0.3784
 70
192
 0
VERTEX
 8
CILINDRO_2
 10
24.6929
 20
22.3699
 30
0.0156
 70
192
 0
VERTEX
 8
CILINDRO_2
 10
24.7719
 20
22.4641
 30
0.0643
 70
192
 0
VERTEX
 8
CILINDRO_2
 10
24.8423
 20
22.5479
 30
0.1469
 70
192
 0
VERTEX
 8
CILINDRO_2
 10
24.8956
 20
22.6114
 30
0.2559
 70
192
 0
VERTEX
 8
CILINDRO_2
 10
24.927
 20
22.6489
 30
0.3784
 70
192
 0
VERTEX
 8
CILINDRO_2
 10
24.3169
 20
22.6332
 30
0.0156
 70
192
 0
VERTEX
 8
CILINDRO_2
 10
24.3784
 20
22.7397
 30
0.0643
 70
192
 0
VERTEX
 8
CILINDRO_2
 10
24.4331
 20
22.8345
 30
0.1469
 70
192
 0
VERTEX
 8
CILINDRO_2
 10
24.4745
 20
22.9063
 30
0.2559
 70
192
 0
VERTEX
 8
CILINDRO_2
 10
24.499
 20
22.9486
 30
0.3784
 70
192
 0
VERTEX
 8
CILINDRO_2
 10
24.0254
 20
23.1695
 30
0.3784
 70
192
 0
VERTEX
 8
CILINDRO_2
 10
24.0087
 20
23.1235
 30
0.2559
 70
192
 0
VERTEX
 8
CILINDRO_2
 10
23.9803
 20
23.0456
 30
0.1469
 70
192
 0
VERTEX
 8
CILINDRO_2
 10
23.9429
 20
22.9427
 30
0.0643
 70
192
 0
VERTEX
 8
CILINDRO_2
 10
23.9008
 20
22.8272
 30
0.0156
 70
192
 0
VERTEX
 8
CILINDRO_2
 10
23.4574
 20
22.946
 30
0.0156
 70
192
 0
VERTEX
 8
CILINDRO_2
 10
23.4788
 20
23.0671
 30
0.0643
 70
192
 0
VERTEX
 8
CILINDRO_2
 10
23.4978
 20
23.1749
 30
0.1469
 70
192
 0
VERTEX
 8
CILINDRO_2
 10
23.5122
 20
23.2565
 30
0.2559
 70
192
 0
VERTEX
 8
CILINDRO_2
 10
23.5207
 20
23.3047
 30
0.3784
 70
192
 0
VERTEX
 8
CILINDRO_2
 10
23.0001
 20
22.986
 30
0.0156
 70
192
 0
VERTEX
 8
CILINDRO_2
 10
23.0001
 20
23.109
 30
0.0643
 70
192
 0
VERTEX
 8
CILINDRO_2
 10
23.0001
 20
23.2184
 30
0.1469
 70
192
 0
VERTEX
 8
CILINDRO_2
 10
23.0001
 20
23.3013
 30
0.2559
 70
192
 0
VERTEX
 8
CILINDRO_2
 10
23.0001
 20
23.3503
 30
0.3784
 70
192
 0
VERTEX
 8
CILINDRO_2
 10
22.4796
 20
23.3047
 30
0.3784
 70
192
 0
VERTEX
 8
CILINDRO_2
 10
22.4881
 20
23.2565
 30
0.2559
 70
192
 0
VERTEX
 8
CILINDRO_2
 10
22.5025
 20
23.1749
 30
0.1469
 70
192
 0
VERTEX
 8
CILINDRO_2
 10
22.5215
 20
23.0671
 30
0.0643
 70
192
 0
VERTEX
 8
CILINDRO_2
 10
22.5428
 20
22.946
 30
0.0156
 70
192
 0
VERTEX
 8
CILINDRO_2
 10
21.9749
 20
23.1695
 30
0.3784
 70
192
 0
VERTEX
 8
CILINDRO_2
 10
21.9916
 20
23.1235
 30
0.2559
 70
192
 0
VERTEX
 8
CILINDRO_2
 10
22.0199
 20
23.0456
 30
0.1469
 70
192
 0
VERTEX
 8
CILINDRO_2
 10
22.0574
 20
22.9427
 30
0.0643
 70
192
 0
VERTEX
 8
CILINDRO_2
 10
22.0994
 20
22.8272
 30
0.0156
 70
192
 0
VERTEX
 8
CILINDRO_2
 10
21.5013
 20
22.9486
 30
0.3784
 70
192
 0
VERTEX
 8
CILINDRO_2
 10
21.5257
 20
22.9063
 30
0.2559
 70
192
 0
VERTEX
 8
CILINDRO_2
 10
21.5672
 20
22.8345
 30
0.1469
 70
192
 0
VERTEX
 8
CILINDRO_2
 10
21.6219
 20
22.7397
 30
0.0643
 70
192
 0
VERTEX
 8
CILINDRO_2
 10
21.6834
 20
22.6332
 30
0.0156
 70
192
 0
VERTEX
 8
CILINDRO_2
 10
21.0732
 20
22.6489
 30
0.3784
 70
192
 0
VERTEX
 8
CILINDRO_2
 10
21.1047
 20
22.6114
 30
0.2559
 70
192
 0
VERTEX
 8
CILINDRO_2
 10
21.158
 20
22.5479
 30
0.1469
 70
192
 0
VERTEX
 8
CILINDRO_2
 10
21.2283
 20
22.4641
 30
0.0643
 70
192
 0
VERTEX
 8
CILINDRO_2
 10
21.3074
 20
22.3699
 30
0.0156
 70
192
 0
VERTEX
 8
CILINDRO_2
 10
20.7037
 20
22.2794
 30
0.3784
 70
192
 0
VERTEX
 8
CILINDRO_2
 10
20.7412
 20
22.248
 30
0.2559
 70
192
 0
VERTEX
 8
CILINDRO_2
 10
20.8047
 20
22.1947
 30
0.1469
 70
192
 0
VERTEX
 8
CILINDRO_2
 10
20.8886
 20
22.1243
 30
0.0643
 70
192
 0
VERTEX
 8
CILINDRO_2
 10
20.9828
 20
22.0453
 30
0.0156
 70
192
 0
VERTEX
 8
CILINDRO_2
 10
20.404
 20
21.8514
 30
0.3784
 70
192
 0
VERTEX
 8
CILINDRO_2
 10
20.4464
 20
21.8269
 30
0.2559
 70
192
 0
VERTEX
 8
CILINDRO_2
 10
20.5182
 20
21.7855
 30
0.1469
 70
192
 0
VERTEX
 8
CILINDRO_2
 10
20.613
 20
21.7308
 30
0.0643
 70
192
 0
VERTEX
 8
CILINDRO_2
 10
20.7195
 20
21.6693
 30
0.0156
 70
192
 0
VERTEX
 8
CILINDRO_2
 10
20.1832
 20
21.3778
 30
0.3784
 70
192
 0
VERTEX
 8
CILINDRO_2
 10
20.2292
 20
21.3611
 30
0.2559
 70
192
 0
VERTEX
 8
CILINDRO_2
 10
20.3071
 20
21.3327
 30
0.1469
 70
192
 0
VERTEX
 8
CILINDRO_2
 10
20.4099
 20
21.2953
 30
0.0643
 70
192
 0
VERTEX
 8
CILINDRO_2
 10
20.5255
 20
21.2532
 30
0.0156
 70
192
 0
VERTEX
 8
CILINDRO_2
 10
20.048
 20
20.8731
 30
0.3784
 70
192
 0
VERTEX
 8
CILINDRO_2
 10
20.0961
 20
20.8646
 30
0.2559
 70
192
 0
VERTEX
 8
CILINDRO_2
 10
20.1778
 20
20.8502
 30
0.1469
 70
192
 0
VERTEX
 8
CILINDRO_2
 10
20.2856
 20
20.8312
 30
0.0643
 70
192
 0
VERTEX
 8
CILINDRO_2
 10
20.4067
 20
20.8098
 30
0.0156
 70
192
 0
VERTEX
 8
CILINDRO_2
 10
20.0024
 20
20.3525
 30
0.3784
 70
192
 0
VERTEX
 8
CILINDRO_2
 10
20.0513
 20
20.3525
 30
0.2559
 70
192
 0
VERTEX
 8
CILINDRO_2
 10
20.1342
 20
20.3525
 30
0.1469
 70
192
 0
VERTEX
 8
CILINDRO_2
 10
20.2437
 20
20.3525
 30
0.0643
 70
192
 0
VERTEX
 8
CILINDRO_2
 10
20.3667
 20
20.3525
 30
0.0156
 70
192
 0
VERTEX
 8
CILINDRO_2
 10
20.048
 20
19.832
 30
0.3784
 70
192
 0
VERTEX
 8
CILINDRO_2
 10
20.0961
 20
19.8405
 30
0.2559
 70
192
 0
VERTEX
 8
CILINDRO_2
 10
20.1778
 20
19.8549
 30
0.1469
 70
192
 0
VERTEX
 8
CILINDRO_2
 10
20.2856
 20
19.8739
 30
0.0643
 70
192
 0
VERTEX
 8
CILINDRO_2
 10
20.4067
 20
19.8952
 30
0.0156
 70
192
 0
VERTEX
 8
CILINDRO_2
 10
20.1832
 20
19.3272
 30
0.3784
 70
192
 0
VERTEX
 8
CILINDRO_2
 10
20.2292
 20
19.344
 30
0.2559
 70
192
 0
VERTEX
 8
CILINDRO_2
 10
20.3071
 20
19.3723
 30
0.1469
 70
192
 0
VERTEX
 8
CILINDRO_2
 10
20.4099
 20
19.4098
 30
0.0643
 70
192
 0
VERTEX
 8
CILINDRO_2
 10
20.5255
 20
19.4518
 30
0.0156
 70
192
 0
VERTEX
 8
CILINDRO_2
 10
20.404
 20
18.8537
 30
0.3784
 70
192
 0
VERTEX
 8
CILINDRO_2
 10
20.4464
 20
18.8781
 30
0.2559
 70
192
 0
VERTEX
 8
CILINDRO_2
 10
20.5182
 20
18.9196
 30
0.1469
 70
192
 0
VERTEX
 8
CILINDRO_2
 10
20.613
 20
18.9743
 30
0.0643
 70
192
 0
VERTEX
 8
CILINDRO_2
 10
20.7195
 20
19.0358
 30
0.0156
 70
192
 0
VERTEX
 8
CILINDRO_2
 10
21.5013
 20
17.7564
 30
0.3784
 70
192
 0
VERTEX
 8
CILINDRO_2
 10
21.5257
 20
17.7988
 30
0.2559
 70
192
 0
VERTEX
 8
CILINDRO_2
 10
21.5672
 20
17.8706
 30
0.1469
 70
192
 0
VERTEX
 8
CILINDRO_2
 10
21.6219
 20
17.9654
 30
0.0643
 70
192
 0
VERTEX
 8
CILINDRO_2
 10
21.6834
 20
18.0719
 30
0.0156
 70
192
 0
VERTEX
 8
CILINDRO_2
 10
0
 20
0
 30
0
 70
128
 71
1
 72
72
 73
39
 74
39
 0
VERTEX
 8
CILINDRO_2
 10
0
 20
0
 30
0
 70
128
 71
40
 72
3
 73
4
 74
42
 0
VERTEX
 8
CILINDRO_2
 10
0
 20
0
 30
0
 70
128
 71
3
 72
2
 73
4
 74
4
 0
VERTEX
 8
CILINDRO_2
 10
0
 20
0
 30
0
 70
128
 71
1
 72
39
 73
41
 74
41
 0
VERTEX
 8
CILINDRO_2
 10
0
 20
0
 30
0
 70
128
 71
42
 72
4
 73
5
 74
44
 0
VERTEX
 8
CILINDRO_2
 10
0
 20
0
 30
0
 70
128
 71
4
 72
2
 73
5
 74
5
 0
VERTEX
 8
CILINDRO_2
 10
0
 20
0
 30
0
 70
128
 71
1
 72
41
 73
43
 74
43
 0
VERTEX
 8
CILINDRO_2
 10
0
 20
0
 30
0
 70
128
 71
44
 72
5
 73
6
 74
46
 0
VERTEX
 8
CILINDRO_2
 10
0
 20
0
 30
0
 70
128
 71
5
 72
2
 73
6
 74
6
 0
VERTEX
 8
CILINDRO_2
 10
0
 20
0
 30
0
 70
128
 71
1
 72
43
 73
45
 74
45
 0
VERTEX
 8
CILINDRO_2
 10
0
 20
0
 30
0
 70
128
 71
46
 72
6
 73
7
 74
48
 0
VERTEX
 8
CILINDRO_2
 10
0
 20
0
 30
0
 70
128
 71
6
 72
2
 73
7
 74
7
 0
VERTEX
 8
CILINDRO_2
 10
0
 20
0
 30
0
 70
128
 71
1
 72
45
 73
47
 74
47
 0
VERTEX
 8
CILINDRO_2
 10
0
 20
0
 30
0
 70
128
 71
48
 72
7
 73
8
 74
50
 0
VERTEX
 8
CILINDRO_2
 10
0
 20
0
 30
0
 70
128
 71
7
 72
2
 73
8
 74
8
 0
VERTEX
 8
CILINDRO_2
 10
0
 20
0
 30
0
 70
128
 71
1
 72
47
 73
49
 74
49
 0
VERTEX
 8
CILINDRO_2
 10
0
 20
0
 30
0
 70
128
 71
50
 72
8
 73
9
 74
51
 0
VERTEX
 8
CILINDRO_2
 10
0
 20
0
 30
0
 70
128
 71
8
 72
2
 73
9
 74
9
 0
VERTEX
 8
CILINDRO_2
 10
0
 20
0
 30
0
 70
128
 71
1
 72
49
 73
52
 74
52
 0
VERTEX
 8
CILINDRO_2
 10
0
 20
0
 30
0
 70
128
 71
51
 72
9
 73
10
 74
54
 0
VERTEX
 8
CILINDRO_2
 10
0
 20
0
 30
0
 70
128
 71
9
 72
2
 73
10
 74
10
 0
VERTEX
 8
CILINDRO_2
 10
0
 20
0
 30
0
 70
128
 71
1
 72
52
 73
53
 74
53
 0
VERTEX
 8
CILINDRO_2
 10
0
 20
0
 30
0
 70
128
 71
54
 72
10
 73
11
 74
55
 0
VERTEX
 8
CILINDRO_2
 10
0
 20
0
 30
0
 70
128
 71
10
 72
2
 73
11
 74
11
 0
VERTEX
 8
CILINDRO_2
 10
0
 20
0
 30
0
 70
128
 71
1
 72
53
 73
56
 74
56
 0
VERTEX
 8
CILINDRO_2
 10
0
 20
0
 30
0
 70
128
 71
55
 72
11
 73
12
 74
58
 0
VERTEX
 8
CILINDRO_2
 10
0
 20
0
 30
0
 70
128
 71
11
 72
2
 73
12
 74
12
 0
VERTEX
 8
CILINDRO_2
 10
0
 20
0
 30
0
 70
128
 71
1
 72
56
 73
57
 74
57
 0
VERTEX
 8
CILINDRO_2
 10
0
 20
0
 30
0
 70
128
 71
58
 72
12
 73
13
 74
59
 0
VERTEX
 8
CILINDRO_2
 10
0
 20
0
 30
0
 70
128
 71
12
 72
2
 73
13
 74
13
 0
VERTEX
 8
CILINDRO_2
 10
0
 20
0
 30
0
 70
128
 71
1
 72
57
 73
60
 74
60
 0
VERTEX
 8
CILINDRO_2
 10
0
 20
0
 30
0
 70
128
 71
59
 72
13
 73
14
 74
61
 0
VERTEX
 8
CILINDRO_2
 10
0
 20
0
 30
0
 70
128
 71
13
 72
2
 73
14
 74
14
 0
VERTEX
 8
CILINDRO_2
 10
0
 20
0
 30
0
 70
128
 71
1
 72
60
 73
62
 74
62
 0
VERTEX
 8
CILINDRO_2
 10
0
 20
0
 30
0
 70
128
 71
61
 72
14
 73
15
 74
65
 0
VERTEX
 8
CILINDRO_2
 10
0
 20
0
 30
0
 70
128
 71
14
 72
2
 73
15
 74
15
 0
VERTEX
 8
CILINDRO_2
 10
0
 20
0
 30
0
 70
128
 71
1
 72
62
 73
64
 74
64
 0
VERTEX
 8
CILINDRO_2
 10
0
 20
0
 30
0
 70
128
 71
65
 72
15
 73
16
 74
68
 0
VERTEX
 8
CILINDRO_2
 10
0
 20
0
 30
0
 70
128
 71
15
 72
2
 73
16
 74
16
 0
VERTEX
 8
CILINDRO_2
 10
0
 20
0
 30
0
 70
128
 71
1
 72
64
 73
63
 74
63
 0
VERTEX
 8
CILINDRO_2
 10
0
 20
0
 30
0
 70
128
 71
68
 72
16
 73
17
 74
67
 0
VERTEX
 8
CILINDRO_2
 10
0
 20
0
 30
0
 70
128
 71
16
 72
2
 73
17
 74
17
 0
VERTEX
 8
CILINDRO_2
 10
0
 20
0
 30
0
 70
128
 71
1
 72
63
 73
66
 74
66
 0
VERTEX
 8
CILINDRO_2
 10
0
 20
0
 30
0
 70
128
 71
67
 72
17
 73
18
 74
69
 0
VERTEX
 8
CILINDRO_2
 10
0
 20
0
 30
0
 70
128
 71
17
 72
2
 73
18
 74
18
 0
VERTEX
 8
CILINDRO_2
 10
0
 20
0
 30
0
 70
128
 71
1
 72
66
 73
71
 74
71
 0
VERTEX
 8
CILINDRO_2
 10
0
 20
0
 30
0
 70
128
 71
69
 72
18
 73
19
 74
74
 0
VERTEX
 8
CILINDRO_2
 10
0
 20
0
 30
0
 70
128
 71
18
 72
2
 73
19
 74
19
 0
VERTEX
 8
CILINDRO_2
 10
0
 20
0
 30
0
 70
128
 71
1
 72
71
 73
75
 74
75
 0
VERTEX
 8
CILINDRO_2
 10
0
 20
0
 30
0
 70
128
 71
74
 72
19
 73
20
 74
78
 0
VERTEX
 8
CILINDRO_2
 10
0
 20
0
 30
0
 70
128
 71
19
 72
2
 73
20
 74
20
 0
VERTEX
 8
CILINDRO_2
 10
0
 20
0
 30
0
 70
128
 71
1
 72
75
 73
73
 74
73
 0
VERTEX
 8
CILINDRO_2
 10
0
 20
0
 30
0
 70
128
 71
78
 72
20
 73
21
 74
76
 0
VERTEX
 8
CILINDRO_2
 10
0
 20
0
 30
0
 70
128
 71
20
 72
2
 73
21
 74
21
 0
VERTEX
 8
CILINDRO_2
 10
0
 20
0
 30
0
 70
128
 71
1
 72
73
 73
77
 74
77
 0
VERTEX
 8
CILINDRO_2
 10
0
 20
0
 30
0
 70
128
 71
76
 72
21
 73
22
 74
79
 0
VERTEX
 8
CILINDRO_2
 10
0
 20
0
 30
0
 70
128
 71
21
 72
2
 73
22
 74
22
 0
VERTEX
 8
CILINDRO_2
 10
0
 20
0
 30
0
 70
128
 71
1
 72
77
 73
80
 74
80
 0
VERTEX
 8
CILINDRO_2
 10
0
 20
0
 30
0
 70
128
 71
79
 72
22
 73
23
 74
81
 0
VERTEX
 8
CILINDRO_2
 10
0
 20
0
 30
0
 70
128
 71
22
 72
2
 73
23
 74
23
 0
VERTEX
 8
CILINDRO_2
 10
0
 20
0
 30
0
 70
128
 71
1
 72
80
 73
82
 74
82
 0
VERTEX
 8
CILINDRO_2
 10
0
 20
0
 30
0
 70
128
 71
81
 72
23
 73
24
 74
83
 0
VERTEX
 8
CILINDRO_2
 10
0
 20
0
 30
0
 70
128
 71
23
 72
2
 73
24
 74
24
 0
VERTEX
 8
CILINDRO_2
 10
0
 20
0
 30
0
 70
128
 71
1
 72
82
 73
84
 74
84
 0
VERTEX
 8
CILINDRO_2
 10
0
 20
0
 30
0
 70
128
 71
83
 72
24
 73
25
 74
85
 0
VERTEX
 8
CILINDRO_2
 10
0
 20
0
 30
0
 70
128
 71
24
 72
2
 73
25
 74
25
 0
VERTEX
 8
CILINDRO_2
 10
0
 20
0
 30
0
 70
128
 71
1
 72
84
 73
86
 74
86
 0
VERTEX
 8
CILINDRO_2
 10
0
 20
0
 30
0
 70
128
 71
85
 72
25
 73
26
 74
87
 0
VERTEX
 8
CILINDRO_2
 10
0
 20
0
 30
0
 70
128
 71
25
 72
2
 73
26
 74
26
 0
VERTEX
 8
CILINDRO_2
 10
0
 20
0
 30
0
 70
128
 71
1
 72
86
 73
88
 74
88
 0
VERTEX
 8
CILINDRO_2
 10
0
 20
0
 30
0
 70
128
 71
87
 72
26
 73
27
 74
89
 0
VERTEX
 8
CILINDRO_2
 10
0
 20
0
 30
0
 70
128
 71
26
 72
2
 73
27
 74
27
 0
VERTEX
 8
CILINDRO_2
 10
0
 20
0
 30
0
 70
128
 71
1
 72
88
 73
90
 74
90
 0
VERTEX
 8
CILINDRO_2
 10
0
 20
0
 30
0
 70
128
 71
89
 72
27
 73
28
 74
91
 0
VERTEX
 8
CILINDRO_2
 10
0
 20
0
 30
0
 70
128
 71
27
 72
2
 73
28
 74
28
 0
VERTEX
 8
CILINDRO_2
 10
0
 20
0
 30
0
 70
128
 71
1
 72
90
 73
92
 74
92
 0
VERTEX
 8
CILINDRO_2
 10
0
 20
0
 30
0
 70
128
 71
91
 72
28
 73
29
 74
93
 0
VERTEX
 8
CILINDRO_2
 10
0
 20
0
 30
0
 70
128
 71
28
 72
2
 73
29
 74
29
 0
VERTEX
 8
CILINDRO_2
 10
0
 20
0
 30
0
 70
128
 71
1
 72
92
 73
94
 74
94
 0
VERTEX
 8
CILINDRO_2
 10
0
 20
0
 30
0
 70
128
 71
93
 72
29
 73
30
 74
95
 0
VERTEX
 8
CILINDRO_2
 10
0
 20
0
 30
0
 70
128
 71
29
 72
2
 73
30
 74
30
 0
VERTEX
 8
CILINDRO_2
 10
0
 20
0
 30
0
 70
128
 71
1
 72
94
 73
96
 74
96
 0
VERTEX
 8
CILINDRO_2
 10
0
 20
0
 30
0
 70
128
 71
95
 72
30
 73
31
 74
97
 0
VERTEX
 8
CILINDRO_2
 10
0
 20
0
 30
0
 70
128
 71
30
 72
2
 73
31
 74
31
 0
VERTEX
 8
CILINDRO_2
 10
0
 20
0
 30
0
 70
128
 71
1
 72
96
 73
98
 74
98
 0
VERTEX
 8
CILINDRO_2
 10
0
 20
0
 30
0
 70
128
 71
97
 72
31
 73
32
 74
99
 0
VERTEX
 8
CILINDRO_2
 10
0
 20
0
 30
0
 70
128
 71
31
 72
2
 73
32
 74
32
 0
VERTEX
 8
CILINDRO_2
 10
0
 20
0
 30
0
 70
128
 71
1
 72
98
 73
100
 74
100
 0
VERTEX
 8
CILINDRO_2
 10
0
 20
0
 30
0
 70
128
 71
99
 72
32
 73
33
 74
101
 0
VERTEX
 8
CILINDRO_2
 10
0
 20
0
 30
0
 70
128
 71
32
 72
2
 73
33
 74
33
 0
VERTEX
 8
CILINDRO_2
 10
0
 20
0
 30
0
 70
128
 71
1
 72
100
 73
102
 74
102
 0
VERTEX
 8
CILINDRO_2
 10
0
 20
0
 30
0
 70
128
 71
101
 72
33
 73
34
 74
103
 0
VERTEX
 8
CILINDRO_2
 10
0
 20
0
 30
0
 70
128
 71
33
 72
2
 73
34
 74
34
 0
VERTEX
 8
CILINDRO_2
 10
0
 20
0
 30
0
 70
128
 71
1
 72
102
 73
104
 74
104
 0
VERTEX
 8
CILINDRO_2
 10
0
 20
0
 30
0
 70
128
 71
103
 72
34
 73
35
 74
105
 0
VERTEX
 8
CILINDRO_2
 10
0
 20
0
 30
0
 70
128
 71
34
 72
2
 73
35
 74
35
 0
VERTEX
 8
CILINDRO_2
 10
0
 20
0
 30
0
 70
128
 71
1
 72
104
 73
106
 74
106
 0
VERTEX
 8
CILINDRO_2
 10
0
 20
0
 30
0
 70
128
 71
105
 72
35
 73
36
 74
107
 0
VERTEX
 8
CILINDRO_2
 10
0
 20
0
 30
0
 70
128
 71
35
 72
2
 73
36
 74
36
 0
VERTEX
 8
CILINDRO_2
 10
0
 20
0
 30
0
 70
128
 71
1
 72
106
 73
108
 74
108
 0
VERTEX
 8
CILINDRO_2
 10
0
 20
0
 30
0
 70
128
 71
107
 72
36
 73
37
 74
109
 0
VERTEX
 8
CILINDRO_2
 10
0
 20
0
 30
0
 70
128
 71
36
 72
2
 73
37
 74
37
 0
VERTEX
 8
CILINDRO_2
 10
0
 20
0
 30
0
 70
128
 71
1
 72
108
 73
110
 74
110
 0
VERTEX
 8
CILINDRO_2
 10
0
 20
0
 30
0
 70
128
 71
109
 72
37
 73
38
 74
70
 0
VERTEX
 8
CILINDRO_2
 10
0
 20
0
 30
0
 70
128
 71
37
 72
2
 73
38
 74
38
 0
VERTEX
 8
CILINDRO_2
 10
0
 20
0
 30
0
 70
128
 71
1
 72
110
 73
72
 74
72
 0
VERTEX
 8
CILINDRO_2
 10
0
 20
0
 30
0
 70
128
 71
70
 72
38
 73
3
 74
40
 0
VERTEX
 8
CILINDRO_2
 10
0
 20
0
 30
0
 70
128
 71
38
 72
2
 73
3
 74
3
 0
VERTEX
 8
CILINDRO_2
 10
0
 20
0
 30
0
 70
128
 71
42
 72
130
 73
120
 74
40
 0
VERTEX
 8
CILINDRO_2
 10
0
 20
0
 30
0
 70
128
 71
44
 72
140
 73
130
 74
42
 0
VERTEX
 8
CILINDRO_2
 10
0
 20
0
 30
0
 70
128
 71
46
 72
145
 73
140
 74
44
 0
VERTEX
 8
CILINDRO_2
 10
0
 20
0
 30
0
 70
128
 71
48
 72
150
 73
145
 74
46
 0
VERTEX
 8
CILINDRO_2
 10
0
 20
0
 30
0
 70
128
 71
50
 72
160
 73
150
 74
48
 0
VERTEX
 8
CILINDRO_2
 10
0
 20
0
 30
0
 70
128
 71
51
 72
165
 73
160
 74
50
 0
VERTEX
 8
CILINDRO_2
 10
0
 20
0
 30
0
 70
128
 71
54
 72
166
 73
165
 74
51
 0
VERTEX
 8
CILINDRO_2
 10
0
 20
0
 30
0
 70
128
 71
55
 72
175
 73
166
 74
54
 0
VERTEX
 8
CILINDRO_2
 10
0
 20
0
 30
0
 70
128
 71
58
 72
176
 73
175
 74
55
 0
VERTEX
 8
CILINDRO_2
 10
0
 20
0
 30
0
 70
128
 71
59
 72
185
 73
176
 74
58
 0
VERTEX
 8
CILINDRO_2
 10
0
 20
0
 30
0
 70
128
 71
61
 72
186
 73
185
 74
59
 0
VERTEX
 8
CILINDRO_2
 10
0
 20
0
 30
0
 70
128
 71
65
 72
191
 73
186
 74
61
 0
VERTEX
 8
CILINDRO_2
 10
0
 20
0
 30
0
 70
128
 71
68
 72
200
 73
191
 74
65
 0
VERTEX
 8
CILINDRO_2
 10
0
 20
0
 30
0
 70
128
 71
67
 72
205
 73
200
 74
68
 0
VERTEX
 8
CILINDRO_2
 10
0
 20
0
 30
0
 70
128
 71
69
 72
210
 73
205
 74
67
 0
VERTEX
 8
CILINDRO_2
 10
0
 20
0
 30
0
 70
128
 71
74
 72
211
 73
210
 74
69
 0
VERTEX
 8
CILINDRO_2
 10
0
 20
0
 30
0
 70
128
 71
78
 72
220
 73
211
 74
74
 0
VERTEX
 8
CILINDRO_2
 10
0
 20
0
 30
0
 70
128
 71
76
 72
225
 73
220
 74
78
 0
VERTEX
 8
CILINDRO_2
 10
0
 20
0
 30
0
 70
128
 71
79
 72
226
 73
225
 74
76
 0
VERTEX
 8
CILINDRO_2
 10
0
 20
0
 30
0
 70
128
 71
81
 72
231
 73
226
 74
79
 0
VERTEX
 8
CILINDRO_2
 10
0
 20
0
 30
0
 70
128
 71
83
 72
236
 73
231
 74
81
 0
VERTEX
 8
CILINDRO_2
 10
0
 20
0
 30
0
 70
128
 71
85
 72
241
 73
236
 74
83
 0
VERTEX
 8
CILINDRO_2
 10
0
 20
0
 30
0
 70
128
 71
87
 72
246
 73
241
 74
85
 0
VERTEX
 8
CILINDRO_2
 10
0
 20
0
 30
0
 70
128
 71
89
 72
251
 73
246
 74
87
 0
VERTEX
 8
CILINDRO_2
 10
0
 20
0
 30
0
 70
128
 71
91
 72
256
 73
251
 74
89
 0
VERTEX
 8
CILINDRO_2
 10
0
 20
0
 30
0
 70
128
 71
93
 72
261
 73
256
 74
91
 0
VERTEX
 8
CILINDRO_2
 10
0
 20
0
 30
0
 70
128
 71
95
 72
266
 73
261
 74
93
 0
VERTEX
 8
CILINDRO_2
 10
0
 20
0
 30
0
 70
128
 71
97
 72
271
 73
266
 74
95
 0
VERTEX
 8
CILINDRO_2
 10
0
 20
0
 30
0
 70
128
 71
99
 72
276
 73
271
 74
97
 0
VERTEX
 8
CILINDRO_2
 10
0
 20
0
 30
0
 70
128
 71
101
 72
281
 73
276
 74
99
 0
VERTEX
 8
CILINDRO_2
 10
0
 20
0
 30
0
 70
128
 71
103
 72
121
 73
281
 74
101
 0
VERTEX
 8
CILINDRO_2
 10
0
 20
0
 30
0
 70
128
 71
105
 72
131
 73
121
 74
103
 0
VERTEX
 8
CILINDRO_2
 10
0
 20
0
 30
0
 70
128
 71
107
 72
286
 73
131
 74
105
 0
VERTEX
 8
CILINDRO_2
 10
0
 20
0
 30
0
 70
128
 71
109
 72
111
 73
286
 74
107
 0
VERTEX
 8
CILINDRO_2
 10
0
 20
0
 30
0
 70
128
 71
70
 72
151
 73
111
 74
109
 0
VERTEX
 8
CILINDRO_2
 10
0
 20
0
 30
0
 70
128
 71
40
 72
120
 73
151
 74
70
 0
VERTEX
 8
CILINDRO_2
 10
0
 20
0
 30
0
 70
128
 71
130
 72
129
 73
119
 74
120
 0
VERTEX
 8
CILINDRO_2
 10
0
 20
0
 30
0
 70
128
 71
129
 72
128
 73
118
 74
119
 0
VERTEX
 8
CILINDRO_2
 10
0
 20
0
 30
0
 70
128
 71
128
 72
127
 73
117
 74
118
 0
VERTEX
 8
CILINDRO_2
 10
0
 20
0
 30
0
 70
128
 71
127
 72
126
 73
116
 74
117
 0
VERTEX
 8
CILINDRO_2
 10
0
 20
0
 30
0
 70
128
 71
126
 72
39
 73
72
 74
116
 0
VERTEX
 8
CILINDRO_2
 10
0
 20
0
 30
0
 70
128
 71
140
 72
139
 73
129
 74
130
 0
VERTEX
 8
CILINDRO_2
 10
0
 20
0
 30
0
 70
128
 71
139
 72
138
 73
128
 74
129
 0
VERTEX
 8
CILINDRO_2
 10
0
 20
0
 30
0
 70
128
 71
138
 72
137
 73
127
 74
128
 0
VERTEX
 8
CILINDRO_2
 10
0
 20
0
 30
0
 70
128
 71
137
 72
136
 73
126
 74
127
 0
VERTEX
 8
CILINDRO_2
 10
0
 20
0
 30
0
 70
128
 71
136
 72
41
 73
39
 74
126
 0
VERTEX
 8
CILINDRO_2
 10
0
 20
0
 30
0
 70
128
 71
145
 72
144
 73
139
 74
140
 0
VERTEX
 8
CILINDRO_2
 10
0
 20
0
 30
0
 70
128
 71
144
 72
143
 73
138
 74
139
 0
VERTEX
 8
CILINDRO_2
 10
0
 20
0
 30
0
 70
128
 71
143
 72
142
 73
137
 74
138
 0
VERTEX
 8
CILINDRO_2
 10
0
 20
0
 30
0
 70
128
 71
142
 72
141
 73
136
 74
137
 0
VERTEX
 8
CILINDRO_2
 10
0
 20
0
 30
0
 70
128
 71
141
 72
43
 73
41
 74
136
 0
VERTEX
 8
CILINDRO_2
 10
0
 20
0
 30
0
 70
128
 71
150
 72
149
 73
144
 74
145
 0
VERTEX
 8
CILINDRO_2
 10
0
 20
0
 30
0
 70
128
 71
149
 72
148
 73
143
 74
144
 0
VERTEX
 8
CILINDRO_2
 10
0
 20
0
 30
0
 70
128
 71
148
 72
147
 73
142
 74
143
 0
VERTEX
 8
CILINDRO_2
 10
0
 20
0
 30
0
 70
128
 71
147
 72
146
 73
141
 74
142
 0
VERTEX
 8
CILINDRO_2
 10
0
 20
0
 30
0
 70
128
 71
146
 72
45
 73
43
 74
141
 0
VERTEX
 8
CILINDRO_2
 10
0
 20
0
 30
0
 70
128
 71
160
 72
159
 73
149
 74
150
 0
VERTEX
 8
CILINDRO_2
 10
0
 20
0
 30
0
 70
128
 71
159
 72
158
 73
148
 74
149
 0
VERTEX
 8
CILINDRO_2
 10
0
 20
0
 30
0
 70
128
 71
158
 72
157
 73
147
 74
148
 0
VERTEX
 8
CILINDRO_2
 10
0
 20
0
 30
0
 70
128
 71
157
 72
156
 73
146
 74
147
 0
VERTEX
 8
CILINDRO_2
 10
0
 20
0
 30
0
 70
128
 71
156
 72
47
 73
45
 74
146
 0
VERTEX
 8
CILINDRO_2
 10
0
 20
0
 30
0
 70
128
 71
165
 72
164
 73
159
 74
160
 0
VERTEX
 8
CILINDRO_2
 10
0
 20
0
 30
0
 70
128
 71
164
 72
163
 73
158
 74
159
 0
VERTEX
 8
CILINDRO_2
 10
0
 20
0
 30
0
 70
128
 71
163
 72
162
 73
157
 74
158
 0
VERTEX
 8
CILINDRO_2
 10
0
 20
0
 30
0
 70
128
 71
162
 72
161
 73
156
 74
157
 0
VERTEX
 8
CILINDRO_2
 10
0
 20
0
 30
0
 70
128
 71
161
 72
49
 73
47
 74
156
 0
VERTEX
 8
CILINDRO_2
 10
0
 20
0
 30
0
 70
128
 71
166
 72
167
 73
164
 74
165
 0
VERTEX
 8
CILINDRO_2
 10
0
 20
0
 30
0
 70
128
 71
167
 72
168
 73
163
 74
164
 0
VERTEX
 8
CILINDRO_2
 10
0
 20
0
 30
0
 70
128
 71
168
 72
169
 73
162
 74
163
 0
VERTEX
 8
CILINDRO_2
 10
0
 20
0
 30
0
 70
128
 71
169
 72
170
 73
161
 74
162
 0
VERTEX
 8
CILINDRO_2
 10
0
 20
0
 30
0
 70
128
 71
170
 72
52
 73
49
 74
161
 0
VERTEX
 8
CILINDRO_2
 10
0
 20
0
 30
0
 70
128
 71
175
 72
174
 73
167
 74
166
 0
VERTEX
 8
CILINDRO_2
 10
0
 20
0
 30
0
 70
128
 71
174
 72
173
 73
168
 74
167
 0
VERTEX
 8
CILINDRO_2
 10
0
 20
0
 30
0
 70
128
 71
173
 72
172
 73
169
 74
168
 0
VERTEX
 8
CILINDRO_2
 10
0
 20
0
 30
0
 70
128
 71
172
 72
171
 73
170
 74
169
 0
VERTEX
 8
CILINDRO_2
 10
0
 20
0
 30
0
 70
128
 71
171
 72
53
 73
52
 74
170
 0
VERTEX
 8
CILINDRO_2
 10
0
 20
0
 30
0
 70
128
 71
176
 72
177
 73
174
 74
175
 0
VERTEX
 8
CILINDRO_2
 10
0
 20
0
 30
0
 70
128
 71
177
 72
178
 73
173
 74
174
 0
VERTEX
 8
CILINDRO_2
 10
0
 20
0
 30
0
 70
128
 71
178
 72
179
 73
172
 74
173
 0
VERTEX
 8
CILINDRO_2
 10
0
 20
0
 30
0
 70
128
 71
179
 72
180
 73
171
 74
172
 0
VERTEX
 8
CILINDRO_2
 10
0
 20
0
 30
0
 70
128
 71
180
 72
56
 73
53
 74
171
 0
VERTEX
 8
CILINDRO_2
 10
0
 20
0
 30
0
 70
128
 71
185
 72
184
 73
177
 74
176
 0
VERTEX
 8
CILINDRO_2
 10
0
 20
0
 30
0
 70
128
 71
184
 72
183
 73
178
 74
177
 0
VERTEX
 8
CILINDRO_2
 10
0
 20
0
 30
0
 70
128
 71
183
 72
182
 73
179
 74
178
 0
VERTEX
 8
CILINDRO_2
 10
0
 20
0
 30
0
 70
128
 71
182
 72
181
 73
180
 74
179
 0
VERTEX
 8
CILINDRO_2
 10
0
 20
0
 30
0
 70
128
 71
181
 72
57
 73
56
 74
180
 0
VERTEX
 8
CILINDRO_2
 10
0
 20
0
 30
0
 70
128
 71
186
 72
187
 73
184
 74
185
 0
VERTEX
 8
CILINDRO_2
 10
0
 20
0
 30
0
 70
128
 71
187
 72
188
 73
183
 74
184
 0
VERTEX
 8
CILINDRO_2
 10
0
 20
0
 30
0
 70
128
 71
188
 72
189
 73
182
 74
183
 0
VERTEX
 8
CILINDRO_2
 10
0
 20
0
 30
0
 70
128
 71
189
 72
190
 73
181
 74
182
 0
VERTEX
 8
CILINDRO_2
 10
0
 20
0
 30
0
 70
128
 71
190
 72
60
 73
57
 74
181
 0
VERTEX
 8
CILINDRO_2
 10
0
 20
0
 30
0
 70
128
 71
191
 72
192
 73
187
 74
186
 0
VERTEX
 8
CILINDRO_2
 10
0
 20
0
 30
0
 70
128
 71
192
 72
193
 73
188
 74
187
 0
VERTEX
 8
CILINDRO_2
 10
0
 20
0
 30
0
 70
128
 71
193
 72
194
 73
189
 74
188
 0
VERTEX
 8
CILINDRO_2
 10
0
 20
0
 30
0
 70
128
 71
194
 72
195
 73
190
 74
189
 0
VERTEX
 8
CILINDRO_2
 10
0
 20
0
 30
0
 70
128
 71
195
 72
62
 73
60
 74
190
 0
VERTEX
 8
CILINDRO_2
 10
0
 20
0
 30
0
 70
128
 71
200
 72
199
 73
192
 74
191
 0
VERTEX
 8
CILINDRO_2
 10
0
 20
0
 30
0
 70
128
 71
199
 72
198
 73
193
 74
192
 0
VERTEX
 8
CILINDRO_2
 10
0
 20
0
 30
0
 70
128
 71
198
 72
197
 73
194
 74
193
 0
VERTEX
 8
CILINDRO_2
 10
0
 20
0
 30
0
 70
128
 71
197
 72
196
 73
195
 74
194
 0
VERTEX
 8
CILINDRO_2
 10
0
 20
0
 30
0
 70
128
 71
196
 72
64
 73
62
 74
195
 0
VERTEX
 8
CILINDRO_2
 10
0
 20
0
 30
0
 70
128
 71
205
 72
204
 73
199
 74
200
 0
VERTEX
 8
CILINDRO_2
 10
0
 20
0
 30
0
 70
128
 71
204
 72
203
 73
198
 74
199
 0
VERTEX
 8
CILINDRO_2
 10
0
 20
0
 30
0
 70
128
 71
203
 72
202
 73
197
 74
198
 0
VERTEX
 8
CILINDRO_2
 10
0
 20
0
 30
0
 70
128
 71
202
 72
201
 73
196
 74
197
 0
VERTEX
 8
CILINDRO_2
 10
0
 20
0
 30
0
 70
128
 71
201
 72
63
 73
64
 74
196
 0
VERTEX
 8
CILINDRO_2
 10
0
 20
0
 30
0
 70
128
 71
210
 72
209
 73
204
 74
205
 0
VERTEX
 8
CILINDRO_2
 10
0
 20
0
 30
0
 70
128
 71
209
 72
208
 73
203
 74
204
 0
VERTEX
 8
CILINDRO_2
 10
0
 20
0
 30
0
 70
128
 71
208
 72
207
 73
202
 74
203
 0
VERTEX
 8
CILINDRO_2
 10
0
 20
0
 30
0
 70
128
 71
207
 72
206
 73
201
 74
202
 0
VERTEX
 8
CILINDRO_2
 10
0
 20
0
 30
0
 70
128
 71
206
 72
66
 73
63
 74
201
 0
VERTEX
 8
CILINDRO_2
 10
0
 20
0
 30
0
 70
128
 71
211
 72
212
 73
209
 74
210
 0
VERTEX
 8
CILINDRO_2
 10
0
 20
0
 30
0
 70
128
 71
212
 72
213
 73
208
 74
209
 0
VERTEX
 8
CILINDRO_2
 10
0
 20
0
 30
0
 70
128
 71
213
 72
214
 73
207
 74
208
 0
VERTEX
 8
CILINDRO_2
 10
0
 20
0
 30
0
 70
128
 71
214
 72
215
 73
206
 74
207
 0
VERTEX
 8
CILINDRO_2
 10
0
 20
0
 30
0
 70
128
 71
215
 72
71
 73
66
 74
206
 0
VERTEX
 8
CILINDRO_2
 10
0
 20
0
 30
0
 70
128
 71
220
 72
219
 73
212
 74
211
 0
VERTEX
 8
CILINDRO_2
 10
0
 20
0
 30
0
 70
128
 71
219
 72
218
 73
213
 74
212
 0
VERTEX
 8
CILINDRO_2
 10
0
 20
0
 30
0
 70
128
 71
218
 72
217
 73
214
 74
213
 0
VERTEX
 8
CILINDRO_2
 10
0
 20
0
 30
0
 70
128
 71
217
 72
216
 73
215
 74
214
 0
VERTEX
 8
CILINDRO_2
 10
0
 20
0
 30
0
 70
128
 71
216
 72
75
 73
71
 74
215
 0
VERTEX
 8
CILINDRO_2
 10
0
 20
0
 30
0
 70
128
 71
225
 72
224
 73
219
 74
220
 0
VERTEX
 8
CILINDRO_2
 10
0
 20
0
 30
0
 70
128
 71
224
 72
223
 73
218
 74
219
 0
VERTEX
 8
CILINDRO_2
 10
0
 20
0
 30
0
 70
128
 71
223
 72
222
 73
217
 74
218
 0
VERTEX
 8
CILINDRO_2
 10
0
 20
0
 30
0
 70
128
 71
222
 72
221
 73
216
 74
217
 0
VERTEX
 8
CILINDRO_2
 10
0
 20
0
 30
0
 70
128
 71
221
 72
73
 73
75
 74
216
 0
VERTEX
 8
CILINDRO_2
 10
0
 20
0
 30
0
 70
128
 71
226
 72
227
 73
224
 74
225
 0
VERTEX
 8
CILINDRO_2
 10
0
 20
0
 30
0
 70
128
 71
227
 72
228
 73
223
 74
224
 0
VERTEX
 8
CILINDRO_2
 10
0
 20
0
 30
0
 70
128
 71
228
 72
229
 73
222
 74
223
 0
VERTEX
 8
CILINDRO_2
 10
0
 20
0
 30
0
 70
128
 71
229
 72
230
 73
221
 74
222
 0
VERTEX
 8
CILINDRO_2
 10
0
 20
0
 30
0
 70
128
 71
230
 72
77
 73
73
 74
221
 0
VERTEX
 8
CILINDRO_2
 10
0
 20
0
 30
0
 70
128
 71
231
 72
232
 73
227
 74
226
 0
VERTEX
 8
CILINDRO_2
 10
0
 20
0
 30
0
 70
128
 71
232
 72
233
 73
228
 74
227
 0
VERTEX
 8
CILINDRO_2
 10
0
 20
0
 30
0
 70
128
 71
233
 72
234
 73
229
 74
228
 0
VERTEX
 8
CILINDRO_2
 10
0
 20
0
 30
0
 70
128
 71
234
 72
235
 73
230
 74
229
 0
VERTEX
 8
CILINDRO_2
 10
0
 20
0
 30
0
 70
128
 71
235
 72
80
 73
77
 74
230
 0
VERTEX
 8
CILINDRO_2
 10
0
 20
0
 30
0
 70
128
 71
236
 72
237
 73
232
 74
231
 0
VERTEX
 8
CILINDRO_2
 10
0
 20
0
 30
0
 70
128
 71
237
 72
238
 73
233
 74
232
 0
VERTEX
 8
CILINDRO_2
 10
0
 20
0
 30
0
 70
128
 71
238
 72
239
 73
234
 74
233
 0
VERTEX
 8
CILINDRO_2
 10
0
 20
0
 30
0
 70
128
 71
239
 72
240
 73
235
 74
234
 0
VERTEX
 8
CILINDRO_2
 10
0
 20
0
 30
0
 70
128
 71
240
 72
82
 73
80
 74
235
 0
VERTEX
 8
CILINDRO_2
 10
0
 20
0
 30
0
 70
128
 71
241
 72
242
 73
237
 74
236
 0
VERTEX
 8
CILINDRO_2
 10
0
 20
0
 30
0
 70
128
 71
242
 72
243
 73
238
 74
237
 0
VERTEX
 8
CILINDRO_2
 10
0
 20
0
 30
0
 70
128
 71
243
 72
244
 73
239
 74
238
 0
VERTEX
 8
CILINDRO_2
 10
0
 20
0
 30
0
 70
128
 71
244
 72
245
 73
240
 74
239
 0
VERTEX
 8
CILINDRO_2
 10
0
 20
0
 30
0
 70
128
 71
245
 72
84
 73
82
 74
240
 0
VERTEX
 8
CILINDRO_2
 10
0
 20
0
 30
0
 70
128
 71
246
 72
247
 73
242
 74
241
 0
VERTEX
 8
CILINDRO_2
 10
0
 20
0
 30
0
 70
128
 71
247
 72
248
 73
243
 74
242
 0
VERTEX
 8
CILINDRO_2
 10
0
 20
0
 30
0
 70
128
 71
248
 72
249
 73
244
 74
243
 0
VERTEX
 8
CILINDRO_2
 10
0
 20
0
 30
0
 70
128
 71
249
 72
250
 73
245
 74
244
 0
VERTEX
 8
CILINDRO_2
 10
0
 20
0
 30
0
 70
128
 71
250
 72
86
 73
84
 74
245
 0
VERTEX
 8
CILINDRO_2
 10
0
 20
0
 30
0
 70
128
 71
251
 72
252
 73
247
 74
246
 0
VERTEX
 8
CILINDRO_2
 10
0
 20
0
 30
0
 70
128
 71
252
 72
253
 73
248
 74
247
 0
VERTEX
 8
CILINDRO_2
 10
0
 20
0
 30
0
 70
128
 71
253
 72
254
 73
249
 74
248
 0
VERTEX
 8
CILINDRO_2
 10
0
 20
0
 30
0
 70
128
 71
254
 72
255
 73
250
 74
249
 0
VERTEX
 8
CILINDRO_2
 10
0
 20
0
 30
0
 70
128
 71
255
 72
88
 73
86
 74
250
 0
VERTEX
 8
CILINDRO_2
 10
0
 20
0
 30
0
 70
128
 71
256
 72
257
 73
252
 74
251
 0
VERTEX
 8
CILINDRO_2
 10
0
 20
0
 30
0
 70
128
 71
257
 72
258
 73
253
 74
252
 0
VERTEX
 8
CILINDRO_2
 10
0
 20
0
 30
0
 70
128
 71
258
 72
259
 73
254
 74
253
 0
VERTEX
 8
CILINDRO_2
 10
0
 20
0
 30
0
 70
128
 71
259
 72
260
 73
255
 74
254
 0
VERTEX
 8
CILINDRO_2
 10
0
 20
0
 30
0
 70
128
 71
260
 72
90
 73
88
 74
255
 0
VERTEX
 8
CILINDRO_2
 10
0
 20
0
 30
0
 70
128
 71
261
 72
262
 73
257
 74
256
 0
VERTEX
 8
CILINDRO_2
 10
0
 20
0
 30
0
 70
128
 71
262
 72
263
 73
258
 74
257
 0
VERTEX
 8
CILINDRO_2
 10
0
 20
0
 30
0
 70
128
 71
263
 72
264
 73
259
 74
258
 0
VERTEX
 8
CILINDRO_2
 10
0
 20
0
 30
0
 70
128
 71
264
 72
265
 73
260
 74
259
 0
VERTEX
 8
CILINDRO_2
 10
0
 20
0
 30
0
 70
128
 71
265
 72
92
 73
90
 74
260
 0
VERTEX
 8
CILINDRO_2
 10
0
 20
0
 30
0
 70
128
 71
266
 72
267
 73
262
 74
261
 0
VERTEX
 8
CILINDRO_2
 10
0
 20
0
 30
0
 70
128
 71
267
 72
268
 73
263
 74
262
 0
VERTEX
 8
CILINDRO_2
 10
0
 20
0
 30
0
 70
128
 71
268
 72
269
 73
264
 74
263
 0
VERTEX
 8
CILINDRO_2
 10
0
 20
0
 30
0
 70
128
 71
269
 72
270
 73
265
 74
264
 0
VERTEX
 8
CILINDRO_2
 10
0
 20
0
 30
0
 70
128
 71
270
 72
94
 73
92
 74
265
 0
VERTEX
 8
CILINDRO_2
 10
0
 20
0
 30
0
 70
128
 71
271
 72
272
 73
267
 74
266
 0
VERTEX
 8
CILINDRO_2
 10
0
 20
0
 30
0
 70
128
 71
272
 72
273
 73
268
 74
267
 0
VERTEX
 8
CILINDRO_2
 10
0
 20
0
 30
0
 70
128
 71
273
 72
274
 73
269
 74
268
 0
VERTEX
 8
CILINDRO_2
 10
0
 20
0
 30
0
 70
128
 71
274
 72
275
 73
270
 74
269
 0
VERTEX
 8
CILINDRO_2
 10
0
 20
0
 30
0
 70
128
 71
275
 72
96
 73
94
 74
270
 0
VERTEX
 8
CILINDRO_2
 10
0
 20
0
 30
0
 70
128
 71
276
 72
277
 73
272
 74
271
 0
VERTEX
 8
CILINDRO_2
 10
0
 20
0
 30
0
 70
128
 71
277
 72
278
 73
273
 74
272
 0
VERTEX
 8
CILINDRO_2
 10
0
 20
0
 30
0
 70
128
 71
278
 72
279
 73
274
 74
273
 0
VERTEX
 8
CILINDRO_2
 10
0
 20
0
 30
0
 70
128
 71
279
 72
280
 73
275
 74
274
 0
VERTEX
 8
CILINDRO_2
 10
0
 20
0
 30
0
 70
128
 71
280
 72
98
 73
96
 74
275
 0
VERTEX
 8
CILINDRO_2
 10
0
 20
0
 30
0
 70
128
 71
281
 72
282
 73
277
 74
276
 0
VERTEX
 8
CILINDRO_2
 10
0
 20
0
 30
0
 70
128
 71
282
 72
283
 73
278
 74
277
 0
VERTEX
 8
CILINDRO_2
 10
0
 20
0
 30
0
 70
128
 71
283
 72
284
 73
279
 74
278
 0
VERTEX
 8
CILINDRO_2
 10
0
 20
0
 30
0
 70
128
 71
284
 72
285
 73
280
 74
279
 0
VERTEX
 8
CILINDRO_2
 10
0
 20
0
 30
0
 70
128
 71
285
 72
100
 73
98
 74
280
 0
VERTEX
 8
CILINDRO_2
 10
0
 20
0
 30
0
 70
128
 71
121
 72
122
 73
282
 74
281
 0
VERTEX
 8
CILINDRO_2
 10
0
 20
0
 30
0
 70
128
 71
122
 72
123
 73
283
 74
282
 0
VERTEX
 8
CILINDRO_2
 10
0
 20
0
 30
0
 70
128
 71
123
 72
124
 73
284
 74
283
 0
VERTEX
 8
CILINDRO_2
 10
0
 20
0
 30
0
 70
128
 71
124
 72
125
 73
285
 74
284
 0
VERTEX
 8
CILINDRO_2
 10
0
 20
0
 30
0
 70
128
 71
125
 72
102
 73
100
 74
285
 0
VERTEX
 8
CILINDRO_2
 10
0
 20
0
 30
0
 70
128
 71
131
 72
132
 73
122
 74
121
 0
VERTEX
 8
CILINDRO_2
 10
0
 20
0
 30
0
 70
128
 71
132
 72
133
 73
123
 74
122
 0
VERTEX
 8
CILINDRO_2
 10
0
 20
0
 30
0
 70
128
 71
133
 72
134
 73
124
 74
123
 0
VERTEX
 8
CILINDRO_2
 10
0
 20
0
 30
0
 70
128
 71
134
 72
135
 73
125
 74
124
 0
VERTEX
 8
CILINDRO_2
 10
0
 20
0
 30
0
 70
128
 71
135
 72
104
 73
102
 74
125
 0
VERTEX
 8
CILINDRO_2
 10
0
 20
0
 30
0
 70
128
 71
286
 72
287
 73
132
 74
131
 0
VERTEX
 8
CILINDRO_2
 10
0
 20
0
 30
0
 70
128
 71
287
 72
288
 73
133
 74
132
 0
VERTEX
 8
CILINDRO_2
 10
0
 20
0
 30
0
 70
128
 71
288
 72
289
 73
134
 74
133
 0
VERTEX
 8
CILINDRO_2
 10
0
 20
0
 30
0
 70
128
 71
289
 72
290
 73
135
 74
134
 0
VERTEX
 8
CILINDRO_2
 10
0
 20
0
 30
0
 70
128
 71
290
 72
106
 73
104
 74
135
 0
VERTEX
 8
CILINDRO_2
 10
0
 20
0
 30
0
 70
128
 71
111
 72
112
 73
287
 74
286
 0
VERTEX
 8
CILINDRO_2
 10
0
 20
0
 30
0
 70
128
 71
112
 72
113
 73
288
 74
287
 0
VERTEX
 8
CILINDRO_2
 10
0
 20
0
 30
0
 70
128
 71
113
 72
114
 73
289
 74
288
 0
VERTEX
 8
CILINDRO_2
 10
0
 20
0
 30
0
 70
128
 71
114
 72
115
 73
290
 74
289
 0
VERTEX
 8
CILINDRO_2
 10
0
 20
0
 30
0
 70
128
 71
115
 72
108
 73
106
 74
290
 0
VERTEX
 8
CILINDRO_2
 10
0
 20
0
 30
0
 70
128
 71
151
 72
152
 73
112
 74
111
 0
VERTEX
 8
CILINDRO_2
 10
0
 20
0
 30
0
 70
128
 71
152
 72
153
 73
113
 74
112
 0
VERTEX
 8
CILINDRO_2
 10
0
 20
0
 30
0
 70
128
 71
153
 72
154
 73
114
 74
113
 0
VERTEX
 8
CILINDRO_2
 10
0
 20
0
 30
0
 70
128
 71
154
 72
155
 73
115
 74
114
 0
VERTEX
 8
CILINDRO_2
 10
0
 20
0
 30
0
 70
128
 71
155
 72
110
 73
108
 74
115
 0
VERTEX
 8
CILINDRO_2
 10
0
 20
0
 30
0
 70
128
 71
120
 72
119
 73
152
 74
151
 0
VERTEX
 8
CILINDRO_2
 10
0
 20
0
 30
0
 70
128
 71
119
 72
118
 73
153
 74
152
 0
VERTEX
 8
CILINDRO_2
 10
0
 20
0
 30
0
 70
128
 71
118
 72
117
 73
154
 74
153
 0
VERTEX
 8
CILINDRO_2
 10
0
 20
0
 30
0
 70
128
 71
117
 72
116
 73
155
 74
154
 0
VERTEX
 8
CILINDRO_2
 10
0
 20
0
 30
0
 70
128
 71
116
 72
72
 73
110
 74
155
 0
SEQEND
 0
POLYLINE
 8
CILINDRO_1
 66
1
 10
0.0
 20
0.0
 30
0.0
 70
64
 71
146
 72
108
 0
VERTEX
 8
CILINDRO_1
 10
22.9999
 20
-6.7108
 30
1.5014
 70
192
 0
VERTEX
 8
CILINDRO_1
 10
22.9999
 20
-6.7108
 30
5.4808
 70
192
 0
VERTEX
 8
CILINDRO_1
 10
22.9999
 20
-7.7056
 30
1.5014
 70
192
 0
VERTEX
 8
CILINDRO_1
 10
22.9999
 20
-7.7056
 30
1.5014
 70
192
 0
VERTEX
 8
CILINDRO_1
 10
22.9999
 20
-7.7056
 30
5.4808
 70
192
 0
VERTEX
 8
CILINDRO_1
 10
22.9999
 20
-7.7056
 30
5.4808
 70
192
 0
VERTEX
 8
CILINDRO_1
 10
23.1727
 20
-7.6905
 30
1.5014
 70
192
 0
VERTEX
 8
CILINDRO_1
 10
23.1727
 20
-7.6905
 30
1.5014
 70
192
 0
VERTEX
 8
CILINDRO_1
 10
23.1727
 20
-7.6905
 30
5.4808
 70
192
 0
VERTEX
 8
CILINDRO_1
 10
23.1727
 20
-7.6905
 30
5.4808
 70
192
 0
VERTEX
 8
CILINDRO_1
 10
23.3402
 20
-7.6456
 30
1.5014
 70
192
 0
VERTEX
 8
CILINDRO_1
 10
23.3402
 20
-7.6456
 30
1.5014
 70
192
 0
VERTEX
 8
CILINDRO_1
 10
23.3402
 20
-7.6456
 30
5.4808
 70
192
 0
VERTEX
 8
CILINDRO_1
 10
23.3402
 20
-7.6456
 30
5.4808
 70
192
 0
VERTEX
 8
CILINDRO_1
 10
23.4974
 20
-7.5724
 30
1.5014
 70
192
 0
VERTEX
 8
CILINDRO_1
 10
23.4974
 20
-7.5724
 30
1.5014
 70
192
 0
VERTEX
 8
CILINDRO_1
 10
23.4974
 20
-7.5724
 30
5.4808
 70
192
 0
VERTEX
 8
CILINDRO_1
 10
23.4974
 20
-7.5724
 30
5.4808
 70
192
 0
VERTEX
 8
CILINDRO_1
 10
23.6394
 20
-7.4729
 30
1.5014
 70
192
 0
VERTEX
 8
CILINDRO_1
 10
23.6394
 20
-7.4729
 30
1.5014
 70
192
 0
VERTEX
 8
CILINDRO_1
 10
23.6394
 20
-7.4729
 30
5.4808
 70
192
 0
VERTEX
 8
CILINDRO_1
 10
23.6394
 20
-7.4729
 30
5.4808
 70
192
 0
VERTEX
 8
CILINDRO_1
 10
23.7621
 20
-7.3503
 30
1.5014
 70
192
 0
VERTEX
 8
CILINDRO_1
 10
23.7621
 20
-7.3503
 30
1.5014
 70
192
 0
VERTEX
 8
CILINDRO_1
 10
23.7621
 20
-7.3503
 30
5.4808
 70
192
 0
VERTEX
 8
CILINDRO_1
 10
23.7621
 20
-7.3503
 30
5.4808
 70
192
 0
VERTEX
 8
CILINDRO_1
 10
23.8615
 20
-7.2082
 30
1.5014
 70
192
 0
VERTEX
 8
CILINDRO_1
 10
23.8615
 20
-7.2082
 30
1.5014
 70
192
 0
VERTEX
 8
CILINDRO_1
 10
23.8615
 20
-7.2082
 30
5.4808
 70
192
 0
VERTEX
 8
CILINDRO_1
 10
23.8615
 20
-7.2082
 30
5.4808
 70
192
 0
VERTEX
 8
CILINDRO_1
 10
23.9348
 20
-7.051
 30
1.5014
 70
192
 0
VERTEX
 8
CILINDRO_1
 10
23.9348
 20
-7.051
 30
1.5014
 70
192
 0
VERTEX
 8
CILINDRO_1
 10
23.9348
 20
-7.051
 30
5.4808
 70
192
 0
VERTEX
 8
CILINDRO_1
 10
23.9348
 20
-7.051
 30
5.4808
 70
192
 0
VERTEX
 8
CILINDRO_1
 10
23.9797
 20
-6.8835
 30
1.5014
 70
192
 0
VERTEX
 8
CILINDRO_1
 10
23.9797
 20
-6.8835
 30
1.5014
 70
192
 0
VERTEX
 8
CILINDRO_1
 10
23.9797
 20
-6.8835
 30
5.4808
 70
192
 0
VERTEX
 8
CILINDRO_1
 10
23.9797
 20
-6.8835
 30
5.4808
 70
192
 0
VERTEX
 8
CILINDRO_1
 10
23.9948
 20
-6.7108
 30
1.5014
 70
192
 0
VERTEX
 8
CILINDRO_1
 10
23.9948
 20
-6.7108
 30
1.5014
 70
192
 0
VERTEX
 8
CILINDRO_1
 10
23.9948
 20
-6.7108
 30
5.4808
 70
192
 0
VERTEX
 8
CILINDRO_1
 10
23.9948
 20
-6.7108
 30
5.4808
 70
192
 0
VERTEX
 8
CILINDRO_1
 10
23.9797
 20
-6.538
 30
1.5014
 70
192
 0
VERTEX
 8
CILINDRO_1
 10
23.9797
 20
-6.538
 30
1.5014
 70
192
 0
VERTEX
 8
CILINDRO_1
 10
23.9797
 20
-6.538
 30
5.4808
 70
192
 0
VERTEX
 8
CILINDRO_1
 10
23.9797
 20
-6.538
 30
5.4808
 70
192
 0
VERTEX
 8
CILINDRO_1
 10
23.9348
 20
-6.3705
 30
1.5014
 70
192
 0
VERTEX
 8
CILINDRO_1
 10
23.9348
 20
-6.3705
 30
1.5014
 70
192
 0
VERTEX
 8
CILINDRO_1
 10
23.9348
 20
-6.3705
 30
5.4808
 70
192
 0
VERTEX
 8
CILINDRO_1
 10
23.9348
 20
-6.3705
 30
5.4808
 70
192
 0
VERTEX
 8
CILINDRO_1
 10
23.8615
 20
-6.2134
 30
1.5014
 70
192
 0
VERTEX
 8
CILINDRO_1
 10
23.8615
 20
-6.2134
 30
1.5014
 70
192
 0
VERTEX
 8
CILINDRO_1
 10
23.8615
 20
-6.2134
 30
5.4808
 70
192
 0
VERTEX
 8
CILINDRO_1
 10
23.8615
 20
-6.2134
 30
5.4808
 70
192
 0
VERTEX
 8
CILINDRO_1
 10
23.7621
 20
-6.0713
 30
1.5014
 70
192
 0
VERTEX
 8
CILINDRO_1
 10
23.7621
 20
-6.0713
 30
1.5014
 70
192
 0
VERTEX
 8
CILINDRO_1
 10
23.7621
 20
-6.0713
 30
5.4808
 70
192
 0
VERTEX
 8
CILINDRO_1
 10
23.7621
 20
-6.0713
 30
5.4808
 70
192
 0
VERTEX
 8
CILINDRO_1
 10
23.6394
 20
-5.9487
 30
1.5014
 70
192
 0
VERTEX
 8
CILINDRO_1
 10
23.6394
 20
-5.9487
 30
1.5014
 70
192
 0
VERTEX
 8
CILINDRO_1
 10
23.6394
 20
-5.9487
 30
5.4808
 70
192
 0
VERTEX
 8
CILINDRO_1
 10
23.6394
 20
-5.9487
 30
5.4808
 70
192
 0
VERTEX
 8
CILINDRO_1
 10
23.4974
 20
-5.8492
 30
1.5014
 70
192
 0
VERTEX
 8
CILINDRO_1
 10
23.4974
 20
-5.8492
 30
1.5014
 70
192
 0
VERTEX
 8
CILINDRO_1
 10
23.4974
 20
-5.8492
 30
5.4808
 70
192
 0
VERTEX
 8
CILINDRO_1
 10
23.4974
 20
-5.8492
 30
5.4808
 70
192
 0
VERTEX
 8
CILINDRO_1
 10
23.3402
 20
-5.7759
 30
1.5014
 70
192
 0
VERTEX
 8
CILINDRO_1
 10
23.3402
 20
-5.7759
 30
1.5014
 70
192
 0
VERTEX
 8
CILINDRO_1
 10
23.3402
 20
-5.7759
 30
5.4808
 70
192
 0
VERTEX
 8
CILINDRO_1
 10
23.3402
 20
-5.7759
 30
5.4808
 70
192
 0
VERTEX
 8
CILINDRO_1
 10
23.1727
 20
-5.731
 30
1.5014
 70
192
 0
VERTEX
 8
CILINDRO_1
 10
23.1727
 20
-5.731
 30
1.5014
 70
192
 0
VERTEX
 8
CILINDRO_1
 10
23.1727
 20
-5.731
 30
5.4808
 70
192
 0
VERTEX
 8
CILINDRO_1
 10
23.1727
 20
-5.731
 30
5.4808
 70
192
 0
VERTEX
 8
CILINDRO_1
 10
22.9999
 20
-5.7159
 30
1.5014
 70
192
 0
VERTEX
 8
CILINDRO_1
 10
22.9999
 20
-5.7159
 30
1.5014
 70
192
 0
VERTEX
 8
CILINDRO_1
 10
22.9999
 20
-5.7159
 30
5.4808
 70
192
 0
VERTEX
 8
CILINDRO_1
 10
22.9999
 20
-5.7159
 30
5.4808
 70
192
 0
VERTEX
 8
CILINDRO_1
 10
22.8272
 20
-5.731
 30
1.5014
 70
192
 0
VERTEX
 8
CILINDRO_1
 10
22.8272
 20
-5.731
 30
1.5014
 70
192
 0
VERTEX
 8
CILINDRO_1
 10
22.8272
 20
-5.731
 30
5.4808
 70
192
 0
VERTEX
 8
CILINDRO_1
 10
22.8272
 20
-5.731
 30
5.4808
 70
192
 0
VERTEX
 8
CILINDRO_1
 10
22.6597
 20
-5.7759
 30
1.5014
 70
192
 0
VERTEX
 8
CILINDRO_1
 10
22.6597
 20
-5.7759
 30
1.5014
 70
192
 0
VERTEX
 8
CILINDRO_1
 10
22.6597
 20
-5.7759
 30
5.4808
 70
192
 0
VERTEX
 8
CILINDRO_1
 10
22.6597
 20
-5.7759
 30
5.4808
 70
192
 0
VERTEX
 8
CILINDRO_1
 10
22.5025
 20
-5.8492
 30
1.5014
 70
192
 0
VERTEX
 8
CILINDRO_1
 10
22.5025
 20
-5.8492
 30
1.5014
 70
192
 0
VERTEX
 8
CILINDRO_1
 10
22.5025
 20
-5.8492
 30
5.4808
 70
192
 0
VERTEX
 8
CILINDRO_1
 10
22.5025
 20
-5.8492
 30
5.4808
 70
192
 0
VERTEX
 8
CILINDRO_1
 10
22.3605
 20
-5.9487
 30
1.5014
 70
192
 0
VERTEX
 8
CILINDRO_1
 10
22.3605
 20
-5.9487
 30
1.5014
 70
192
 0
VERTEX
 8
CILINDRO_1
 10
22.3605
 20
-5.9487
 30
5.4808
 70
192
 0
VERTEX
 8
CILINDRO_1
 10
22.3605
 20
-5.9487
 30
5.4808
 70
192
 0
VERTEX
 8
CILINDRO_1
 10
22.2378
 20
-6.0713
 30
1.5014
 70
192
 0
VERTEX
 8
CILINDRO_1
 10
22.2378
 20
-6.0713
 30
1.5014
 70
192
 0
VERTEX
 8
CILINDRO_1
 10
22.2378
 20
-6.0713
 30
5.4808
 70
192
 0
VERTEX
 8
CILINDRO_1
 10
22.2378
 20
-6.0713
 30
5.4808
 70
192
 0
VERTEX
 8
CILINDRO_1
 10
22.1384
 20
-6.2134
 30
1.5014
 70
192
 0
VERTEX
 8
CILINDRO_1
 10
22.1384
 20
-6.2134
 30
1.5014
 70
192
 0
VERTEX
 8
CILINDRO_1
 10
22.1384
 20
-6.2134
 30
5.4808
 70
192
 0
VERTEX
 8
CILINDRO_1
 10
22.1384
 20
-6.2134
 30
5.4808
 70
192
 0
VERTEX
 8
CILINDRO_1
 10
22.0651
 20
-6.3705
 30
1.5014
 70
192
 0
VERTEX
 8
CILINDRO_1
 10
22.0651
 20
-6.3705
 30
1.5014
 70
192
 0
VERTEX
 8
CILINDRO_1
 10
22.0651
 20
-6.3705
 30
5.4808
 70
192
 0
VERTEX
 8
CILINDRO_1
 10
22.0651
 20
-6.3705
 30
5.4808
 70
192
 0
VERTEX
 8
CILINDRO_1
 10
22.0202
 20
-6.538
 30
1.5014
 70
192
 0
VERTEX
 8
CILINDRO_1
 10
22.0202
 20
-6.538
 30
1.5014
 70
192
 0
VERTEX
 8
CILINDRO_1
 10
22.0202
 20
-6.538
 30
5.4808
 70
192
 0
VERTEX
 8
CILINDRO_1
 10
22.0202
 20
-6.538
 30
5.4808
 70
192
 0
VERTEX
 8
CILINDRO_1
 10
22.0051
 20
-6.7108
 30
1.5014
 70
192
 0
VERTEX
 8
CILINDRO_1
 10
22.0051
 20
-6.7108
 30
1.5014
 70
192
 0
VERTEX
 8
CILINDRO_1
 10
22.0051
 20
-6.7108
 30
5.4808
 70
192
 0
VERTEX
 8
CILINDRO_1
 10
22.0051
 20
-6.7108
 30
5.4808
 70
192
 0
VERTEX
 8
CILINDRO_1
 10
22.0202
 20
-6.8835
 30
1.5014
 70
192
 0
VERTEX
 8
CILINDRO_1
 10
22.0202
 20
-6.8835
 30
1.5014
 70
192
 0
VERTEX
 8
CILINDRO_1
 10
22.0202
 20
-6.8835
 30
5.4808
 70
192
 0
VERTEX
 8
CILINDRO_1
 10
22.0202
 20
-6.8835
 30
5.4808
 70
192
 0
VERTEX
 8
CILINDRO_1
 10
22.0651
 20
-7.051
 30
1.5014
 70
192
 0
VERTEX
 8
CILINDRO_1
 10
22.0651
 20
-7.051
 30
1.5014
 70
192
 0
VERTEX
 8
CILINDRO_1
 10
22.0651
 20
-7.051
 30
5.4808
 70
192
 0
VERTEX
 8
CILINDRO_1
 10
22.0651
 20
-7.051
 30
5.4808
 70
192
 0
VERTEX
 8
CILINDRO_1
 10
22.1384
 20
-7.2082
 30
1.5014
 70
192
 0
VERTEX
 8
CILINDRO_1
 10
22.1384
 20
-7.2082
 30
1.5014
 70
192
 0
VERTEX
 8
CILINDRO_1
 10
22.1384
 20
-7.2082
 30
5.4808
 70
192
 0
VERTEX
 8
CILINDRO_1
 10
22.1384
 20
-7.2082
 30
5.4808
 70
192
 0
VERTEX
 8
CILINDRO_1
 10
22.2378
 20
-7.3503
 30
1.5014
 70
192
 0
VERTEX
 8
CILINDRO_1
 10
22.2378
 20
-7.3503
 30
1.5014
 70
192
 0
VERTEX
 8
CILINDRO_1
 10
22.2378
 20
-7.3503
 30
5.4808
 70
192
 0
VERTEX
 8
CILINDRO_1
 10
22.2378
 20
-7.3503
 30
5.4808
 70
192
 0
VERTEX
 8
CILINDRO_1
 10
22.3605
 20
-7.4729
 30
1.5014
 70
192
 0
VERTEX
 8
CILINDRO_1
 10
22.3605
 20
-7.4729
 30
1.5014
 70
192
 0
VERTEX
 8
CILINDRO_1
 10
22.3605
 20
-7.4729
 30
5.4808
 70
192
 0
VERTEX
 8
CILINDRO_1
 10
22.3605
 20
-7.4729
 30
5.4808
 70
192
 0
VERTEX
 8
CILINDRO_1
 10
22.5025
 20
-7.5724
 30
1.5014
 70
192
 0
VERTEX
 8
CILINDRO_1
 10
22.5025
 20
-7.5724
 30
1.5014
 70
192
 0
VERTEX
 8
CILINDRO_1
 10
22.5025
 20
-7.5724
 30
5.4808
 70
192
 0
VERTEX
 8
CILINDRO_1
 10
22.5025
 20
-7.5724
 30
5.4808
 70
192
 0
VERTEX
 8
CILINDRO_1
 10
22.6597
 20
-7.6456
 30
1.5014
 70
192
 0
VERTEX
 8
CILINDRO_1
 10
22.6597
 20
-7.6456
 30
1.5014
 70
192
 0
VERTEX
 8
CILINDRO_1
 10
22.6597
 20
-7.6456
 30
5.4808
 70
192
 0
VERTEX
 8
CILINDRO_1
 10
22.6597
 20
-7.6456
 30
5.4808
 70
192
 0
VERTEX
 8
CILINDRO_1
 10
22.8272
 20
-7.6905
 30
1.5014
 70
192
 0
VERTEX
 8
CILINDRO_1
 10
22.8272
 20
-7.6905
 30
1.5014
 70
192
 0
VERTEX
 8
CILINDRO_1
 10
22.8272
 20
-7.6905
 30
5.4808
 70
192
 0
VERTEX
 8
CILINDRO_1
 10
22.8272
 20
-7.6905
 30
5.4808
 70
192
 0
VERTEX
 8
CILINDRO_1
 10
0
 20
0
 30
0
 70
128
 71
1
 72
3
 73
7
 74
7
 0
VERTEX
 8
CILINDRO_1
 10
0
 20
0
 30
0
 70
128
 71
4
 72
5
 73
9
 74
8
 0
VERTEX
 8
CILINDRO_1
 10
0
 20
0
 30
0
 70
128
 71
6
 72
2
 73
10
 74
10
 0
VERTEX
 8
CILINDRO_1
 10
0
 20
0
 30
0
 70
128
 71
1
 72
7
 73
11
 74
11
 0
VERTEX
 8
CILINDRO_1
 10
0
 20
0
 30
0
 70
128
 71
8
 72
9
 73
13
 74
12
 0
VERTEX
 8
CILINDRO_1
 10
0
 20
0
 30
0
 70
128
 71
10
 72
2
 73
14
 74
14
 0
VERTEX
 8
CILINDRO_1
 10
0
 20
0
 30
0
 70
128
 71
1
 72
11
 73
15
 74
15
 0
VERTEX
 8
CILINDRO_1
 10
0
 20
0
 30
0
 70
128
 71
12
 72
13
 73
17
 74
16
 0
VERTEX
 8
CILINDRO_1
 10
0
 20
0
 30
0
 70
128
 71
14
 72
2
 73
18
 74
18
 0
VERTEX
 8
CILINDRO_1
 10
0
 20
0
 30
0
 70
128
 71
1
 72
15
 73
19
 74
19
 0
VERTEX
 8
CILINDRO_1
 10
0
 20
0
 30
0
 70
128
 71
16
 72
17
 73
21
 74
20
 0
VERTEX
 8
CILINDRO_1
 10
0
 20
0
 30
0
 70
128
 71
18
 72
2
 73
22
 74
22
 0
VERTEX
 8
CILINDRO_1
 10
0
 20
0
 30
0
 70
128
 71
1
 72
19
 73
23
 74
23
 0
VERTEX
 8
CILINDRO_1
 10
0
 20
0
 30
0
 70
128
 71
20
 72
21
 73
25
 74
24
 0
VERTEX
 8
CILINDRO_1
 10
0
 20
0
 30
0
 70
128
 71
22
 72
2
 73
26
 74
26
 0
VERTEX
 8
CILINDRO_1
 10
0
 20
0
 30
0
 70
128
 71
1
 72
23
 73
27
 74
27
 0
VERTEX
 8
CILINDRO_1
 10
0
 20
0
 30
0
 70
128
 71
24
 72
25
 73
29
 74
28
 0
VERTEX
 8
CILINDRO_1
 10
0
 20
0
 30
0
 70
128
 71
26
 72
2
 73
30
 74
30
 0
VERTEX
 8
CILINDRO_1
 10
0
 20
0
 30
0
 70
128
 71
1
 72
27
 73
31
 74
31
 0
VERTEX
 8
CILINDRO_1
 10
0
 20
0
 30
0
 70
128
 71
28
 72
29
 73
33
 74
32
 0
VERTEX
 8
CILINDRO_1
 10
0
 20
0
 30
0
 70
128
 71
30
 72
2
 73
34
 74
34
 0
VERTEX
 8
CILINDRO_1
 10
0
 20
0
 30
0
 70
128
 71
1
 72
31
 73
35
 74
35
 0
VERTEX
 8
CILINDRO_1
 10
0
 20
0
 30
0
 70
128
 71
32
 72
33
 73
37
 74
36
 0
VERTEX
 8
CILINDRO_1
 10
0
 20
0
 30
0
 70
128
 71
34
 72
2
 73
38
 74
38
 0
VERTEX
 8
CILINDRO_1
 10
0
 20
0
 30
0
 70
128
 71
1
 72
35
 73
39
 74
39
 0
VERTEX
 8
CILINDRO_1
 10
0
 20
0
 30
0
 70
128
 71
36
 72
37
 73
41
 74
40
 0
VERTEX
 8
CILINDRO_1
 10
0
 20
0
 30
0
 70
128
 71
38
 72
2
 73
42
 74
42
 0
VERTEX
 8
CILINDRO_1
 10
0
 20
0
 30
0
 70
128
 71
1
 72
39
 73
43
 74
43
 0
VERTEX
 8
CILINDRO_1
 10
0
 20
0
 30
0
 70
128
 71
40
 72
41
 73
45
 74
44
 0
VERTEX
 8
CILINDRO_1
 10
0
 20
0
 30
0
 70
128
 71
42
 72
2
 73
46
 74
46
 0
VERTEX
 8
CILINDRO_1
 10
0
 20
0
 30
0
 70
128
 71
1
 72
43
 73
47
 74
47
 0
VERTEX
 8
CILINDRO_1
 10
0
 20
0
 30
0
 70
128
 71
44
 72
45
 73
49
 74
48
 0
VERTEX
 8
CILINDRO_1
 10
0
 20
0
 30
0
 70
128
 71
46
 72
2
 73
50
 74
50
 0
VERTEX
 8
CILINDRO_1
 10
0
 20
0
 30
0
 70
128
 71
1
 72
47
 73
51
 74
51
 0
VERTEX
 8
CILINDRO_1
 10
0
 20
0
 30
0
 70
128
 71
48
 72
49
 73
53
 74
52
 0
VERTEX
 8
CILINDRO_1
 10
0
 20
0
 30
0
 70
128
 71
50
 72
2
 73
54
 74
54
 0
VERTEX
 8
CILINDRO_1
 10
0
 20
0
 30
0
 70
128
 71
1
 72
51
 73
55
 74
55
 0
VERTEX
 8
CILINDRO_1
 10
0
 20
0
 30
0
 70
128
 71
52
 72
53
 73
57
 74
56
 0
VERTEX
 8
CILINDRO_1
 10
0
 20
0
 30
0
 70
128
 71
54
 72
2
 73
58
 74
58
 0
VERTEX
 8
CILINDRO_1
 10
0
 20
0
 30
0
 70
128
 71
1
 72
55
 73
59
 74
59
 0
VERTEX
 8
CILINDRO_1
 10
0
 20
0
 30
0
 70
128
 71
56
 72
57
 73
61
 74
60
 0
VERTEX
 8
CILINDRO_1
 10
0
 20
0
 30
0
 70
128
 71
58
 72
2
 73
62
 74
62
 0
VERTEX
 8
CILINDRO_1
 10
0
 20
0
 30
0
 70
128
 71
1
 72
59
 73
63
 74
63
 0
VERTEX
 8
CILINDRO_1
 10
0
 20
0
 30
0
 70
128
 71
60
 72
61
 73
65
 74
64
 0
VERTEX
 8
CILINDRO_1
 10
0
 20
0
 30
0
 70
128
 71
62
 72
2
 73
66
 74
66
 0
VERTEX
 8
CILINDRO_1
 10
0
 20
0
 30
0
 70
128
 71
1
 72
63
 73
67
 74
67
 0
VERTEX
 8
CILINDRO_1
 10
0
 20
0
 30
0
 70
128
 71
64
 72
65
 73
69
 74
68
 0
VERTEX
 8
CILINDRO_1
 10
0
 20
0
 30
0
 70
128
 71
66
 72
2
 73
70
 74
70
 0
VERTEX
 8
CILINDRO_1
 10
0
 20
0
 30
0
 70
128
 71
1
 72
67
 73
71
 74
71
 0
VERTEX
 8
CILINDRO_1
 10
0
 20
0
 30
0
 70
128
 71
68
 72
69
 73
73
 74
72
 0
VERTEX
 8
CILINDRO_1
 10
0
 20
0
 30
0
 70
128
 71
70
 72
2
 73
74
 74
74
 0
VERTEX
 8
CILINDRO_1
 10
0
 20
0
 30
0
 70
128
 71
1
 72
71
 73
75
 74
75
 0
VERTEX
 8
CILINDRO_1
 10
0
 20
0
 30
0
 70
128
 71
72
 72
73
 73
77
 74
76
 0
VERTEX
 8
CILINDRO_1
 10
0
 20
0
 30
0
 70
128
 71
74
 72
2
 73
78
 74
78
 0
VERTEX
 8
CILINDRO_1
 10
0
 20
0
 30
0
 70
128
 71
1
 72
75
 73
79
 74
79
 0
VERTEX
 8
CILINDRO_1
 10
0
 20
0
 30
0
 70
128
 71
76
 72
77
 73
81
 74
80
 0
VERTEX
 8
CILINDRO_1
 10
0
 20
0
 30
0
 70
128
 71
78
 72
2
 73
82
 74
82
 0
VERTEX
 8
CILINDRO_1
 10
0
 20
0
 30
0
 70
128
 71
1
 72
79
 73
83
 74
83
 0
VERTEX
 8
CILINDRO_1
 10
0
 20
0
 30
0
 70
128
 71
80
 72
81
 73
85
 74
84
 0
VERTEX
 8
CILINDRO_1
 10
0
 20
0
 30
0
 70
128
 71
82
 72
2
 73
86
 74
86
 0
VERTEX
 8
CILINDRO_1
 10
0
 20
0
 30
0
 70
128
 71
1
 72
83
 73
87
 74
87
 0
VERTEX
 8
CILINDRO_1
 10
0
 20
0
 30
0
 70
128
 71
84
 72
85
 73
89
 74
88
 0
VERTEX
 8
CILINDRO_1
 10
0
 20
0
 30
0
 70
128
 71
86
 72
2
 73
90
 74
90
 0
VERTEX
 8
CILINDRO_1
 10
0
 20
0
 30
0
 70
128
 71
1
 72
87
 73
91
 74
91
 0
VERTEX
 8
CILINDRO_1
 10
0
 20
0
 30
0
 70
128
 71
88
 72
89
 73
93
 74
92
 0
VERTEX
 8
CILINDRO_1
 10
0
 20
0
 30
0
 70
128
 71
90
 72
2
 73
94
 74
94
 0
VERTEX
 8
CILINDRO_1
 10
0
 20
0
 30
0
 70
128
 71
1
 72
91
 73
95
 74
95
 0
VERTEX
 8
CILINDRO_1
 10
0
 20
0
 30
0
 70
128
 71
92
 72
93
 73
97
 74
96
 0
VERTEX
 8
CILINDRO_1
 10
0
 20
0
 30
0
 70
128
 71
94
 72
2
 73
98
 74
98
 0
VERTEX
 8
CILINDRO_1
 10
0
 20
0
 30
0
 70
128
 71
1
 72
95
 73
99
 74
99
 0
VERTEX
 8
CILINDRO_1
 10
0
 20
0
 30
0
 70
128
 71
96
 72
97
 73
101
 74
100
 0
VERTEX
 8
CILINDRO_1
 10
0
 20
0
 30
0
 70
128
 71
98
 72
2
 73
102
 74
102
 0
VERTEX
 8
CILINDRO_1
 10
0
 20
0
 30
0
 70
128
 71
1
 72
99
 73
103
 74
103
 0
VERTEX
 8
CILINDRO_1
 10
0
 20
0
 30
0
 70
128
 71
100
 72
101
 73
105
 74
104
 0
VERTEX
 8
CILINDRO_1
 10
0
 20
0
 30
0
 70
128
 71
102
 72
2
 73
106
 74
106
 0
VERTEX
 8
CILINDRO_1
 10
0
 20
0
 30
0
 70
128
 71
1
 72
103
 73
107
 74
107
 0
VERTEX
 8
CILINDRO_1
 10
0
 20
0
 30
0
 70
128
 71
104
 72
105
 73
109
 74
108
 0
VERTEX
 8
CILINDRO_1
 10
0
 20
0
 30
0
 70
128
 71
106
 72
2
 73
110
 74
110
 0
VERTEX
 8
CILINDRO_1
 10
0
 20
0
 30
0
 70
128
 71
1
 72
107
 73
111
 74
111
 0
VERTEX
 8
CILINDRO_1
 10
0
 20
0
 30
0
 70
128
 71
108
 72
109
 73
113
 74
112
 0
VERTEX
 8
CILINDRO_1
 10
0
 20
0
 30
0
 70
128
 71
110
 72
2
 73
114
 74
114
 0
VERTEX
 8
CILINDRO_1
 10
0
 20
0
 30
0
 70
128
 71
1
 72
111
 73
115
 74
115
 0
VERTEX
 8
CILINDRO_1
 10
0
 20
0
 30
0
 70
128
 71
112
 72
113
 73
117
 74
116
 0
VERTEX
 8
CILINDRO_1
 10
0
 20
0
 30
0
 70
128
 71
114
 72
2
 73
118
 74
118
 0
VERTEX
 8
CILINDRO_1
 10
0
 20
0
 30
0
 70
128
 71
1
 72
115
 73
119
 74
119
 0
VERTEX
 8
CILINDRO_1
 10
0
 20
0
 30
0
 70
128
 71
116
 72
117
 73
121
 74
120
 0
VERTEX
 8
CILINDRO_1
 10
0
 20
0
 30
0
 70
128
 71
118
 72
2
 73
122
 74
122
 0
VERTEX
 8
CILINDRO_1
 10
0
 20
0
 30
0
 70
128
 71
1
 72
119
 73
123
 74
123
 0
VERTEX
 8
CILINDRO_1
 10
0
 20
0
 30
0
 70
128
 71
120
 72
121
 73
125
 74
124
 0
VERTEX
 8
CILINDRO_1
 10
0
 20
0
 30
0
 70
128
 71
122
 72
2
 73
126
 74
126
 0
VERTEX
 8
CILINDRO_1
 10
0
 20
0
 30
0
 70
128
 71
1
 72
123
 73
127
 74
127
 0
VERTEX
 8
CILINDRO_1
 10
0
 20
0
 30
0
 70
128
 71
124
 72
125
 73
129
 74
128
 0
VERTEX
 8
CILINDRO_1
 10
0
 20
0
 30
0
 70
128
 71
126
 72
2
 73
130
 74
130
 0
VERTEX
 8
CILINDRO_1
 10
0
 20
0
 30
0
 70
128
 71
1
 72
127
 73
131
 74
131
 0
VERTEX
 8
CILINDRO_1
 10
0
 20
0
 30
0
 70
128
 71
128
 72
129
 73
133
 74
132
 0
VERTEX
 8
CILINDRO_1
 10
0
 20
0
 30
0
 70
128
 71
130
 72
2
 73
134
 74
134
 0
VERTEX
 8
CILINDRO_1
 10
0
 20
0
 30
0
 70
128
 71
1
 72
131
 73
135
 74
135
 0
VERTEX
 8
CILINDRO_1
 10
0
 20
0
 30
0
 70
128
 71
132
 72
133
 73
137
 74
136
 0
VERTEX
 8
CILINDRO_1
 10
0
 20
0
 30
0
 70
128
 71
134
 72
2
 73
138
 74
138
 0
VERTEX
 8
CILINDRO_1
 10
0
 20
0
 30
0
 70
128
 71
1
 72
135
 73
139
 74
139
 0
VERTEX
 8
CILINDRO_1
 10
0
 20
0
 30
0
 70
128
 71
136
 72
137
 73
141
 74
140
 0
VERTEX
 8
CILINDRO_1
 10
0
 20
0
 30
0
 70
128
 71
138
 72
2
 73
142
 74
142
 0
VERTEX
 8
CILINDRO_1
 10
0
 20
0
 30
0
 70
128
 71
1
 72
139
 73
143
 74
143
 0
VERTEX
 8
CILINDRO_1
 10
0
 20
0
 30
0
 70
128
 71
140
 72
141
 73
145
 74
144
 0
VERTEX
 8
CILINDRO_1
 10
0
 20
0
 30
0
 70
128
 71
142
 72
2
 73
146
 74
146
 0
VERTEX
 8
CILINDRO_1
 10
0
 20
0
 30
0
 70
128
 71
1
 72
143
 73
3
 74
3
 0
VERTEX
 8
CILINDRO_1
 10
0
 20
0
 30
0
 70
128
 71
144
 72
145
 73
5
 74
4
 0
VERTEX
 8
CILINDRO_1
 10
0
 20
0
 30
0
 70
128
 71
146
 72
2
 73
6
 74
6
 0
SEQEND
 0
POLYLINE
 8
CILINDRO
 66
1
 10
0.0
 20
0.0
 30
0.0
 70
64
 71
290
 72
324
 0
VERTEX
 8
CILINDRO
 10
23.0001
 20
-6.7108
 30
0.0004
 70
192
 0
VERTEX
 8
CILINDRO
 10
23.0001
 20
-6.7108
 30
1.4997
 70
192
 0
VERTEX
 8
CILINDRO
 10
23.0001
 20
-9.7237
 30
1.4997
 70
192
 0
VERTEX
 8
CILINDRO
 10
23.5233
 20
-9.6779
 30
1.4997
 70
192
 0
VERTEX
 8
CILINDRO
 10
24.0306
 20
-9.542
 30
1.4997
 70
192
 0
VERTEX
 8
CILINDRO
 10
24.5066
 20
-9.32
 30
1.4997
 70
192
 0
VERTEX
 8
CILINDRO
 10
24.9368
 20
-9.0188
 30
1.4997
 70
192
 0
VERTEX
 8
CILINDRO
 10
25.3082
 20
-8.6474
 30
1.4997
 70
192
 0
VERTEX
 8
CILINDRO
 10
25.6094
 20
-8.2172
 30
1.4997
 70
192
 0
VERTEX
 8
CILINDRO
 10
25.8313
 20
-7.7413
 30
1.4997
 70
192
 0
VERTEX
 8
CILINDRO
 10
25.9673
 20
-7.234
 30
1.4997
 70
192
 0
VERTEX
 8
CILINDRO
 10
26.013
 20
-6.7108
 30
1.4997
 70
192
 0
VERTEX
 8
CILINDRO
 10
25.9673
 20
-6.1876
 30
1.4997
 70
192
 0
VERTEX
 8
CILINDRO
 10
25.8313
 20
-5.6803
 30
1.4997
 70
192
 0
VERTEX
 8
CILINDRO
 10
25.6094
 20
-5.2043
 30
1.4997
 70
192
 0
VERTEX
 8
CILINDRO
 10
25.3082
 20
-4.7741
 30
1.4997
 70
192
 0
VERTEX
 8
CILINDRO
 10
24.9368
 20
-4.4028
 30
1.4997
 70
192
 0
VERTEX
 8
CILINDRO
 10
24.5066
 20
-4.1015
 30
1.4997
 70
192
 0
VERTEX
 8
CILINDRO
 10
24.0306
 20
-3.8796
 30
1.4997
 70
192
 0
VERTEX
 8
CILINDRO
 10
23.5233
 20
-3.7437
 30
1.4997
 70
192
 0
VERTEX
 8
CILINDRO
 10
23.0001
 20
-3.6979
 30
1.4997
 70
192
 0
VERTEX
 8
CILINDRO
 10
22.477
 20
-3.7437
 30
1.4997
 70
192
 0
VERTEX
 8
CILINDRO
 10
21.9697
 20
-3.8796
 30
1.4997
 70
192
 0
VERTEX
 8
CILINDRO
 10
21.4937
 20
-4.1015
 30
1.4997
 70
192
 0
VERTEX
 8
CILINDRO
 10
21.0635
 20
-4.4028
 30
1.4997
 70
192
 0
VERTEX
 8
CILINDRO
 10
20.6921
 20
-4.7741
 30
1.4997
 70
192
 0
VERTEX
 8
CILINDRO
 10
20.3909
 20
-5.2043
 30
1.4997
 70
192
 0
VERTEX
 8
CILINDRO
 10
20.1689
 20
-5.6803
 30
1.4997
 70
192
 0
VERTEX
 8
CILINDRO
 10
20.033
 20
-6.1876
 30
1.4997
 70
192
 0
VERTEX
 8
CILINDRO
 10
19.9872
 20
-6.7108
 30
1.4997
 70
192
 0
VERTEX
 8
CILINDRO
 10
20.033
 20
-7.234
 30
1.4997
 70
192
 0
VERTEX
 8
CILINDRO
 10
20.1689
 20
-7.7413
 30
1.4997
 70
192
 0
VERTEX
 8
CILINDRO
 10
20.3909
 20
-8.2172
 30
1.4997
 70
192
 0
VERTEX
 8
CILINDRO
 10
20.6921
 20
-8.6474
 30
1.4997
 70
192
 0
VERTEX
 8
CILINDRO
 10
21.0635
 20
-9.0188
 30
1.4997
 70
192
 0
VERTEX
 8
CILINDRO
 10
21.4937
 20
-9.32
 30
1.4997
 70
192
 0
VERTEX
 8
CILINDRO
 10
21.9697
 20
-9.542
 30
1.4997
 70
192
 0
VERTEX
 8
CILINDRO
 10
22.477
 20
-9.6779
 30
1.4997
 70
192
 0
VERTEX
 8
CILINDRO
 10
23.4362
 20
-9.1836
 30
0.0004
 70
192
 0
VERTEX
 8
CILINDRO
 10
23.0001
 20
-9.7237
 30
0.5004
 70
192
 0
VERTEX
 8
CILINDRO
 10
23.8589
 20
-9.0703
 30
0.0004
 70
192
 0
VERTEX
 8
CILINDRO
 10
23.5233
 20
-9.6779
 30
0.5004
 70
192
 0
VERTEX
 8
CILINDRO
 10
24.2556
 20
-8.8854
 30
0.0004
 70
192
 0
VERTEX
 8
CILINDRO
 10
24.0306
 20
-9.542
 30
0.5004
 70
192
 0
VERTEX
 8
CILINDRO
 10
24.6142
 20
-8.6343
 30
0.0004
 70
192
 0
VERTEX
 8
CILINDRO
 10
24.5066
 20
-9.32
 30
0.5004
 70
192
 0
VERTEX
 8
CILINDRO
 10
24.9237
 20
-8.3248
 30
0.0004
 70
192
 0
VERTEX
 8
CILINDRO
 10
24.9368
 20
-9.0188
 30
0.5004
 70
192
 0
VERTEX
 8
CILINDRO
 10
25.1747
 20
-7.9663
 30
0.0004
 70
192
 0
VERTEX
 8
CILINDRO
 10
25.3082
 20
-8.6474
 30
0.5004
 70
192
 0
VERTEX
 8
CILINDRO
 10
25.6094
 20
-8.2172
 30
0.5004
 70
192
 0
VERTEX
 8
CILINDRO
 10
25.3597
 20
-7.5696
 30
0.0004
 70
192
 0
VERTEX
 8
CILINDRO
 10
25.473
 20
-7.1468
 30
0.0004
 70
192
 0
VERTEX
 8
CILINDRO
 10
25.8313
 20
-7.7413
 30
0.5004
 70
192
 0
VERTEX
 8
CILINDRO
 10
25.9673
 20
-7.234
 30
0.5004
 70
192
 0
VERTEX
 8
CILINDRO
 10
25.5111
 20
-6.7108
 30
0.0004
 70
192
 0
VERTEX
 8
CILINDRO
 10
25.473
 20
-6.2748
 30
0.0004
 70
192
 0
VERTEX
 8
CILINDRO
 10
26.013
 20
-6.7108
 30
0.5004
 70
192
 0
VERTEX
 8
CILINDRO
 10
25.9673
 20
-6.1876
 30
0.5004
 70
192
 0
VERTEX
 8
CILINDRO
 10
25.3597
 20
-5.852
 30
0.0004
 70
192
 0
VERTEX
 8
CILINDRO
 10
25.8313
 20
-5.6803
 30
0.5004
 70
192
 0
VERTEX
 8
CILINDRO
 10
25.1747
 20
-5.4553
 30
0.0004
 70
192
 0
VERTEX
 8
CILINDRO
 10
24.6142
 20
-4.7873
 30
0.0004
 70
192
 0
VERTEX
 8
CILINDRO
 10
24.9237
 20
-5.0968
 30
0.0004
 70
192
 0
VERTEX
 8
CILINDRO
 10
25.6094
 20
-5.2043
 30
0.5004
 70
192
 0
VERTEX
 8
CILINDRO
 10
24.2556
 20
-4.5362
 30
0.0004
 70
192
 0
VERTEX
 8
CILINDRO
 10
24.9368
 20
-4.4028
 30
0.5004
 70
192
 0
VERTEX
 8
CILINDRO
 10
25.3082
 20
-4.7741
 30
0.5004
 70
192
 0
VERTEX
 8
CILINDRO
 10
24.5066
 20
-4.1015
 30
0.5004
 70
192
 0
VERTEX
 8
CILINDRO
 10
22.477
 20
-9.6779
 30
0.5004
 70
192
 0
VERTEX
 8
CILINDRO
 10
23.8589
 20
-4.3512
 30
0.0004
 70
192
 0
VERTEX
 8
CILINDRO
 10
23.0001
 20
-9.2218
 30
0.0004
 70
192
 0
VERTEX
 8
CILINDRO
 10
23.0001
 20
-4.1998
 30
0.0004
 70
192
 0
VERTEX
 8
CILINDRO
 10
24.0306
 20
-3.8796
 30
0.5004
 70
192
 0
VERTEX
 8
CILINDRO
 10
23.4362
 20
-4.2379
 30
0.0004
 70
192
 0
VERTEX
 8
CILINDRO
 10
23.0001
 20
-3.6979
 30
0.5004
 70
192
 0
VERTEX
 8
CILINDRO
 10
22.5641
 20
-4.2379
 30
0.0004
 70
192
 0
VERTEX
 8
CILINDRO
 10
23.5233
 20
-3.7437
 30
0.5004
 70
192
 0
VERTEX
 8
CILINDRO
 10
22.477
 20
-3.7437
 30
0.5004
 70
192
 0
VERTEX
 8
CILINDRO
 10
22.1413
 20
-4.3512
 30
0.0004
 70
192
 0
VERTEX
 8
CILINDRO
 10
21.9697
 20
-3.8796
 30
0.5004
 70
192
 0
VERTEX
 8
CILINDRO
 10
21.7446
 20
-4.5362
 30
0.0004
 70
192
 0
VERTEX
 8
CILINDRO
 10
21.4937
 20
-4.1015
 30
0.5004
 70
192
 0
VERTEX
 8
CILINDRO
 10
21.3861
 20
-4.7873
 30
0.0004
 70
192
 0
VERTEX
 8
CILINDRO
 10
21.0635
 20
-4.4028
 30
0.5004
 70
192
 0
VERTEX
 8
CILINDRO
 10
21.0766
 20
-5.0968
 30
0.0004
 70
192
 0
VERTEX
 8
CILINDRO
 10
20.6921
 20
-4.7741
 30
0.5004
 70
192
 0
VERTEX
 8
CILINDRO
 10
20.8256
 20
-5.4553
 30
0.0004
 70
192
 0
VERTEX
 8
CILINDRO
 10
20.3909
 20
-5.2043
 30
0.5004
 70
192
 0
VERTEX
 8
CILINDRO
 10
20.6406
 20
-5.852
 30
0.0004
 70
192
 0
VERTEX
 8
CILINDRO
 10
20.1689
 20
-5.6803
 30
0.5004
 70
192
 0
VERTEX
 8
CILINDRO
 10
20.5273
 20
-6.2748
 30
0.0004
 70
192
 0
VERTEX
 8
CILINDRO
 10
20.033
 20
-6.1876
 30
0.5004
 70
192
 0
VERTEX
 8
CILINDRO
 10
20.4891
 20
-6.7108
 30
0.0004
 70
192
 0
VERTEX
 8
CILINDRO
 10
19.9872
 20
-6.7108
 30
0.5004
 70
192
 0
VERTEX
 8
CILINDRO
 10
20.5273
 20
-7.1468
 30
0.0004
 70
192
 0
VERTEX
 8
CILINDRO
 10
20.033
 20
-7.234
 30
0.5004
 70
192
 0
VERTEX
 8
CILINDRO
 10
20.6406
 20
-7.5696
 30
0.0004
 70
192
 0
VERTEX
 8
CILINDRO
 10
20.1689
 20
-7.7413
 30
0.5004
 70
192
 0
VERTEX
 8
CILINDRO
 10
20.8256
 20
-7.9663
 30
0.0004
 70
192
 0
VERTEX
 8
CILINDRO
 10
20.3909
 20
-8.2172
 30
0.5004
 70
192
 0
VERTEX
 8
CILINDRO
 10
21.0766
 20
-8.3248
 30
0.0004
 70
192
 0
VERTEX
 8
CILINDRO
 10
20.6921
 20
-8.6474
 30
0.5004
 70
192
 0
VERTEX
 8
CILINDRO
 10
21.3861
 20
-8.6343
 30
0.0004
 70
192
 0
VERTEX
 8
CILINDRO
 10
21.0635
 20
-9.0188
 30
0.5004
 70
192
 0
VERTEX
 8
CILINDRO
 10
21.7446
 20
-8.8854
 30
0.0004
 70
192
 0
VERTEX
 8
CILINDRO
 10
21.4937
 20
-9.32
 30
0.5004
 70
192
 0
VERTEX
 8
CILINDRO
 10
22.1413
 20
-9.0703
 30
0.0004
 70
192
 0
VERTEX
 8
CILINDRO
 10
21.9697
 20
-9.542
 30
0.5004
 70
192
 0
VERTEX
 8
CILINDRO
 10
22.5641
 20
-9.1836
 30
0.0004
 70
192
 0
VERTEX
 8
CILINDRO
 10
21.9749
 20
-9.5277
 30
0.3784
 70
192
 0
VERTEX
 8
CILINDRO
 10
21.9916
 20
-9.4817
 30
0.2559
 70
192
 0
VERTEX
 8
CILINDRO
 10
22.0199
 20
-9.4038
 30
0.1469
 70
192
 0
VERTEX
 8
CILINDRO
 10
22.0574
 20
-9.301
 30
0.0643
 70
192
 0
VERTEX
 8
CILINDRO
 10
22.0994
 20
-9.1854
 30
0.0156
 70
192
 0
VERTEX
 8
CILINDRO
 10
23.0001
 20
-9.3443
 30
0.0156
 70
192
 0
VERTEX
 8
CILINDRO
 10
23.0001
 20
-9.4672
 30
0.0643
 70
192
 0
VERTEX
 8
CILINDRO
 10
23.0001
 20
-9.5767
 30
0.1469
 70
192
 0
VERTEX
 8
CILINDRO
 10
23.0001
 20
-9.6596
 30
0.2559
 70
192
 0
VERTEX
 8
CILINDRO
 10
23.0001
 20
-9.7085
 30
0.3784
 70
192
 0
VERTEX
 8
CILINDRO
 10
20.7037
 20
-8.6377
 30
0.3784
 70
192
 0
VERTEX
 8
CILINDRO
 10
20.7412
 20
-8.6062
 30
0.2559
 70
192
 0
VERTEX
 8
CILINDRO
 10
20.8047
 20
-8.5529
 30
0.1469
 70
192
 0
VERTEX
 8
CILINDRO
 10
20.8886
 20
-8.4826
 30
0.0643
 70
192
 0
VERTEX
 8
CILINDRO
 10
20.9828
 20
-8.4036
 30
0.0156
 70
192
 0
VERTEX
 8
CILINDRO
 10
23.4574
 20
-9.3043
 30
0.0156
 70
192
 0
VERTEX
 8
CILINDRO
 10
23.4788
 20
-9.4254
 30
0.0643
 70
192
 0
VERTEX
 8
CILINDRO
 10
23.4978
 20
-9.5331
 30
0.1469
 70
192
 0
VERTEX
 8
CILINDRO
 10
23.5122
 20
-9.6148
 30
0.2559
 70
192
 0
VERTEX
 8
CILINDRO
 10
23.5207
 20
-9.663
 30
0.3784
 70
192
 0
VERTEX
 8
CILINDRO
 10
21.0732
 20
-9.0072
 30
0.3784
 70
192
 0
VERTEX
 8
CILINDRO
 10
21.1047
 20
-8.9697
 30
0.2559
 70
192
 0
VERTEX
 8
CILINDRO
 10
21.158
 20
-8.9062
 30
0.1469
 70
192
 0
VERTEX
 8
CILINDRO
 10
21.2283
 20
-8.8223
 30
0.0643
 70
192
 0
VERTEX
 8
CILINDRO
 10
21.3074
 20
-8.7281
 30
0.0156
 70
192
 0
VERTEX
 8
CILINDRO
 10
23.9008
 20
-9.1854
 30
0.0156
 70
192
 0
VERTEX
 8
CILINDRO
 10
23.9429
 20
-9.301
 30
0.0643
 70
192
 0
VERTEX
 8
CILINDRO
 10
23.9803
 20
-9.4038
 30
0.1469
 70
192
 0
VERTEX
 8
CILINDRO
 10
24.0087
 20
-9.4817
 30
0.2559
 70
192
 0
VERTEX
 8
CILINDRO
 10
24.0254
 20
-9.5277
 30
0.3784
 70
192
 0
VERTEX
 8
CILINDRO
 10
24.3169
 20
-8.9914
 30
0.0156
 70
192
 0
VERTEX
 8
CILINDRO
 10
24.3784
 20
-9.0979
 30
0.0643
 70
192
 0
VERTEX
 8
CILINDRO
 10
24.4331
 20
-9.1927
 30
0.1469
 70
192
 0
VERTEX
 8
CILINDRO
 10
24.4745
 20
-9.2645
 30
0.2559
 70
192
 0
VERTEX
 8
CILINDRO
 10
24.499
 20
-9.3069
 30
0.3784
 70
192
 0
VERTEX
 8
CILINDRO
 10
24.6929
 20
-8.7281
 30
0.0156
 70
192
 0
VERTEX
 8
CILINDRO
 10
24.7719
 20
-8.8223
 30
0.0643
 70
192
 0
VERTEX
 8
CILINDRO
 10
24.8423
 20
-8.9062
 30
0.1469
 70
192
 0
VERTEX
 8
CILINDRO
 10
24.8956
 20
-8.9697
 30
0.2559
 70
192
 0
VERTEX
 8
CILINDRO
 10
24.927
 20
-9.0072
 30
0.3784
 70
192
 0
VERTEX
 8
CILINDRO
 10
22.4796
 20
-9.663
 30
0.3784
 70
192
 0
VERTEX
 8
CILINDRO
 10
22.4881
 20
-9.6148
 30
0.2559
 70
192
 0
VERTEX
 8
CILINDRO
 10
22.5025
 20
-9.5331
 30
0.1469
 70
192
 0
VERTEX
 8
CILINDRO
 10
22.5215
 20
-9.4254
 30
0.0643
 70
192
 0
VERTEX
 8
CILINDRO
 10
22.5428
 20
-9.3043
 30
0.0156
 70
192
 0
VERTEX
 8
CILINDRO
 10
25.0175
 20
-8.4036
 30
0.0156
 70
192
 0
VERTEX
 8
CILINDRO
 10
25.1117
 20
-8.4826
 30
0.0643
 70
192
 0
VERTEX
 8
CILINDRO
 10
25.1955
 20
-8.5529
 30
0.1469
 70
192
 0
VERTEX
 8
CILINDRO
 10
25.259
 20
-8.6062
 30
0.2559
 70
192
 0
VERTEX
 8
CILINDRO
 10
25.2965
 20
-8.6377
 30
0.3784
 70
192
 0
VERTEX
 8
CILINDRO
 10
25.2808
 20
-8.0275
 30
0.0156
 70
192
 0
VERTEX
 8
CILINDRO
 10
25.3873
 20
-8.089
 30
0.0643
 70
192
 0
VERTEX
 8
CILINDRO
 10
25.4821
 20
-8.1437
 30
0.1469
 70
192
 0
VERTEX
 8
CILINDRO
 10
25.5539
 20
-8.1852
 30
0.2559
 70
192
 0
VERTEX
 8
CILINDRO
 10
25.5962
 20
-8.2096
 30
0.3784
 70
192
 0
VERTEX
 8
CILINDRO
 10
25.8171
 20
-7.7361
 30
0.3784
 70
192
 0
VERTEX
 8
CILINDRO
 10
25.7711
 20
-7.7193
 30
0.2559
 70
192
 0
VERTEX
 8
CILINDRO
 10
25.6932
 20
-7.691
 30
0.1469
 70
192
 0
VERTEX
 8
CILINDRO
 10
25.5903
 20
-7.6535
 30
0.0643
 70
192
 0
VERTEX
 8
CILINDRO
 10
25.4748
 20
-7.6115
 30
0.0156
 70
192
 0
VERTEX
 8
CILINDRO
 10
25.5936
 20
-7.1681
 30
0.0156
 70
192
 0
VERTEX
 8
CILINDRO
 10
25.7147
 20
-7.1894
 30
0.0643
 70
192
 0
VERTEX
 8
CILINDRO
 10
25.8225
 20
-7.2084
 30
0.1469
 70
192
 0
VERTEX
 8
CILINDRO
 10
25.9041
 20
-7.2228
 30
0.2559
 70
192
 0
VERTEX
 8
CILINDRO
 10
25.9523
 20
-7.2313
 30
0.3784
 70
192
 0
VERTEX
 8
CILINDRO
 10
25.9979
 20
-6.7108
 30
0.3784
 70
192
 0
VERTEX
 8
CILINDRO
 10
25.9489
 20
-6.7108
 30
0.2559
 70
192
 0
VERTEX
 8
CILINDRO
 10
25.866
 20
-6.7108
 30
0.1469
 70
192
 0
VERTEX
 8
CILINDRO
 10
25.7566
 20
-6.7108
 30
0.0643
 70
192
 0
VERTEX
 8
CILINDRO
 10
25.6336
 20
-6.7108
 30
0.0156
 70
192
 0
VERTEX
 8
CILINDRO
 10
25.5936
 20
-6.2535
 30
0.0156
 70
192
 0
VERTEX
 8
CILINDRO
 10
25.7147
 20
-6.2321
 30
0.0643
 70
192
 0
VERTEX
 8
CILINDRO
 10
25.8225
 20
-6.2131
 30
0.1469
 70
192
 0
VERTEX
 8
CILINDRO
 10
25.9041
 20
-6.1987
 30
0.2559
 70
192
 0
VERTEX
 8
CILINDRO
 10
25.9523
 20
-6.1902
 30
0.3784
 70
192
 0
VERTEX
 8
CILINDRO
 10
25.8171
 20
-5.6855
 30
0.3784
 70
192
 0
VERTEX
 8
CILINDRO
 10
25.7711
 20
-5.7022
 30
0.2559
 70
192
 0
VERTEX
 8
CILINDRO
 10
25.6932
 20
-5.7306
 30
0.1469
 70
192
 0
VERTEX
 8
CILINDRO
 10
25.5903
 20
-5.768
 30
0.0643
 70
192
 0
VERTEX
 8
CILINDRO
 10
25.4748
 20
-5.8101
 30
0.0156
 70
192
 0
VERTEX
 8
CILINDRO
 10
25.5962
 20
-5.2119
 30
0.3784
 70
192
 0
VERTEX
 8
CILINDRO
 10
25.5539
 20
-5.2364
 30
0.2559
 70
192
 0
VERTEX
 8
CILINDRO
 10
25.4821
 20
-5.2778
 30
0.1469
 70
192
 0
VERTEX
 8
CILINDRO
 10
25.3873
 20
-5.3326
 30
0.0643
 70
192
 0
VERTEX
 8
CILINDRO
 10
25.2808
 20
-5.394
 30
0.0156
 70
192
 0
VERTEX
 8
CILINDRO
 10
25.0175
 20
-5.018
 30
0.0156
 70
192
 0
VERTEX
 8
CILINDRO
 10
25.1117
 20
-4.939
 30
0.0643
 70
192
 0
VERTEX
 8
CILINDRO
 10
25.1955
 20
-4.8686
 30
0.1469
 70
192
 0
VERTEX
 8
CILINDRO
 10
25.259
 20
-4.8153
 30
0.2559
 70
192
 0
VERTEX
 8
CILINDRO
 10
25.2965
 20
-4.7839
 30
0.3784
 70
192
 0
VERTEX
 8
CILINDRO
 10
24.6929
 20
-4.6934
 30
0.0156
 70
192
 0
VERTEX
 8
CILINDRO
 10
24.7719
 20
-4.5992
 30
0.0643
 70
192
 0
VERTEX
 8
CILINDRO
 10
24.8423
 20
-4.5154
 30
0.1469
 70
192
 0
VERTEX
 8
CILINDRO
 10
24.8956
 20
-4.4519
 30
0.2559
 70
192
 0
VERTEX
 8
CILINDRO
 10
24.927
 20
-4.4144
 30
0.3784
 70
192
 0
VERTEX
 8
CILINDRO
 10
24.3169
 20
-4.4301
 30
0.0156
 70
192
 0
VERTEX
 8
CILINDRO
 10
24.3784
 20
-4.3236
 30
0.0643
 70
192
 0
VERTEX
 8
CILINDRO
 10
24.4331
 20
-4.2288
 30
0.1469
 70
192
 0
VERTEX
 8
CILINDRO
 10
24.4745
 20
-4.1571
 30
0.2559
 70
192
 0
VERTEX
 8
CILINDRO
 10
24.499
 20
-4.1147
 30
0.3784
 70
192
 0
VERTEX
 8
CILINDRO
 10
24.0254
 20
-3.8938
 30
0.3784
 70
192
 0
VERTEX
 8
CILINDRO
 10
24.0087
 20
-3.9398
 30
0.2559
 70
192
 0
VERTEX
 8
CILINDRO
 10
23.9803
 20
-4.0177
 30
0.1469
 70
192
 0
VERTEX
 8
CILINDRO
 10
23.9429
 20
-4.1206
 30
0.0643
 70
192
 0
VERTEX
 8
CILINDRO
 10
23.9008
 20
-4.2361
 30
0.0156
 70
192
 0
VERTEX
 8
CILINDRO
 10
23.4574
 20
-4.1173
 30
0.0156
 70
192
 0
VERTEX
 8
CILINDRO
 10
23.4788
 20
-3.9962
 30
0.0643
 70
192
 0
VERTEX
 8
CILINDRO
 10
23.4978
 20
-3.8884
 30
0.1469
 70
192
 0
VERTEX
 8
CILINDRO
 10
23.5122
 20
-3.8068
 30
0.2559
 70
192
 0
VERTEX
 8
CILINDRO
 10
23.5207
 20
-3.7586
 30
0.3784
 70
192
 0
VERTEX
 8
CILINDRO
 10
23.0001
 20
-4.0773
 30
0.0156
 70
192
 0
VERTEX
 8
CILINDRO
 10
23.0001
 20
-3.9543
 30
0.0643
 70
192
 0
VERTEX
 8
CILINDRO
 10
23.0001
 20
-3.8449
 30
0.1469
 70
192
 0
VERTEX
 8
CILINDRO
 10
23.0001
 20
-3.762
 30
0.2559
 70
192
 0
VERTEX
 8
CILINDRO
 10
23.0001
 20
-3.7131
 30
0.3784
 70
192
 0
VERTEX
 8
CILINDRO
 10
22.4796
 20
-3.7586
 30
0.3784
 70
192
 0
VERTEX
 8
CILINDRO
 10
22.4881
 20
-3.8068
 30
0.2559
 70
192
 0
VERTEX
 8
CILINDRO
 10
22.5025
 20
-3.8884
 30
0.1469
 70
192
 0
VERTEX
 8
CILINDRO
 10
22.5215
 20
-3.9962
 30
0.0643
 70
192
 0
VERTEX
 8
CILINDRO
 10
22.5428
 20
-4.1173
 30
0.0156
 70
192
 0
VERTEX
 8
CILINDRO
 10
21.9749
 20
-3.8938
 30
0.3784
 70
192
 0
VERTEX
 8
CILINDRO
 10
21.9916
 20
-3.9398
 30
0.2559
 70
192
 0
VERTEX
 8
CILINDRO
 10
22.0199
 20
-4.0177
 30
0.1469
 70
192
 0
VERTEX
 8
CILINDRO
 10
22.0574
 20
-4.1206
 30
0.0643
 70
192
 0
VERTEX
 8
CILINDRO
 10
22.0994
 20
-4.2361
 30
0.0156
 70
192
 0
VERTEX
 8
CILINDRO
 10
21.5013
 20
-4.1147
 30
0.3784
 70
192
 0
VERTEX
 8
CILINDRO
 10
21.5257
 20
-4.1571
 30
0.2559
 70
192
 0
VERTEX
 8
CILINDRO
 10
21.5672
 20
-4.2288
 30
0.1469
 70
192
 0
VERTEX
 8
CILINDRO
 10
21.6219
 20
-4.3236
 30
0.0643
 70
192
 0
VERTEX
 8
CILINDRO
 10
21.6834
 20
-4.4301
 30
0.0156
 70
192
 0
VERTEX
 8
CILINDRO
 10
21.0732
 20
-4.4144
 30
0.3784
 70
192
 0
VERTEX
 8
CILINDRO
 10
21.1047
 20
-4.4519
 30
0.2559
 70
192
 0
VERTEX
 8
CILINDRO
 10
21.158
 20
-4.5154
 30
0.1469
 70
192
 0
VERTEX
 8
CILINDRO
 10
21.2283
 20
-4.5992
 30
0.0643
 70
192
 0
VERTEX
 8
CILINDRO
 10
21.3074
 20
-4.6934
 30
0.0156
 70
192
 0
VERTEX
 8
CILINDRO
 10
20.7037
 20
-4.7839
 30
0.3784
 70
192
 0
VERTEX
 8
CILINDRO
 10
20.7412
 20
-4.8153
 30
0.2559
 70
192
 0
VERTEX
 8
CILINDRO
 10
20.8047
 20
-4.8686
 30
0.1469
 70
192
 0
VERTEX
 8
CILINDRO
 10
20.8886
 20
-4.939
 30
0.0643
 70
192
 0
VERTEX
 8
CILINDRO
 10
20.9828
 20
-5.018
 30
0.0156
 70
192
 0
VERTEX
 8
CILINDRO
 10
20.404
 20
-5.2119
 30
0.3784
 70
192
 0
VERTEX
 8
CILINDRO
 10
20.4464
 20
-5.2364
 30
0.2559
 70
192
 0
VERTEX
 8
CILINDRO
 10
20.5182
 20
-5.2778
 30
0.1469
 70
192
 0
VERTEX
 8
CILINDRO
 10
20.613
 20
-5.3326
 30
0.0643
 70
192
 0
VERTEX
 8
CILINDRO
 10
20.7195
 20
-5.394
 30
0.0156
 70
192
 0
VERTEX
 8
CILINDRO
 10
20.1832
 20
-5.6855
 30
0.3784
 70
192
 0
VERTEX
 8
CILINDRO
 10
20.2292
 20
-5.7022
 30
0.2559
 70
192
 0
VERTEX
 8
CILINDRO
 10
20.3071
 20
-5.7306
 30
0.1469
 70
192
 0
VERTEX
 8
CILINDRO
 10
20.4099
 20
-5.768
 30
0.0643
 70
192
 0
VERTEX
 8
CILINDRO
 10
20.5255
 20
-5.8101
 30
0.0156
 70
192
 0
VERTEX
 8
CILINDRO
 10
20.048
 20
-6.1902
 30
0.3784
 70
192
 0
VERTEX
 8
CILINDRO
 10
20.0961
 20
-6.1987
 30
0.2559
 70
192
 0
VERTEX
 8
CILINDRO
 10
20.1778
 20
-6.2131
 30
0.1469
 70
192
 0
VERTEX
 8
CILINDRO
 10
20.2856
 20
-6.2321
 30
0.0643
 70
192
 0
VERTEX
 8
CILINDRO
 10
20.4067
 20
-6.2535
 30
0.0156
 70
192
 0
VERTEX
 8
CILINDRO
 10
20.0024
 20
-6.7108
 30
0.3784
 70
192
 0
VERTEX
 8
CILINDRO
 10
20.0513
 20
-6.7108
 30
0.2559
 70
192
 0
VERTEX
 8
CILINDRO
 10
20.1342
 20
-6.7108
 30
0.1469
 70
192
 0
VERTEX
 8
CILINDRO
 10
20.2437
 20
-6.7108
 30
0.0643
 70
192
 0
VERTEX
 8
CILINDRO
 10
20.3667
 20
-6.7108
 30
0.0156
 70
192
 0
VERTEX
 8
CILINDRO
 10
20.048
 20
-7.2313
 30
0.3784
 70
192
 0
VERTEX
 8
CILINDRO
 10
20.0961
 20
-7.2228
 30
0.2559
 70
192
 0
VERTEX
 8
CILINDRO
 10
20.1778
 20
-7.2084
 30
0.1469
 70
192
 0
VERTEX
 8
CILINDRO
 10
20.2856
 20
-7.1894
 30
0.0643
 70
192
 0
VERTEX
 8
CILINDRO
 10
20.4067
 20
-7.1681
 30
0.0156
 70
192
 0
VERTEX
 8
CILINDRO
 10
20.1832
 20
-7.7361
 30
0.3784
 70
192
 0
VERTEX
 8
CILINDRO
 10
20.2292
 20
-7.7193
 30
0.2559
 70
192
 0
VERTEX
 8
CILINDRO
 10
20.3071
 20
-7.691
 30
0.1469
 70
192
 0
VERTEX
 8
CILINDRO
 10
20.4099
 20
-7.6535
 30
0.0643
 70
192
 0
VERTEX
 8
CILINDRO
 10
20.5255
 20
-7.6115
 30
0.0156
 70
192
 0
VERTEX
 8
CILINDRO
 10
20.404
 20
-8.2096
 30
0.3784
 70
192
 0
VERTEX
 8
CILINDRO
 10
20.4464
 20
-8.1852
 30
0.2559
 70
192
 0
VERTEX
 8
CILINDRO
 10
20.5182
 20
-8.1437
 30
0.1469
 70
192
 0
VERTEX
 8
CILINDRO
 10
20.613
 20
-8.089
 30
0.0643
 70
192
 0
VERTEX
 8
CILINDRO
 10
20.7195
 20
-8.0275
 30
0.0156
 70
192
 0
VERTEX
 8
CILINDRO
 10
21.5013
 20
-9.3069
 30
0.3784
 70
192
 0
VERTEX
 8
CILINDRO
 10
21.5257
 20
-9.2645
 30
0.2559
 70
192
 0
VERTEX
 8
CILINDRO
 10
21.5672
 20
-9.1927
 30
0.1469
 70
192
 0
VERTEX
 8
CILINDRO
 10
21.6219
 20
-9.0979
 30
0.0643
 70
192
 0
VERTEX
 8
CILINDRO
 10
21.6834
 20
-8.9914
 30
0.0156
 70
192
 0
VERTEX
 8
CILINDRO
 10
0
 20
0
 30
0
 70
128
 71
1
 72
72
 73
39
 74
39
 0
VERTEX
 8
CILINDRO
 10
0
 20
0
 30
0
 70
128
 71
40
 72
3
 73
4
 74
42
 0
VERTEX
 8
CILINDRO
 10
0
 20
0
 30
0
 70
128
 71
3
 72
2
 73
4
 74
4
 0
VERTEX
 8
CILINDRO
 10
0
 20
0
 30
0
 70
128
 71
1
 72
39
 73
41
 74
41
 0
VERTEX
 8
CILINDRO
 10
0
 20
0
 30
0
 70
128
 71
42
 72
4
 73
5
 74
44
 0
VERTEX
 8
CILINDRO
 10
0
 20
0
 30
0
 70
128
 71
4
 72
2
 73
5
 74
5
 0
VERTEX
 8
CILINDRO
 10
0
 20
0
 30
0
 70
128
 71
1
 72
41
 73
43
 74
43
 0
VERTEX
 8
CILINDRO
 10
0
 20
0
 30
0
 70
128
 71
44
 72
5
 73
6
 74
46
 0
VERTEX
 8
CILINDRO
 10
0
 20
0
 30
0
 70
128
 71
5
 72
2
 73
6
 74
6
 0
VERTEX
 8
CILINDRO
 10
0
 20
0
 30
0
 70
128
 71
1
 72
43
 73
45
 74
45
 0
VERTEX
 8
CILINDRO
 10
0
 20
0
 30
0
 70
128
 71
46
 72
6
 73
7
 74
48
 0
VERTEX
 8
CILINDRO
 10
0
 20
0
 30
0
 70
128
 71
6
 72
2
 73
7
 74
7
 0
VERTEX
 8
CILINDRO
 10
0
 20
0
 30
0
 70
128
 71
1
 72
45
 73
47
 74
47
 0
VERTEX
 8
CILINDRO
 10
0
 20
0
 30
0
 70
128
 71
48
 72
7
 73
8
 74
50
 0
VERTEX
 8
CILINDRO
 10
0
 20
0
 30
0
 70
128
 71
7
 72
2
 73
8
 74
8
 0
VERTEX
 8
CILINDRO
 10
0
 20
0
 30
0
 70
128
 71
1
 72
47
 73
49
 74
49
 0
VERTEX
 8
CILINDRO
 10
0
 20
0
 30
0
 70
128
 71
50
 72
8
 73
9
 74
51
 0
VERTEX
 8
CILINDRO
 10
0
 20
0
 30
0
 70
128
 71
8
 72
2
 73
9
 74
9
 0
VERTEX
 8
CILINDRO
 10
0
 20
0
 30
0
 70
128
 71
1
 72
49
 73
52
 74
52
 0
VERTEX
 8
CILINDRO
 10
0
 20
0
 30
0
 70
128
 71
51
 72
9
 73
10
 74
54
 0
VERTEX
 8
CILINDRO
 10
0
 20
0
 30
0
 70
128
 71
9
 72
2
 73
10
 74
10
 0
VERTEX
 8
CILINDRO
 10
0
 20
0
 30
0
 70
128
 71
1
 72
52
 73
53
 74
53
 0
VERTEX
 8
CILINDRO
 10
0
 20
0
 30
0
 70
128
 71
54
 72
10
 73
11
 74
55
 0
VERTEX
 8
CILINDRO
 10
0
 20
0
 30
0
 70
128
 71
10
 72
2
 73
11
 74
11
 0
VERTEX
 8
CILINDRO
 10
0
 20
0
 30
0
 70
128
 71
1
 72
53
 73
56
 74
56
 0
VERTEX
 8
CILINDRO
 10
0
 20
0
 30
0
 70
128
 71
55
 72
11
 73
12
 74
58
 0
VERTEX
 8
CILINDRO
 10
0
 20
0
 30
0
 70
128
 71
11
 72
2
 73
12
 74
12
 0
VERTEX
 8
CILINDRO
 10
0
 20
0
 30
0
 70
128
 71
1
 72
56
 73
57
 74
57
 0
VERTEX
 8
CILINDRO
 10
0
 20
0
 30
0
 70
128
 71
58
 72
12
 73
13
 74
59
 0
VERTEX
 8
CILINDRO
 10
0
 20
0
 30
0
 70
128
 71
12
 72
2
 73
13
 74
13
 0
VERTEX
 8
CILINDRO
 10
0
 20
0
 30
0
 70
128
 71
1
 72
57
 73
60
 74
60
 0
VERTEX
 8
CILINDRO
 10
0
 20
0
 30
0
 70
128
 71
59
 72
13
 73
14
 74
61
 0
VERTEX
 8
CILINDRO
 10
0
 20
0
 30
0
 70
128
 71
13
 72
2
 73
14
 74
14
 0
VERTEX
 8
CILINDRO
 10
0
 20
0
 30
0
 70
128
 71
1
 72
60
 73
62
 74
62
 0
VERTEX
 8
CILINDRO
 10
0
 20
0
 30
0
 70
128
 71
61
 72
14
 73
15
 74
65
 0
VERTEX
 8
CILINDRO
 10
0
 20
0
 30
0
 70
128
 71
14
 72
2
 73
15
 74
15
 0
VERTEX
 8
CILINDRO
 10
0
 20
0
 30
0
 70
128
 71
1
 72
62
 73
64
 74
64
 0
VERTEX
 8
CILINDRO
 10
0
 20
0
 30
0
 70
128
 71
65
 72
15
 73
16
 74
68
 0
VERTEX
 8
CILINDRO
 10
0
 20
0
 30
0
 70
128
 71
15
 72
2
 73
16
 74
16
 0
VERTEX
 8
CILINDRO
 10
0
 20
0
 30
0
 70
128
 71
1
 72
64
 73
63
 74
63
 0
VERTEX
 8
CILINDRO
 10
0
 20
0
 30
0
 70
128
 71
68
 72
16
 73
17
 74
67
 0
VERTEX
 8
CILINDRO
 10
0
 20
0
 30
0
 70
128
 71
16
 72
2
 73
17
 74
17
 0
VERTEX
 8
CILINDRO
 10
0
 20
0
 30
0
 70
128
 71
1
 72
63
 73
66
 74
66
 0
VERTEX
 8
CILINDRO
 10
0
 20
0
 30
0
 70
128
 71
67
 72
17
 73
18
 74
69
 0
VERTEX
 8
CILINDRO
 10
0
 20
0
 30
0
 70
128
 71
17
 72
2
 73
18
 74
18
 0
VERTEX
 8
CILINDRO
 10
0
 20
0
 30
0
 70
128
 71
1
 72
66
 73
71
 74
71
 0
VERTEX
 8
CILINDRO
 10
0
 20
0
 30
0
 70
128
 71
69
 72
18
 73
19
 74
74
 0
VERTEX
 8
CILINDRO
 10
0
 20
0
 30
0
 70
128
 71
18
 72
2
 73
19
 74
19
 0
VERTEX
 8
CILINDRO
 10
0
 20
0
 30
0
 70
128
 71
1
 72
71
 73
75
 74
75
 0
VERTEX
 8
CILINDRO
 10
0
 20
0
 30
0
 70
128
 71
74
 72
19
 73
20
 74
78
 0
VERTEX
 8
CILINDRO
 10
0
 20
0
 30
0
 70
128
 71
19
 72
2
 73
20
 74
20
 0
VERTEX
 8
CILINDRO
 10
0
 20
0
 30
0
 70
128
 71
1
 72
75
 73
73
 74
73
 0
VERTEX
 8
CILINDRO
 10
0
 20
0
 30
0
 70
128
 71
78
 72
20
 73
21
 74
76
 0
VERTEX
 8
CILINDRO
 10
0
 20
0
 30
0
 70
128
 71
20
 72
2
 73
21
 74
21
 0
VERTEX
 8
CILINDRO
 10
0
 20
0
 30
0
 70
128
 71
1
 72
73
 73
77
 74
77
 0
VERTEX
 8
CILINDRO
 10
0
 20
0
 30
0
 70
128
 71
76
 72
21
 73
22
 74
79
 0
VERTEX
 8
CILINDRO
 10
0
 20
0
 30
0
 70
128
 71
21
 72
2
 73
22
 74
22
 0
VERTEX
 8
CILINDRO
 10
0
 20
0
 30
0
 70
128
 71
1
 72
77
 73
80
 74
80
 0
VERTEX
 8
CILINDRO
 10
0
 20
0
 30
0
 70
128
 71
79
 72
22
 73
23
 74
81
 0
VERTEX
 8
CILINDRO
 10
0
 20
0
 30
0
 70
128
 71
22
 72
2
 73
23
 74
23
 0
VERTEX
 8
CILINDRO
 10
0
 20
0
 30
0
 70
128
 71
1
 72
80
 73
82
 74
82
 0
VERTEX
 8
CILINDRO
 10
0
 20
0
 30
0
 70
128
 71
81
 72
23
 73
24
 74
83
 0
VERTEX
 8
CILINDRO
 10
0
 20
0
 30
0
 70
128
 71
23
 72
2
 73
24
 74
24
 0
VERTEX
 8
CILINDRO
 10
0
 20
0
 30
0
 70
128
 71
1
 72
82
 73
84
 74
84
 0
VERTEX
 8
CILINDRO
 10
0
 20
0
 30
0
 70
128
 71
83
 72
24
 73
25
 74
85
 0
VERTEX
 8
CILINDRO
 10
0
 20
0
 30
0
 70
128
 71
24
 72
2
 73
25
 74
25
 0
VERTEX
 8
CILINDRO
 10
0
 20
0
 30
0
 70
128
 71
1
 72
84
 73
86
 74
86
 0
VERTEX
 8
CILINDRO
 10
0
 20
0
 30
0
 70
128
 71
85
 72
25
 73
26
 74
87
 0
VERTEX
 8
CILINDRO
 10
0
 20
0
 30
0
 70
128
 71
25
 72
2
 73
26
 74
26
 0
VERTEX
 8
CILINDRO
 10
0
 20
0
 30
0
 70
128
 71
1
 72
86
 73
88
 74
88
 0
VERTEX
 8
CILINDRO
 10
0
 20
0
 30
0
 70
128
 71
87
 72
26
 73
27
 74
89
 0
VERTEX
 8
CILINDRO
 10
0
 20
0
 30
0
 70
128
 71
26
 72
2
 73
27
 74
27
 0
VERTEX
 8
CILINDRO
 10
0
 20
0
 30
0
 70
128
 71
1
 72
88
 73
90
 74
90
 0
VERTEX
 8
CILINDRO
 10
0
 20
0
 30
0
 70
128
 71
89
 72
27
 73
28
 74
91
 0
VERTEX
 8
CILINDRO
 10
0
 20
0
 30
0
 70
128
 71
27
 72
2
 73
28
 74
28
 0
VERTEX
 8
CILINDRO
 10
0
 20
0
 30
0
 70
128
 71
1
 72
90
 73
92
 74
92
 0
VERTEX
 8
CILINDRO
 10
0
 20
0
 30
0
 70
128
 71
91
 72
28
 73
29
 74
93
 0
VERTEX
 8
CILINDRO
 10
0
 20
0
 30
0
 70
128
 71
28
 72
2
 73
29
 74
29
 0
VERTEX
 8
CILINDRO
 10
0
 20
0
 30
0
 70
128
 71
1
 72
92
 73
94
 74
94
 0
VERTEX
 8
CILINDRO
 10
0
 20
0
 30
0
 70
128
 71
93
 72
29
 73
30
 74
95
 0
VERTEX
 8
CILINDRO
 10
0
 20
0
 30
0
 70
128
 71
29
 72
2
 73
30
 74
30
 0
VERTEX
 8
CILINDRO
 10
0
 20
0
 30
0
 70
128
 71
1
 72
94
 73
96
 74
96
 0
VERTEX
 8
CILINDRO
 10
0
 20
0
 30
0
 70
128
 71
95
 72
30
 73
31
 74
97
 0
VERTEX
 8
CILINDRO
 10
0
 20
0
 30
0
 70
128
 71
30
 72
2
 73
31
 74
31
 0
VERTEX
 8
CILINDRO
 10
0
 20
0
 30
0
 70
128
 71
1
 72
96
 73
98
 74
98
 0
VERTEX
 8
CILINDRO
 10
0
 20
0
 30
0
 70
128
 71
97
 72
31
 73
32
 74
99
 0
VERTEX
 8
CILINDRO
 10
0
 20
0
 30
0
 70
128
 71
31
 72
2
 73
32
 74
32
 0
VERTEX
 8
CILINDRO
 10
0
 20
0
 30
0
 70
128
 71
1
 72
98
 73
100
 74
100
 0
VERTEX
 8
CILINDRO
 10
0
 20
0
 30
0
 70
128
 71
99
 72
32
 73
33
 74
101
 0
VERTEX
 8
CILINDRO
 10
0
 20
0
 30
0
 70
128
 71
32
 72
2
 73
33
 74
33
 0
VERTEX
 8
CILINDRO
 10
0
 20
0
 30
0
 70
128
 71
1
 72
100
 73
102
 74
102
 0
VERTEX
 8
CILINDRO
 10
0
 20
0
 30
0
 70
128
 71
101
 72
33
 73
34
 74
103
 0
VERTEX
 8
CILINDRO
 10
0
 20
0
 30
0
 70
128
 71
33
 72
2
 73
34
 74
34
 0
VERTEX
 8
CILINDRO
 10
0
 20
0
 30
0
 70
128
 71
1
 72
102
 73
104
 74
104
 0
VERTEX
 8
CILINDRO
 10
0
 20
0
 30
0
 70
128
 71
103
 72
34
 73
35
 74
105
 0
VERTEX
 8
CILINDRO
 10
0
 20
0
 30
0
 70
128
 71
34
 72
2
 73
35
 74
35
 0
VERTEX
 8
CILINDRO
 10
0
 20
0
 30
0
 70
128
 71
1
 72
104
 73
106
 74
106
 0
VERTEX
 8
CILINDRO
 10
0
 20
0
 30
0
 70
128
 71
105
 72
35
 73
36
 74
107
 0
VERTEX
 8
CILINDRO
 10
0
 20
0
 30
0
 70
128
 71
35
 72
2
 73
36
 74
36
 0
VERTEX
 8
CILINDRO
 10
0
 20
0
 30
0
 70
128
 71
1
 72
106
 73
108
 74
108
 0
VERTEX
 8
CILINDRO
 10
0
 20
0
 30
0
 70
128
 71
107
 72
36
 73
37
 74
109
 0
VERTEX
 8
CILINDRO
 10
0
 20
0
 30
0
 70
128
 71
36
 72
2
 73
37
 74
37
 0
VERTEX
 8
CILINDRO
 10
0
 20
0
 30
0
 70
128
 71
1
 72
108
 73
110
 74
110
 0
VERTEX
 8
CILINDRO
 10
0
 20
0
 30
0
 70
128
 71
109
 72
37
 73
38
 74
70
 0
VERTEX
 8
CILINDRO
 10
0
 20
0
 30
0
 70
128
 71
37
 72
2
 73
38
 74
38
 0
VERTEX
 8
CILINDRO
 10
0
 20
0
 30
0
 70
128
 71
1
 72
110
 73
72
 74
72
 0
VERTEX
 8
CILINDRO
 10
0
 20
0
 30
0
 70
128
 71
70
 72
38
 73
3
 74
40
 0
VERTEX
 8
CILINDRO
 10
0
 20
0
 30
0
 70
128
 71
38
 72
2
 73
3
 74
3
 0
VERTEX
 8
CILINDRO
 10
0
 20
0
 30
0
 70
128
 71
42
 72
130
 73
120
 74
40
 0
VERTEX
 8
CILINDRO
 10
0
 20
0
 30
0
 70
128
 71
44
 72
140
 73
130
 74
42
 0
VERTEX
 8
CILINDRO
 10
0
 20
0
 30
0
 70
128
 71
46
 72
145
 73
140
 74
44
 0
VERTEX
 8
CILINDRO
 10
0
 20
0
 30
0
 70
128
 71
48
 72
150
 73
145
 74
46
 0
VERTEX
 8
CILINDRO
 10
0
 20
0
 30
0
 70
128
 71
50
 72
160
 73
150
 74
48
 0
VERTEX
 8
CILINDRO
 10
0
 20
0
 30
0
 70
128
 71
51
 72
165
 73
160
 74
50
 0
VERTEX
 8
CILINDRO
 10
0
 20
0
 30
0
 70
128
 71
54
 72
166
 73
165
 74
51
 0
VERTEX
 8
CILINDRO
 10
0
 20
0
 30
0
 70
128
 71
55
 72
175
 73
166
 74
54
 0
VERTEX
 8
CILINDRO
 10
0
 20
0
 30
0
 70
128
 71
58
 72
176
 73
175
 74
55
 0
VERTEX
 8
CILINDRO
 10
0
 20
0
 30
0
 70
128
 71
59
 72
185
 73
176
 74
58
 0
VERTEX
 8
CILINDRO
 10
0
 20
0
 30
0
 70
128
 71
61
 72
186
 73
185
 74
59
 0
VERTEX
 8
CILINDRO
 10
0
 20
0
 30
0
 70
128
 71
65
 72
191
 73
186
 74
61
 0
VERTEX
 8
CILINDRO
 10
0
 20
0
 30
0
 70
128
 71
68
 72
200
 73
191
 74
65
 0
VERTEX
 8
CILINDRO
 10
0
 20
0
 30
0
 70
128
 71
67
 72
205
 73
200
 74
68
 0
VERTEX
 8
CILINDRO
 10
0
 20
0
 30
0
 70
128
 71
69
 72
210
 73
205
 74
67
 0
VERTEX
 8
CILINDRO
 10
0
 20
0
 30
0
 70
128
 71
74
 72
211
 73
210
 74
69
 0
VERTEX
 8
CILINDRO
 10
0
 20
0
 30
0
 70
128
 71
78
 72
220
 73
211
 74
74
 0
VERTEX
 8
CILINDRO
 10
0
 20
0
 30
0
 70
128
 71
76
 72
225
 73
220
 74
78
 0
VERTEX
 8
CILINDRO
 10
0
 20
0
 30
0
 70
128
 71
79
 72
226
 73
225
 74
76
 0
VERTEX
 8
CILINDRO
 10
0
 20
0
 30
0
 70
128
 71
81
 72
231
 73
226
 74
79
 0
VERTEX
 8
CILINDRO
 10
0
 20
0
 30
0
 70
128
 71
83
 72
236
 73
231
 74
81
 0
VERTEX
 8
CILINDRO
 10
0
 20
0
 30
0
 70
128
 71
85
 72
241
 73
236
 74
83
 0
VERTEX
 8
CILINDRO
 10
0
 20
0
 30
0
 70
128
 71
87
 72
246
 73
241
 74
85
 0
VERTEX
 8
CILINDRO
 10
0
 20
0
 30
0
 70
128
 71
89
 72
251
 73
246
 74
87
 0
VERTEX
 8
CILINDRO
 10
0
 20
0
 30
0
 70
128
 71
91
 72
256
 73
251
 74
89
 0
VERTEX
 8
CILINDRO
 10
0
 20
0
 30
0
 70
128
 71
93
 72
261
 73
256
 74
91
 0
VERTEX
 8
CILINDRO
 10
0
 20
0
 30
0
 70
128
 71
95
 72
266
 73
261
 74
93
 0
VERTEX
 8
CILINDRO
 10
0
 20
0
 30
0
 70
128
 71
97
 72
271
 73
266
 74
95
 0
VERTEX
 8
CILINDRO
 10
0
 20
0
 30
0
 70
128
 71
99
 72
276
 73
271
 74
97
 0
VERTEX
 8
CILINDRO
 10
0
 20
0
 30
0
 70
128
 71
101
 72
281
 73
276
 74
99
 0
VERTEX
 8
CILINDRO
 10
0
 20
0
 30
0
 70
128
 71
103
 72
121
 73
281
 74
101
 0
VERTEX
 8
CILINDRO
 10
0
 20
0
 30
0
 70
128
 71
105
 72
131
 73
121
 74
103
 0
VERTEX
 8
CILINDRO
 10
0
 20
0
 30
0
 70
128
 71
107
 72
286
 73
131
 74
105
 0
VERTEX
 8
CILINDRO
 10
0
 20
0
 30
0
 70
128
 71
109
 72
111
 73
286
 74
107
 0
VERTEX
 8
CILINDRO
 10
0
 20
0
 30
0
 70
128
 71
70
 72
151
 73
111
 74
109
 0
VERTEX
 8
CILINDRO
 10
0
 20
0
 30
0
 70
128
 71
40
 72
120
 73
151
 74
70
 0
VERTEX
 8
CILINDRO
 10
0
 20
0
 30
0
 70
128
 71
130
 72
129
 73
119
 74
120
 0
VERTEX
 8
CILINDRO
 10
0
 20
0
 30
0
 70
128
 71
129
 72
128
 73
118
 74
119
 0
VERTEX
 8
CILINDRO
 10
0
 20
0
 30
0
 70
128
 71
128
 72
127
 73
117
 74
118
 0
VERTEX
 8
CILINDRO
 10
0
 20
0
 30
0
 70
128
 71
127
 72
126
 73
116
 74
117
 0
VERTEX
 8
CILINDRO
 10
0
 20
0
 30
0
 70
128
 71
126
 72
39
 73
72
 74
116
 0
VERTEX
 8
CILINDRO
 10
0
 20
0
 30
0
 70
128
 71
140
 72
139
 73
129
 74
130
 0
VERTEX
 8
CILINDRO
 10
0
 20
0
 30
0
 70
128
 71
139
 72
138
 73
128
 74
129
 0
VERTEX
 8
CILINDRO
 10
0
 20
0
 30
0
 70
128
 71
138
 72
137
 73
127
 74
128
 0
VERTEX
 8
CILINDRO
 10
0
 20
0
 30
0
 70
128
 71
137
 72
136
 73
126
 74
127
 0
VERTEX
 8
CILINDRO
 10
0
 20
0
 30
0
 70
128
 71
136
 72
41
 73
39
 74
126
 0
VERTEX
 8
CILINDRO
 10
0
 20
0
 30
0
 70
128
 71
145
 72
144
 73
139
 74
140
 0
VERTEX
 8
CILINDRO
 10
0
 20
0
 30
0
 70
128
 71
144
 72
143
 73
138
 74
139
 0
VERTEX
 8
CILINDRO
 10
0
 20
0
 30
0
 70
128
 71
143
 72
142
 73
137
 74
138
 0
VERTEX
 8
CILINDRO
 10
0
 20
0
 30
0
 70
128
 71
142
 72
141
 73
136
 74
137
 0
VERTEX
 8
CILINDRO
 10
0
 20
0
 30
0
 70
128
 71
141
 72
43
 73
41
 74
136
 0
VERTEX
 8
CILINDRO
 10
0
 20
0
 30
0
 70
128
 71
150
 72
149
 73
144
 74
145
 0
VERTEX
 8
CILINDRO
 10
0
 20
0
 30
0
 70
128
 71
149
 72
148
 73
143
 74
144
 0
VERTEX
 8
CILINDRO
 10
0
 20
0
 30
0
 70
128
 71
148
 72
147
 73
142
 74
143
 0
VERTEX
 8
CILINDRO
 10
0
 20
0
 30
0
 70
128
 71
147
 72
146
 73
141
 74
142
 0
VERTEX
 8
CILINDRO
 10
0
 20
0
 30
0
 70
128
 71
146
 72
45
 73
43
 74
141
 0
VERTEX
 8
CILINDRO
 10
0
 20
0
 30
0
 70
128
 71
160
 72
159
 73
149
 74
150
 0
VERTEX
 8
CILINDRO
 10
0
 20
0
 30
0
 70
128
 71
159
 72
158
 73
148
 74
149
 0
VERTEX
 8
CILINDRO
 10
0
 20
0
 30
0
 70
128
 71
158
 72
157
 73
147
 74
148
 0
VERTEX
 8
CILINDRO
 10
0
 20
0
 30
0
 70
128
 71
157
 72
156
 73
146
 74
147
 0
VERTEX
 8
CILINDRO
 10
0
 20
0
 30
0
 70
128
 71
156
 72
47
 73
45
 74
146
 0
VERTEX
 8
CILINDRO
 10
0
 20
0
 30
0
 70
128
 71
165
 72
164
 73
159
 74
160
 0
VERTEX
 8
CILINDRO
 10
0
 20
0
 30
0
 70
128
 71
164
 72
163
 73
158
 74
159
 0
VERTEX
 8
CILINDRO
 10
0
 20
0
 30
0
 70
128
 71
163
 72
162
 73
157
 74
158
 0
VERTEX
 8
CILINDRO
 10
0
 20
0
 30
0
 70
128
 71
162
 72
161
 73
156
 74
157
 0
VERTEX
 8
CILINDRO
 10
0
 20
0
 30
0
 70
128
 71
161
 72
49
 73
47
 74
156
 0
VERTEX
 8
CILINDRO
 10
0
 20
0
 30
0
 70
128
 71
166
 72
167
 73
164
 74
165
 0
VERTEX
 8
CILINDRO
 10
0
 20
0
 30
0
 70
128
 71
167
 72
168
 73
163
 74
164
 0
VERTEX
 8
CILINDRO
 10
0
 20
0
 30
0
 70
128
 71
168
 72
169
 73
162
 74
163
 0
VERTEX
 8
CILINDRO
 10
0
 20
0
 30
0
 70
128
 71
169
 72
170
 73
161
 74
162
 0
VERTEX
 8
CILINDRO
 10
0
 20
0
 30
0
 70
128
 71
170
 72
52
 73
49
 74
161
 0
VERTEX
 8
CILINDRO
 10
0
 20
0
 30
0
 70
128
 71
175
 72
174
 73
167
 74
166
 0
VERTEX
 8
CILINDRO
 10
0
 20
0
 30
0
 70
128
 71
174
 72
173
 73
168
 74
167
 0
VERTEX
 8
CILINDRO
 10
0
 20
0
 30
0
 70
128
 71
173
 72
172
 73
169
 74
168
 0
VERTEX
 8
CILINDRO
 10
0
 20
0
 30
0
 70
128
 71
172
 72
171
 73
170
 74
169
 0
VERTEX
 8
CILINDRO
 10
0
 20
0
 30
0
 70
128
 71
171
 72
53
 73
52
 74
170
 0
VERTEX
 8
CILINDRO
 10
0
 20
0
 30
0
 70
128
 71
176
 72
177
 73
174
 74
175
 0
VERTEX
 8
CILINDRO
 10
0
 20
0
 30
0
 70
128
 71
177
 72
178
 73
173
 74
174
 0
VERTEX
 8
CILINDRO
 10
0
 20
0
 30
0
 70
128
 71
178
 72
179
 73
172
 74
173
 0
VERTEX
 8
CILINDRO
 10
0
 20
0
 30
0
 70
128
 71
179
 72
180
 73
171
 74
172
 0
VERTEX
 8
CILINDRO
 10
0
 20
0
 30
0
 70
128
 71
180
 72
56
 73
53
 74
171
 0
VERTEX
 8
CILINDRO
 10
0
 20
0
 30
0
 70
128
 71
185
 72
184
 73
177
 74
176
 0
VERTEX
 8
CILINDRO
 10
0
 20
0
 30
0
 70
128
 71
184
 72
183
 73
178
 74
177
 0
VERTEX
 8
CILINDRO
 10
0
 20
0
 30
0
 70
128
 71
183
 72
182
 73
179
 74
178
 0
VERTEX
 8
CILINDRO
 10
0
 20
0
 30
0
 70
128
 71
182
 72
181
 73
180
 74
179
 0
VERTEX
 8
CILINDRO
 10
0
 20
0
 30
0
 70
128
 71
181
 72
57
 73
56
 74
180
 0
VERTEX
 8
CILINDRO
 10
0
 20
0
 30
0
 70
128
 71
186
 72
187
 73
184
 74
185
 0
VERTEX
 8
CILINDRO
 10
0
 20
0
 30
0
 70
128
 71
187
 72
188
 73
183
 74
184
 0
VERTEX
 8
CILINDRO
 10
0
 20
0
 30
0
 70
128
 71
188
 72
189
 73
182
 74
183
 0
VERTEX
 8
CILINDRO
 10
0
 20
0
 30
0
 70
128
 71
189
 72
190
 73
181
 74
182
 0
VERTEX
 8
CILINDRO
 10
0
 20
0
 30
0
 70
128
 71
190
 72
60
 73
57
 74
181
 0
VERTEX
 8
CILINDRO
 10
0
 20
0
 30
0
 70
128
 71
191
 72
192
 73
187
 74
186
 0
VERTEX
 8
CILINDRO
 10
0
 20
0
 30
0
 70
128
 71
192
 72
193
 73
188
 74
187
 0
VERTEX
 8
CILINDRO
 10
0
 20
0
 30
0
 70
128
 71
193
 72
194
 73
189
 74
188
 0
VERTEX
 8
CILINDRO
 10
0
 20
0
 30
0
 70
128
 71
194
 72
195
 73
190
 74
189
 0
VERTEX
 8
CILINDRO
 10
0
 20
0
 30
0
 70
128
 71
195
 72
62
 73
60
 74
190
 0
VERTEX
 8
CILINDRO
 10
0
 20
0
 30
0
 70
128
 71
200
 72
199
 73
192
 74
191
 0
VERTEX
 8
CILINDRO
 10
0
 20
0
 30
0
 70
128
 71
199
 72
198
 73
193
 74
192
 0
VERTEX
 8
CILINDRO
 10
0
 20
0
 30
0
 70
128
 71
198
 72
197
 73
194
 74
193
 0
VERTEX
 8
CILINDRO
 10
0
 20
0
 30
0
 70
128
 71
197
 72
196
 73
195
 74
194
 0
VERTEX
 8
CILINDRO
 10
0
 20
0
 30
0
 70
128
 71
196
 72
64
 73
62
 74
195
 0
VERTEX
 8
CILINDRO
 10
0
 20
0
 30
0
 70
128
 71
205
 72
204
 73
199
 74
200
 0
VERTEX
 8
CILINDRO
 10
0
 20
0
 30
0
 70
128
 71
204
 72
203
 73
198
 74
199
 0
VERTEX
 8
CILINDRO
 10
0
 20
0
 30
0
 70
128
 71
203
 72
202
 73
197
 74
198
 0
VERTEX
 8
CILINDRO
 10
0
 20
0
 30
0
 70
128
 71
202
 72
201
 73
196
 74
197
 0
VERTEX
 8
CILINDRO
 10
0
 20
0
 30
0
 70
128
 71
201
 72
63
 73
64
 74
196
 0
VERTEX
 8
CILINDRO
 10
0
 20
0
 30
0
 70
128
 71
210
 72
209
 73
204
 74
205
 0
VERTEX
 8
CILINDRO
 10
0
 20
0
 30
0
 70
128
 71
209
 72
208
 73
203
 74
204
 0
VERTEX
 8
CILINDRO
 10
0
 20
0
 30
0
 70
128
 71
208
 72
207
 73
202
 74
203
 0
VERTEX
 8
CILINDRO
 10
0
 20
0
 30
0
 70
128
 71
207
 72
206
 73
201
 74
202
 0
VERTEX
 8
CILINDRO
 10
0
 20
0
 30
0
 70
128
 71
206
 72
66
 73
63
 74
201
 0
VERTEX
 8
CILINDRO
 10
0
 20
0
 30
0
 70
128
 71
211
 72
212
 73
209
 74
210
 0
VERTEX
 8
CILINDRO
 10
0
 20
0
 30
0
 70
128
 71
212
 72
213
 73
208
 74
209
 0
VERTEX
 8
CILINDRO
 10
0
 20
0
 30
0
 70
128
 71
213
 72
214
 73
207
 74
208
 0
VERTEX
 8
CILINDRO
 10
0
 20
0
 30
0
 70
128
 71
214
 72
215
 73
206
 74
207
 0
VERTEX
 8
CILINDRO
 10
0
 20
0
 30
0
 70
128
 71
215
 72
71
 73
66
 74
206
 0
VERTEX
 8
CILINDRO
 10
0
 20
0
 30
0
 70
128
 71
220
 72
219
 73
212
 74
211
 0
VERTEX
 8
CILINDRO
 10
0
 20
0
 30
0
 70
128
 71
219
 72
218
 73
213
 74
212
 0
VERTEX
 8
CILINDRO
 10
0
 20
0
 30
0
 70
128
 71
218
 72
217
 73
214
 74
213
 0
VERTEX
 8
CILINDRO
 10
0
 20
0
 30
0
 70
128
 71
217
 72
216
 73
215
 74
214
 0
VERTEX
 8
CILINDRO
 10
0
 20
0
 30
0
 70
128
 71
216
 72
75
 73
71
 74
215
 0
VERTEX
 8
CILINDRO
 10
0
 20
0
 30
0
 70
128
 71
225
 72
224
 73
219
 74
220
 0
VERTEX
 8
CILINDRO
 10
0
 20
0
 30
0
 70
128
 71
224
 72
223
 73
218
 74
219
 0
VERTEX
 8
CILINDRO
 10
0
 20
0
 30
0
 70
128
 71
223
 72
222
 73
217
 74
218
 0
VERTEX
 8
CILINDRO
 10
0
 20
0
 30
0
 70
128
 71
222
 72
221
 73
216
 74
217
 0
VERTEX
 8
CILINDRO
 10
0
 20
0
 30
0
 70
128
 71
221
 72
73
 73
75
 74
216
 0
VERTEX
 8
CILINDRO
 10
0
 20
0
 30
0
 70
128
 71
226
 72
227
 73
224
 74
225
 0
VERTEX
 8
CILINDRO
 10
0
 20
0
 30
0
 70
128
 71
227
 72
228
 73
223
 74
224
 0
VERTEX
 8
CILINDRO
 10
0
 20
0
 30
0
 70
128
 71
228
 72
229
 73
222
 74
223
 0
VERTEX
 8
CILINDRO
 10
0
 20
0
 30
0
 70
128
 71
229
 72
230
 73
221
 74
222
 0
VERTEX
 8
CILINDRO
 10
0
 20
0
 30
0
 70
128
 71
230
 72
77
 73
73
 74
221
 0
VERTEX
 8
CILINDRO
 10
0
 20
0
 30
0
 70
128
 71
231
 72
232
 73
227
 74
226
 0
VERTEX
 8
CILINDRO
 10
0
 20
0
 30
0
 70
128
 71
232
 72
233
 73
228
 74
227
 0
VERTEX
 8
CILINDRO
 10
0
 20
0
 30
0
 70
128
 71
233
 72
234
 73
229
 74
228
 0
VERTEX
 8
CILINDRO
 10
0
 20
0
 30
0
 70
128
 71
234
 72
235
 73
230
 74
229
 0
VERTEX
 8
CILINDRO
 10
0
 20
0
 30
0
 70
128
 71
235
 72
80
 73
77
 74
230
 0
VERTEX
 8
CILINDRO
 10
0
 20
0
 30
0
 70
128
 71
236
 72
237
 73
232
 74
231
 0
VERTEX
 8
CILINDRO
 10
0
 20
0
 30
0
 70
128
 71
237
 72
238
 73
233
 74
232
 0
VERTEX
 8
CILINDRO
 10
0
 20
0
 30
0
 70
128
 71
238
 72
239
 73
234
 74
233
 0
VERTEX
 8
CILINDRO
 10
0
 20
0
 30
0
 70
128
 71
239
 72
240
 73
235
 74
234
 0
VERTEX
 8
CILINDRO
 10
0
 20
0
 30
0
 70
128
 71
240
 72
82
 73
80
 74
235
 0
VERTEX
 8
CILINDRO
 10
0
 20
0
 30
0
 70
128
 71
241
 72
242
 73
237
 74
236
 0
VERTEX
 8
CILINDRO
 10
0
 20
0
 30
0
 70
128
 71
242
 72
243
 73
238
 74
237
 0
VERTEX
 8
CILINDRO
 10
0
 20
0
 30
0
 70
128
 71
243
 72
244
 73
239
 74
238
 0
VERTEX
 8
CILINDRO
 10
0
 20
0
 30
0
 70
128
 71
244
 72
245
 73
240
 74
239
 0
VERTEX
 8
CILINDRO
 10
0
 20
0
 30
0
 70
128
 71
245
 72
84
 73
82
 74
240
 0
VERTEX
 8
CILINDRO
 10
0
 20
0
 30
0
 70
128
 71
246
 72
247
 73
242
 74
241
 0
VERTEX
 8
CILINDRO
 10
0
 20
0
 30
0
 70
128
 71
247
 72
248
 73
243
 74
242
 0
VERTEX
 8
CILINDRO
 10
0
 20
0
 30
0
 70
128
 71
248
 72
249
 73
244
 74
243
 0
VERTEX
 8
CILINDRO
 10
0
 20
0
 30
0
 70
128
 71
249
 72
250
 73
245
 74
244
 0
VERTEX
 8
CILINDRO
 10
0
 20
0
 30
0
 70
128
 71
250
 72
86
 73
84
 74
245
 0
VERTEX
 8
CILINDRO
 10
0
 20
0
 30
0
 70
128
 71
251
 72
252
 73
247
 74
246
 0
VERTEX
 8
CILINDRO
 10
0
 20
0
 30
0
 70
128
 71
252
 72
253
 73
248
 74
247
 0
VERTEX
 8
CILINDRO
 10
0
 20
0
 30
0
 70
128
 71
253
 72
254
 73
249
 74
248
 0
VERTEX
 8
CILINDRO
 10
0
 20
0
 30
0
 70
128
 71
254
 72
255
 73
250
 74
249
 0
VERTEX
 8
CILINDRO
 10
0
 20
0
 30
0
 70
128
 71
255
 72
88
 73
86
 74
250
 0
VERTEX
 8
CILINDRO
 10
0
 20
0
 30
0
 70
128
 71
256
 72
257
 73
252
 74
251
 0
VERTEX
 8
CILINDRO
 10
0
 20
0
 30
0
 70
128
 71
257
 72
258
 73
253
 74
252
 0
VERTEX
 8
CILINDRO
 10
0
 20
0
 30
0
 70
128
 71
258
 72
259
 73
254
 74
253
 0
VERTEX
 8
CILINDRO
 10
0
 20
0
 30
0
 70
128
 71
259
 72
260
 73
255
 74
254
 0
VERTEX
 8
CILINDRO
 10
0
 20
0
 30
0
 70
128
 71
260
 72
90
 73
88
 74
255
 0
VERTEX
 8
CILINDRO
 10
0
 20
0
 30
0
 70
128
 71
261
 72
262
 73
257
 74
256
 0
VERTEX
 8
CILINDRO
 10
0
 20
0
 30
0
 70
128
 71
262
 72
263
 73
258
 74
257
 0
VERTEX
 8
CILINDRO
 10
0
 20
0
 30
0
 70
128
 71
263
 72
264
 73
259
 74
258
 0
VERTEX
 8
CILINDRO
 10
0
 20
0
 30
0
 70
128
 71
264
 72
265
 73
260
 74
259
 0
VERTEX
 8
CILINDRO
 10
0
 20
0
 30
0
 70
128
 71
265
 72
92
 73
90
 74
260
 0
VERTEX
 8
CILINDRO
 10
0
 20
0
 30
0
 70
128
 71
266
 72
267
 73
262
 74
261
 0
VERTEX
 8
CILINDRO
 10
0
 20
0
 30
0
 70
128
 71
267
 72
268
 73
263
 74
262
 0
VERTEX
 8
CILINDRO
 10
0
 20
0
 30
0
 70
128
 71
268
 72
269
 73
264
 74
263
 0
VERTEX
 8
CILINDRO
 10
0
 20
0
 30
0
 70
128
 71
269
 72
270
 73
265
 74
264
 0
VERTEX
 8
CILINDRO
 10
0
 20
0
 30
0
 70
128
 71
270
 72
94
 73
92
 74
265
 0
VERTEX
 8
CILINDRO
 10
0
 20
0
 30
0
 70
128
 71
271
 72
272
 73
267
 74
266
 0
VERTEX
 8
CILINDRO
 10
0
 20
0
 30
0
 70
128
 71
272
 72
273
 73
268
 74
267
 0
VERTEX
 8
CILINDRO
 10
0
 20
0
 30
0
 70
128
 71
273
 72
274
 73
269
 74
268
 0
VERTEX
 8
CILINDRO
 10
0
 20
0
 30
0
 70
128
 71
274
 72
275
 73
270
 74
269
 0
VERTEX
 8
CILINDRO
 10
0
 20
0
 30
0
 70
128
 71
275
 72
96
 73
94
 74
270
 0
VERTEX
 8
CILINDRO
 10
0
 20
0
 30
0
 70
128
 71
276
 72
277
 73
272
 74
271
 0
VERTEX
 8
CILINDRO
 10
0
 20
0
 30
0
 70
128
 71
277
 72
278
 73
273
 74
272
 0
VERTEX
 8
CILINDRO
 10
0
 20
0
 30
0
 70
128
 71
278
 72
279
 73
274
 74
273
 0
VERTEX
 8
CILINDRO
 10
0
 20
0
 30
0
 70
128
 71
279
 72
280
 73
275
 74
274
 0
VERTEX
 8
CILINDRO
 10
0
 20
0
 30
0
 70
128
 71
280
 72
98
 73
96
 74
275
 0
VERTEX
 8
CILINDRO
 10
0
 20
0
 30
0
 70
128
 71
281
 72
282
 73
277
 74
276
 0
VERTEX
 8
CILINDRO
 10
0
 20
0
 30
0
 70
128
 71
282
 72
283
 73
278
 74
277
 0
VERTEX
 8
CILINDRO
 10
0
 20
0
 30
0
 70
128
 71
283
 72
284
 73
279
 74
278
 0
VERTEX
 8
CILINDRO
 10
0
 20
0
 30
0
 70
128
 71
284
 72
285
 73
280
 74
279
 0
VERTEX
 8
CILINDRO
 10
0
 20
0
 30
0
 70
128
 71
285
 72
100
 73
98
 74
280
 0
VERTEX
 8
CILINDRO
 10
0
 20
0
 30
0
 70
128
 71
121
 72
122
 73
282
 74
281
 0
VERTEX
 8
CILINDRO
 10
0
 20
0
 30
0
 70
128
 71
122
 72
123
 73
283
 74
282
 0
VERTEX
 8
CILINDRO
 10
0
 20
0
 30
0
 70
128
 71
123
 72
124
 73
284
 74
283
 0
VERTEX
 8
CILINDRO
 10
0
 20
0
 30
0
 70
128
 71
124
 72
125
 73
285
 74
284
 0
VERTEX
 8
CILINDRO
 10
0
 20
0
 30
0
 70
128
 71
125
 72
102
 73
100
 74
285
 0
VERTEX
 8
CILINDRO
 10
0
 20
0
 30
0
 70
128
 71
131
 72
132
 73
122
 74
121
 0
VERTEX
 8
CILINDRO
 10
0
 20
0
 30
0
 70
128
 71
132
 72
133
 73
123
 74
122
 0
VERTEX
 8
CILINDRO
 10
0
 20
0
 30
0
 70
128
 71
133
 72
134
 73
124
 74
123
 0
VERTEX
 8
CILINDRO
 10
0
 20
0
 30
0
 70
128
 71
134
 72
135
 73
125
 74
124
 0
VERTEX
 8
CILINDRO
 10
0
 20
0
 30
0
 70
128
 71
135
 72
104
 73
102
 74
125
 0
VERTEX
 8
CILINDRO
 10
0
 20
0
 30
0
 70
128
 71
286
 72
287
 73
132
 74
131
 0
VERTEX
 8
CILINDRO
 10
0
 20
0
 30
0
 70
128
 71
287
 72
288
 73
133
 74
132
 0
VERTEX
 8
CILINDRO
 10
0
 20
0
 30
0
 70
128
 71
288
 72
289
 73
134
 74
133
 0
VERTEX
 8
CILINDRO
 10
0
 20
0
 30
0
 70
128
 71
289
 72
290
 73
135
 74
134
 0
VERTEX
 8
CILINDRO
 10
0
 20
0
 30
0
 70
128
 71
290
 72
106
 73
104
 74
135
 0
VERTEX
 8
CILINDRO
 10
0
 20
0
 30
0
 70
128
 71
111
 72
112
 73
287
 74
286
 0
VERTEX
 8
CILINDRO
 10
0
 20
0
 30
0
 70
128
 71
112
 72
113
 73
288
 74
287
 0
VERTEX
 8
CILINDRO
 10
0
 20
0
 30
0
 70
128
 71
113
 72
114
 73
289
 74
288
 0
VERTEX
 8
CILINDRO
 10
0
 20
0
 30
0
 70
128
 71
114
 72
115
 73
290
 74
289
 0
VERTEX
 8
CILINDRO
 10
0
 20
0
 30
0
 70
128
 71
115
 72
108
 73
106
 74
290
 0
VERTEX
 8
CILINDRO
 10
0
 20
0
 30
0
 70
128
 71
151
 72
152
 73
112
 74
111
 0
VERTEX
 8
CILINDRO
 10
0
 20
0
 30
0
 70
128
 71
152
 72
153
 73
113
 74
112
 0
VERTEX
 8
CILINDRO
 10
0
 20
0
 30
0
 70
128
 71
153
 72
154
 73
114
 74
113
 0
VERTEX
 8
CILINDRO
 10
0
 20
0
 30
0
 70
128
 71
154
 72
155
 73
115
 74
114
 0
VERTEX
 8
CILINDRO
 10
0
 20
0
 30
0
 70
128
 71
155
 72
110
 73
108
 74
115
 0
VERTEX
 8
CILINDRO
 10
0
 20
0
 30
0
 70
128
 71
120
 72
119
 73
152
 74
151
 0
VERTEX
 8
CILINDRO
 10
0
 20
0
 30
0
 70
128
 71
119
 72
118
 73
153
 74
152
 0
VERTEX
 8
CILINDRO
 10
0
 20
0
 30
0
 70
128
 71
118
 72
117
 73
154
 74
153
 0
VERTEX
 8
CILINDRO
 10
0
 20
0
 30
0
 70
128
 71
117
 72
116
 73
155
 74
154
 0
VERTEX
 8
CILINDRO
 10
0
 20
0
 30
0
 70
128
 71
116
 72
72
 73
110
 74
155
 0
SEQEND
 0
POLYLINE
 8
CUBO_2
 66
1
 10
0.0
 20
0.0
 30
0.0
 70
64
 71
23
 72
25
 0
VERTEX
 8
CUBO_2
 10
-29.9263
 20
32.4989
 30
17.5262
 70
192
 0
VERTEX
 8
CUBO_2
 10
-29.9263
 20
32.4989
 30
90.7847
 70
192
 0
VERTEX
 8
CUBO_2
 10
-29.9263
 20
-23.8004
 30
17.5262
 70
192
 0
VERTEX
 8
CUBO_2
 10
-29.9263
 20
-23.8004
 30
90.7847
 70
192
 0
VERTEX
 8
CUBO_2
 10
29.9258
 20
-23.8004
 30
17.5262
 70
192
 0
VERTEX
 8
CUBO_2
 10
29.9258
 20
-23.8004
 30
90.7847
 70
192
 0
VERTEX
 8
CUBO_2
 10
29.9258
 20
32.4989
 30
17.5262
 70
192
 0
VERTEX
 8
CUBO_2
 10
29.9258
 20
32.4989
 30
90.7847
 70
192
 0
VERTEX
 8
CUBO_2
 10
-29.9263
 20
27.5882
 30
90.7847
 70
192
 0
VERTEX
 8
CUBO_2
 10
-29.9263
 20
27.5882
 30
17.5262
 70
192
 0
VERTEX
 8
CUBO_2
 10
-29.9263
 20
-14.8294
 30
90.7847
 70
192
 0
VERTEX
 8
CUBO_2
 10
-29.9263
 20
-14.8294
 30
17.5262
 70
192
 0
VERTEX
 8
CUBO_2
 10
29.9258
 20
-14.8294
 30
90.7847
 70
192
 0
VERTEX
 8
CUBO_2
 10
29.9258
 20
-14.8294
 30
17.5262
 70
192
 0
VERTEX
 8
CUBO_2
 10
29.9258
 20
27.5882
 30
90.7847
 70
192
 0
VERTEX
 8
CUBO_2
 10
-29.9263
 20
27.5882
 30
90.7847
 70
192
 0
VERTEX
 8
CUBO_2
 10
29.9258
 20
27.5882
 30
17.5262
 70
192
 0
VERTEX
 8
CUBO_2
 10
-29.9263
 20
-14.8294
 30
17.5262
 70
192
 0
VERTEX
 8
CUBO_2
 10
29.9258
 20
27.5882
 30
17.5262
 70
192
 0
VERTEX
 8
CUBO_2
 10
-29.9262
 20
27.5882
 30
5.4241
 70
192
 0
VERTEX
 8
CUBO_2
 10
-29.9262
 20
-14.8294
 30
5.4241
 70
192
 0
VERTEX
 8
CUBO_2
 10
29.9258
 20
-14.8294
 30
5.4241
 70
192
 0
VERTEX
 8
CUBO_2
 10
29.9258
 20
27.5882
 30
5.4241
 70
192
 0
VERTEX
 8
CUBO_2
 10
0
 20
0
 30
0
 70
128
 71
1
 72
2
 73
9
 74
10
 0
VERTEX
 8
CUBO_2
 10
0
 20
0
 30
0
 70
128
 71
3
 72
4
 73
6
 74
5
 0
VERTEX
 8
CUBO_2
 10
0
 20
0
 30
0
 70
128
 71
5
 72
6
 73
13
 74
14
 0
VERTEX
 8
CUBO_2
 10
0
 20
0
 30
0
 70
128
 71
7
 72
8
 73
2
 74
1
 0
VERTEX
 8
CUBO_2
 10
0
 20
0
 30
0
 70
128
 71
15
 72
16
 73
9
 74
9
 0
VERTEX
 8
CUBO_2
 10
0
 20
0
 30
0
 70
128
 71
12
 72
18
 73
14
 74
14
 0
VERTEX
 8
CUBO_2
 10
0
 20
0
 30
0
 70
128
 71
19
 72
17
 73
15
 74
15
 0
VERTEX
 8
CUBO_2
 10
0
 20
0
 30
0
 70
128
 71
16
 72
11
 73
12
 74
10
 0
VERTEX
 8
CUBO_2
 10
0
 20
0
 30
0
 70
128
 71
9
 72
16
 73
10
 74
10
 0
VERTEX
 8
CUBO_2
 10
0
 20
0
 30
0
 70
128
 71
17
 72
19
 73
1
 74
1
 0
VERTEX
 8
CUBO_2
 10
0
 20
0
 30
0
 70
128
 71
13
 72
6
 73
4
 74
11
 0
VERTEX
 8
CUBO_2
 10
0
 20
0
 30
0
 70
128
 71
18
 72
12
 73
11
 74
11
 0
VERTEX
 8
CUBO_2
 10
0
 20
0
 30
0
 70
128
 71
19
 72
7
 73
1
 74
1
 0
VERTEX
 8
CUBO_2
 10
0
 20
0
 30
0
 70
128
 71
15
 72
13
 73
11
 74
16
 0
VERTEX
 8
CUBO_2
 10
0
 20
0
 30
0
 70
128
 71
13
 72
15
 73
17
 74
14
 0
VERTEX
 8
CUBO_2
 10
0
 20
0
 30
0
 70
128
 71
15
 72
8
 73
7
 74
19
 0
VERTEX
 8
CUBO_2
 10
0
 20
0
 30
0
 70
128
 71
1
 72
10
 73
17
 74
17
 0
VERTEX
 8
CUBO_2
 10
0
 20
0
 30
0
 70
128
 71
22
 72
23
 73
20
 74
21
 0
VERTEX
 8
CUBO_2
 10
0
 20
0
 30
0
 70
128
 71
9
 72
2
 73
8
 74
15
 0
VERTEX
 8
CUBO_2
 10
0
 20
0
 30
0
 70
128
 71
11
 72
4
 73
3
 74
18
 0
VERTEX
 8
CUBO_2
 10
0
 20
0
 30
0
 70
128
 71
18
 72
3
 73
5
 74
14
 0
VERTEX
 8
CUBO_2
 10
0
 20
0
 30
0
 70
128
 71
14
 72
22
 73
21
 74
12
 0
VERTEX
 8
CUBO_2
 10
0
 20
0
 30
0
 70
128
 71
12
 72
21
 73
20
 74
10
 0
VERTEX
 8
CUBO_2
 10
0
 20
0
 30
0
 70
128
 71
10
 72
20
 73
23
 74
17
 0
VERTEX
 8
CUBO_2
 10
0
 20
0
 30
0
 70
128
 71
17
 72
23
 73
22
 74
14
 0
SEQEND
 0
POLYLINE
 8
CUBO_3
 66
1
 10
0.0
 20
0.0
 30
0.0
 70
64
 71
8
 72
6
 0
VERTEX
 8
CUBO_3
 10
-29.9263
 20
-23.8131
 30
15.4108
 70
192
 0
VERTEX
 8
CUBO_3
 10
-29.9263
 20
-23.8131
 30
90.7847
 70
192
 0
VERTEX
 8
CUBO_3
 10
-29.9263
 20
-28.4711
 30
15.4108
 70
192
 0
VERTEX
 8
CUBO_3
 10
-29.9263
 20
-28.4711
 30
90.7847
 70
192
 0
VERTEX
 8
CUBO_3
 10
29.9258
 20
-28.4711
 30
15.4108
 70
192
 0
VERTEX
 8
CUBO_3
 10
29.9258
 20
-28.4711
 30
90.7847
 70
192
 0
VERTEX
 8
CUBO_3
 10
29.9258
 20
-23.8131
 30
15.4108
 70
192
 0
VERTEX
 8
CUBO_3
 10
29.9258
 20
-23.8131
 30
90.7847
 70
192
 0
VERTEX
 8
CUBO_3
 10
0
 20
0
 30
0
 70
128
 71
1
 72
2
 73
4
 74
3
 0
VERTEX
 8
CUBO_3
 10
0
 20
0
 30
0
 70
128
 71
3
 72
4
 73
6
 74
5
 0
VERTEX
 8
CUBO_3
 10
0
 20
0
 30
0
 70
128
 71
5
 72
6
 73
8
 74
7
 0
VERTEX
 8
CUBO_3
 10
0
 20
0
 30
0
 70
128
 71
7
 72
8
 73
2
 74
1
 0
VERTEX
 8
CUBO_3
 10
0
 20
0
 30
0
 70
128
 71
2
 72
8
 73
6
 74
4
 0
VERTEX
 8
CUBO_3
 10
0
 20
0
 30
0
 70
128
 71
7
 72
1
 73
3
 74
5
 0
SEQEND
 0
ENDSEC
 0
EOF
