 0
SECTION
 2
HEADER
 9
$ACADVER
 1
AC1009
 0
ENDSEC
 0
SECTION
 2
TABLES
 0
TABLE
 2
LTYPE
 70
1
 0
LTYPE
 2
CONTINUOUS
 70
64
 3
solid line
 72
65
 73
0
 40
0.0
 0
ENDTAB
 0
TABLE
 2
LAYER
 70
6
 0
LAYER
 2
0
 70
0
 62
7
 6
CONTINUOUS
 0
LAYER
 2
F6PSCO30S1_-_SOFIA_STEAM_OVEN_
 70
64
 62
7
 6
CONTINUOUS
 0
LAYER
 2
VETRO_SERIGRAFATO
 70
64
 62
39
 6
CONTINUOUS
 0
LAYER
 2
VETR_TRASP
 70
64
 62
27
 6
CONTINUOUS
 0
LAYER
 2
MANIGLIA
 70
64
 62
7
 6
CONTINUOUS
 0
LAYER
 2
SUPPORTO_MANIGLIA_DUPLICATORE
 70
64
 62
253
 6
CONTINUOUS
 0
LAYER
 2
SUPPORTO_MANIGLIA
 70
64
 62
253
 6
CONTINUOUS
 0
LAYER
 2
CILINDRO_DUPLICATORE
 70
64
 62
27
 6
CONTINUOUS
 0
LAYER
 2
CILINDRO
 70
64
 62
27
 6
CONTINUOUS
 0
LAYER
 2
CILINDRO_1
 70
64
 62
253
 6
CONTINUOUS
 0
LAYER
 2
PROFILO
 70
64
 62
253
 6
CONTINUOUS
 0
LAYER
 2
PROFILO_1
 70
64
 62
253
 6
CONTINUOUS
 0
LAYER
 2
ANTA
 70
64
 62
253
 6
CONTINUOUS
 0
LAYER
 2
CUBO
 70
64
 62
253
 6
CONTINUOUS
 0
LAYER
 2
CUBO_1
 70
64
 62
253
 6
CONTINUOUS
 0
LAYER
 2
CUBO_2
 70
64
 62
39
 6
CONTINUOUS
 0
ENDTAB
 0
ENDSEC
 0
SECTION
 2
BLOCKS
 0
ENDSEC
 0
SECTION
 2
ENTITIES
 0
POLYLINE
 8
VETRO_SERIGRAFATO
 66
1
 10
0.0
 20
0.0
 30
0.0
 70
64
 71
64
 72
68
 0
VERTEX
 8
VETRO_SERIGRAFATO
 10
-29.7977
 20
-2.6271
 30
-20.8429
 70
192
 0
VERTEX
 8
VETRO_SERIGRAFATO
 10
-29.7977
 20
-2.6271
 30
-19.0429
 70
192
 0
VERTEX
 8
VETRO_SERIGRAFATO
 10
-29.7977
 20
-2.6271
 30
-2.6428
 70
192
 0
VERTEX
 8
VETRO_SERIGRAFATO
 10
-29.7977
 20
-2.6271
 30
-0.8429
 70
192
 0
VERTEX
 8
VETRO_SERIGRAFATO
 10
-21.5974
 20
-2.6271
 30
-20.8429
 70
192
 0
VERTEX
 8
VETRO_SERIGRAFATO
 10
-21.5974
 20
-2.6271
 30
-19.0429
 70
192
 0
VERTEX
 8
VETRO_SERIGRAFATO
 10
-21.5974
 20
-2.6271
 30
-2.6428
 70
192
 0
VERTEX
 8
VETRO_SERIGRAFATO
 10
-21.5974
 20
-2.6271
 30
-0.8429
 70
192
 0
VERTEX
 8
VETRO_SERIGRAFATO
 10
-21.2974
 20
-2.6271
 30
-20.8429
 70
192
 0
VERTEX
 8
VETRO_SERIGRAFATO
 10
-21.2974
 20
-2.6271
 30
-19.0429
 70
192
 0
VERTEX
 8
VETRO_SERIGRAFATO
 10
-21.2974
 20
-2.6271
 30
-2.6428
 70
192
 0
VERTEX
 8
VETRO_SERIGRAFATO
 10
-21.2974
 20
-2.6271
 30
-0.8429
 70
192
 0
VERTEX
 8
VETRO_SERIGRAFATO
 10
-18.0977
 20
-2.6271
 30
-20.8429
 70
192
 0
VERTEX
 8
VETRO_SERIGRAFATO
 10
-18.0977
 20
-2.6271
 30
-19.0429
 70
192
 0
VERTEX
 8
VETRO_SERIGRAFATO
 10
-18.0977
 20
-2.6271
 30
-2.6428
 70
192
 0
VERTEX
 8
VETRO_SERIGRAFATO
 10
-18.0977
 20
-2.6271
 30
-0.8429
 70
192
 0
VERTEX
 8
VETRO_SERIGRAFATO
 10
21.9023
 20
-2.6271
 30
-20.8429
 70
192
 0
VERTEX
 8
VETRO_SERIGRAFATO
 10
21.9023
 20
-2.6271
 30
-19.0429
 70
192
 0
VERTEX
 8
VETRO_SERIGRAFATO
 10
21.9023
 20
-2.6271
 30
-2.6428
 70
192
 0
VERTEX
 8
VETRO_SERIGRAFATO
 10
21.9023
 20
-2.6271
 30
-0.8429
 70
192
 0
VERTEX
 8
VETRO_SERIGRAFATO
 10
25.1023
 20
-2.6271
 30
-20.8429
 70
192
 0
VERTEX
 8
VETRO_SERIGRAFATO
 10
25.1023
 20
-2.6271
 30
-19.0429
 70
192
 0
VERTEX
 8
VETRO_SERIGRAFATO
 10
25.1023
 20
-2.6271
 30
-2.6428
 70
192
 0
VERTEX
 8
VETRO_SERIGRAFATO
 10
25.1023
 20
-2.6271
 30
-0.8429
 70
192
 0
VERTEX
 8
VETRO_SERIGRAFATO
 10
25.4023
 20
-2.6271
 30
-20.8429
 70
192
 0
VERTEX
 8
VETRO_SERIGRAFATO
 10
25.4023
 20
-2.6271
 30
-19.0429
 70
192
 0
VERTEX
 8
VETRO_SERIGRAFATO
 10
25.4023
 20
-2.6271
 30
-2.6428
 70
192
 0
VERTEX
 8
VETRO_SERIGRAFATO
 10
25.4023
 20
-2.6271
 30
-0.8429
 70
192
 0
VERTEX
 8
VETRO_SERIGRAFATO
 10
33.6023
 20
-2.6271
 30
-20.8429
 70
192
 0
VERTEX
 8
VETRO_SERIGRAFATO
 10
33.6023
 20
-2.6271
 30
-19.0429
 70
192
 0
VERTEX
 8
VETRO_SERIGRAFATO
 10
33.6023
 20
-2.6271
 30
-2.6428
 70
192
 0
VERTEX
 8
VETRO_SERIGRAFATO
 10
33.6023
 20
-2.6271
 30
-0.8429
 70
192
 0
VERTEX
 8
VETRO_SERIGRAFATO
 10
33.6023
 20
-2.2271
 30
-20.8429
 70
192
 0
VERTEX
 8
VETRO_SERIGRAFATO
 10
33.6023
 20
-2.2271
 30
-19.0429
 70
192
 0
VERTEX
 8
VETRO_SERIGRAFATO
 10
33.6023
 20
-2.2271
 30
-2.6428
 70
192
 0
VERTEX
 8
VETRO_SERIGRAFATO
 10
33.6023
 20
-2.2271
 30
-0.8429
 70
192
 0
VERTEX
 8
VETRO_SERIGRAFATO
 10
25.4023
 20
-2.2271
 30
-20.8429
 70
192
 0
VERTEX
 8
VETRO_SERIGRAFATO
 10
25.4023
 20
-2.2271
 30
-19.0429
 70
192
 0
VERTEX
 8
VETRO_SERIGRAFATO
 10
25.4023
 20
-2.2271
 30
-2.6428
 70
192
 0
VERTEX
 8
VETRO_SERIGRAFATO
 10
25.4023
 20
-2.2271
 30
-0.8429
 70
192
 0
VERTEX
 8
VETRO_SERIGRAFATO
 10
25.1023
 20
-2.2271
 30
-20.8429
 70
192
 0
VERTEX
 8
VETRO_SERIGRAFATO
 10
25.1023
 20
-2.2271
 30
-19.0429
 70
192
 0
VERTEX
 8
VETRO_SERIGRAFATO
 10
25.1023
 20
-2.2271
 30
-2.6428
 70
192
 0
VERTEX
 8
VETRO_SERIGRAFATO
 10
25.1023
 20
-2.2271
 30
-0.8429
 70
192
 0
VERTEX
 8
VETRO_SERIGRAFATO
 10
21.9023
 20
-2.2271
 30
-20.8429
 70
192
 0
VERTEX
 8
VETRO_SERIGRAFATO
 10
21.9023
 20
-2.2271
 30
-19.0429
 70
192
 0
VERTEX
 8
VETRO_SERIGRAFATO
 10
21.9023
 20
-2.2271
 30
-2.6428
 70
192
 0
VERTEX
 8
VETRO_SERIGRAFATO
 10
21.9023
 20
-2.2271
 30
-0.8429
 70
192
 0
VERTEX
 8
VETRO_SERIGRAFATO
 10
-18.0977
 20
-2.2271
 30
-20.8429
 70
192
 0
VERTEX
 8
VETRO_SERIGRAFATO
 10
-18.0977
 20
-2.2271
 30
-19.0429
 70
192
 0
VERTEX
 8
VETRO_SERIGRAFATO
 10
-18.0977
 20
-2.2271
 30
-2.6428
 70
192
 0
VERTEX
 8
VETRO_SERIGRAFATO
 10
-18.0977
 20
-2.2271
 30
-0.8429
 70
192
 0
VERTEX
 8
VETRO_SERIGRAFATO
 10
-21.2974
 20
-2.2271
 30
-20.8429
 70
192
 0
VERTEX
 8
VETRO_SERIGRAFATO
 10
-21.2974
 20
-2.2271
 30
-19.0429
 70
192
 0
VERTEX
 8
VETRO_SERIGRAFATO
 10
-21.2974
 20
-2.2271
 30
-2.6428
 70
192
 0
VERTEX
 8
VETRO_SERIGRAFATO
 10
-21.2974
 20
-2.2271
 30
-0.8429
 70
192
 0
VERTEX
 8
VETRO_SERIGRAFATO
 10
-21.5974
 20
-2.2271
 30
-20.8429
 70
192
 0
VERTEX
 8
VETRO_SERIGRAFATO
 10
-21.5974
 20
-2.2271
 30
-19.0429
 70
192
 0
VERTEX
 8
VETRO_SERIGRAFATO
 10
-21.5974
 20
-2.2271
 30
-2.6428
 70
192
 0
VERTEX
 8
VETRO_SERIGRAFATO
 10
-21.5974
 20
-2.2271
 30
-0.8429
 70
192
 0
VERTEX
 8
VETRO_SERIGRAFATO
 10
-29.7977
 20
-2.2271
 30
-20.8429
 70
192
 0
VERTEX
 8
VETRO_SERIGRAFATO
 10
-29.7977
 20
-2.2271
 30
-19.0429
 70
192
 0
VERTEX
 8
VETRO_SERIGRAFATO
 10
-29.7977
 20
-2.2271
 30
-2.6428
 70
192
 0
VERTEX
 8
VETRO_SERIGRAFATO
 10
-29.7977
 20
-2.2271
 30
-0.8429
 70
192
 0
VERTEX
 8
VETRO_SERIGRAFATO
 10
0
 20
0
 30
0
 70
128
 71
1
 72
2
 73
6
 74
5
 0
VERTEX
 8
VETRO_SERIGRAFATO
 10
0
 20
0
 30
0
 70
128
 71
5
 72
6
 73
10
 74
9
 0
VERTEX
 8
VETRO_SERIGRAFATO
 10
0
 20
0
 30
0
 70
128
 71
9
 72
10
 73
14
 74
13
 0
VERTEX
 8
VETRO_SERIGRAFATO
 10
0
 20
0
 30
0
 70
128
 71
13
 72
14
 73
18
 74
17
 0
VERTEX
 8
VETRO_SERIGRAFATO
 10
0
 20
0
 30
0
 70
128
 71
17
 72
18
 73
22
 74
21
 0
VERTEX
 8
VETRO_SERIGRAFATO
 10
0
 20
0
 30
0
 70
128
 71
21
 72
22
 73
26
 74
25
 0
VERTEX
 8
VETRO_SERIGRAFATO
 10
0
 20
0
 30
0
 70
128
 71
25
 72
26
 73
30
 74
29
 0
VERTEX
 8
VETRO_SERIGRAFATO
 10
0
 20
0
 30
0
 70
128
 71
2
 72
3
 73
7
 74
6
 0
VERTEX
 8
VETRO_SERIGRAFATO
 10
0
 20
0
 30
0
 70
128
 71
45
 72
17
 73
21
 74
41
 0
VERTEX
 8
VETRO_SERIGRAFATO
 10
0
 20
0
 30
0
 70
128
 71
10
 72
11
 73
15
 74
14
 0
VERTEX
 8
VETRO_SERIGRAFATO
 10
0
 20
0
 30
0
 70
128
 71
37
 72
25
 73
29
 74
33
 0
VERTEX
 8
VETRO_SERIGRAFATO
 10
0
 20
0
 30
0
 70
128
 71
18
 72
19
 73
23
 74
22
 0
VERTEX
 8
VETRO_SERIGRAFATO
 10
0
 20
0
 30
0
 70
128
 71
50
 72
46
 73
18
 74
14
 0
VERTEX
 8
VETRO_SERIGRAFATO
 10
0
 20
0
 30
0
 70
128
 71
26
 72
27
 73
31
 74
30
 0
VERTEX
 8
VETRO_SERIGRAFATO
 10
0
 20
0
 30
0
 70
128
 71
3
 72
4
 73
8
 74
7
 0
VERTEX
 8
VETRO_SERIGRAFATO
 10
0
 20
0
 30
0
 70
128
 71
7
 72
8
 73
12
 74
11
 0
VERTEX
 8
VETRO_SERIGRAFATO
 10
0
 20
0
 30
0
 70
128
 71
11
 72
12
 73
16
 74
15
 0
VERTEX
 8
VETRO_SERIGRAFATO
 10
0
 20
0
 30
0
 70
128
 71
15
 72
16
 73
20
 74
19
 0
VERTEX
 8
VETRO_SERIGRAFATO
 10
0
 20
0
 30
0
 70
128
 71
19
 72
20
 73
24
 74
23
 0
VERTEX
 8
VETRO_SERIGRAFATO
 10
0
 20
0
 30
0
 70
128
 71
23
 72
24
 73
28
 74
27
 0
VERTEX
 8
VETRO_SERIGRAFATO
 10
0
 20
0
 30
0
 70
128
 71
27
 72
28
 73
32
 74
31
 0
VERTEX
 8
VETRO_SERIGRAFATO
 10
0
 20
0
 30
0
 70
128
 71
29
 72
30
 73
34
 74
33
 0
VERTEX
 8
VETRO_SERIGRAFATO
 10
0
 20
0
 30
0
 70
128
 71
30
 72
31
 73
35
 74
34
 0
VERTEX
 8
VETRO_SERIGRAFATO
 10
0
 20
0
 30
0
 70
128
 71
31
 72
32
 73
36
 74
35
 0
VERTEX
 8
VETRO_SERIGRAFATO
 10
0
 20
0
 30
0
 70
128
 71
33
 72
34
 73
38
 74
37
 0
VERTEX
 8
VETRO_SERIGRAFATO
 10
0
 20
0
 30
0
 70
128
 71
37
 72
38
 73
42
 74
41
 0
VERTEX
 8
VETRO_SERIGRAFATO
 10
0
 20
0
 30
0
 70
128
 71
41
 72
42
 73
46
 74
45
 0
VERTEX
 8
VETRO_SERIGRAFATO
 10
0
 20
0
 30
0
 70
128
 71
45
 72
46
 73
50
 74
49
 0
VERTEX
 8
VETRO_SERIGRAFATO
 10
0
 20
0
 30
0
 70
128
 71
49
 72
50
 73
54
 74
53
 0
VERTEX
 8
VETRO_SERIGRAFATO
 10
0
 20
0
 30
0
 70
128
 71
53
 72
54
 73
58
 74
57
 0
VERTEX
 8
VETRO_SERIGRAFATO
 10
0
 20
0
 30
0
 70
128
 71
57
 72
58
 73
62
 74
61
 0
VERTEX
 8
VETRO_SERIGRAFATO
 10
0
 20
0
 30
0
 70
128
 71
34
 72
35
 73
39
 74
38
 0
VERTEX
 8
VETRO_SERIGRAFATO
 10
0
 20
0
 30
0
 70
128
 71
46
 72
47
 73
19
 74
18
 0
VERTEX
 8
VETRO_SERIGRAFATO
 10
0
 20
0
 30
0
 70
128
 71
42
 72
43
 73
47
 74
46
 0
VERTEX
 8
VETRO_SERIGRAFATO
 10
0
 20
0
 30
0
 70
128
 71
41
 72
21
 73
25
 74
37
 0
VERTEX
 8
VETRO_SERIGRAFATO
 10
0
 20
0
 30
0
 70
128
 71
50
 72
51
 73
55
 74
54
 0
VERTEX
 8
VETRO_SERIGRAFATO
 10
0
 20
0
 30
0
 70
128
 71
49
 72
13
 73
17
 74
45
 0
VERTEX
 8
VETRO_SERIGRAFATO
 10
0
 20
0
 30
0
 70
128
 71
58
 72
59
 73
63
 74
62
 0
VERTEX
 8
VETRO_SERIGRAFATO
 10
0
 20
0
 30
0
 70
128
 71
35
 72
36
 73
40
 74
39
 0
VERTEX
 8
VETRO_SERIGRAFATO
 10
0
 20
0
 30
0
 70
128
 71
39
 72
40
 73
44
 74
43
 0
VERTEX
 8
VETRO_SERIGRAFATO
 10
0
 20
0
 30
0
 70
128
 71
43
 72
44
 73
48
 74
47
 0
VERTEX
 8
VETRO_SERIGRAFATO
 10
0
 20
0
 30
0
 70
128
 71
47
 72
48
 73
52
 74
51
 0
VERTEX
 8
VETRO_SERIGRAFATO
 10
0
 20
0
 30
0
 70
128
 71
51
 72
52
 73
56
 74
55
 0
VERTEX
 8
VETRO_SERIGRAFATO
 10
0
 20
0
 30
0
 70
128
 71
55
 72
56
 73
60
 74
59
 0
VERTEX
 8
VETRO_SERIGRAFATO
 10
0
 20
0
 30
0
 70
128
 71
59
 72
60
 73
64
 74
63
 0
VERTEX
 8
VETRO_SERIGRAFATO
 10
0
 20
0
 30
0
 70
128
 71
61
 72
62
 73
2
 74
1
 0
VERTEX
 8
VETRO_SERIGRAFATO
 10
0
 20
0
 30
0
 70
128
 71
62
 72
63
 73
3
 74
2
 0
VERTEX
 8
VETRO_SERIGRAFATO
 10
0
 20
0
 30
0
 70
128
 71
63
 72
64
 73
4
 74
3
 0
VERTEX
 8
VETRO_SERIGRAFATO
 10
0
 20
0
 30
0
 70
128
 71
4
 72
64
 73
60
 74
8
 0
VERTEX
 8
VETRO_SERIGRAFATO
 10
0
 20
0
 30
0
 70
128
 71
8
 72
60
 73
56
 74
12
 0
VERTEX
 8
VETRO_SERIGRAFATO
 10
0
 20
0
 30
0
 70
128
 71
12
 72
56
 73
52
 74
16
 0
VERTEX
 8
VETRO_SERIGRAFATO
 10
0
 20
0
 30
0
 70
128
 71
16
 72
52
 73
48
 74
20
 0
VERTEX
 8
VETRO_SERIGRAFATO
 10
0
 20
0
 30
0
 70
128
 71
20
 72
48
 73
44
 74
24
 0
VERTEX
 8
VETRO_SERIGRAFATO
 10
0
 20
0
 30
0
 70
128
 71
24
 72
44
 73
40
 74
28
 0
VERTEX
 8
VETRO_SERIGRAFATO
 10
0
 20
0
 30
0
 70
128
 71
28
 72
40
 73
36
 74
32
 0
VERTEX
 8
VETRO_SERIGRAFATO
 10
0
 20
0
 30
0
 70
128
 71
61
 72
1
 73
5
 74
57
 0
VERTEX
 8
VETRO_SERIGRAFATO
 10
0
 20
0
 30
0
 70
128
 71
57
 72
5
 73
9
 74
53
 0
VERTEX
 8
VETRO_SERIGRAFATO
 10
0
 20
0
 30
0
 70
128
 71
53
 72
9
 73
13
 74
49
 0
VERTEX
 8
VETRO_SERIGRAFATO
 10
0
 20
0
 30
0
 70
128
 71
58
 72
54
 73
10
 74
6
 0
VERTEX
 8
VETRO_SERIGRAFATO
 10
0
 20
0
 30
0
 70
128
 71
59
 72
58
 73
6
 74
7
 0
VERTEX
 8
VETRO_SERIGRAFATO
 10
0
 20
0
 30
0
 70
128
 71
54
 72
55
 73
11
 74
10
 0
VERTEX
 8
VETRO_SERIGRAFATO
 10
0
 20
0
 30
0
 70
128
 71
55
 72
59
 73
7
 74
11
 0
VERTEX
 8
VETRO_SERIGRAFATO
 10
0
 20
0
 30
0
 70
128
 71
51
 72
50
 73
14
 74
15
 0
VERTEX
 8
VETRO_SERIGRAFATO
 10
0
 20
0
 30
0
 70
128
 71
47
 72
51
 73
15
 74
19
 0
VERTEX
 8
VETRO_SERIGRAFATO
 10
0
 20
0
 30
0
 70
128
 71
38
 72
39
 73
27
 74
26
 0
VERTEX
 8
VETRO_SERIGRAFATO
 10
0
 20
0
 30
0
 70
128
 71
42
 72
38
 73
26
 74
22
 0
VERTEX
 8
VETRO_SERIGRAFATO
 10
0
 20
0
 30
0
 70
128
 71
43
 72
42
 73
22
 74
23
 0
VERTEX
 8
VETRO_SERIGRAFATO
 10
0
 20
0
 30
0
 70
128
 71
39
 72
43
 73
23
 74
27
 0
SEQEND
 0
POLYLINE
 8
VETR_TRASP
 66
1
 10
0.0
 20
0.0
 30
0.0
 70
64
 71
24
 72
18
 0
VERTEX
 8
VETR_TRASP
 10
21.9023
 20
-2.2271
 30
-2.6428
 70
192
 0
VERTEX
 8
VETR_TRASP
 10
-21.5974
 20
-2.2271
 30
-2.6428
 70
192
 0
VERTEX
 8
VETR_TRASP
 10
-21.5974
 20
-2.2271
 30
-19.0429
 70
192
 0
VERTEX
 8
VETR_TRASP
 10
-18.0977
 20
-2.2271
 30
-19.0429
 70
192
 0
VERTEX
 8
VETR_TRASP
 10
-18.0977
 20
-2.2271
 30
-2.6428
 70
192
 0
VERTEX
 8
VETR_TRASP
 10
-21.5974
 20
-2.6271
 30
-19.0429
 70
192
 0
VERTEX
 8
VETR_TRASP
 10
-21.5974
 20
-2.6271
 30
-2.6428
 70
192
 0
VERTEX
 8
VETR_TRASP
 10
21.9023
 20
-2.2271
 30
-19.0429
 70
192
 0
VERTEX
 8
VETR_TRASP
 10
-21.2974
 20
-2.2271
 30
-19.0429
 70
192
 0
VERTEX
 8
VETR_TRASP
 10
-21.2974
 20
-2.6271
 30
-19.0429
 70
192
 0
VERTEX
 8
VETR_TRASP
 10
-21.2974
 20
-2.6271
 30
-2.6428
 70
192
 0
VERTEX
 8
VETR_TRASP
 10
-21.2974
 20
-2.2271
 30
-2.6428
 70
192
 0
VERTEX
 8
VETR_TRASP
 10
25.4023
 20
-2.2271
 30
-19.0429
 70
192
 0
VERTEX
 8
VETR_TRASP
 10
-18.0977
 20
-2.6271
 30
-19.0429
 70
192
 0
VERTEX
 8
VETR_TRASP
 10
-18.0977
 20
-2.6271
 30
-2.6428
 70
192
 0
VERTEX
 8
VETR_TRASP
 10
25.1023
 20
-2.2271
 30
-2.6428
 70
192
 0
VERTEX
 8
VETR_TRASP
 10
25.4023
 20
-2.2271
 30
-2.6428
 70
192
 0
VERTEX
 8
VETR_TRASP
 10
21.9023
 20
-2.6271
 30
-19.0429
 70
192
 0
VERTEX
 8
VETR_TRASP
 10
21.9023
 20
-2.6271
 30
-2.6428
 70
192
 0
VERTEX
 8
VETR_TRASP
 10
25.1023
 20
-2.2271
 30
-19.0429
 70
192
 0
VERTEX
 8
VETR_TRASP
 10
25.4023
 20
-2.6271
 30
-2.6428
 70
192
 0
VERTEX
 8
VETR_TRASP
 10
25.1023
 20
-2.6271
 30
-19.0429
 70
192
 0
VERTEX
 8
VETR_TRASP
 10
25.1023
 20
-2.6271
 30
-2.6428
 70
192
 0
VERTEX
 8
VETR_TRASP
 10
25.4023
 20
-2.6271
 30
-19.0429
 70
192
 0
VERTEX
 8
VETR_TRASP
 10
0
 20
0
 30
0
 70
128
 71
13
 72
17
 73
16
 74
20
 0
VERTEX
 8
VETR_TRASP
 10
0
 20
0
 30
0
 70
128
 71
9
 72
12
 73
2
 74
3
 0
VERTEX
 8
VETR_TRASP
 10
0
 20
0
 30
0
 70
128
 71
8
 72
1
 73
5
 74
4
 0
VERTEX
 8
VETR_TRASP
 10
0
 20
0
 30
0
 70
128
 71
6
 72
7
 73
11
 74
10
 0
VERTEX
 8
VETR_TRASP
 10
0
 20
0
 30
0
 70
128
 71
22
 72
23
 73
21
 74
24
 0
VERTEX
 8
VETR_TRASP
 10
0
 20
0
 30
0
 70
128
 71
14
 72
15
 73
19
 74
18
 0
VERTEX
 8
VETR_TRASP
 10
0
 20
0
 30
0
 70
128
 71
10
 72
11
 73
12
 74
9
 0
VERTEX
 8
VETR_TRASP
 10
0
 20
0
 30
0
 70
128
 71
11
 72
7
 73
2
 74
12
 0
VERTEX
 8
VETR_TRASP
 10
0
 20
0
 30
0
 70
128
 71
7
 72
6
 73
3
 74
2
 0
VERTEX
 8
VETR_TRASP
 10
0
 20
0
 30
0
 70
128
 71
15
 72
14
 73
4
 74
5
 0
VERTEX
 8
VETR_TRASP
 10
0
 20
0
 30
0
 70
128
 71
19
 72
15
 73
5
 74
1
 0
VERTEX
 8
VETR_TRASP
 10
0
 20
0
 30
0
 70
128
 71
10
 72
9
 73
3
 74
6
 0
VERTEX
 8
VETR_TRASP
 10
0
 20
0
 30
0
 70
128
 71
14
 72
18
 73
8
 74
4
 0
VERTEX
 8
VETR_TRASP
 10
0
 20
0
 30
0
 70
128
 71
18
 72
19
 73
1
 74
8
 0
VERTEX
 8
VETR_TRASP
 10
0
 20
0
 30
0
 70
128
 71
24
 72
21
 73
17
 74
13
 0
VERTEX
 8
VETR_TRASP
 10
0
 20
0
 30
0
 70
128
 71
22
 72
24
 73
13
 74
20
 0
VERTEX
 8
VETR_TRASP
 10
0
 20
0
 30
0
 70
128
 71
20
 72
16
 73
23
 74
22
 0
VERTEX
 8
VETR_TRASP
 10
0
 20
0
 30
0
 70
128
 71
23
 72
16
 73
17
 74
21
 0
SEQEND
 0
POLYLINE
 8
SUPPORTO_MANIGLIA_DUPLICATORE
 66
1
 10
0.0
 20
0.0
 30
0.0
 70
64
 71
174
 72
126
 0
VERTEX
 8
SUPPORTO_MANIGLIA_DUPLICATORE
 10
25.414
 20
-9.319
 30
4.4261
 70
192
 0
VERTEX
 8
SUPPORTO_MANIGLIA_DUPLICATORE
 10
34.414
 20
-9.319
 30
4.4261
 70
192
 0
VERTEX
 8
SUPPORTO_MANIGLIA_DUPLICATORE
 10
25.414
 20
-9.319
 30
5.9261
 70
192
 0
VERTEX
 8
SUPPORTO_MANIGLIA_DUPLICATORE
 10
25.414
 20
-9.319
 30
5.9261
 70
192
 0
VERTEX
 8
SUPPORTO_MANIGLIA_DUPLICATORE
 10
34.414
 20
-9.319
 30
5.9261
 70
192
 0
VERTEX
 8
SUPPORTO_MANIGLIA_DUPLICATORE
 10
34.414
 20
-9.319
 30
5.9261
 70
192
 0
VERTEX
 8
SUPPORTO_MANIGLIA_DUPLICATORE
 10
25.414
 20
-9.4498
 30
5.9203
 70
192
 0
VERTEX
 8
SUPPORTO_MANIGLIA_DUPLICATORE
 10
25.414
 20
-9.4498
 30
5.9203
 70
192
 0
VERTEX
 8
SUPPORTO_MANIGLIA_DUPLICATORE
 10
34.414
 20
-9.4498
 30
5.9203
 70
192
 0
VERTEX
 8
SUPPORTO_MANIGLIA_DUPLICATORE
 10
34.414
 20
-9.4498
 30
5.9203
 70
192
 0
VERTEX
 8
SUPPORTO_MANIGLIA_DUPLICATORE
 10
25.414
 20
-9.5795
 30
5.9033
 70
192
 0
VERTEX
 8
SUPPORTO_MANIGLIA_DUPLICATORE
 10
25.414
 20
-9.5795
 30
5.9033
 70
192
 0
VERTEX
 8
SUPPORTO_MANIGLIA_DUPLICATORE
 10
34.414
 20
-9.5795
 30
5.9033
 70
192
 0
VERTEX
 8
SUPPORTO_MANIGLIA_DUPLICATORE
 10
34.414
 20
-9.5795
 30
5.9033
 70
192
 0
VERTEX
 8
SUPPORTO_MANIGLIA_DUPLICATORE
 10
25.414
 20
-9.7073
 30
5.8749
 70
192
 0
VERTEX
 8
SUPPORTO_MANIGLIA_DUPLICATORE
 10
25.414
 20
-9.7073
 30
5.8749
 70
192
 0
VERTEX
 8
SUPPORTO_MANIGLIA_DUPLICATORE
 10
34.414
 20
-9.7073
 30
5.8749
 70
192
 0
VERTEX
 8
SUPPORTO_MANIGLIA_DUPLICATORE
 10
34.414
 20
-9.7073
 30
5.8749
 70
192
 0
VERTEX
 8
SUPPORTO_MANIGLIA_DUPLICATORE
 10
25.414
 20
-9.8321
 30
5.8356
 70
192
 0
VERTEX
 8
SUPPORTO_MANIGLIA_DUPLICATORE
 10
25.414
 20
-9.8321
 30
5.8356
 70
192
 0
VERTEX
 8
SUPPORTO_MANIGLIA_DUPLICATORE
 10
34.414
 20
-9.8321
 30
5.8356
 70
192
 0
VERTEX
 8
SUPPORTO_MANIGLIA_DUPLICATORE
 10
34.414
 20
-9.8321
 30
5.8356
 70
192
 0
VERTEX
 8
SUPPORTO_MANIGLIA_DUPLICATORE
 10
25.414
 20
-9.953
 30
5.7855
 70
192
 0
VERTEX
 8
SUPPORTO_MANIGLIA_DUPLICATORE
 10
25.414
 20
-9.953
 30
5.7855
 70
192
 0
VERTEX
 8
SUPPORTO_MANIGLIA_DUPLICATORE
 10
34.414
 20
-9.953
 30
5.7855
 70
192
 0
VERTEX
 8
SUPPORTO_MANIGLIA_DUPLICATORE
 10
34.414
 20
-9.953
 30
5.7855
 70
192
 0
VERTEX
 8
SUPPORTO_MANIGLIA_DUPLICATORE
 10
25.414
 20
-10.069
 30
5.7251
 70
192
 0
VERTEX
 8
SUPPORTO_MANIGLIA_DUPLICATORE
 10
25.414
 20
-10.069
 30
5.7251
 70
192
 0
VERTEX
 8
SUPPORTO_MANIGLIA_DUPLICATORE
 10
34.414
 20
-10.069
 30
5.7251
 70
192
 0
VERTEX
 8
SUPPORTO_MANIGLIA_DUPLICATORE
 10
34.414
 20
-10.069
 30
5.7251
 70
192
 0
VERTEX
 8
SUPPORTO_MANIGLIA_DUPLICATORE
 10
25.414
 20
-10.1794
 30
5.6548
 70
192
 0
VERTEX
 8
SUPPORTO_MANIGLIA_DUPLICATORE
 10
25.414
 20
-10.1794
 30
5.6548
 70
192
 0
VERTEX
 8
SUPPORTO_MANIGLIA_DUPLICATORE
 10
34.414
 20
-10.1794
 30
5.6548
 70
192
 0
VERTEX
 8
SUPPORTO_MANIGLIA_DUPLICATORE
 10
34.414
 20
-10.1794
 30
5.6548
 70
192
 0
VERTEX
 8
SUPPORTO_MANIGLIA_DUPLICATORE
 10
25.414
 20
-10.2832
 30
5.5751
 70
192
 0
VERTEX
 8
SUPPORTO_MANIGLIA_DUPLICATORE
 10
25.414
 20
-10.2832
 30
5.5751
 70
192
 0
VERTEX
 8
SUPPORTO_MANIGLIA_DUPLICATORE
 10
34.414
 20
-10.2832
 30
5.5751
 70
192
 0
VERTEX
 8
SUPPORTO_MANIGLIA_DUPLICATORE
 10
34.414
 20
-10.2832
 30
5.5751
 70
192
 0
VERTEX
 8
SUPPORTO_MANIGLIA_DUPLICATORE
 10
25.414
 20
-10.3797
 30
5.4867
 70
192
 0
VERTEX
 8
SUPPORTO_MANIGLIA_DUPLICATORE
 10
25.414
 20
-10.3797
 30
5.4867
 70
192
 0
VERTEX
 8
SUPPORTO_MANIGLIA_DUPLICATORE
 10
34.414
 20
-10.3797
 30
5.4867
 70
192
 0
VERTEX
 8
SUPPORTO_MANIGLIA_DUPLICATORE
 10
34.414
 20
-10.3797
 30
5.4867
 70
192
 0
VERTEX
 8
SUPPORTO_MANIGLIA_DUPLICATORE
 10
25.414
 20
-10.4681
 30
5.3902
 70
192
 0
VERTEX
 8
SUPPORTO_MANIGLIA_DUPLICATORE
 10
25.414
 20
-10.4681
 30
5.3902
 70
192
 0
VERTEX
 8
SUPPORTO_MANIGLIA_DUPLICATORE
 10
34.414
 20
-10.4681
 30
5.3902
 70
192
 0
VERTEX
 8
SUPPORTO_MANIGLIA_DUPLICATORE
 10
34.414
 20
-10.4681
 30
5.3902
 70
192
 0
VERTEX
 8
SUPPORTO_MANIGLIA_DUPLICATORE
 10
25.414
 20
-10.5478
 30
5.2864
 70
192
 0
VERTEX
 8
SUPPORTO_MANIGLIA_DUPLICATORE
 10
25.414
 20
-10.5478
 30
5.2864
 70
192
 0
VERTEX
 8
SUPPORTO_MANIGLIA_DUPLICATORE
 10
34.414
 20
-10.5478
 30
5.2864
 70
192
 0
VERTEX
 8
SUPPORTO_MANIGLIA_DUPLICATORE
 10
34.414
 20
-10.5478
 30
5.2864
 70
192
 0
VERTEX
 8
SUPPORTO_MANIGLIA_DUPLICATORE
 10
25.414
 20
-10.6181
 30
5.1761
 70
192
 0
VERTEX
 8
SUPPORTO_MANIGLIA_DUPLICATORE
 10
25.414
 20
-10.6181
 30
5.1761
 70
192
 0
VERTEX
 8
SUPPORTO_MANIGLIA_DUPLICATORE
 10
34.414
 20
-10.6181
 30
5.1761
 70
192
 0
VERTEX
 8
SUPPORTO_MANIGLIA_DUPLICATORE
 10
34.414
 20
-10.6181
 30
5.1761
 70
192
 0
VERTEX
 8
SUPPORTO_MANIGLIA_DUPLICATORE
 10
25.414
 20
-10.6785
 30
5.06
 70
192
 0
VERTEX
 8
SUPPORTO_MANIGLIA_DUPLICATORE
 10
25.414
 20
-10.6785
 30
5.06
 70
192
 0
VERTEX
 8
SUPPORTO_MANIGLIA_DUPLICATORE
 10
34.414
 20
-10.6785
 30
5.06
 70
192
 0
VERTEX
 8
SUPPORTO_MANIGLIA_DUPLICATORE
 10
34.414
 20
-10.6785
 30
5.06
 70
192
 0
VERTEX
 8
SUPPORTO_MANIGLIA_DUPLICATORE
 10
25.414
 20
-10.7286
 30
4.9391
 70
192
 0
VERTEX
 8
SUPPORTO_MANIGLIA_DUPLICATORE
 10
25.414
 20
-10.7286
 30
4.9391
 70
192
 0
VERTEX
 8
SUPPORTO_MANIGLIA_DUPLICATORE
 10
34.414
 20
-10.7286
 30
4.9391
 70
192
 0
VERTEX
 8
SUPPORTO_MANIGLIA_DUPLICATORE
 10
34.414
 20
-10.7286
 30
4.9391
 70
192
 0
VERTEX
 8
SUPPORTO_MANIGLIA_DUPLICATORE
 10
25.414
 20
-10.7679
 30
4.8143
 70
192
 0
VERTEX
 8
SUPPORTO_MANIGLIA_DUPLICATORE
 10
25.414
 20
-10.7679
 30
4.8143
 70
192
 0
VERTEX
 8
SUPPORTO_MANIGLIA_DUPLICATORE
 10
34.414
 20
-10.7679
 30
4.8143
 70
192
 0
VERTEX
 8
SUPPORTO_MANIGLIA_DUPLICATORE
 10
34.414
 20
-10.7679
 30
4.8143
 70
192
 0
VERTEX
 8
SUPPORTO_MANIGLIA_DUPLICATORE
 10
25.414
 20
-10.7962
 30
4.6865
 70
192
 0
VERTEX
 8
SUPPORTO_MANIGLIA_DUPLICATORE
 10
25.414
 20
-10.7962
 30
4.6865
 70
192
 0
VERTEX
 8
SUPPORTO_MANIGLIA_DUPLICATORE
 10
34.414
 20
-10.7962
 30
4.6865
 70
192
 0
VERTEX
 8
SUPPORTO_MANIGLIA_DUPLICATORE
 10
34.414
 20
-10.7962
 30
4.6865
 70
192
 0
VERTEX
 8
SUPPORTO_MANIGLIA_DUPLICATORE
 10
25.414
 20
-10.8133
 30
4.5568
 70
192
 0
VERTEX
 8
SUPPORTO_MANIGLIA_DUPLICATORE
 10
25.414
 20
-10.8133
 30
4.5568
 70
192
 0
VERTEX
 8
SUPPORTO_MANIGLIA_DUPLICATORE
 10
34.414
 20
-10.8133
 30
4.5568
 70
192
 0
VERTEX
 8
SUPPORTO_MANIGLIA_DUPLICATORE
 10
34.414
 20
-10.8133
 30
4.5568
 70
192
 0
VERTEX
 8
SUPPORTO_MANIGLIA_DUPLICATORE
 10
25.414
 20
-10.819
 30
4.4261
 70
192
 0
VERTEX
 8
SUPPORTO_MANIGLIA_DUPLICATORE
 10
25.414
 20
-10.819
 30
4.4261
 70
192
 0
VERTEX
 8
SUPPORTO_MANIGLIA_DUPLICATORE
 10
34.414
 20
-10.819
 30
4.4261
 70
192
 0
VERTEX
 8
SUPPORTO_MANIGLIA_DUPLICATORE
 10
34.414
 20
-10.819
 30
4.4261
 70
192
 0
VERTEX
 8
SUPPORTO_MANIGLIA_DUPLICATORE
 10
25.414
 20
-10.8133
 30
4.2953
 70
192
 0
VERTEX
 8
SUPPORTO_MANIGLIA_DUPLICATORE
 10
25.414
 20
-10.8133
 30
4.2953
 70
192
 0
VERTEX
 8
SUPPORTO_MANIGLIA_DUPLICATORE
 10
34.414
 20
-10.8133
 30
4.2953
 70
192
 0
VERTEX
 8
SUPPORTO_MANIGLIA_DUPLICATORE
 10
34.414
 20
-10.8133
 30
4.2953
 70
192
 0
VERTEX
 8
SUPPORTO_MANIGLIA_DUPLICATORE
 10
25.414
 20
-10.7962
 30
4.1656
 70
192
 0
VERTEX
 8
SUPPORTO_MANIGLIA_DUPLICATORE
 10
25.414
 20
-10.7962
 30
4.1656
 70
192
 0
VERTEX
 8
SUPPORTO_MANIGLIA_DUPLICATORE
 10
34.414
 20
-10.7962
 30
4.1656
 70
192
 0
VERTEX
 8
SUPPORTO_MANIGLIA_DUPLICATORE
 10
34.414
 20
-10.7962
 30
4.1656
 70
192
 0
VERTEX
 8
SUPPORTO_MANIGLIA_DUPLICATORE
 10
25.414
 20
-10.7679
 30
4.0378
 70
192
 0
VERTEX
 8
SUPPORTO_MANIGLIA_DUPLICATORE
 10
25.414
 20
-10.7679
 30
4.0378
 70
192
 0
VERTEX
 8
SUPPORTO_MANIGLIA_DUPLICATORE
 10
34.414
 20
-10.7679
 30
4.0378
 70
192
 0
VERTEX
 8
SUPPORTO_MANIGLIA_DUPLICATORE
 10
34.414
 20
-10.7679
 30
4.0378
 70
192
 0
VERTEX
 8
SUPPORTO_MANIGLIA_DUPLICATORE
 10
25.414
 20
-10.7286
 30
3.913
 70
192
 0
VERTEX
 8
SUPPORTO_MANIGLIA_DUPLICATORE
 10
25.414
 20
-10.7286
 30
3.913
 70
192
 0
VERTEX
 8
SUPPORTO_MANIGLIA_DUPLICATORE
 10
34.414
 20
-10.7286
 30
3.913
 70
192
 0
VERTEX
 8
SUPPORTO_MANIGLIA_DUPLICATORE
 10
34.414
 20
-10.7286
 30
3.913
 70
192
 0
VERTEX
 8
SUPPORTO_MANIGLIA_DUPLICATORE
 10
25.414
 20
-10.6785
 30
3.7921
 70
192
 0
VERTEX
 8
SUPPORTO_MANIGLIA_DUPLICATORE
 10
25.414
 20
-10.6785
 30
3.7921
 70
192
 0
VERTEX
 8
SUPPORTO_MANIGLIA_DUPLICATORE
 10
34.414
 20
-10.6785
 30
3.7921
 70
192
 0
VERTEX
 8
SUPPORTO_MANIGLIA_DUPLICATORE
 10
34.414
 20
-10.6785
 30
3.7921
 70
192
 0
VERTEX
 8
SUPPORTO_MANIGLIA_DUPLICATORE
 10
25.414
 20
-10.6181
 30
3.6761
 70
192
 0
VERTEX
 8
SUPPORTO_MANIGLIA_DUPLICATORE
 10
25.414
 20
-10.6181
 30
3.6761
 70
192
 0
VERTEX
 8
SUPPORTO_MANIGLIA_DUPLICATORE
 10
34.414
 20
-10.6181
 30
3.6761
 70
192
 0
VERTEX
 8
SUPPORTO_MANIGLIA_DUPLICATORE
 10
34.414
 20
-10.6181
 30
3.6761
 70
192
 0
VERTEX
 8
SUPPORTO_MANIGLIA_DUPLICATORE
 10
25.414
 20
-10.5478
 30
3.5657
 70
192
 0
VERTEX
 8
SUPPORTO_MANIGLIA_DUPLICATORE
 10
25.414
 20
-10.5478
 30
3.5657
 70
192
 0
VERTEX
 8
SUPPORTO_MANIGLIA_DUPLICATORE
 10
34.414
 20
-10.5478
 30
3.5657
 70
192
 0
VERTEX
 8
SUPPORTO_MANIGLIA_DUPLICATORE
 10
34.414
 20
-10.5478
 30
3.5657
 70
192
 0
VERTEX
 8
SUPPORTO_MANIGLIA_DUPLICATORE
 10
25.414
 20
-10.4681
 30
3.4619
 70
192
 0
VERTEX
 8
SUPPORTO_MANIGLIA_DUPLICATORE
 10
25.414
 20
-10.4681
 30
3.4619
 70
192
 0
VERTEX
 8
SUPPORTO_MANIGLIA_DUPLICATORE
 10
34.414
 20
-10.4681
 30
3.4619
 70
192
 0
VERTEX
 8
SUPPORTO_MANIGLIA_DUPLICATORE
 10
34.414
 20
-10.4681
 30
3.4619
 70
192
 0
VERTEX
 8
SUPPORTO_MANIGLIA_DUPLICATORE
 10
25.414
 20
-10.3797
 30
3.3654
 70
192
 0
VERTEX
 8
SUPPORTO_MANIGLIA_DUPLICATORE
 10
25.414
 20
-10.3797
 30
3.3654
 70
192
 0
VERTEX
 8
SUPPORTO_MANIGLIA_DUPLICATORE
 10
34.414
 20
-10.3797
 30
3.3654
 70
192
 0
VERTEX
 8
SUPPORTO_MANIGLIA_DUPLICATORE
 10
34.414
 20
-10.3797
 30
3.3654
 70
192
 0
VERTEX
 8
SUPPORTO_MANIGLIA_DUPLICATORE
 10
25.414
 20
-10.2832
 30
3.277
 70
192
 0
VERTEX
 8
SUPPORTO_MANIGLIA_DUPLICATORE
 10
25.414
 20
-10.2832
 30
3.277
 70
192
 0
VERTEX
 8
SUPPORTO_MANIGLIA_DUPLICATORE
 10
34.414
 20
-10.2832
 30
3.277
 70
192
 0
VERTEX
 8
SUPPORTO_MANIGLIA_DUPLICATORE
 10
34.414
 20
-10.2832
 30
3.277
 70
192
 0
VERTEX
 8
SUPPORTO_MANIGLIA_DUPLICATORE
 10
25.414
 20
-10.1794
 30
3.1973
 70
192
 0
VERTEX
 8
SUPPORTO_MANIGLIA_DUPLICATORE
 10
25.414
 20
-10.1794
 30
3.1973
 70
192
 0
VERTEX
 8
SUPPORTO_MANIGLIA_DUPLICATORE
 10
34.414
 20
-10.1794
 30
3.1973
 70
192
 0
VERTEX
 8
SUPPORTO_MANIGLIA_DUPLICATORE
 10
34.414
 20
-10.1794
 30
3.1973
 70
192
 0
VERTEX
 8
SUPPORTO_MANIGLIA_DUPLICATORE
 10
25.414
 20
-10.069
 30
3.127
 70
192
 0
VERTEX
 8
SUPPORTO_MANIGLIA_DUPLICATORE
 10
25.414
 20
-10.069
 30
3.127
 70
192
 0
VERTEX
 8
SUPPORTO_MANIGLIA_DUPLICATORE
 10
34.414
 20
-10.069
 30
3.127
 70
192
 0
VERTEX
 8
SUPPORTO_MANIGLIA_DUPLICATORE
 10
34.414
 20
-10.069
 30
3.127
 70
192
 0
VERTEX
 8
SUPPORTO_MANIGLIA_DUPLICATORE
 10
25.414
 20
-9.953
 30
3.0666
 70
192
 0
VERTEX
 8
SUPPORTO_MANIGLIA_DUPLICATORE
 10
25.414
 20
-9.953
 30
3.0666
 70
192
 0
VERTEX
 8
SUPPORTO_MANIGLIA_DUPLICATORE
 10
34.414
 20
-9.953
 30
3.0666
 70
192
 0
VERTEX
 8
SUPPORTO_MANIGLIA_DUPLICATORE
 10
34.414
 20
-9.953
 30
3.0666
 70
192
 0
VERTEX
 8
SUPPORTO_MANIGLIA_DUPLICATORE
 10
25.414
 20
-9.8321
 30
3.0165
 70
192
 0
VERTEX
 8
SUPPORTO_MANIGLIA_DUPLICATORE
 10
25.414
 20
-9.8321
 30
3.0165
 70
192
 0
VERTEX
 8
SUPPORTO_MANIGLIA_DUPLICATORE
 10
34.414
 20
-9.8321
 30
3.0165
 70
192
 0
VERTEX
 8
SUPPORTO_MANIGLIA_DUPLICATORE
 10
34.414
 20
-9.8321
 30
3.0165
 70
192
 0
VERTEX
 8
SUPPORTO_MANIGLIA_DUPLICATORE
 10
25.414
 20
-9.7073
 30
2.9772
 70
192
 0
VERTEX
 8
SUPPORTO_MANIGLIA_DUPLICATORE
 10
25.414
 20
-9.7073
 30
2.9772
 70
192
 0
VERTEX
 8
SUPPORTO_MANIGLIA_DUPLICATORE
 10
34.414
 20
-9.7073
 30
2.9772
 70
192
 0
VERTEX
 8
SUPPORTO_MANIGLIA_DUPLICATORE
 10
34.414
 20
-9.7073
 30
2.9772
 70
192
 0
VERTEX
 8
SUPPORTO_MANIGLIA_DUPLICATORE
 10
25.414
 20
-9.5795
 30
2.9488
 70
192
 0
VERTEX
 8
SUPPORTO_MANIGLIA_DUPLICATORE
 10
25.414
 20
-9.5795
 30
2.9488
 70
192
 0
VERTEX
 8
SUPPORTO_MANIGLIA_DUPLICATORE
 10
34.414
 20
-9.5795
 30
2.9488
 70
192
 0
VERTEX
 8
SUPPORTO_MANIGLIA_DUPLICATORE
 10
34.414
 20
-9.5795
 30
2.9488
 70
192
 0
VERTEX
 8
SUPPORTO_MANIGLIA_DUPLICATORE
 10
25.414
 20
-9.4498
 30
2.9318
 70
192
 0
VERTEX
 8
SUPPORTO_MANIGLIA_DUPLICATORE
 10
25.414
 20
-9.4498
 30
2.9318
 70
192
 0
VERTEX
 8
SUPPORTO_MANIGLIA_DUPLICATORE
 10
34.414
 20
-9.4498
 30
2.9318
 70
192
 0
VERTEX
 8
SUPPORTO_MANIGLIA_DUPLICATORE
 10
34.414
 20
-9.4498
 30
2.9318
 70
192
 0
VERTEX
 8
SUPPORTO_MANIGLIA_DUPLICATORE
 10
25.414
 20
-9.319
 30
2.9261
 70
192
 0
VERTEX
 8
SUPPORTO_MANIGLIA_DUPLICATORE
 10
25.414
 20
-9.319
 30
2.9261
 70
192
 0
VERTEX
 8
SUPPORTO_MANIGLIA_DUPLICATORE
 10
34.414
 20
-9.319
 30
2.9261
 70
192
 0
VERTEX
 8
SUPPORTO_MANIGLIA_DUPLICATORE
 10
34.414
 20
-9.319
 30
2.9261
 70
192
 0
VERTEX
 8
SUPPORTO_MANIGLIA_DUPLICATORE
 10
25.414
 20
-9.319
 30
4.4261
 70
192
 0
VERTEX
 8
SUPPORTO_MANIGLIA_DUPLICATORE
 10
25.414
 20
-9.319
 30
5.9261
 70
192
 0
VERTEX
 8
SUPPORTO_MANIGLIA_DUPLICATORE
 10
34.414
 20
-9.319
 30
5.9261
 70
192
 0
VERTEX
 8
SUPPORTO_MANIGLIA_DUPLICATORE
 10
34.414
 20
-9.319
 30
4.4261
 70
192
 0
VERTEX
 8
SUPPORTO_MANIGLIA_DUPLICATORE
 10
25.414
 20
-9.319
 30
4.4261
 70
192
 0
VERTEX
 8
SUPPORTO_MANIGLIA_DUPLICATORE
 10
25.414
 20
-9.319
 30
2.9261
 70
192
 0
VERTEX
 8
SUPPORTO_MANIGLIA_DUPLICATORE
 10
34.414
 20
-9.319
 30
2.9261
 70
192
 0
VERTEX
 8
SUPPORTO_MANIGLIA_DUPLICATORE
 10
34.414
 20
-9.319
 30
4.4261
 70
192
 0
VERTEX
 8
SUPPORTO_MANIGLIA_DUPLICATORE
 10
25.414
 20
-5.1152
 30
4.4265
 70
192
 0
VERTEX
 8
SUPPORTO_MANIGLIA_DUPLICATORE
 10
25.414
 20
-5.1152
 30
5.9265
 70
192
 0
VERTEX
 8
SUPPORTO_MANIGLIA_DUPLICATORE
 10
34.414
 20
-5.1152
 30
5.9265
 70
192
 0
VERTEX
 8
SUPPORTO_MANIGLIA_DUPLICATORE
 10
34.414
 20
-5.1152
 30
4.4265
 70
192
 0
VERTEX
 8
SUPPORTO_MANIGLIA_DUPLICATORE
 10
25.414
 20
-5.1152
 30
4.4265
 70
192
 0
VERTEX
 8
SUPPORTO_MANIGLIA_DUPLICATORE
 10
25.414
 20
-5.1152
 30
2.9265
 70
192
 0
VERTEX
 8
SUPPORTO_MANIGLIA_DUPLICATORE
 10
34.414
 20
-5.1152
 30
2.9265
 70
192
 0
VERTEX
 8
SUPPORTO_MANIGLIA_DUPLICATORE
 10
34.414
 20
-5.1152
 30
4.4265
 70
192
 0
VERTEX
 8
SUPPORTO_MANIGLIA_DUPLICATORE
 10
25.414
 20
-4.3153
 30
4.4265
 70
192
 0
VERTEX
 8
SUPPORTO_MANIGLIA_DUPLICATORE
 10
25.414
 20
-4.3153
 30
5.9265
 70
192
 0
VERTEX
 8
SUPPORTO_MANIGLIA_DUPLICATORE
 10
34.414
 20
-4.3153
 30
5.9265
 70
192
 0
VERTEX
 8
SUPPORTO_MANIGLIA_DUPLICATORE
 10
34.414
 20
-4.3153
 30
4.4265
 70
192
 0
VERTEX
 8
SUPPORTO_MANIGLIA_DUPLICATORE
 10
25.414
 20
-4.3153
 30
4.4265
 70
192
 0
VERTEX
 8
SUPPORTO_MANIGLIA_DUPLICATORE
 10
25.414
 20
-4.3153
 30
2.9265
 70
192
 0
VERTEX
 8
SUPPORTO_MANIGLIA_DUPLICATORE
 10
34.414
 20
-4.3153
 30
2.9265
 70
192
 0
VERTEX
 8
SUPPORTO_MANIGLIA_DUPLICATORE
 10
34.414
 20
-4.3153
 30
4.4265
 70
192
 0
VERTEX
 8
SUPPORTO_MANIGLIA_DUPLICATORE
 10
0
 20
0
 30
0
 70
128
 71
164
 72
172
 73
171
 74
163
 0
VERTEX
 8
SUPPORTO_MANIGLIA_DUPLICATORE
 10
0
 20
0
 30
0
 70
128
 71
166
 72
174
 73
173
 74
165
 0
VERTEX
 8
SUPPORTO_MANIGLIA_DUPLICATORE
 10
0
 20
0
 30
0
 70
128
 71
1
 72
3
 73
7
 74
7
 0
VERTEX
 8
SUPPORTO_MANIGLIA_DUPLICATORE
 10
0
 20
0
 30
0
 70
128
 71
4
 72
5
 73
9
 74
8
 0
VERTEX
 8
SUPPORTO_MANIGLIA_DUPLICATORE
 10
0
 20
0
 30
0
 70
128
 71
6
 72
2
 73
10
 74
10
 0
VERTEX
 8
SUPPORTO_MANIGLIA_DUPLICATORE
 10
0
 20
0
 30
0
 70
128
 71
1
 72
7
 73
11
 74
11
 0
VERTEX
 8
SUPPORTO_MANIGLIA_DUPLICATORE
 10
0
 20
0
 30
0
 70
128
 71
8
 72
9
 73
13
 74
12
 0
VERTEX
 8
SUPPORTO_MANIGLIA_DUPLICATORE
 10
0
 20
0
 30
0
 70
128
 71
10
 72
2
 73
14
 74
14
 0
VERTEX
 8
SUPPORTO_MANIGLIA_DUPLICATORE
 10
0
 20
0
 30
0
 70
128
 71
1
 72
11
 73
15
 74
15
 0
VERTEX
 8
SUPPORTO_MANIGLIA_DUPLICATORE
 10
0
 20
0
 30
0
 70
128
 71
12
 72
13
 73
17
 74
16
 0
VERTEX
 8
SUPPORTO_MANIGLIA_DUPLICATORE
 10
0
 20
0
 30
0
 70
128
 71
14
 72
2
 73
18
 74
18
 0
VERTEX
 8
SUPPORTO_MANIGLIA_DUPLICATORE
 10
0
 20
0
 30
0
 70
128
 71
1
 72
15
 73
19
 74
19
 0
VERTEX
 8
SUPPORTO_MANIGLIA_DUPLICATORE
 10
0
 20
0
 30
0
 70
128
 71
16
 72
17
 73
21
 74
20
 0
VERTEX
 8
SUPPORTO_MANIGLIA_DUPLICATORE
 10
0
 20
0
 30
0
 70
128
 71
18
 72
2
 73
22
 74
22
 0
VERTEX
 8
SUPPORTO_MANIGLIA_DUPLICATORE
 10
0
 20
0
 30
0
 70
128
 71
1
 72
19
 73
23
 74
23
 0
VERTEX
 8
SUPPORTO_MANIGLIA_DUPLICATORE
 10
0
 20
0
 30
0
 70
128
 71
20
 72
21
 73
25
 74
24
 0
VERTEX
 8
SUPPORTO_MANIGLIA_DUPLICATORE
 10
0
 20
0
 30
0
 70
128
 71
22
 72
2
 73
26
 74
26
 0
VERTEX
 8
SUPPORTO_MANIGLIA_DUPLICATORE
 10
0
 20
0
 30
0
 70
128
 71
1
 72
23
 73
27
 74
27
 0
VERTEX
 8
SUPPORTO_MANIGLIA_DUPLICATORE
 10
0
 20
0
 30
0
 70
128
 71
24
 72
25
 73
29
 74
28
 0
VERTEX
 8
SUPPORTO_MANIGLIA_DUPLICATORE
 10
0
 20
0
 30
0
 70
128
 71
26
 72
2
 73
30
 74
30
 0
VERTEX
 8
SUPPORTO_MANIGLIA_DUPLICATORE
 10
0
 20
0
 30
0
 70
128
 71
1
 72
27
 73
31
 74
31
 0
VERTEX
 8
SUPPORTO_MANIGLIA_DUPLICATORE
 10
0
 20
0
 30
0
 70
128
 71
28
 72
29
 73
33
 74
32
 0
VERTEX
 8
SUPPORTO_MANIGLIA_DUPLICATORE
 10
0
 20
0
 30
0
 70
128
 71
30
 72
2
 73
34
 74
34
 0
VERTEX
 8
SUPPORTO_MANIGLIA_DUPLICATORE
 10
0
 20
0
 30
0
 70
128
 71
1
 72
31
 73
35
 74
35
 0
VERTEX
 8
SUPPORTO_MANIGLIA_DUPLICATORE
 10
0
 20
0
 30
0
 70
128
 71
32
 72
33
 73
37
 74
36
 0
VERTEX
 8
SUPPORTO_MANIGLIA_DUPLICATORE
 10
0
 20
0
 30
0
 70
128
 71
34
 72
2
 73
38
 74
38
 0
VERTEX
 8
SUPPORTO_MANIGLIA_DUPLICATORE
 10
0
 20
0
 30
0
 70
128
 71
1
 72
35
 73
39
 74
39
 0
VERTEX
 8
SUPPORTO_MANIGLIA_DUPLICATORE
 10
0
 20
0
 30
0
 70
128
 71
36
 72
37
 73
41
 74
40
 0
VERTEX
 8
SUPPORTO_MANIGLIA_DUPLICATORE
 10
0
 20
0
 30
0
 70
128
 71
38
 72
2
 73
42
 74
42
 0
VERTEX
 8
SUPPORTO_MANIGLIA_DUPLICATORE
 10
0
 20
0
 30
0
 70
128
 71
1
 72
39
 73
43
 74
43
 0
VERTEX
 8
SUPPORTO_MANIGLIA_DUPLICATORE
 10
0
 20
0
 30
0
 70
128
 71
40
 72
41
 73
45
 74
44
 0
VERTEX
 8
SUPPORTO_MANIGLIA_DUPLICATORE
 10
0
 20
0
 30
0
 70
128
 71
42
 72
2
 73
46
 74
46
 0
VERTEX
 8
SUPPORTO_MANIGLIA_DUPLICATORE
 10
0
 20
0
 30
0
 70
128
 71
1
 72
43
 73
47
 74
47
 0
VERTEX
 8
SUPPORTO_MANIGLIA_DUPLICATORE
 10
0
 20
0
 30
0
 70
128
 71
44
 72
45
 73
49
 74
48
 0
VERTEX
 8
SUPPORTO_MANIGLIA_DUPLICATORE
 10
0
 20
0
 30
0
 70
128
 71
46
 72
2
 73
50
 74
50
 0
VERTEX
 8
SUPPORTO_MANIGLIA_DUPLICATORE
 10
0
 20
0
 30
0
 70
128
 71
1
 72
47
 73
51
 74
51
 0
VERTEX
 8
SUPPORTO_MANIGLIA_DUPLICATORE
 10
0
 20
0
 30
0
 70
128
 71
48
 72
49
 73
53
 74
52
 0
VERTEX
 8
SUPPORTO_MANIGLIA_DUPLICATORE
 10
0
 20
0
 30
0
 70
128
 71
50
 72
2
 73
54
 74
54
 0
VERTEX
 8
SUPPORTO_MANIGLIA_DUPLICATORE
 10
0
 20
0
 30
0
 70
128
 71
1
 72
51
 73
55
 74
55
 0
VERTEX
 8
SUPPORTO_MANIGLIA_DUPLICATORE
 10
0
 20
0
 30
0
 70
128
 71
52
 72
53
 73
57
 74
56
 0
VERTEX
 8
SUPPORTO_MANIGLIA_DUPLICATORE
 10
0
 20
0
 30
0
 70
128
 71
54
 72
2
 73
58
 74
58
 0
VERTEX
 8
SUPPORTO_MANIGLIA_DUPLICATORE
 10
0
 20
0
 30
0
 70
128
 71
1
 72
55
 73
59
 74
59
 0
VERTEX
 8
SUPPORTO_MANIGLIA_DUPLICATORE
 10
0
 20
0
 30
0
 70
128
 71
56
 72
57
 73
61
 74
60
 0
VERTEX
 8
SUPPORTO_MANIGLIA_DUPLICATORE
 10
0
 20
0
 30
0
 70
128
 71
58
 72
2
 73
62
 74
62
 0
VERTEX
 8
SUPPORTO_MANIGLIA_DUPLICATORE
 10
0
 20
0
 30
0
 70
128
 71
1
 72
59
 73
63
 74
63
 0
VERTEX
 8
SUPPORTO_MANIGLIA_DUPLICATORE
 10
0
 20
0
 30
0
 70
128
 71
60
 72
61
 73
65
 74
64
 0
VERTEX
 8
SUPPORTO_MANIGLIA_DUPLICATORE
 10
0
 20
0
 30
0
 70
128
 71
62
 72
2
 73
66
 74
66
 0
VERTEX
 8
SUPPORTO_MANIGLIA_DUPLICATORE
 10
0
 20
0
 30
0
 70
128
 71
1
 72
63
 73
67
 74
67
 0
VERTEX
 8
SUPPORTO_MANIGLIA_DUPLICATORE
 10
0
 20
0
 30
0
 70
128
 71
64
 72
65
 73
69
 74
68
 0
VERTEX
 8
SUPPORTO_MANIGLIA_DUPLICATORE
 10
0
 20
0
 30
0
 70
128
 71
66
 72
2
 73
70
 74
70
 0
VERTEX
 8
SUPPORTO_MANIGLIA_DUPLICATORE
 10
0
 20
0
 30
0
 70
128
 71
1
 72
67
 73
71
 74
71
 0
VERTEX
 8
SUPPORTO_MANIGLIA_DUPLICATORE
 10
0
 20
0
 30
0
 70
128
 71
68
 72
69
 73
73
 74
72
 0
VERTEX
 8
SUPPORTO_MANIGLIA_DUPLICATORE
 10
0
 20
0
 30
0
 70
128
 71
70
 72
2
 73
74
 74
74
 0
VERTEX
 8
SUPPORTO_MANIGLIA_DUPLICATORE
 10
0
 20
0
 30
0
 70
128
 71
1
 72
71
 73
75
 74
75
 0
VERTEX
 8
SUPPORTO_MANIGLIA_DUPLICATORE
 10
0
 20
0
 30
0
 70
128
 71
72
 72
73
 73
77
 74
76
 0
VERTEX
 8
SUPPORTO_MANIGLIA_DUPLICATORE
 10
0
 20
0
 30
0
 70
128
 71
74
 72
2
 73
78
 74
78
 0
VERTEX
 8
SUPPORTO_MANIGLIA_DUPLICATORE
 10
0
 20
0
 30
0
 70
128
 71
1
 72
75
 73
79
 74
79
 0
VERTEX
 8
SUPPORTO_MANIGLIA_DUPLICATORE
 10
0
 20
0
 30
0
 70
128
 71
76
 72
77
 73
81
 74
80
 0
VERTEX
 8
SUPPORTO_MANIGLIA_DUPLICATORE
 10
0
 20
0
 30
0
 70
128
 71
78
 72
2
 73
82
 74
82
 0
VERTEX
 8
SUPPORTO_MANIGLIA_DUPLICATORE
 10
0
 20
0
 30
0
 70
128
 71
1
 72
79
 73
83
 74
83
 0
VERTEX
 8
SUPPORTO_MANIGLIA_DUPLICATORE
 10
0
 20
0
 30
0
 70
128
 71
80
 72
81
 73
85
 74
84
 0
VERTEX
 8
SUPPORTO_MANIGLIA_DUPLICATORE
 10
0
 20
0
 30
0
 70
128
 71
82
 72
2
 73
86
 74
86
 0
VERTEX
 8
SUPPORTO_MANIGLIA_DUPLICATORE
 10
0
 20
0
 30
0
 70
128
 71
1
 72
83
 73
87
 74
87
 0
VERTEX
 8
SUPPORTO_MANIGLIA_DUPLICATORE
 10
0
 20
0
 30
0
 70
128
 71
84
 72
85
 73
89
 74
88
 0
VERTEX
 8
SUPPORTO_MANIGLIA_DUPLICATORE
 10
0
 20
0
 30
0
 70
128
 71
86
 72
2
 73
90
 74
90
 0
VERTEX
 8
SUPPORTO_MANIGLIA_DUPLICATORE
 10
0
 20
0
 30
0
 70
128
 71
1
 72
87
 73
91
 74
91
 0
VERTEX
 8
SUPPORTO_MANIGLIA_DUPLICATORE
 10
0
 20
0
 30
0
 70
128
 71
88
 72
89
 73
93
 74
92
 0
VERTEX
 8
SUPPORTO_MANIGLIA_DUPLICATORE
 10
0
 20
0
 30
0
 70
128
 71
90
 72
2
 73
94
 74
94
 0
VERTEX
 8
SUPPORTO_MANIGLIA_DUPLICATORE
 10
0
 20
0
 30
0
 70
128
 71
1
 72
91
 73
95
 74
95
 0
VERTEX
 8
SUPPORTO_MANIGLIA_DUPLICATORE
 10
0
 20
0
 30
0
 70
128
 71
92
 72
93
 73
97
 74
96
 0
VERTEX
 8
SUPPORTO_MANIGLIA_DUPLICATORE
 10
0
 20
0
 30
0
 70
128
 71
94
 72
2
 73
98
 74
98
 0
VERTEX
 8
SUPPORTO_MANIGLIA_DUPLICATORE
 10
0
 20
0
 30
0
 70
128
 71
1
 72
95
 73
99
 74
99
 0
VERTEX
 8
SUPPORTO_MANIGLIA_DUPLICATORE
 10
0
 20
0
 30
0
 70
128
 71
96
 72
97
 73
101
 74
100
 0
VERTEX
 8
SUPPORTO_MANIGLIA_DUPLICATORE
 10
0
 20
0
 30
0
 70
128
 71
98
 72
2
 73
102
 74
102
 0
VERTEX
 8
SUPPORTO_MANIGLIA_DUPLICATORE
 10
0
 20
0
 30
0
 70
128
 71
1
 72
99
 73
103
 74
103
 0
VERTEX
 8
SUPPORTO_MANIGLIA_DUPLICATORE
 10
0
 20
0
 30
0
 70
128
 71
100
 72
101
 73
105
 74
104
 0
VERTEX
 8
SUPPORTO_MANIGLIA_DUPLICATORE
 10
0
 20
0
 30
0
 70
128
 71
102
 72
2
 73
106
 74
106
 0
VERTEX
 8
SUPPORTO_MANIGLIA_DUPLICATORE
 10
0
 20
0
 30
0
 70
128
 71
1
 72
103
 73
107
 74
107
 0
VERTEX
 8
SUPPORTO_MANIGLIA_DUPLICATORE
 10
0
 20
0
 30
0
 70
128
 71
104
 72
105
 73
109
 74
108
 0
VERTEX
 8
SUPPORTO_MANIGLIA_DUPLICATORE
 10
0
 20
0
 30
0
 70
128
 71
106
 72
2
 73
110
 74
110
 0
VERTEX
 8
SUPPORTO_MANIGLIA_DUPLICATORE
 10
0
 20
0
 30
0
 70
128
 71
1
 72
107
 73
111
 74
111
 0
VERTEX
 8
SUPPORTO_MANIGLIA_DUPLICATORE
 10
0
 20
0
 30
0
 70
128
 71
108
 72
109
 73
113
 74
112
 0
VERTEX
 8
SUPPORTO_MANIGLIA_DUPLICATORE
 10
0
 20
0
 30
0
 70
128
 71
110
 72
2
 73
114
 74
114
 0
VERTEX
 8
SUPPORTO_MANIGLIA_DUPLICATORE
 10
0
 20
0
 30
0
 70
128
 71
1
 72
111
 73
115
 74
115
 0
VERTEX
 8
SUPPORTO_MANIGLIA_DUPLICATORE
 10
0
 20
0
 30
0
 70
128
 71
112
 72
113
 73
117
 74
116
 0
VERTEX
 8
SUPPORTO_MANIGLIA_DUPLICATORE
 10
0
 20
0
 30
0
 70
128
 71
114
 72
2
 73
118
 74
118
 0
VERTEX
 8
SUPPORTO_MANIGLIA_DUPLICATORE
 10
0
 20
0
 30
0
 70
128
 71
1
 72
115
 73
119
 74
119
 0
VERTEX
 8
SUPPORTO_MANIGLIA_DUPLICATORE
 10
0
 20
0
 30
0
 70
128
 71
116
 72
117
 73
121
 74
120
 0
VERTEX
 8
SUPPORTO_MANIGLIA_DUPLICATORE
 10
0
 20
0
 30
0
 70
128
 71
118
 72
2
 73
122
 74
122
 0
VERTEX
 8
SUPPORTO_MANIGLIA_DUPLICATORE
 10
0
 20
0
 30
0
 70
128
 71
1
 72
119
 73
123
 74
123
 0
VERTEX
 8
SUPPORTO_MANIGLIA_DUPLICATORE
 10
0
 20
0
 30
0
 70
128
 71
120
 72
121
 73
125
 74
124
 0
VERTEX
 8
SUPPORTO_MANIGLIA_DUPLICATORE
 10
0
 20
0
 30
0
 70
128
 71
122
 72
2
 73
126
 74
126
 0
VERTEX
 8
SUPPORTO_MANIGLIA_DUPLICATORE
 10
0
 20
0
 30
0
 70
128
 71
1
 72
123
 73
127
 74
127
 0
VERTEX
 8
SUPPORTO_MANIGLIA_DUPLICATORE
 10
0
 20
0
 30
0
 70
128
 71
124
 72
125
 73
129
 74
128
 0
VERTEX
 8
SUPPORTO_MANIGLIA_DUPLICATORE
 10
0
 20
0
 30
0
 70
128
 71
126
 72
2
 73
130
 74
130
 0
VERTEX
 8
SUPPORTO_MANIGLIA_DUPLICATORE
 10
0
 20
0
 30
0
 70
128
 71
1
 72
127
 73
131
 74
131
 0
VERTEX
 8
SUPPORTO_MANIGLIA_DUPLICATORE
 10
0
 20
0
 30
0
 70
128
 71
128
 72
129
 73
133
 74
132
 0
VERTEX
 8
SUPPORTO_MANIGLIA_DUPLICATORE
 10
0
 20
0
 30
0
 70
128
 71
130
 72
2
 73
134
 74
134
 0
VERTEX
 8
SUPPORTO_MANIGLIA_DUPLICATORE
 10
0
 20
0
 30
0
 70
128
 71
1
 72
131
 73
135
 74
135
 0
VERTEX
 8
SUPPORTO_MANIGLIA_DUPLICATORE
 10
0
 20
0
 30
0
 70
128
 71
132
 72
133
 73
137
 74
136
 0
VERTEX
 8
SUPPORTO_MANIGLIA_DUPLICATORE
 10
0
 20
0
 30
0
 70
128
 71
134
 72
2
 73
138
 74
138
 0
VERTEX
 8
SUPPORTO_MANIGLIA_DUPLICATORE
 10
0
 20
0
 30
0
 70
128
 71
1
 72
135
 73
139
 74
139
 0
VERTEX
 8
SUPPORTO_MANIGLIA_DUPLICATORE
 10
0
 20
0
 30
0
 70
128
 71
136
 72
137
 73
141
 74
140
 0
VERTEX
 8
SUPPORTO_MANIGLIA_DUPLICATORE
 10
0
 20
0
 30
0
 70
128
 71
138
 72
2
 73
142
 74
142
 0
VERTEX
 8
SUPPORTO_MANIGLIA_DUPLICATORE
 10
0
 20
0
 30
0
 70
128
 71
1
 72
139
 73
143
 74
143
 0
VERTEX
 8
SUPPORTO_MANIGLIA_DUPLICATORE
 10
0
 20
0
 30
0
 70
128
 71
140
 72
141
 73
145
 74
144
 0
VERTEX
 8
SUPPORTO_MANIGLIA_DUPLICATORE
 10
0
 20
0
 30
0
 70
128
 71
142
 72
2
 73
146
 74
146
 0
VERTEX
 8
SUPPORTO_MANIGLIA_DUPLICATORE
 10
0
 20
0
 30
0
 70
128
 71
1
 72
143
 73
147
 74
147
 0
VERTEX
 8
SUPPORTO_MANIGLIA_DUPLICATORE
 10
0
 20
0
 30
0
 70
128
 71
144
 72
145
 73
149
 74
148
 0
VERTEX
 8
SUPPORTO_MANIGLIA_DUPLICATORE
 10
0
 20
0
 30
0
 70
128
 71
146
 72
2
 73
150
 74
150
 0
VERTEX
 8
SUPPORTO_MANIGLIA_DUPLICATORE
 10
0
 20
0
 30
0
 70
128
 71
167
 72
170
 73
169
 74
168
 0
VERTEX
 8
SUPPORTO_MANIGLIA_DUPLICATORE
 10
0
 20
0
 30
0
 70
128
 71
171
 72
172
 73
173
 74
174
 0
VERTEX
 8
SUPPORTO_MANIGLIA_DUPLICATORE
 10
0
 20
0
 30
0
 70
128
 71
151
 72
159
 73
160
 74
152
 0
VERTEX
 8
SUPPORTO_MANIGLIA_DUPLICATORE
 10
0
 20
0
 30
0
 70
128
 71
152
 72
160
 73
161
 74
153
 0
VERTEX
 8
SUPPORTO_MANIGLIA_DUPLICATORE
 10
0
 20
0
 30
0
 70
128
 71
153
 72
161
 73
162
 74
154
 0
VERTEX
 8
SUPPORTO_MANIGLIA_DUPLICATORE
 10
0
 20
0
 30
0
 70
128
 71
154
 72
162
 73
159
 74
151
 0
VERTEX
 8
SUPPORTO_MANIGLIA_DUPLICATORE
 10
0
 20
0
 30
0
 70
128
 71
155
 72
163
 73
166
 74
158
 0
VERTEX
 8
SUPPORTO_MANIGLIA_DUPLICATORE
 10
0
 20
0
 30
0
 70
128
 71
158
 72
166
 73
165
 74
157
 0
VERTEX
 8
SUPPORTO_MANIGLIA_DUPLICATORE
 10
0
 20
0
 30
0
 70
128
 71
157
 72
165
 73
164
 74
156
 0
VERTEX
 8
SUPPORTO_MANIGLIA_DUPLICATORE
 10
0
 20
0
 30
0
 70
128
 71
156
 72
164
 73
163
 74
155
 0
VERTEX
 8
SUPPORTO_MANIGLIA_DUPLICATORE
 10
0
 20
0
 30
0
 70
128
 71
159
 72
167
 73
168
 74
160
 0
VERTEX
 8
SUPPORTO_MANIGLIA_DUPLICATORE
 10
0
 20
0
 30
0
 70
128
 71
160
 72
168
 73
169
 74
161
 0
VERTEX
 8
SUPPORTO_MANIGLIA_DUPLICATORE
 10
0
 20
0
 30
0
 70
128
 71
161
 72
169
 73
170
 74
162
 0
VERTEX
 8
SUPPORTO_MANIGLIA_DUPLICATORE
 10
0
 20
0
 30
0
 70
128
 71
162
 72
170
 73
167
 74
159
 0
VERTEX
 8
SUPPORTO_MANIGLIA_DUPLICATORE
 10
0
 20
0
 30
0
 70
128
 71
163
 72
171
 73
174
 74
166
 0
VERTEX
 8
SUPPORTO_MANIGLIA_DUPLICATORE
 10
0
 20
0
 30
0
 70
128
 71
164
 72
165
 73
173
 74
172
 0
SEQEND
 0
POLYLINE
 8
SUPPORTO_MANIGLIA
 66
1
 10
0.0
 20
0.0
 30
0.0
 70
64
 71
174
 72
126
 0
VERTEX
 8
SUPPORTO_MANIGLIA
 10
-30.5775
 20
-9.319
 30
4.4261
 70
192
 0
VERTEX
 8
SUPPORTO_MANIGLIA
 10
-21.5775
 20
-9.319
 30
4.4261
 70
192
 0
VERTEX
 8
SUPPORTO_MANIGLIA
 10
-30.5775
 20
-9.319
 30
5.9261
 70
192
 0
VERTEX
 8
SUPPORTO_MANIGLIA
 10
-30.5775
 20
-9.319
 30
5.9261
 70
192
 0
VERTEX
 8
SUPPORTO_MANIGLIA
 10
-21.5775
 20
-9.319
 30
5.9261
 70
192
 0
VERTEX
 8
SUPPORTO_MANIGLIA
 10
-21.5775
 20
-9.319
 30
5.9261
 70
192
 0
VERTEX
 8
SUPPORTO_MANIGLIA
 10
-30.5775
 20
-9.4498
 30
5.9203
 70
192
 0
VERTEX
 8
SUPPORTO_MANIGLIA
 10
-30.5775
 20
-9.4498
 30
5.9203
 70
192
 0
VERTEX
 8
SUPPORTO_MANIGLIA
 10
-21.5775
 20
-9.4498
 30
5.9203
 70
192
 0
VERTEX
 8
SUPPORTO_MANIGLIA
 10
-21.5775
 20
-9.4498
 30
5.9203
 70
192
 0
VERTEX
 8
SUPPORTO_MANIGLIA
 10
-30.5775
 20
-9.5795
 30
5.9033
 70
192
 0
VERTEX
 8
SUPPORTO_MANIGLIA
 10
-30.5775
 20
-9.5795
 30
5.9033
 70
192
 0
VERTEX
 8
SUPPORTO_MANIGLIA
 10
-21.5775
 20
-9.5795
 30
5.9033
 70
192
 0
VERTEX
 8
SUPPORTO_MANIGLIA
 10
-21.5775
 20
-9.5795
 30
5.9033
 70
192
 0
VERTEX
 8
SUPPORTO_MANIGLIA
 10
-30.5775
 20
-9.7073
 30
5.8749
 70
192
 0
VERTEX
 8
SUPPORTO_MANIGLIA
 10
-30.5775
 20
-9.7073
 30
5.8749
 70
192
 0
VERTEX
 8
SUPPORTO_MANIGLIA
 10
-21.5775
 20
-9.7073
 30
5.8749
 70
192
 0
VERTEX
 8
SUPPORTO_MANIGLIA
 10
-21.5775
 20
-9.7073
 30
5.8749
 70
192
 0
VERTEX
 8
SUPPORTO_MANIGLIA
 10
-30.5775
 20
-9.8321
 30
5.8356
 70
192
 0
VERTEX
 8
SUPPORTO_MANIGLIA
 10
-30.5775
 20
-9.8321
 30
5.8356
 70
192
 0
VERTEX
 8
SUPPORTO_MANIGLIA
 10
-21.5775
 20
-9.8321
 30
5.8356
 70
192
 0
VERTEX
 8
SUPPORTO_MANIGLIA
 10
-21.5775
 20
-9.8321
 30
5.8356
 70
192
 0
VERTEX
 8
SUPPORTO_MANIGLIA
 10
-30.5775
 20
-9.953
 30
5.7855
 70
192
 0
VERTEX
 8
SUPPORTO_MANIGLIA
 10
-30.5775
 20
-9.953
 30
5.7855
 70
192
 0
VERTEX
 8
SUPPORTO_MANIGLIA
 10
-21.5775
 20
-9.953
 30
5.7855
 70
192
 0
VERTEX
 8
SUPPORTO_MANIGLIA
 10
-21.5775
 20
-9.953
 30
5.7855
 70
192
 0
VERTEX
 8
SUPPORTO_MANIGLIA
 10
-30.5775
 20
-10.069
 30
5.7251
 70
192
 0
VERTEX
 8
SUPPORTO_MANIGLIA
 10
-30.5775
 20
-10.069
 30
5.7251
 70
192
 0
VERTEX
 8
SUPPORTO_MANIGLIA
 10
-21.5775
 20
-10.069
 30
5.7251
 70
192
 0
VERTEX
 8
SUPPORTO_MANIGLIA
 10
-21.5775
 20
-10.069
 30
5.7251
 70
192
 0
VERTEX
 8
SUPPORTO_MANIGLIA
 10
-30.5775
 20
-10.1794
 30
5.6548
 70
192
 0
VERTEX
 8
SUPPORTO_MANIGLIA
 10
-30.5775
 20
-10.1794
 30
5.6548
 70
192
 0
VERTEX
 8
SUPPORTO_MANIGLIA
 10
-21.5775
 20
-10.1794
 30
5.6548
 70
192
 0
VERTEX
 8
SUPPORTO_MANIGLIA
 10
-21.5775
 20
-10.1794
 30
5.6548
 70
192
 0
VERTEX
 8
SUPPORTO_MANIGLIA
 10
-30.5775
 20
-10.2832
 30
5.5751
 70
192
 0
VERTEX
 8
SUPPORTO_MANIGLIA
 10
-30.5775
 20
-10.2832
 30
5.5751
 70
192
 0
VERTEX
 8
SUPPORTO_MANIGLIA
 10
-21.5775
 20
-10.2832
 30
5.5751
 70
192
 0
VERTEX
 8
SUPPORTO_MANIGLIA
 10
-21.5775
 20
-10.2832
 30
5.5751
 70
192
 0
VERTEX
 8
SUPPORTO_MANIGLIA
 10
-30.5775
 20
-10.3797
 30
5.4867
 70
192
 0
VERTEX
 8
SUPPORTO_MANIGLIA
 10
-30.5775
 20
-10.3797
 30
5.4867
 70
192
 0
VERTEX
 8
SUPPORTO_MANIGLIA
 10
-21.5775
 20
-10.3797
 30
5.4867
 70
192
 0
VERTEX
 8
SUPPORTO_MANIGLIA
 10
-21.5775
 20
-10.3797
 30
5.4867
 70
192
 0
VERTEX
 8
SUPPORTO_MANIGLIA
 10
-30.5775
 20
-10.4681
 30
5.3902
 70
192
 0
VERTEX
 8
SUPPORTO_MANIGLIA
 10
-30.5775
 20
-10.4681
 30
5.3902
 70
192
 0
VERTEX
 8
SUPPORTO_MANIGLIA
 10
-21.5775
 20
-10.4681
 30
5.3902
 70
192
 0
VERTEX
 8
SUPPORTO_MANIGLIA
 10
-21.5775
 20
-10.4681
 30
5.3902
 70
192
 0
VERTEX
 8
SUPPORTO_MANIGLIA
 10
-30.5775
 20
-10.5478
 30
5.2864
 70
192
 0
VERTEX
 8
SUPPORTO_MANIGLIA
 10
-30.5775
 20
-10.5478
 30
5.2864
 70
192
 0
VERTEX
 8
SUPPORTO_MANIGLIA
 10
-21.5775
 20
-10.5478
 30
5.2864
 70
192
 0
VERTEX
 8
SUPPORTO_MANIGLIA
 10
-21.5775
 20
-10.5478
 30
5.2864
 70
192
 0
VERTEX
 8
SUPPORTO_MANIGLIA
 10
-30.5775
 20
-10.6181
 30
5.1761
 70
192
 0
VERTEX
 8
SUPPORTO_MANIGLIA
 10
-30.5775
 20
-10.6181
 30
5.1761
 70
192
 0
VERTEX
 8
SUPPORTO_MANIGLIA
 10
-21.5775
 20
-10.6181
 30
5.1761
 70
192
 0
VERTEX
 8
SUPPORTO_MANIGLIA
 10
-21.5775
 20
-10.6181
 30
5.1761
 70
192
 0
VERTEX
 8
SUPPORTO_MANIGLIA
 10
-30.5775
 20
-10.6785
 30
5.06
 70
192
 0
VERTEX
 8
SUPPORTO_MANIGLIA
 10
-30.5775
 20
-10.6785
 30
5.06
 70
192
 0
VERTEX
 8
SUPPORTO_MANIGLIA
 10
-21.5775
 20
-10.6785
 30
5.06
 70
192
 0
VERTEX
 8
SUPPORTO_MANIGLIA
 10
-21.5775
 20
-10.6785
 30
5.06
 70
192
 0
VERTEX
 8
SUPPORTO_MANIGLIA
 10
-30.5775
 20
-10.7286
 30
4.9391
 70
192
 0
VERTEX
 8
SUPPORTO_MANIGLIA
 10
-30.5775
 20
-10.7286
 30
4.9391
 70
192
 0
VERTEX
 8
SUPPORTO_MANIGLIA
 10
-21.5775
 20
-10.7286
 30
4.9391
 70
192
 0
VERTEX
 8
SUPPORTO_MANIGLIA
 10
-21.5775
 20
-10.7286
 30
4.9391
 70
192
 0
VERTEX
 8
SUPPORTO_MANIGLIA
 10
-30.5775
 20
-10.7679
 30
4.8143
 70
192
 0
VERTEX
 8
SUPPORTO_MANIGLIA
 10
-30.5775
 20
-10.7679
 30
4.8143
 70
192
 0
VERTEX
 8
SUPPORTO_MANIGLIA
 10
-21.5775
 20
-10.7679
 30
4.8143
 70
192
 0
VERTEX
 8
SUPPORTO_MANIGLIA
 10
-21.5775
 20
-10.7679
 30
4.8143
 70
192
 0
VERTEX
 8
SUPPORTO_MANIGLIA
 10
-30.5775
 20
-10.7962
 30
4.6865
 70
192
 0
VERTEX
 8
SUPPORTO_MANIGLIA
 10
-30.5775
 20
-10.7962
 30
4.6865
 70
192
 0
VERTEX
 8
SUPPORTO_MANIGLIA
 10
-21.5775
 20
-10.7962
 30
4.6865
 70
192
 0
VERTEX
 8
SUPPORTO_MANIGLIA
 10
-21.5775
 20
-10.7962
 30
4.6865
 70
192
 0
VERTEX
 8
SUPPORTO_MANIGLIA
 10
-30.5775
 20
-10.8133
 30
4.5568
 70
192
 0
VERTEX
 8
SUPPORTO_MANIGLIA
 10
-30.5775
 20
-10.8133
 30
4.5568
 70
192
 0
VERTEX
 8
SUPPORTO_MANIGLIA
 10
-21.5775
 20
-10.8133
 30
4.5568
 70
192
 0
VERTEX
 8
SUPPORTO_MANIGLIA
 10
-21.5775
 20
-10.8133
 30
4.5568
 70
192
 0
VERTEX
 8
SUPPORTO_MANIGLIA
 10
-30.5775
 20
-10.819
 30
4.4261
 70
192
 0
VERTEX
 8
SUPPORTO_MANIGLIA
 10
-30.5775
 20
-10.819
 30
4.4261
 70
192
 0
VERTEX
 8
SUPPORTO_MANIGLIA
 10
-21.5775
 20
-10.819
 30
4.4261
 70
192
 0
VERTEX
 8
SUPPORTO_MANIGLIA
 10
-21.5775
 20
-10.819
 30
4.4261
 70
192
 0
VERTEX
 8
SUPPORTO_MANIGLIA
 10
-30.5775
 20
-10.8133
 30
4.2953
 70
192
 0
VERTEX
 8
SUPPORTO_MANIGLIA
 10
-30.5775
 20
-10.8133
 30
4.2953
 70
192
 0
VERTEX
 8
SUPPORTO_MANIGLIA
 10
-21.5775
 20
-10.8133
 30
4.2953
 70
192
 0
VERTEX
 8
SUPPORTO_MANIGLIA
 10
-21.5775
 20
-10.8133
 30
4.2953
 70
192
 0
VERTEX
 8
SUPPORTO_MANIGLIA
 10
-30.5775
 20
-10.7962
 30
4.1656
 70
192
 0
VERTEX
 8
SUPPORTO_MANIGLIA
 10
-30.5775
 20
-10.7962
 30
4.1656
 70
192
 0
VERTEX
 8
SUPPORTO_MANIGLIA
 10
-21.5775
 20
-10.7962
 30
4.1656
 70
192
 0
VERTEX
 8
SUPPORTO_MANIGLIA
 10
-21.5775
 20
-10.7962
 30
4.1656
 70
192
 0
VERTEX
 8
SUPPORTO_MANIGLIA
 10
-30.5775
 20
-10.7679
 30
4.0378
 70
192
 0
VERTEX
 8
SUPPORTO_MANIGLIA
 10
-30.5775
 20
-10.7679
 30
4.0378
 70
192
 0
VERTEX
 8
SUPPORTO_MANIGLIA
 10
-21.5775
 20
-10.7679
 30
4.0378
 70
192
 0
VERTEX
 8
SUPPORTO_MANIGLIA
 10
-21.5775
 20
-10.7679
 30
4.0378
 70
192
 0
VERTEX
 8
SUPPORTO_MANIGLIA
 10
-30.5775
 20
-10.7286
 30
3.913
 70
192
 0
VERTEX
 8
SUPPORTO_MANIGLIA
 10
-30.5775
 20
-10.7286
 30
3.913
 70
192
 0
VERTEX
 8
SUPPORTO_MANIGLIA
 10
-21.5775
 20
-10.7286
 30
3.913
 70
192
 0
VERTEX
 8
SUPPORTO_MANIGLIA
 10
-21.5775
 20
-10.7286
 30
3.913
 70
192
 0
VERTEX
 8
SUPPORTO_MANIGLIA
 10
-30.5775
 20
-10.6785
 30
3.7921
 70
192
 0
VERTEX
 8
SUPPORTO_MANIGLIA
 10
-30.5775
 20
-10.6785
 30
3.7921
 70
192
 0
VERTEX
 8
SUPPORTO_MANIGLIA
 10
-21.5775
 20
-10.6785
 30
3.7921
 70
192
 0
VERTEX
 8
SUPPORTO_MANIGLIA
 10
-21.5775
 20
-10.6785
 30
3.7921
 70
192
 0
VERTEX
 8
SUPPORTO_MANIGLIA
 10
-30.5775
 20
-10.6181
 30
3.6761
 70
192
 0
VERTEX
 8
SUPPORTO_MANIGLIA
 10
-30.5775
 20
-10.6181
 30
3.6761
 70
192
 0
VERTEX
 8
SUPPORTO_MANIGLIA
 10
-21.5775
 20
-10.6181
 30
3.6761
 70
192
 0
VERTEX
 8
SUPPORTO_MANIGLIA
 10
-21.5775
 20
-10.6181
 30
3.6761
 70
192
 0
VERTEX
 8
SUPPORTO_MANIGLIA
 10
-30.5775
 20
-10.5478
 30
3.5657
 70
192
 0
VERTEX
 8
SUPPORTO_MANIGLIA
 10
-30.5775
 20
-10.5478
 30
3.5657
 70
192
 0
VERTEX
 8
SUPPORTO_MANIGLIA
 10
-21.5775
 20
-10.5478
 30
3.5657
 70
192
 0
VERTEX
 8
SUPPORTO_MANIGLIA
 10
-21.5775
 20
-10.5478
 30
3.5657
 70
192
 0
VERTEX
 8
SUPPORTO_MANIGLIA
 10
-30.5775
 20
-10.4681
 30
3.4619
 70
192
 0
VERTEX
 8
SUPPORTO_MANIGLIA
 10
-30.5775
 20
-10.4681
 30
3.4619
 70
192
 0
VERTEX
 8
SUPPORTO_MANIGLIA
 10
-21.5775
 20
-10.4681
 30
3.4619
 70
192
 0
VERTEX
 8
SUPPORTO_MANIGLIA
 10
-21.5775
 20
-10.4681
 30
3.4619
 70
192
 0
VERTEX
 8
SUPPORTO_MANIGLIA
 10
-30.5775
 20
-10.3797
 30
3.3654
 70
192
 0
VERTEX
 8
SUPPORTO_MANIGLIA
 10
-30.5775
 20
-10.3797
 30
3.3654
 70
192
 0
VERTEX
 8
SUPPORTO_MANIGLIA
 10
-21.5775
 20
-10.3797
 30
3.3654
 70
192
 0
VERTEX
 8
SUPPORTO_MANIGLIA
 10
-21.5775
 20
-10.3797
 30
3.3654
 70
192
 0
VERTEX
 8
SUPPORTO_MANIGLIA
 10
-30.5775
 20
-10.2832
 30
3.277
 70
192
 0
VERTEX
 8
SUPPORTO_MANIGLIA
 10
-30.5775
 20
-10.2832
 30
3.277
 70
192
 0
VERTEX
 8
SUPPORTO_MANIGLIA
 10
-21.5775
 20
-10.2832
 30
3.277
 70
192
 0
VERTEX
 8
SUPPORTO_MANIGLIA
 10
-21.5775
 20
-10.2832
 30
3.277
 70
192
 0
VERTEX
 8
SUPPORTO_MANIGLIA
 10
-30.5775
 20
-10.1794
 30
3.1973
 70
192
 0
VERTEX
 8
SUPPORTO_MANIGLIA
 10
-30.5775
 20
-10.1794
 30
3.1973
 70
192
 0
VERTEX
 8
SUPPORTO_MANIGLIA
 10
-21.5775
 20
-10.1794
 30
3.1973
 70
192
 0
VERTEX
 8
SUPPORTO_MANIGLIA
 10
-21.5775
 20
-10.1794
 30
3.1973
 70
192
 0
VERTEX
 8
SUPPORTO_MANIGLIA
 10
-30.5775
 20
-10.069
 30
3.127
 70
192
 0
VERTEX
 8
SUPPORTO_MANIGLIA
 10
-30.5775
 20
-10.069
 30
3.127
 70
192
 0
VERTEX
 8
SUPPORTO_MANIGLIA
 10
-21.5775
 20
-10.069
 30
3.127
 70
192
 0
VERTEX
 8
SUPPORTO_MANIGLIA
 10
-21.5775
 20
-10.069
 30
3.127
 70
192
 0
VERTEX
 8
SUPPORTO_MANIGLIA
 10
-30.5775
 20
-9.953
 30
3.0666
 70
192
 0
VERTEX
 8
SUPPORTO_MANIGLIA
 10
-30.5775
 20
-9.953
 30
3.0666
 70
192
 0
VERTEX
 8
SUPPORTO_MANIGLIA
 10
-21.5775
 20
-9.953
 30
3.0666
 70
192
 0
VERTEX
 8
SUPPORTO_MANIGLIA
 10
-21.5775
 20
-9.953
 30
3.0666
 70
192
 0
VERTEX
 8
SUPPORTO_MANIGLIA
 10
-30.5775
 20
-9.8321
 30
3.0165
 70
192
 0
VERTEX
 8
SUPPORTO_MANIGLIA
 10
-30.5775
 20
-9.8321
 30
3.0165
 70
192
 0
VERTEX
 8
SUPPORTO_MANIGLIA
 10
-21.5775
 20
-9.8321
 30
3.0165
 70
192
 0
VERTEX
 8
SUPPORTO_MANIGLIA
 10
-21.5775
 20
-9.8321
 30
3.0165
 70
192
 0
VERTEX
 8
SUPPORTO_MANIGLIA
 10
-30.5775
 20
-9.7073
 30
2.9772
 70
192
 0
VERTEX
 8
SUPPORTO_MANIGLIA
 10
-30.5775
 20
-9.7073
 30
2.9772
 70
192
 0
VERTEX
 8
SUPPORTO_MANIGLIA
 10
-21.5775
 20
-9.7073
 30
2.9772
 70
192
 0
VERTEX
 8
SUPPORTO_MANIGLIA
 10
-21.5775
 20
-9.7073
 30
2.9772
 70
192
 0
VERTEX
 8
SUPPORTO_MANIGLIA
 10
-30.5775
 20
-9.5795
 30
2.9488
 70
192
 0
VERTEX
 8
SUPPORTO_MANIGLIA
 10
-30.5775
 20
-9.5795
 30
2.9488
 70
192
 0
VERTEX
 8
SUPPORTO_MANIGLIA
 10
-21.5775
 20
-9.5795
 30
2.9488
 70
192
 0
VERTEX
 8
SUPPORTO_MANIGLIA
 10
-21.5775
 20
-9.5795
 30
2.9488
 70
192
 0
VERTEX
 8
SUPPORTO_MANIGLIA
 10
-30.5775
 20
-9.4498
 30
2.9318
 70
192
 0
VERTEX
 8
SUPPORTO_MANIGLIA
 10
-30.5775
 20
-9.4498
 30
2.9318
 70
192
 0
VERTEX
 8
SUPPORTO_MANIGLIA
 10
-21.5775
 20
-9.4498
 30
2.9318
 70
192
 0
VERTEX
 8
SUPPORTO_MANIGLIA
 10
-21.5775
 20
-9.4498
 30
2.9318
 70
192
 0
VERTEX
 8
SUPPORTO_MANIGLIA
 10
-30.5775
 20
-9.319
 30
2.9261
 70
192
 0
VERTEX
 8
SUPPORTO_MANIGLIA
 10
-30.5775
 20
-9.319
 30
2.9261
 70
192
 0
VERTEX
 8
SUPPORTO_MANIGLIA
 10
-21.5775
 20
-9.319
 30
2.9261
 70
192
 0
VERTEX
 8
SUPPORTO_MANIGLIA
 10
-21.5775
 20
-9.319
 30
2.9261
 70
192
 0
VERTEX
 8
SUPPORTO_MANIGLIA
 10
-30.5775
 20
-9.319
 30
4.4261
 70
192
 0
VERTEX
 8
SUPPORTO_MANIGLIA
 10
-30.5775
 20
-9.319
 30
5.9261
 70
192
 0
VERTEX
 8
SUPPORTO_MANIGLIA
 10
-21.5775
 20
-9.319
 30
5.9261
 70
192
 0
VERTEX
 8
SUPPORTO_MANIGLIA
 10
-21.5775
 20
-9.319
 30
4.4261
 70
192
 0
VERTEX
 8
SUPPORTO_MANIGLIA
 10
-30.5775
 20
-9.319
 30
4.4261
 70
192
 0
VERTEX
 8
SUPPORTO_MANIGLIA
 10
-30.5775
 20
-9.319
 30
2.9261
 70
192
 0
VERTEX
 8
SUPPORTO_MANIGLIA
 10
-21.5775
 20
-9.319
 30
2.9261
 70
192
 0
VERTEX
 8
SUPPORTO_MANIGLIA
 10
-21.5775
 20
-9.319
 30
4.4261
 70
192
 0
VERTEX
 8
SUPPORTO_MANIGLIA
 10
-30.5775
 20
-5.1152
 30
4.4265
 70
192
 0
VERTEX
 8
SUPPORTO_MANIGLIA
 10
-30.5775
 20
-5.1152
 30
5.9265
 70
192
 0
VERTEX
 8
SUPPORTO_MANIGLIA
 10
-21.5775
 20
-5.1152
 30
5.9265
 70
192
 0
VERTEX
 8
SUPPORTO_MANIGLIA
 10
-21.5775
 20
-5.1152
 30
4.4265
 70
192
 0
VERTEX
 8
SUPPORTO_MANIGLIA
 10
-30.5775
 20
-5.1152
 30
4.4265
 70
192
 0
VERTEX
 8
SUPPORTO_MANIGLIA
 10
-30.5775
 20
-5.1152
 30
2.9265
 70
192
 0
VERTEX
 8
SUPPORTO_MANIGLIA
 10
-21.5775
 20
-5.1152
 30
2.9265
 70
192
 0
VERTEX
 8
SUPPORTO_MANIGLIA
 10
-21.5775
 20
-5.1152
 30
4.4265
 70
192
 0
VERTEX
 8
SUPPORTO_MANIGLIA
 10
-30.5775
 20
-4.3153
 30
4.4265
 70
192
 0
VERTEX
 8
SUPPORTO_MANIGLIA
 10
-30.5775
 20
-4.3153
 30
5.9265
 70
192
 0
VERTEX
 8
SUPPORTO_MANIGLIA
 10
-21.5775
 20
-4.3153
 30
5.9265
 70
192
 0
VERTEX
 8
SUPPORTO_MANIGLIA
 10
-21.5775
 20
-4.3153
 30
4.4265
 70
192
 0
VERTEX
 8
SUPPORTO_MANIGLIA
 10
-30.5775
 20
-4.3153
 30
4.4265
 70
192
 0
VERTEX
 8
SUPPORTO_MANIGLIA
 10
-30.5775
 20
-4.3153
 30
2.9265
 70
192
 0
VERTEX
 8
SUPPORTO_MANIGLIA
 10
-21.5775
 20
-4.3153
 30
2.9265
 70
192
 0
VERTEX
 8
SUPPORTO_MANIGLIA
 10
-21.5775
 20
-4.3153
 30
4.4265
 70
192
 0
VERTEX
 8
SUPPORTO_MANIGLIA
 10
0
 20
0
 30
0
 70
128
 71
164
 72
172
 73
171
 74
163
 0
VERTEX
 8
SUPPORTO_MANIGLIA
 10
0
 20
0
 30
0
 70
128
 71
166
 72
174
 73
173
 74
165
 0
VERTEX
 8
SUPPORTO_MANIGLIA
 10
0
 20
0
 30
0
 70
128
 71
1
 72
3
 73
7
 74
7
 0
VERTEX
 8
SUPPORTO_MANIGLIA
 10
0
 20
0
 30
0
 70
128
 71
4
 72
5
 73
9
 74
8
 0
VERTEX
 8
SUPPORTO_MANIGLIA
 10
0
 20
0
 30
0
 70
128
 71
6
 72
2
 73
10
 74
10
 0
VERTEX
 8
SUPPORTO_MANIGLIA
 10
0
 20
0
 30
0
 70
128
 71
1
 72
7
 73
11
 74
11
 0
VERTEX
 8
SUPPORTO_MANIGLIA
 10
0
 20
0
 30
0
 70
128
 71
8
 72
9
 73
13
 74
12
 0
VERTEX
 8
SUPPORTO_MANIGLIA
 10
0
 20
0
 30
0
 70
128
 71
10
 72
2
 73
14
 74
14
 0
VERTEX
 8
SUPPORTO_MANIGLIA
 10
0
 20
0
 30
0
 70
128
 71
1
 72
11
 73
15
 74
15
 0
VERTEX
 8
SUPPORTO_MANIGLIA
 10
0
 20
0
 30
0
 70
128
 71
12
 72
13
 73
17
 74
16
 0
VERTEX
 8
SUPPORTO_MANIGLIA
 10
0
 20
0
 30
0
 70
128
 71
14
 72
2
 73
18
 74
18
 0
VERTEX
 8
SUPPORTO_MANIGLIA
 10
0
 20
0
 30
0
 70
128
 71
1
 72
15
 73
19
 74
19
 0
VERTEX
 8
SUPPORTO_MANIGLIA
 10
0
 20
0
 30
0
 70
128
 71
16
 72
17
 73
21
 74
20
 0
VERTEX
 8
SUPPORTO_MANIGLIA
 10
0
 20
0
 30
0
 70
128
 71
18
 72
2
 73
22
 74
22
 0
VERTEX
 8
SUPPORTO_MANIGLIA
 10
0
 20
0
 30
0
 70
128
 71
1
 72
19
 73
23
 74
23
 0
VERTEX
 8
SUPPORTO_MANIGLIA
 10
0
 20
0
 30
0
 70
128
 71
20
 72
21
 73
25
 74
24
 0
VERTEX
 8
SUPPORTO_MANIGLIA
 10
0
 20
0
 30
0
 70
128
 71
22
 72
2
 73
26
 74
26
 0
VERTEX
 8
SUPPORTO_MANIGLIA
 10
0
 20
0
 30
0
 70
128
 71
1
 72
23
 73
27
 74
27
 0
VERTEX
 8
SUPPORTO_MANIGLIA
 10
0
 20
0
 30
0
 70
128
 71
24
 72
25
 73
29
 74
28
 0
VERTEX
 8
SUPPORTO_MANIGLIA
 10
0
 20
0
 30
0
 70
128
 71
26
 72
2
 73
30
 74
30
 0
VERTEX
 8
SUPPORTO_MANIGLIA
 10
0
 20
0
 30
0
 70
128
 71
1
 72
27
 73
31
 74
31
 0
VERTEX
 8
SUPPORTO_MANIGLIA
 10
0
 20
0
 30
0
 70
128
 71
28
 72
29
 73
33
 74
32
 0
VERTEX
 8
SUPPORTO_MANIGLIA
 10
0
 20
0
 30
0
 70
128
 71
30
 72
2
 73
34
 74
34
 0
VERTEX
 8
SUPPORTO_MANIGLIA
 10
0
 20
0
 30
0
 70
128
 71
1
 72
31
 73
35
 74
35
 0
VERTEX
 8
SUPPORTO_MANIGLIA
 10
0
 20
0
 30
0
 70
128
 71
32
 72
33
 73
37
 74
36
 0
VERTEX
 8
SUPPORTO_MANIGLIA
 10
0
 20
0
 30
0
 70
128
 71
34
 72
2
 73
38
 74
38
 0
VERTEX
 8
SUPPORTO_MANIGLIA
 10
0
 20
0
 30
0
 70
128
 71
1
 72
35
 73
39
 74
39
 0
VERTEX
 8
SUPPORTO_MANIGLIA
 10
0
 20
0
 30
0
 70
128
 71
36
 72
37
 73
41
 74
40
 0
VERTEX
 8
SUPPORTO_MANIGLIA
 10
0
 20
0
 30
0
 70
128
 71
38
 72
2
 73
42
 74
42
 0
VERTEX
 8
SUPPORTO_MANIGLIA
 10
0
 20
0
 30
0
 70
128
 71
1
 72
39
 73
43
 74
43
 0
VERTEX
 8
SUPPORTO_MANIGLIA
 10
0
 20
0
 30
0
 70
128
 71
40
 72
41
 73
45
 74
44
 0
VERTEX
 8
SUPPORTO_MANIGLIA
 10
0
 20
0
 30
0
 70
128
 71
42
 72
2
 73
46
 74
46
 0
VERTEX
 8
SUPPORTO_MANIGLIA
 10
0
 20
0
 30
0
 70
128
 71
1
 72
43
 73
47
 74
47
 0
VERTEX
 8
SUPPORTO_MANIGLIA
 10
0
 20
0
 30
0
 70
128
 71
44
 72
45
 73
49
 74
48
 0
VERTEX
 8
SUPPORTO_MANIGLIA
 10
0
 20
0
 30
0
 70
128
 71
46
 72
2
 73
50
 74
50
 0
VERTEX
 8
SUPPORTO_MANIGLIA
 10
0
 20
0
 30
0
 70
128
 71
1
 72
47
 73
51
 74
51
 0
VERTEX
 8
SUPPORTO_MANIGLIA
 10
0
 20
0
 30
0
 70
128
 71
48
 72
49
 73
53
 74
52
 0
VERTEX
 8
SUPPORTO_MANIGLIA
 10
0
 20
0
 30
0
 70
128
 71
50
 72
2
 73
54
 74
54
 0
VERTEX
 8
SUPPORTO_MANIGLIA
 10
0
 20
0
 30
0
 70
128
 71
1
 72
51
 73
55
 74
55
 0
VERTEX
 8
SUPPORTO_MANIGLIA
 10
0
 20
0
 30
0
 70
128
 71
52
 72
53
 73
57
 74
56
 0
VERTEX
 8
SUPPORTO_MANIGLIA
 10
0
 20
0
 30
0
 70
128
 71
54
 72
2
 73
58
 74
58
 0
VERTEX
 8
SUPPORTO_MANIGLIA
 10
0
 20
0
 30
0
 70
128
 71
1
 72
55
 73
59
 74
59
 0
VERTEX
 8
SUPPORTO_MANIGLIA
 10
0
 20
0
 30
0
 70
128
 71
56
 72
57
 73
61
 74
60
 0
VERTEX
 8
SUPPORTO_MANIGLIA
 10
0
 20
0
 30
0
 70
128
 71
58
 72
2
 73
62
 74
62
 0
VERTEX
 8
SUPPORTO_MANIGLIA
 10
0
 20
0
 30
0
 70
128
 71
1
 72
59
 73
63
 74
63
 0
VERTEX
 8
SUPPORTO_MANIGLIA
 10
0
 20
0
 30
0
 70
128
 71
60
 72
61
 73
65
 74
64
 0
VERTEX
 8
SUPPORTO_MANIGLIA
 10
0
 20
0
 30
0
 70
128
 71
62
 72
2
 73
66
 74
66
 0
VERTEX
 8
SUPPORTO_MANIGLIA
 10
0
 20
0
 30
0
 70
128
 71
1
 72
63
 73
67
 74
67
 0
VERTEX
 8
SUPPORTO_MANIGLIA
 10
0
 20
0
 30
0
 70
128
 71
64
 72
65
 73
69
 74
68
 0
VERTEX
 8
SUPPORTO_MANIGLIA
 10
0
 20
0
 30
0
 70
128
 71
66
 72
2
 73
70
 74
70
 0
VERTEX
 8
SUPPORTO_MANIGLIA
 10
0
 20
0
 30
0
 70
128
 71
1
 72
67
 73
71
 74
71
 0
VERTEX
 8
SUPPORTO_MANIGLIA
 10
0
 20
0
 30
0
 70
128
 71
68
 72
69
 73
73
 74
72
 0
VERTEX
 8
SUPPORTO_MANIGLIA
 10
0
 20
0
 30
0
 70
128
 71
70
 72
2
 73
74
 74
74
 0
VERTEX
 8
SUPPORTO_MANIGLIA
 10
0
 20
0
 30
0
 70
128
 71
1
 72
71
 73
75
 74
75
 0
VERTEX
 8
SUPPORTO_MANIGLIA
 10
0
 20
0
 30
0
 70
128
 71
72
 72
73
 73
77
 74
76
 0
VERTEX
 8
SUPPORTO_MANIGLIA
 10
0
 20
0
 30
0
 70
128
 71
74
 72
2
 73
78
 74
78
 0
VERTEX
 8
SUPPORTO_MANIGLIA
 10
0
 20
0
 30
0
 70
128
 71
1
 72
75
 73
79
 74
79
 0
VERTEX
 8
SUPPORTO_MANIGLIA
 10
0
 20
0
 30
0
 70
128
 71
76
 72
77
 73
81
 74
80
 0
VERTEX
 8
SUPPORTO_MANIGLIA
 10
0
 20
0
 30
0
 70
128
 71
78
 72
2
 73
82
 74
82
 0
VERTEX
 8
SUPPORTO_MANIGLIA
 10
0
 20
0
 30
0
 70
128
 71
1
 72
79
 73
83
 74
83
 0
VERTEX
 8
SUPPORTO_MANIGLIA
 10
0
 20
0
 30
0
 70
128
 71
80
 72
81
 73
85
 74
84
 0
VERTEX
 8
SUPPORTO_MANIGLIA
 10
0
 20
0
 30
0
 70
128
 71
82
 72
2
 73
86
 74
86
 0
VERTEX
 8
SUPPORTO_MANIGLIA
 10
0
 20
0
 30
0
 70
128
 71
1
 72
83
 73
87
 74
87
 0
VERTEX
 8
SUPPORTO_MANIGLIA
 10
0
 20
0
 30
0
 70
128
 71
84
 72
85
 73
89
 74
88
 0
VERTEX
 8
SUPPORTO_MANIGLIA
 10
0
 20
0
 30
0
 70
128
 71
86
 72
2
 73
90
 74
90
 0
VERTEX
 8
SUPPORTO_MANIGLIA
 10
0
 20
0
 30
0
 70
128
 71
1
 72
87
 73
91
 74
91
 0
VERTEX
 8
SUPPORTO_MANIGLIA
 10
0
 20
0
 30
0
 70
128
 71
88
 72
89
 73
93
 74
92
 0
VERTEX
 8
SUPPORTO_MANIGLIA
 10
0
 20
0
 30
0
 70
128
 71
90
 72
2
 73
94
 74
94
 0
VERTEX
 8
SUPPORTO_MANIGLIA
 10
0
 20
0
 30
0
 70
128
 71
1
 72
91
 73
95
 74
95
 0
VERTEX
 8
SUPPORTO_MANIGLIA
 10
0
 20
0
 30
0
 70
128
 71
92
 72
93
 73
97
 74
96
 0
VERTEX
 8
SUPPORTO_MANIGLIA
 10
0
 20
0
 30
0
 70
128
 71
94
 72
2
 73
98
 74
98
 0
VERTEX
 8
SUPPORTO_MANIGLIA
 10
0
 20
0
 30
0
 70
128
 71
1
 72
95
 73
99
 74
99
 0
VERTEX
 8
SUPPORTO_MANIGLIA
 10
0
 20
0
 30
0
 70
128
 71
96
 72
97
 73
101
 74
100
 0
VERTEX
 8
SUPPORTO_MANIGLIA
 10
0
 20
0
 30
0
 70
128
 71
98
 72
2
 73
102
 74
102
 0
VERTEX
 8
SUPPORTO_MANIGLIA
 10
0
 20
0
 30
0
 70
128
 71
1
 72
99
 73
103
 74
103
 0
VERTEX
 8
SUPPORTO_MANIGLIA
 10
0
 20
0
 30
0
 70
128
 71
100
 72
101
 73
105
 74
104
 0
VERTEX
 8
SUPPORTO_MANIGLIA
 10
0
 20
0
 30
0
 70
128
 71
102
 72
2
 73
106
 74
106
 0
VERTEX
 8
SUPPORTO_MANIGLIA
 10
0
 20
0
 30
0
 70
128
 71
1
 72
103
 73
107
 74
107
 0
VERTEX
 8
SUPPORTO_MANIGLIA
 10
0
 20
0
 30
0
 70
128
 71
104
 72
105
 73
109
 74
108
 0
VERTEX
 8
SUPPORTO_MANIGLIA
 10
0
 20
0
 30
0
 70
128
 71
106
 72
2
 73
110
 74
110
 0
VERTEX
 8
SUPPORTO_MANIGLIA
 10
0
 20
0
 30
0
 70
128
 71
1
 72
107
 73
111
 74
111
 0
VERTEX
 8
SUPPORTO_MANIGLIA
 10
0
 20
0
 30
0
 70
128
 71
108
 72
109
 73
113
 74
112
 0
VERTEX
 8
SUPPORTO_MANIGLIA
 10
0
 20
0
 30
0
 70
128
 71
110
 72
2
 73
114
 74
114
 0
VERTEX
 8
SUPPORTO_MANIGLIA
 10
0
 20
0
 30
0
 70
128
 71
1
 72
111
 73
115
 74
115
 0
VERTEX
 8
SUPPORTO_MANIGLIA
 10
0
 20
0
 30
0
 70
128
 71
112
 72
113
 73
117
 74
116
 0
VERTEX
 8
SUPPORTO_MANIGLIA
 10
0
 20
0
 30
0
 70
128
 71
114
 72
2
 73
118
 74
118
 0
VERTEX
 8
SUPPORTO_MANIGLIA
 10
0
 20
0
 30
0
 70
128
 71
1
 72
115
 73
119
 74
119
 0
VERTEX
 8
SUPPORTO_MANIGLIA
 10
0
 20
0
 30
0
 70
128
 71
116
 72
117
 73
121
 74
120
 0
VERTEX
 8
SUPPORTO_MANIGLIA
 10
0
 20
0
 30
0
 70
128
 71
118
 72
2
 73
122
 74
122
 0
VERTEX
 8
SUPPORTO_MANIGLIA
 10
0
 20
0
 30
0
 70
128
 71
1
 72
119
 73
123
 74
123
 0
VERTEX
 8
SUPPORTO_MANIGLIA
 10
0
 20
0
 30
0
 70
128
 71
120
 72
121
 73
125
 74
124
 0
VERTEX
 8
SUPPORTO_MANIGLIA
 10
0
 20
0
 30
0
 70
128
 71
122
 72
2
 73
126
 74
126
 0
VERTEX
 8
SUPPORTO_MANIGLIA
 10
0
 20
0
 30
0
 70
128
 71
1
 72
123
 73
127
 74
127
 0
VERTEX
 8
SUPPORTO_MANIGLIA
 10
0
 20
0
 30
0
 70
128
 71
124
 72
125
 73
129
 74
128
 0
VERTEX
 8
SUPPORTO_MANIGLIA
 10
0
 20
0
 30
0
 70
128
 71
126
 72
2
 73
130
 74
130
 0
VERTEX
 8
SUPPORTO_MANIGLIA
 10
0
 20
0
 30
0
 70
128
 71
1
 72
127
 73
131
 74
131
 0
VERTEX
 8
SUPPORTO_MANIGLIA
 10
0
 20
0
 30
0
 70
128
 71
128
 72
129
 73
133
 74
132
 0
VERTEX
 8
SUPPORTO_MANIGLIA
 10
0
 20
0
 30
0
 70
128
 71
130
 72
2
 73
134
 74
134
 0
VERTEX
 8
SUPPORTO_MANIGLIA
 10
0
 20
0
 30
0
 70
128
 71
1
 72
131
 73
135
 74
135
 0
VERTEX
 8
SUPPORTO_MANIGLIA
 10
0
 20
0
 30
0
 70
128
 71
132
 72
133
 73
137
 74
136
 0
VERTEX
 8
SUPPORTO_MANIGLIA
 10
0
 20
0
 30
0
 70
128
 71
134
 72
2
 73
138
 74
138
 0
VERTEX
 8
SUPPORTO_MANIGLIA
 10
0
 20
0
 30
0
 70
128
 71
1
 72
135
 73
139
 74
139
 0
VERTEX
 8
SUPPORTO_MANIGLIA
 10
0
 20
0
 30
0
 70
128
 71
136
 72
137
 73
141
 74
140
 0
VERTEX
 8
SUPPORTO_MANIGLIA
 10
0
 20
0
 30
0
 70
128
 71
138
 72
2
 73
142
 74
142
 0
VERTEX
 8
SUPPORTO_MANIGLIA
 10
0
 20
0
 30
0
 70
128
 71
1
 72
139
 73
143
 74
143
 0
VERTEX
 8
SUPPORTO_MANIGLIA
 10
0
 20
0
 30
0
 70
128
 71
140
 72
141
 73
145
 74
144
 0
VERTEX
 8
SUPPORTO_MANIGLIA
 10
0
 20
0
 30
0
 70
128
 71
142
 72
2
 73
146
 74
146
 0
VERTEX
 8
SUPPORTO_MANIGLIA
 10
0
 20
0
 30
0
 70
128
 71
1
 72
143
 73
147
 74
147
 0
VERTEX
 8
SUPPORTO_MANIGLIA
 10
0
 20
0
 30
0
 70
128
 71
144
 72
145
 73
149
 74
148
 0
VERTEX
 8
SUPPORTO_MANIGLIA
 10
0
 20
0
 30
0
 70
128
 71
146
 72
2
 73
150
 74
150
 0
VERTEX
 8
SUPPORTO_MANIGLIA
 10
0
 20
0
 30
0
 70
128
 71
167
 72
170
 73
169
 74
168
 0
VERTEX
 8
SUPPORTO_MANIGLIA
 10
0
 20
0
 30
0
 70
128
 71
171
 72
172
 73
173
 74
174
 0
VERTEX
 8
SUPPORTO_MANIGLIA
 10
0
 20
0
 30
0
 70
128
 71
151
 72
159
 73
160
 74
152
 0
VERTEX
 8
SUPPORTO_MANIGLIA
 10
0
 20
0
 30
0
 70
128
 71
152
 72
160
 73
161
 74
153
 0
VERTEX
 8
SUPPORTO_MANIGLIA
 10
0
 20
0
 30
0
 70
128
 71
153
 72
161
 73
162
 74
154
 0
VERTEX
 8
SUPPORTO_MANIGLIA
 10
0
 20
0
 30
0
 70
128
 71
154
 72
162
 73
159
 74
151
 0
VERTEX
 8
SUPPORTO_MANIGLIA
 10
0
 20
0
 30
0
 70
128
 71
155
 72
163
 73
166
 74
158
 0
VERTEX
 8
SUPPORTO_MANIGLIA
 10
0
 20
0
 30
0
 70
128
 71
158
 72
166
 73
165
 74
157
 0
VERTEX
 8
SUPPORTO_MANIGLIA
 10
0
 20
0
 30
0
 70
128
 71
157
 72
165
 73
164
 74
156
 0
VERTEX
 8
SUPPORTO_MANIGLIA
 10
0
 20
0
 30
0
 70
128
 71
156
 72
164
 73
163
 74
155
 0
VERTEX
 8
SUPPORTO_MANIGLIA
 10
0
 20
0
 30
0
 70
128
 71
159
 72
167
 73
168
 74
160
 0
VERTEX
 8
SUPPORTO_MANIGLIA
 10
0
 20
0
 30
0
 70
128
 71
160
 72
168
 73
169
 74
161
 0
VERTEX
 8
SUPPORTO_MANIGLIA
 10
0
 20
0
 30
0
 70
128
 71
161
 72
169
 73
170
 74
162
 0
VERTEX
 8
SUPPORTO_MANIGLIA
 10
0
 20
0
 30
0
 70
128
 71
162
 72
170
 73
167
 74
159
 0
VERTEX
 8
SUPPORTO_MANIGLIA
 10
0
 20
0
 30
0
 70
128
 71
163
 72
171
 73
174
 74
166
 0
VERTEX
 8
SUPPORTO_MANIGLIA
 10
0
 20
0
 30
0
 70
128
 71
164
 72
165
 73
173
 74
172
 0
SEQEND
 0
POLYLINE
 8
CILINDRO_DUPLICATORE
 66
1
 10
0.0
 20
0.0
 30
0.0
 70
64
 71
146
 72
108
 0
VERTEX
 8
CILINDRO_DUPLICATORE
 10
25.1714
 20
-9.319
 30
4.4261
 70
192
 0
VERTEX
 8
CILINDRO_DUPLICATORE
 10
25.4114
 20
-9.319
 30
4.4261
 70
192
 0
VERTEX
 8
CILINDRO_DUPLICATORE
 10
25.1714
 20
-9.319
 30
2.9261
 70
192
 0
VERTEX
 8
CILINDRO_DUPLICATORE
 10
25.1714
 20
-9.319
 30
2.9261
 70
192
 0
VERTEX
 8
CILINDRO_DUPLICATORE
 10
25.4114
 20
-9.319
 30
2.9261
 70
192
 0
VERTEX
 8
CILINDRO_DUPLICATORE
 10
25.4114
 20
-9.319
 30
2.9261
 70
192
 0
VERTEX
 8
CILINDRO_DUPLICATORE
 10
25.1714
 20
-9.0586
 30
2.9488
 70
192
 0
VERTEX
 8
CILINDRO_DUPLICATORE
 10
25.1714
 20
-9.0586
 30
2.9488
 70
192
 0
VERTEX
 8
CILINDRO_DUPLICATORE
 10
25.4114
 20
-9.0586
 30
2.9488
 70
192
 0
VERTEX
 8
CILINDRO_DUPLICATORE
 10
25.4114
 20
-9.0586
 30
2.9488
 70
192
 0
VERTEX
 8
CILINDRO_DUPLICATORE
 10
25.1714
 20
-8.806
 30
3.0165
 70
192
 0
VERTEX
 8
CILINDRO_DUPLICATORE
 10
25.1714
 20
-8.806
 30
3.0165
 70
192
 0
VERTEX
 8
CILINDRO_DUPLICATORE
 10
25.4114
 20
-8.806
 30
3.0165
 70
192
 0
VERTEX
 8
CILINDRO_DUPLICATORE
 10
25.4114
 20
-8.806
 30
3.0165
 70
192
 0
VERTEX
 8
CILINDRO_DUPLICATORE
 10
25.1714
 20
-8.569
 30
3.127
 70
192
 0
VERTEX
 8
CILINDRO_DUPLICATORE
 10
25.1714
 20
-8.569
 30
3.127
 70
192
 0
VERTEX
 8
CILINDRO_DUPLICATORE
 10
25.4114
 20
-8.569
 30
3.127
 70
192
 0
VERTEX
 8
CILINDRO_DUPLICATORE
 10
25.4114
 20
-8.569
 30
3.127
 70
192
 0
VERTEX
 8
CILINDRO_DUPLICATORE
 10
25.1714
 20
-8.3549
 30
3.277
 70
192
 0
VERTEX
 8
CILINDRO_DUPLICATORE
 10
25.1714
 20
-8.3549
 30
3.277
 70
192
 0
VERTEX
 8
CILINDRO_DUPLICATORE
 10
25.4114
 20
-8.3549
 30
3.277
 70
192
 0
VERTEX
 8
CILINDRO_DUPLICATORE
 10
25.4114
 20
-8.3549
 30
3.277
 70
192
 0
VERTEX
 8
CILINDRO_DUPLICATORE
 10
25.1714
 20
-8.17
 30
3.4619
 70
192
 0
VERTEX
 8
CILINDRO_DUPLICATORE
 10
25.1714
 20
-8.17
 30
3.4619
 70
192
 0
VERTEX
 8
CILINDRO_DUPLICATORE
 10
25.4114
 20
-8.17
 30
3.4619
 70
192
 0
VERTEX
 8
CILINDRO_DUPLICATORE
 10
25.4114
 20
-8.17
 30
3.4619
 70
192
 0
VERTEX
 8
CILINDRO_DUPLICATORE
 10
25.1714
 20
-8.02
 30
3.6761
 70
192
 0
VERTEX
 8
CILINDRO_DUPLICATORE
 10
25.1714
 20
-8.02
 30
3.6761
 70
192
 0
VERTEX
 8
CILINDRO_DUPLICATORE
 10
25.4114
 20
-8.02
 30
3.6761
 70
192
 0
VERTEX
 8
CILINDRO_DUPLICATORE
 10
25.4114
 20
-8.02
 30
3.6761
 70
192
 0
VERTEX
 8
CILINDRO_DUPLICATORE
 10
25.1714
 20
-7.9095
 30
3.913
 70
192
 0
VERTEX
 8
CILINDRO_DUPLICATORE
 10
25.1714
 20
-7.9095
 30
3.913
 70
192
 0
VERTEX
 8
CILINDRO_DUPLICATORE
 10
25.4114
 20
-7.9095
 30
3.913
 70
192
 0
VERTEX
 8
CILINDRO_DUPLICATORE
 10
25.4114
 20
-7.9095
 30
3.913
 70
192
 0
VERTEX
 8
CILINDRO_DUPLICATORE
 10
25.1714
 20
-7.8418
 30
4.1656
 70
192
 0
VERTEX
 8
CILINDRO_DUPLICATORE
 10
25.1714
 20
-7.8418
 30
4.1656
 70
192
 0
VERTEX
 8
CILINDRO_DUPLICATORE
 10
25.4114
 20
-7.8418
 30
4.1656
 70
192
 0
VERTEX
 8
CILINDRO_DUPLICATORE
 10
25.4114
 20
-7.8418
 30
4.1656
 70
192
 0
VERTEX
 8
CILINDRO_DUPLICATORE
 10
25.1714
 20
-7.819
 30
4.4261
 70
192
 0
VERTEX
 8
CILINDRO_DUPLICATORE
 10
25.1714
 20
-7.819
 30
4.4261
 70
192
 0
VERTEX
 8
CILINDRO_DUPLICATORE
 10
25.4114
 20
-7.819
 30
4.4261
 70
192
 0
VERTEX
 8
CILINDRO_DUPLICATORE
 10
25.4114
 20
-7.819
 30
4.4261
 70
192
 0
VERTEX
 8
CILINDRO_DUPLICATORE
 10
25.1714
 20
-7.8418
 30
4.6865
 70
192
 0
VERTEX
 8
CILINDRO_DUPLICATORE
 10
25.1714
 20
-7.8418
 30
4.6865
 70
192
 0
VERTEX
 8
CILINDRO_DUPLICATORE
 10
25.4114
 20
-7.8418
 30
4.6865
 70
192
 0
VERTEX
 8
CILINDRO_DUPLICATORE
 10
25.4114
 20
-7.8418
 30
4.6865
 70
192
 0
VERTEX
 8
CILINDRO_DUPLICATORE
 10
25.1714
 20
-7.9095
 30
4.9391
 70
192
 0
VERTEX
 8
CILINDRO_DUPLICATORE
 10
25.1714
 20
-7.9095
 30
4.9391
 70
192
 0
VERTEX
 8
CILINDRO_DUPLICATORE
 10
25.4114
 20
-7.9095
 30
4.9391
 70
192
 0
VERTEX
 8
CILINDRO_DUPLICATORE
 10
25.4114
 20
-7.9095
 30
4.9391
 70
192
 0
VERTEX
 8
CILINDRO_DUPLICATORE
 10
25.1714
 20
-8.02
 30
5.1761
 70
192
 0
VERTEX
 8
CILINDRO_DUPLICATORE
 10
25.1714
 20
-8.02
 30
5.1761
 70
192
 0
VERTEX
 8
CILINDRO_DUPLICATORE
 10
25.4114
 20
-8.02
 30
5.1761
 70
192
 0
VERTEX
 8
CILINDRO_DUPLICATORE
 10
25.4114
 20
-8.02
 30
5.1761
 70
192
 0
VERTEX
 8
CILINDRO_DUPLICATORE
 10
25.1714
 20
-8.17
 30
5.3902
 70
192
 0
VERTEX
 8
CILINDRO_DUPLICATORE
 10
25.1714
 20
-8.17
 30
5.3902
 70
192
 0
VERTEX
 8
CILINDRO_DUPLICATORE
 10
25.4114
 20
-8.17
 30
5.3902
 70
192
 0
VERTEX
 8
CILINDRO_DUPLICATORE
 10
25.4114
 20
-8.17
 30
5.3902
 70
192
 0
VERTEX
 8
CILINDRO_DUPLICATORE
 10
25.1714
 20
-8.3549
 30
5.5751
 70
192
 0
VERTEX
 8
CILINDRO_DUPLICATORE
 10
25.1714
 20
-8.3549
 30
5.5751
 70
192
 0
VERTEX
 8
CILINDRO_DUPLICATORE
 10
25.4114
 20
-8.3549
 30
5.5751
 70
192
 0
VERTEX
 8
CILINDRO_DUPLICATORE
 10
25.4114
 20
-8.3549
 30
5.5751
 70
192
 0
VERTEX
 8
CILINDRO_DUPLICATORE
 10
25.1714
 20
-8.569
 30
5.7251
 70
192
 0
VERTEX
 8
CILINDRO_DUPLICATORE
 10
25.1714
 20
-8.569
 30
5.7251
 70
192
 0
VERTEX
 8
CILINDRO_DUPLICATORE
 10
25.4114
 20
-8.569
 30
5.7251
 70
192
 0
VERTEX
 8
CILINDRO_DUPLICATORE
 10
25.4114
 20
-8.569
 30
5.7251
 70
192
 0
VERTEX
 8
CILINDRO_DUPLICATORE
 10
25.1714
 20
-8.806
 30
5.8356
 70
192
 0
VERTEX
 8
CILINDRO_DUPLICATORE
 10
25.1714
 20
-8.806
 30
5.8356
 70
192
 0
VERTEX
 8
CILINDRO_DUPLICATORE
 10
25.4114
 20
-8.806
 30
5.8356
 70
192
 0
VERTEX
 8
CILINDRO_DUPLICATORE
 10
25.4114
 20
-8.806
 30
5.8356
 70
192
 0
VERTEX
 8
CILINDRO_DUPLICATORE
 10
25.1714
 20
-9.0586
 30
5.9033
 70
192
 0
VERTEX
 8
CILINDRO_DUPLICATORE
 10
25.1714
 20
-9.0586
 30
5.9033
 70
192
 0
VERTEX
 8
CILINDRO_DUPLICATORE
 10
25.4114
 20
-9.0586
 30
5.9033
 70
192
 0
VERTEX
 8
CILINDRO_DUPLICATORE
 10
25.4114
 20
-9.0586
 30
5.9033
 70
192
 0
VERTEX
 8
CILINDRO_DUPLICATORE
 10
25.1714
 20
-9.319
 30
5.9261
 70
192
 0
VERTEX
 8
CILINDRO_DUPLICATORE
 10
25.1714
 20
-9.319
 30
5.9261
 70
192
 0
VERTEX
 8
CILINDRO_DUPLICATORE
 10
25.4114
 20
-9.319
 30
5.9261
 70
192
 0
VERTEX
 8
CILINDRO_DUPLICATORE
 10
25.4114
 20
-9.319
 30
5.9261
 70
192
 0
VERTEX
 8
CILINDRO_DUPLICATORE
 10
25.1714
 20
-9.5795
 30
5.9033
 70
192
 0
VERTEX
 8
CILINDRO_DUPLICATORE
 10
25.1714
 20
-9.5795
 30
5.9033
 70
192
 0
VERTEX
 8
CILINDRO_DUPLICATORE
 10
25.4114
 20
-9.5795
 30
5.9033
 70
192
 0
VERTEX
 8
CILINDRO_DUPLICATORE
 10
25.4114
 20
-9.5795
 30
5.9033
 70
192
 0
VERTEX
 8
CILINDRO_DUPLICATORE
 10
25.1714
 20
-9.8321
 30
5.8356
 70
192
 0
VERTEX
 8
CILINDRO_DUPLICATORE
 10
25.1714
 20
-9.8321
 30
5.8356
 70
192
 0
VERTEX
 8
CILINDRO_DUPLICATORE
 10
25.4114
 20
-9.8321
 30
5.8356
 70
192
 0
VERTEX
 8
CILINDRO_DUPLICATORE
 10
25.4114
 20
-9.8321
 30
5.8356
 70
192
 0
VERTEX
 8
CILINDRO_DUPLICATORE
 10
25.1714
 20
-10.069
 30
5.7251
 70
192
 0
VERTEX
 8
CILINDRO_DUPLICATORE
 10
25.1714
 20
-10.069
 30
5.7251
 70
192
 0
VERTEX
 8
CILINDRO_DUPLICATORE
 10
25.4114
 20
-10.069
 30
5.7251
 70
192
 0
VERTEX
 8
CILINDRO_DUPLICATORE
 10
25.4114
 20
-10.069
 30
5.7251
 70
192
 0
VERTEX
 8
CILINDRO_DUPLICATORE
 10
25.1714
 20
-10.2832
 30
5.5751
 70
192
 0
VERTEX
 8
CILINDRO_DUPLICATORE
 10
25.1714
 20
-10.2832
 30
5.5751
 70
192
 0
VERTEX
 8
CILINDRO_DUPLICATORE
 10
25.4114
 20
-10.2832
 30
5.5751
 70
192
 0
VERTEX
 8
CILINDRO_DUPLICATORE
 10
25.4114
 20
-10.2832
 30
5.5751
 70
192
 0
VERTEX
 8
CILINDRO_DUPLICATORE
 10
25.1714
 20
-10.4681
 30
5.3902
 70
192
 0
VERTEX
 8
CILINDRO_DUPLICATORE
 10
25.1714
 20
-10.4681
 30
5.3902
 70
192
 0
VERTEX
 8
CILINDRO_DUPLICATORE
 10
25.4114
 20
-10.4681
 30
5.3902
 70
192
 0
VERTEX
 8
CILINDRO_DUPLICATORE
 10
25.4114
 20
-10.4681
 30
5.3902
 70
192
 0
VERTEX
 8
CILINDRO_DUPLICATORE
 10
25.1714
 20
-10.6181
 30
5.1761
 70
192
 0
VERTEX
 8
CILINDRO_DUPLICATORE
 10
25.1714
 20
-10.6181
 30
5.1761
 70
192
 0
VERTEX
 8
CILINDRO_DUPLICATORE
 10
25.4114
 20
-10.6181
 30
5.1761
 70
192
 0
VERTEX
 8
CILINDRO_DUPLICATORE
 10
25.4114
 20
-10.6181
 30
5.1761
 70
192
 0
VERTEX
 8
CILINDRO_DUPLICATORE
 10
25.1714
 20
-10.7286
 30
4.9391
 70
192
 0
VERTEX
 8
CILINDRO_DUPLICATORE
 10
25.1714
 20
-10.7286
 30
4.9391
 70
192
 0
VERTEX
 8
CILINDRO_DUPLICATORE
 10
25.4114
 20
-10.7286
 30
4.9391
 70
192
 0
VERTEX
 8
CILINDRO_DUPLICATORE
 10
25.4114
 20
-10.7286
 30
4.9391
 70
192
 0
VERTEX
 8
CILINDRO_DUPLICATORE
 10
25.1714
 20
-10.7962
 30
4.6865
 70
192
 0
VERTEX
 8
CILINDRO_DUPLICATORE
 10
25.1714
 20
-10.7962
 30
4.6865
 70
192
 0
VERTEX
 8
CILINDRO_DUPLICATORE
 10
25.4114
 20
-10.7962
 30
4.6865
 70
192
 0
VERTEX
 8
CILINDRO_DUPLICATORE
 10
25.4114
 20
-10.7962
 30
4.6865
 70
192
 0
VERTEX
 8
CILINDRO_DUPLICATORE
 10
25.1714
 20
-10.819
 30
4.4261
 70
192
 0
VERTEX
 8
CILINDRO_DUPLICATORE
 10
25.1714
 20
-10.819
 30
4.4261
 70
192
 0
VERTEX
 8
CILINDRO_DUPLICATORE
 10
25.4114
 20
-10.819
 30
4.4261
 70
192
 0
VERTEX
 8
CILINDRO_DUPLICATORE
 10
25.4114
 20
-10.819
 30
4.4261
 70
192
 0
VERTEX
 8
CILINDRO_DUPLICATORE
 10
25.1714
 20
-10.7962
 30
4.1656
 70
192
 0
VERTEX
 8
CILINDRO_DUPLICATORE
 10
25.1714
 20
-10.7962
 30
4.1656
 70
192
 0
VERTEX
 8
CILINDRO_DUPLICATORE
 10
25.4114
 20
-10.7962
 30
4.1656
 70
192
 0
VERTEX
 8
CILINDRO_DUPLICATORE
 10
25.4114
 20
-10.7962
 30
4.1656
 70
192
 0
VERTEX
 8
CILINDRO_DUPLICATORE
 10
25.1714
 20
-10.7286
 30
3.913
 70
192
 0
VERTEX
 8
CILINDRO_DUPLICATORE
 10
25.1714
 20
-10.7286
 30
3.913
 70
192
 0
VERTEX
 8
CILINDRO_DUPLICATORE
 10
25.4114
 20
-10.7286
 30
3.913
 70
192
 0
VERTEX
 8
CILINDRO_DUPLICATORE
 10
25.4114
 20
-10.7286
 30
3.913
 70
192
 0
VERTEX
 8
CILINDRO_DUPLICATORE
 10
25.1714
 20
-10.6181
 30
3.6761
 70
192
 0
VERTEX
 8
CILINDRO_DUPLICATORE
 10
25.1714
 20
-10.6181
 30
3.6761
 70
192
 0
VERTEX
 8
CILINDRO_DUPLICATORE
 10
25.4114
 20
-10.6181
 30
3.6761
 70
192
 0
VERTEX
 8
CILINDRO_DUPLICATORE
 10
25.4114
 20
-10.6181
 30
3.6761
 70
192
 0
VERTEX
 8
CILINDRO_DUPLICATORE
 10
25.1714
 20
-10.4681
 30
3.4619
 70
192
 0
VERTEX
 8
CILINDRO_DUPLICATORE
 10
25.1714
 20
-10.4681
 30
3.4619
 70
192
 0
VERTEX
 8
CILINDRO_DUPLICATORE
 10
25.4114
 20
-10.4681
 30
3.4619
 70
192
 0
VERTEX
 8
CILINDRO_DUPLICATORE
 10
25.4114
 20
-10.4681
 30
3.4619
 70
192
 0
VERTEX
 8
CILINDRO_DUPLICATORE
 10
25.1714
 20
-10.2832
 30
3.277
 70
192
 0
VERTEX
 8
CILINDRO_DUPLICATORE
 10
25.1714
 20
-10.2832
 30
3.277
 70
192
 0
VERTEX
 8
CILINDRO_DUPLICATORE
 10
25.4114
 20
-10.2832
 30
3.277
 70
192
 0
VERTEX
 8
CILINDRO_DUPLICATORE
 10
25.4114
 20
-10.2832
 30
3.277
 70
192
 0
VERTEX
 8
CILINDRO_DUPLICATORE
 10
25.1714
 20
-10.069
 30
3.127
 70
192
 0
VERTEX
 8
CILINDRO_DUPLICATORE
 10
25.1714
 20
-10.069
 30
3.127
 70
192
 0
VERTEX
 8
CILINDRO_DUPLICATORE
 10
25.4114
 20
-10.069
 30
3.127
 70
192
 0
VERTEX
 8
CILINDRO_DUPLICATORE
 10
25.4114
 20
-10.069
 30
3.127
 70
192
 0
VERTEX
 8
CILINDRO_DUPLICATORE
 10
25.1714
 20
-9.8321
 30
3.0165
 70
192
 0
VERTEX
 8
CILINDRO_DUPLICATORE
 10
25.1714
 20
-9.8321
 30
3.0165
 70
192
 0
VERTEX
 8
CILINDRO_DUPLICATORE
 10
25.4114
 20
-9.8321
 30
3.0165
 70
192
 0
VERTEX
 8
CILINDRO_DUPLICATORE
 10
25.4114
 20
-9.8321
 30
3.0165
 70
192
 0
VERTEX
 8
CILINDRO_DUPLICATORE
 10
25.1714
 20
-9.5795
 30
2.9488
 70
192
 0
VERTEX
 8
CILINDRO_DUPLICATORE
 10
25.1714
 20
-9.5795
 30
2.9488
 70
192
 0
VERTEX
 8
CILINDRO_DUPLICATORE
 10
25.4114
 20
-9.5795
 30
2.9488
 70
192
 0
VERTEX
 8
CILINDRO_DUPLICATORE
 10
25.4114
 20
-9.5795
 30
2.9488
 70
192
 0
VERTEX
 8
CILINDRO_DUPLICATORE
 10
0
 20
0
 30
0
 70
128
 71
1
 72
3
 73
7
 74
7
 0
VERTEX
 8
CILINDRO_DUPLICATORE
 10
0
 20
0
 30
0
 70
128
 71
4
 72
5
 73
9
 74
8
 0
VERTEX
 8
CILINDRO_DUPLICATORE
 10
0
 20
0
 30
0
 70
128
 71
6
 72
2
 73
10
 74
10
 0
VERTEX
 8
CILINDRO_DUPLICATORE
 10
0
 20
0
 30
0
 70
128
 71
1
 72
7
 73
11
 74
11
 0
VERTEX
 8
CILINDRO_DUPLICATORE
 10
0
 20
0
 30
0
 70
128
 71
8
 72
9
 73
13
 74
12
 0
VERTEX
 8
CILINDRO_DUPLICATORE
 10
0
 20
0
 30
0
 70
128
 71
10
 72
2
 73
14
 74
14
 0
VERTEX
 8
CILINDRO_DUPLICATORE
 10
0
 20
0
 30
0
 70
128
 71
1
 72
11
 73
15
 74
15
 0
VERTEX
 8
CILINDRO_DUPLICATORE
 10
0
 20
0
 30
0
 70
128
 71
12
 72
13
 73
17
 74
16
 0
VERTEX
 8
CILINDRO_DUPLICATORE
 10
0
 20
0
 30
0
 70
128
 71
14
 72
2
 73
18
 74
18
 0
VERTEX
 8
CILINDRO_DUPLICATORE
 10
0
 20
0
 30
0
 70
128
 71
1
 72
15
 73
19
 74
19
 0
VERTEX
 8
CILINDRO_DUPLICATORE
 10
0
 20
0
 30
0
 70
128
 71
16
 72
17
 73
21
 74
20
 0
VERTEX
 8
CILINDRO_DUPLICATORE
 10
0
 20
0
 30
0
 70
128
 71
18
 72
2
 73
22
 74
22
 0
VERTEX
 8
CILINDRO_DUPLICATORE
 10
0
 20
0
 30
0
 70
128
 71
1
 72
19
 73
23
 74
23
 0
VERTEX
 8
CILINDRO_DUPLICATORE
 10
0
 20
0
 30
0
 70
128
 71
20
 72
21
 73
25
 74
24
 0
VERTEX
 8
CILINDRO_DUPLICATORE
 10
0
 20
0
 30
0
 70
128
 71
22
 72
2
 73
26
 74
26
 0
VERTEX
 8
CILINDRO_DUPLICATORE
 10
0
 20
0
 30
0
 70
128
 71
1
 72
23
 73
27
 74
27
 0
VERTEX
 8
CILINDRO_DUPLICATORE
 10
0
 20
0
 30
0
 70
128
 71
24
 72
25
 73
29
 74
28
 0
VERTEX
 8
CILINDRO_DUPLICATORE
 10
0
 20
0
 30
0
 70
128
 71
26
 72
2
 73
30
 74
30
 0
VERTEX
 8
CILINDRO_DUPLICATORE
 10
0
 20
0
 30
0
 70
128
 71
1
 72
27
 73
31
 74
31
 0
VERTEX
 8
CILINDRO_DUPLICATORE
 10
0
 20
0
 30
0
 70
128
 71
28
 72
29
 73
33
 74
32
 0
VERTEX
 8
CILINDRO_DUPLICATORE
 10
0
 20
0
 30
0
 70
128
 71
30
 72
2
 73
34
 74
34
 0
VERTEX
 8
CILINDRO_DUPLICATORE
 10
0
 20
0
 30
0
 70
128
 71
1
 72
31
 73
35
 74
35
 0
VERTEX
 8
CILINDRO_DUPLICATORE
 10
0
 20
0
 30
0
 70
128
 71
32
 72
33
 73
37
 74
36
 0
VERTEX
 8
CILINDRO_DUPLICATORE
 10
0
 20
0
 30
0
 70
128
 71
34
 72
2
 73
38
 74
38
 0
VERTEX
 8
CILINDRO_DUPLICATORE
 10
0
 20
0
 30
0
 70
128
 71
1
 72
35
 73
39
 74
39
 0
VERTEX
 8
CILINDRO_DUPLICATORE
 10
0
 20
0
 30
0
 70
128
 71
36
 72
37
 73
41
 74
40
 0
VERTEX
 8
CILINDRO_DUPLICATORE
 10
0
 20
0
 30
0
 70
128
 71
38
 72
2
 73
42
 74
42
 0
VERTEX
 8
CILINDRO_DUPLICATORE
 10
0
 20
0
 30
0
 70
128
 71
1
 72
39
 73
43
 74
43
 0
VERTEX
 8
CILINDRO_DUPLICATORE
 10
0
 20
0
 30
0
 70
128
 71
40
 72
41
 73
45
 74
44
 0
VERTEX
 8
CILINDRO_DUPLICATORE
 10
0
 20
0
 30
0
 70
128
 71
42
 72
2
 73
46
 74
46
 0
VERTEX
 8
CILINDRO_DUPLICATORE
 10
0
 20
0
 30
0
 70
128
 71
1
 72
43
 73
47
 74
47
 0
VERTEX
 8
CILINDRO_DUPLICATORE
 10
0
 20
0
 30
0
 70
128
 71
44
 72
45
 73
49
 74
48
 0
VERTEX
 8
CILINDRO_DUPLICATORE
 10
0
 20
0
 30
0
 70
128
 71
46
 72
2
 73
50
 74
50
 0
VERTEX
 8
CILINDRO_DUPLICATORE
 10
0
 20
0
 30
0
 70
128
 71
1
 72
47
 73
51
 74
51
 0
VERTEX
 8
CILINDRO_DUPLICATORE
 10
0
 20
0
 30
0
 70
128
 71
48
 72
49
 73
53
 74
52
 0
VERTEX
 8
CILINDRO_DUPLICATORE
 10
0
 20
0
 30
0
 70
128
 71
50
 72
2
 73
54
 74
54
 0
VERTEX
 8
CILINDRO_DUPLICATORE
 10
0
 20
0
 30
0
 70
128
 71
1
 72
51
 73
55
 74
55
 0
VERTEX
 8
CILINDRO_DUPLICATORE
 10
0
 20
0
 30
0
 70
128
 71
52
 72
53
 73
57
 74
56
 0
VERTEX
 8
CILINDRO_DUPLICATORE
 10
0
 20
0
 30
0
 70
128
 71
54
 72
2
 73
58
 74
58
 0
VERTEX
 8
CILINDRO_DUPLICATORE
 10
0
 20
0
 30
0
 70
128
 71
1
 72
55
 73
59
 74
59
 0
VERTEX
 8
CILINDRO_DUPLICATORE
 10
0
 20
0
 30
0
 70
128
 71
56
 72
57
 73
61
 74
60
 0
VERTEX
 8
CILINDRO_DUPLICATORE
 10
0
 20
0
 30
0
 70
128
 71
58
 72
2
 73
62
 74
62
 0
VERTEX
 8
CILINDRO_DUPLICATORE
 10
0
 20
0
 30
0
 70
128
 71
1
 72
59
 73
63
 74
63
 0
VERTEX
 8
CILINDRO_DUPLICATORE
 10
0
 20
0
 30
0
 70
128
 71
60
 72
61
 73
65
 74
64
 0
VERTEX
 8
CILINDRO_DUPLICATORE
 10
0
 20
0
 30
0
 70
128
 71
62
 72
2
 73
66
 74
66
 0
VERTEX
 8
CILINDRO_DUPLICATORE
 10
0
 20
0
 30
0
 70
128
 71
1
 72
63
 73
67
 74
67
 0
VERTEX
 8
CILINDRO_DUPLICATORE
 10
0
 20
0
 30
0
 70
128
 71
64
 72
65
 73
69
 74
68
 0
VERTEX
 8
CILINDRO_DUPLICATORE
 10
0
 20
0
 30
0
 70
128
 71
66
 72
2
 73
70
 74
70
 0
VERTEX
 8
CILINDRO_DUPLICATORE
 10
0
 20
0
 30
0
 70
128
 71
1
 72
67
 73
71
 74
71
 0
VERTEX
 8
CILINDRO_DUPLICATORE
 10
0
 20
0
 30
0
 70
128
 71
68
 72
69
 73
73
 74
72
 0
VERTEX
 8
CILINDRO_DUPLICATORE
 10
0
 20
0
 30
0
 70
128
 71
70
 72
2
 73
74
 74
74
 0
VERTEX
 8
CILINDRO_DUPLICATORE
 10
0
 20
0
 30
0
 70
128
 71
1
 72
71
 73
75
 74
75
 0
VERTEX
 8
CILINDRO_DUPLICATORE
 10
0
 20
0
 30
0
 70
128
 71
72
 72
73
 73
77
 74
76
 0
VERTEX
 8
CILINDRO_DUPLICATORE
 10
0
 20
0
 30
0
 70
128
 71
74
 72
2
 73
78
 74
78
 0
VERTEX
 8
CILINDRO_DUPLICATORE
 10
0
 20
0
 30
0
 70
128
 71
1
 72
75
 73
79
 74
79
 0
VERTEX
 8
CILINDRO_DUPLICATORE
 10
0
 20
0
 30
0
 70
128
 71
76
 72
77
 73
81
 74
80
 0
VERTEX
 8
CILINDRO_DUPLICATORE
 10
0
 20
0
 30
0
 70
128
 71
78
 72
2
 73
82
 74
82
 0
VERTEX
 8
CILINDRO_DUPLICATORE
 10
0
 20
0
 30
0
 70
128
 71
1
 72
79
 73
83
 74
83
 0
VERTEX
 8
CILINDRO_DUPLICATORE
 10
0
 20
0
 30
0
 70
128
 71
80
 72
81
 73
85
 74
84
 0
VERTEX
 8
CILINDRO_DUPLICATORE
 10
0
 20
0
 30
0
 70
128
 71
82
 72
2
 73
86
 74
86
 0
VERTEX
 8
CILINDRO_DUPLICATORE
 10
0
 20
0
 30
0
 70
128
 71
1
 72
83
 73
87
 74
87
 0
VERTEX
 8
CILINDRO_DUPLICATORE
 10
0
 20
0
 30
0
 70
128
 71
84
 72
85
 73
89
 74
88
 0
VERTEX
 8
CILINDRO_DUPLICATORE
 10
0
 20
0
 30
0
 70
128
 71
86
 72
2
 73
90
 74
90
 0
VERTEX
 8
CILINDRO_DUPLICATORE
 10
0
 20
0
 30
0
 70
128
 71
1
 72
87
 73
91
 74
91
 0
VERTEX
 8
CILINDRO_DUPLICATORE
 10
0
 20
0
 30
0
 70
128
 71
88
 72
89
 73
93
 74
92
 0
VERTEX
 8
CILINDRO_DUPLICATORE
 10
0
 20
0
 30
0
 70
128
 71
90
 72
2
 73
94
 74
94
 0
VERTEX
 8
CILINDRO_DUPLICATORE
 10
0
 20
0
 30
0
 70
128
 71
1
 72
91
 73
95
 74
95
 0
VERTEX
 8
CILINDRO_DUPLICATORE
 10
0
 20
0
 30
0
 70
128
 71
92
 72
93
 73
97
 74
96
 0
VERTEX
 8
CILINDRO_DUPLICATORE
 10
0
 20
0
 30
0
 70
128
 71
94
 72
2
 73
98
 74
98
 0
VERTEX
 8
CILINDRO_DUPLICATORE
 10
0
 20
0
 30
0
 70
128
 71
1
 72
95
 73
99
 74
99
 0
VERTEX
 8
CILINDRO_DUPLICATORE
 10
0
 20
0
 30
0
 70
128
 71
96
 72
97
 73
101
 74
100
 0
VERTEX
 8
CILINDRO_DUPLICATORE
 10
0
 20
0
 30
0
 70
128
 71
98
 72
2
 73
102
 74
102
 0
VERTEX
 8
CILINDRO_DUPLICATORE
 10
0
 20
0
 30
0
 70
128
 71
1
 72
99
 73
103
 74
103
 0
VERTEX
 8
CILINDRO_DUPLICATORE
 10
0
 20
0
 30
0
 70
128
 71
100
 72
101
 73
105
 74
104
 0
VERTEX
 8
CILINDRO_DUPLICATORE
 10
0
 20
0
 30
0
 70
128
 71
102
 72
2
 73
106
 74
106
 0
VERTEX
 8
CILINDRO_DUPLICATORE
 10
0
 20
0
 30
0
 70
128
 71
1
 72
103
 73
107
 74
107
 0
VERTEX
 8
CILINDRO_DUPLICATORE
 10
0
 20
0
 30
0
 70
128
 71
104
 72
105
 73
109
 74
108
 0
VERTEX
 8
CILINDRO_DUPLICATORE
 10
0
 20
0
 30
0
 70
128
 71
106
 72
2
 73
110
 74
110
 0
VERTEX
 8
CILINDRO_DUPLICATORE
 10
0
 20
0
 30
0
 70
128
 71
1
 72
107
 73
111
 74
111
 0
VERTEX
 8
CILINDRO_DUPLICATORE
 10
0
 20
0
 30
0
 70
128
 71
108
 72
109
 73
113
 74
112
 0
VERTEX
 8
CILINDRO_DUPLICATORE
 10
0
 20
0
 30
0
 70
128
 71
110
 72
2
 73
114
 74
114
 0
VERTEX
 8
CILINDRO_DUPLICATORE
 10
0
 20
0
 30
0
 70
128
 71
1
 72
111
 73
115
 74
115
 0
VERTEX
 8
CILINDRO_DUPLICATORE
 10
0
 20
0
 30
0
 70
128
 71
112
 72
113
 73
117
 74
116
 0
VERTEX
 8
CILINDRO_DUPLICATORE
 10
0
 20
0
 30
0
 70
128
 71
114
 72
2
 73
118
 74
118
 0
VERTEX
 8
CILINDRO_DUPLICATORE
 10
0
 20
0
 30
0
 70
128
 71
1
 72
115
 73
119
 74
119
 0
VERTEX
 8
CILINDRO_DUPLICATORE
 10
0
 20
0
 30
0
 70
128
 71
116
 72
117
 73
121
 74
120
 0
VERTEX
 8
CILINDRO_DUPLICATORE
 10
0
 20
0
 30
0
 70
128
 71
118
 72
2
 73
122
 74
122
 0
VERTEX
 8
CILINDRO_DUPLICATORE
 10
0
 20
0
 30
0
 70
128
 71
1
 72
119
 73
123
 74
123
 0
VERTEX
 8
CILINDRO_DUPLICATORE
 10
0
 20
0
 30
0
 70
128
 71
120
 72
121
 73
125
 74
124
 0
VERTEX
 8
CILINDRO_DUPLICATORE
 10
0
 20
0
 30
0
 70
128
 71
122
 72
2
 73
126
 74
126
 0
VERTEX
 8
CILINDRO_DUPLICATORE
 10
0
 20
0
 30
0
 70
128
 71
1
 72
123
 73
127
 74
127
 0
VERTEX
 8
CILINDRO_DUPLICATORE
 10
0
 20
0
 30
0
 70
128
 71
124
 72
125
 73
129
 74
128
 0
VERTEX
 8
CILINDRO_DUPLICATORE
 10
0
 20
0
 30
0
 70
128
 71
126
 72
2
 73
130
 74
130
 0
VERTEX
 8
CILINDRO_DUPLICATORE
 10
0
 20
0
 30
0
 70
128
 71
1
 72
127
 73
131
 74
131
 0
VERTEX
 8
CILINDRO_DUPLICATORE
 10
0
 20
0
 30
0
 70
128
 71
128
 72
129
 73
133
 74
132
 0
VERTEX
 8
CILINDRO_DUPLICATORE
 10
0
 20
0
 30
0
 70
128
 71
130
 72
2
 73
134
 74
134
 0
VERTEX
 8
CILINDRO_DUPLICATORE
 10
0
 20
0
 30
0
 70
128
 71
1
 72
131
 73
135
 74
135
 0
VERTEX
 8
CILINDRO_DUPLICATORE
 10
0
 20
0
 30
0
 70
128
 71
132
 72
133
 73
137
 74
136
 0
VERTEX
 8
CILINDRO_DUPLICATORE
 10
0
 20
0
 30
0
 70
128
 71
134
 72
2
 73
138
 74
138
 0
VERTEX
 8
CILINDRO_DUPLICATORE
 10
0
 20
0
 30
0
 70
128
 71
1
 72
135
 73
139
 74
139
 0
VERTEX
 8
CILINDRO_DUPLICATORE
 10
0
 20
0
 30
0
 70
128
 71
136
 72
137
 73
141
 74
140
 0
VERTEX
 8
CILINDRO_DUPLICATORE
 10
0
 20
0
 30
0
 70
128
 71
138
 72
2
 73
142
 74
142
 0
VERTEX
 8
CILINDRO_DUPLICATORE
 10
0
 20
0
 30
0
 70
128
 71
1
 72
139
 73
143
 74
143
 0
VERTEX
 8
CILINDRO_DUPLICATORE
 10
0
 20
0
 30
0
 70
128
 71
140
 72
141
 73
145
 74
144
 0
VERTEX
 8
CILINDRO_DUPLICATORE
 10
0
 20
0
 30
0
 70
128
 71
142
 72
2
 73
146
 74
146
 0
VERTEX
 8
CILINDRO_DUPLICATORE
 10
0
 20
0
 30
0
 70
128
 71
1
 72
143
 73
3
 74
3
 0
VERTEX
 8
CILINDRO_DUPLICATORE
 10
0
 20
0
 30
0
 70
128
 71
144
 72
145
 73
5
 74
4
 0
VERTEX
 8
CILINDRO_DUPLICATORE
 10
0
 20
0
 30
0
 70
128
 71
146
 72
2
 73
6
 74
6
 0
SEQEND
 0
POLYLINE
 8
CILINDRO
 66
1
 10
0.0
 20
0.0
 30
0.0
 70
64
 71
146
 72
108
 0
VERTEX
 8
CILINDRO
 10
-21.5721
 20
-9.319
 30
4.4261
 70
192
 0
VERTEX
 8
CILINDRO
 10
-21.3321
 20
-9.319
 30
4.4261
 70
192
 0
VERTEX
 8
CILINDRO
 10
-21.5721
 20
-9.319
 30
2.9261
 70
192
 0
VERTEX
 8
CILINDRO
 10
-21.5721
 20
-9.319
 30
2.9261
 70
192
 0
VERTEX
 8
CILINDRO
 10
-21.3321
 20
-9.319
 30
2.9261
 70
192
 0
VERTEX
 8
CILINDRO
 10
-21.3321
 20
-9.319
 30
2.9261
 70
192
 0
VERTEX
 8
CILINDRO
 10
-21.5721
 20
-9.0586
 30
2.9488
 70
192
 0
VERTEX
 8
CILINDRO
 10
-21.5721
 20
-9.0586
 30
2.9488
 70
192
 0
VERTEX
 8
CILINDRO
 10
-21.3321
 20
-9.0586
 30
2.9488
 70
192
 0
VERTEX
 8
CILINDRO
 10
-21.3321
 20
-9.0586
 30
2.9488
 70
192
 0
VERTEX
 8
CILINDRO
 10
-21.5721
 20
-8.806
 30
3.0165
 70
192
 0
VERTEX
 8
CILINDRO
 10
-21.5721
 20
-8.806
 30
3.0165
 70
192
 0
VERTEX
 8
CILINDRO
 10
-21.3321
 20
-8.806
 30
3.0165
 70
192
 0
VERTEX
 8
CILINDRO
 10
-21.3321
 20
-8.806
 30
3.0165
 70
192
 0
VERTEX
 8
CILINDRO
 10
-21.5721
 20
-8.569
 30
3.127
 70
192
 0
VERTEX
 8
CILINDRO
 10
-21.5721
 20
-8.569
 30
3.127
 70
192
 0
VERTEX
 8
CILINDRO
 10
-21.3321
 20
-8.569
 30
3.127
 70
192
 0
VERTEX
 8
CILINDRO
 10
-21.3321
 20
-8.569
 30
3.127
 70
192
 0
VERTEX
 8
CILINDRO
 10
-21.5721
 20
-8.3549
 30
3.277
 70
192
 0
VERTEX
 8
CILINDRO
 10
-21.5721
 20
-8.3549
 30
3.277
 70
192
 0
VERTEX
 8
CILINDRO
 10
-21.3321
 20
-8.3549
 30
3.277
 70
192
 0
VERTEX
 8
CILINDRO
 10
-21.3321
 20
-8.3549
 30
3.277
 70
192
 0
VERTEX
 8
CILINDRO
 10
-21.5721
 20
-8.17
 30
3.4619
 70
192
 0
VERTEX
 8
CILINDRO
 10
-21.5721
 20
-8.17
 30
3.4619
 70
192
 0
VERTEX
 8
CILINDRO
 10
-21.3321
 20
-8.17
 30
3.4619
 70
192
 0
VERTEX
 8
CILINDRO
 10
-21.3321
 20
-8.17
 30
3.4619
 70
192
 0
VERTEX
 8
CILINDRO
 10
-21.5721
 20
-8.02
 30
3.6761
 70
192
 0
VERTEX
 8
CILINDRO
 10
-21.5721
 20
-8.02
 30
3.6761
 70
192
 0
VERTEX
 8
CILINDRO
 10
-21.3321
 20
-8.02
 30
3.6761
 70
192
 0
VERTEX
 8
CILINDRO
 10
-21.3321
 20
-8.02
 30
3.6761
 70
192
 0
VERTEX
 8
CILINDRO
 10
-21.5721
 20
-7.9095
 30
3.913
 70
192
 0
VERTEX
 8
CILINDRO
 10
-21.5721
 20
-7.9095
 30
3.913
 70
192
 0
VERTEX
 8
CILINDRO
 10
-21.3321
 20
-7.9095
 30
3.913
 70
192
 0
VERTEX
 8
CILINDRO
 10
-21.3321
 20
-7.9095
 30
3.913
 70
192
 0
VERTEX
 8
CILINDRO
 10
-21.5721
 20
-7.8418
 30
4.1656
 70
192
 0
VERTEX
 8
CILINDRO
 10
-21.5721
 20
-7.8418
 30
4.1656
 70
192
 0
VERTEX
 8
CILINDRO
 10
-21.3321
 20
-7.8418
 30
4.1656
 70
192
 0
VERTEX
 8
CILINDRO
 10
-21.3321
 20
-7.8418
 30
4.1656
 70
192
 0
VERTEX
 8
CILINDRO
 10
-21.5721
 20
-7.819
 30
4.4261
 70
192
 0
VERTEX
 8
CILINDRO
 10
-21.5721
 20
-7.819
 30
4.4261
 70
192
 0
VERTEX
 8
CILINDRO
 10
-21.3321
 20
-7.819
 30
4.4261
 70
192
 0
VERTEX
 8
CILINDRO
 10
-21.3321
 20
-7.819
 30
4.4261
 70
192
 0
VERTEX
 8
CILINDRO
 10
-21.5721
 20
-7.8418
 30
4.6865
 70
192
 0
VERTEX
 8
CILINDRO
 10
-21.5721
 20
-7.8418
 30
4.6865
 70
192
 0
VERTEX
 8
CILINDRO
 10
-21.3321
 20
-7.8418
 30
4.6865
 70
192
 0
VERTEX
 8
CILINDRO
 10
-21.3321
 20
-7.8418
 30
4.6865
 70
192
 0
VERTEX
 8
CILINDRO
 10
-21.5721
 20
-7.9095
 30
4.9391
 70
192
 0
VERTEX
 8
CILINDRO
 10
-21.5721
 20
-7.9095
 30
4.9391
 70
192
 0
VERTEX
 8
CILINDRO
 10
-21.3321
 20
-7.9095
 30
4.9391
 70
192
 0
VERTEX
 8
CILINDRO
 10
-21.3321
 20
-7.9095
 30
4.9391
 70
192
 0
VERTEX
 8
CILINDRO
 10
-21.5721
 20
-8.02
 30
5.1761
 70
192
 0
VERTEX
 8
CILINDRO
 10
-21.5721
 20
-8.02
 30
5.1761
 70
192
 0
VERTEX
 8
CILINDRO
 10
-21.3321
 20
-8.02
 30
5.1761
 70
192
 0
VERTEX
 8
CILINDRO
 10
-21.3321
 20
-8.02
 30
5.1761
 70
192
 0
VERTEX
 8
CILINDRO
 10
-21.5721
 20
-8.17
 30
5.3902
 70
192
 0
VERTEX
 8
CILINDRO
 10
-21.5721
 20
-8.17
 30
5.3902
 70
192
 0
VERTEX
 8
CILINDRO
 10
-21.3321
 20
-8.17
 30
5.3902
 70
192
 0
VERTEX
 8
CILINDRO
 10
-21.3321
 20
-8.17
 30
5.3902
 70
192
 0
VERTEX
 8
CILINDRO
 10
-21.5721
 20
-8.3549
 30
5.5751
 70
192
 0
VERTEX
 8
CILINDRO
 10
-21.5721
 20
-8.3549
 30
5.5751
 70
192
 0
VERTEX
 8
CILINDRO
 10
-21.3321
 20
-8.3549
 30
5.5751
 70
192
 0
VERTEX
 8
CILINDRO
 10
-21.3321
 20
-8.3549
 30
5.5751
 70
192
 0
VERTEX
 8
CILINDRO
 10
-21.5721
 20
-8.569
 30
5.7251
 70
192
 0
VERTEX
 8
CILINDRO
 10
-21.5721
 20
-8.569
 30
5.7251
 70
192
 0
VERTEX
 8
CILINDRO
 10
-21.3321
 20
-8.569
 30
5.7251
 70
192
 0
VERTEX
 8
CILINDRO
 10
-21.3321
 20
-8.569
 30
5.7251
 70
192
 0
VERTEX
 8
CILINDRO
 10
-21.5721
 20
-8.806
 30
5.8356
 70
192
 0
VERTEX
 8
CILINDRO
 10
-21.5721
 20
-8.806
 30
5.8356
 70
192
 0
VERTEX
 8
CILINDRO
 10
-21.3321
 20
-8.806
 30
5.8356
 70
192
 0
VERTEX
 8
CILINDRO
 10
-21.3321
 20
-8.806
 30
5.8356
 70
192
 0
VERTEX
 8
CILINDRO
 10
-21.5721
 20
-9.0586
 30
5.9033
 70
192
 0
VERTEX
 8
CILINDRO
 10
-21.5721
 20
-9.0586
 30
5.9033
 70
192
 0
VERTEX
 8
CILINDRO
 10
-21.3321
 20
-9.0586
 30
5.9033
 70
192
 0
VERTEX
 8
CILINDRO
 10
-21.3321
 20
-9.0586
 30
5.9033
 70
192
 0
VERTEX
 8
CILINDRO
 10
-21.5721
 20
-9.319
 30
5.9261
 70
192
 0
VERTEX
 8
CILINDRO
 10
-21.5721
 20
-9.319
 30
5.9261
 70
192
 0
VERTEX
 8
CILINDRO
 10
-21.3321
 20
-9.319
 30
5.9261
 70
192
 0
VERTEX
 8
CILINDRO
 10
-21.3321
 20
-9.319
 30
5.9261
 70
192
 0
VERTEX
 8
CILINDRO
 10
-21.5721
 20
-9.5795
 30
5.9033
 70
192
 0
VERTEX
 8
CILINDRO
 10
-21.5721
 20
-9.5795
 30
5.9033
 70
192
 0
VERTEX
 8
CILINDRO
 10
-21.3321
 20
-9.5795
 30
5.9033
 70
192
 0
VERTEX
 8
CILINDRO
 10
-21.3321
 20
-9.5795
 30
5.9033
 70
192
 0
VERTEX
 8
CILINDRO
 10
-21.5721
 20
-9.8321
 30
5.8356
 70
192
 0
VERTEX
 8
CILINDRO
 10
-21.5721
 20
-9.8321
 30
5.8356
 70
192
 0
VERTEX
 8
CILINDRO
 10
-21.3321
 20
-9.8321
 30
5.8356
 70
192
 0
VERTEX
 8
CILINDRO
 10
-21.3321
 20
-9.8321
 30
5.8356
 70
192
 0
VERTEX
 8
CILINDRO
 10
-21.5721
 20
-10.069
 30
5.7251
 70
192
 0
VERTEX
 8
CILINDRO
 10
-21.5721
 20
-10.069
 30
5.7251
 70
192
 0
VERTEX
 8
CILINDRO
 10
-21.3321
 20
-10.069
 30
5.7251
 70
192
 0
VERTEX
 8
CILINDRO
 10
-21.3321
 20
-10.069
 30
5.7251
 70
192
 0
VERTEX
 8
CILINDRO
 10
-21.5721
 20
-10.2832
 30
5.5751
 70
192
 0
VERTEX
 8
CILINDRO
 10
-21.5721
 20
-10.2832
 30
5.5751
 70
192
 0
VERTEX
 8
CILINDRO
 10
-21.3321
 20
-10.2832
 30
5.5751
 70
192
 0
VERTEX
 8
CILINDRO
 10
-21.3321
 20
-10.2832
 30
5.5751
 70
192
 0
VERTEX
 8
CILINDRO
 10
-21.5721
 20
-10.4681
 30
5.3902
 70
192
 0
VERTEX
 8
CILINDRO
 10
-21.5721
 20
-10.4681
 30
5.3902
 70
192
 0
VERTEX
 8
CILINDRO
 10
-21.3321
 20
-10.4681
 30
5.3902
 70
192
 0
VERTEX
 8
CILINDRO
 10
-21.3321
 20
-10.4681
 30
5.3902
 70
192
 0
VERTEX
 8
CILINDRO
 10
-21.5721
 20
-10.6181
 30
5.1761
 70
192
 0
VERTEX
 8
CILINDRO
 10
-21.5721
 20
-10.6181
 30
5.1761
 70
192
 0
VERTEX
 8
CILINDRO
 10
-21.3321
 20
-10.6181
 30
5.1761
 70
192
 0
VERTEX
 8
CILINDRO
 10
-21.3321
 20
-10.6181
 30
5.1761
 70
192
 0
VERTEX
 8
CILINDRO
 10
-21.5721
 20
-10.7286
 30
4.9391
 70
192
 0
VERTEX
 8
CILINDRO
 10
-21.5721
 20
-10.7286
 30
4.9391
 70
192
 0
VERTEX
 8
CILINDRO
 10
-21.3321
 20
-10.7286
 30
4.9391
 70
192
 0
VERTEX
 8
CILINDRO
 10
-21.3321
 20
-10.7286
 30
4.9391
 70
192
 0
VERTEX
 8
CILINDRO
 10
-21.5721
 20
-10.7962
 30
4.6865
 70
192
 0
VERTEX
 8
CILINDRO
 10
-21.5721
 20
-10.7962
 30
4.6865
 70
192
 0
VERTEX
 8
CILINDRO
 10
-21.3321
 20
-10.7962
 30
4.6865
 70
192
 0
VERTEX
 8
CILINDRO
 10
-21.3321
 20
-10.7962
 30
4.6865
 70
192
 0
VERTEX
 8
CILINDRO
 10
-21.5721
 20
-10.819
 30
4.4261
 70
192
 0
VERTEX
 8
CILINDRO
 10
-21.5721
 20
-10.819
 30
4.4261
 70
192
 0
VERTEX
 8
CILINDRO
 10
-21.3321
 20
-10.819
 30
4.4261
 70
192
 0
VERTEX
 8
CILINDRO
 10
-21.3321
 20
-10.819
 30
4.4261
 70
192
 0
VERTEX
 8
CILINDRO
 10
-21.5721
 20
-10.7962
 30
4.1656
 70
192
 0
VERTEX
 8
CILINDRO
 10
-21.5721
 20
-10.7962
 30
4.1656
 70
192
 0
VERTEX
 8
CILINDRO
 10
-21.3321
 20
-10.7962
 30
4.1656
 70
192
 0
VERTEX
 8
CILINDRO
 10
-21.3321
 20
-10.7962
 30
4.1656
 70
192
 0
VERTEX
 8
CILINDRO
 10
-21.5721
 20
-10.7286
 30
3.913
 70
192
 0
VERTEX
 8
CILINDRO
 10
-21.5721
 20
-10.7286
 30
3.913
 70
192
 0
VERTEX
 8
CILINDRO
 10
-21.3321
 20
-10.7286
 30
3.913
 70
192
 0
VERTEX
 8
CILINDRO
 10
-21.3321
 20
-10.7286
 30
3.913
 70
192
 0
VERTEX
 8
CILINDRO
 10
-21.5721
 20
-10.6181
 30
3.6761
 70
192
 0
VERTEX
 8
CILINDRO
 10
-21.5721
 20
-10.6181
 30
3.6761
 70
192
 0
VERTEX
 8
CILINDRO
 10
-21.3321
 20
-10.6181
 30
3.6761
 70
192
 0
VERTEX
 8
CILINDRO
 10
-21.3321
 20
-10.6181
 30
3.6761
 70
192
 0
VERTEX
 8
CILINDRO
 10
-21.5721
 20
-10.4681
 30
3.4619
 70
192
 0
VERTEX
 8
CILINDRO
 10
-21.5721
 20
-10.4681
 30
3.4619
 70
192
 0
VERTEX
 8
CILINDRO
 10
-21.3321
 20
-10.4681
 30
3.4619
 70
192
 0
VERTEX
 8
CILINDRO
 10
-21.3321
 20
-10.4681
 30
3.4619
 70
192
 0
VERTEX
 8
CILINDRO
 10
-21.5721
 20
-10.2832
 30
3.277
 70
192
 0
VERTEX
 8
CILINDRO
 10
-21.5721
 20
-10.2832
 30
3.277
 70
192
 0
VERTEX
 8
CILINDRO
 10
-21.3321
 20
-10.2832
 30
3.277
 70
192
 0
VERTEX
 8
CILINDRO
 10
-21.3321
 20
-10.2832
 30
3.277
 70
192
 0
VERTEX
 8
CILINDRO
 10
-21.5721
 20
-10.069
 30
3.127
 70
192
 0
VERTEX
 8
CILINDRO
 10
-21.5721
 20
-10.069
 30
3.127
 70
192
 0
VERTEX
 8
CILINDRO
 10
-21.3321
 20
-10.069
 30
3.127
 70
192
 0
VERTEX
 8
CILINDRO
 10
-21.3321
 20
-10.069
 30
3.127
 70
192
 0
VERTEX
 8
CILINDRO
 10
-21.5721
 20
-9.8321
 30
3.0165
 70
192
 0
VERTEX
 8
CILINDRO
 10
-21.5721
 20
-9.8321
 30
3.0165
 70
192
 0
VERTEX
 8
CILINDRO
 10
-21.3321
 20
-9.8321
 30
3.0165
 70
192
 0
VERTEX
 8
CILINDRO
 10
-21.3321
 20
-9.8321
 30
3.0165
 70
192
 0
VERTEX
 8
CILINDRO
 10
-21.5721
 20
-9.5795
 30
2.9488
 70
192
 0
VERTEX
 8
CILINDRO
 10
-21.5721
 20
-9.5795
 30
2.9488
 70
192
 0
VERTEX
 8
CILINDRO
 10
-21.3321
 20
-9.5795
 30
2.9488
 70
192
 0
VERTEX
 8
CILINDRO
 10
-21.3321
 20
-9.5795
 30
2.9488
 70
192
 0
VERTEX
 8
CILINDRO
 10
0
 20
0
 30
0
 70
128
 71
1
 72
3
 73
7
 74
7
 0
VERTEX
 8
CILINDRO
 10
0
 20
0
 30
0
 70
128
 71
4
 72
5
 73
9
 74
8
 0
VERTEX
 8
CILINDRO
 10
0
 20
0
 30
0
 70
128
 71
6
 72
2
 73
10
 74
10
 0
VERTEX
 8
CILINDRO
 10
0
 20
0
 30
0
 70
128
 71
1
 72
7
 73
11
 74
11
 0
VERTEX
 8
CILINDRO
 10
0
 20
0
 30
0
 70
128
 71
8
 72
9
 73
13
 74
12
 0
VERTEX
 8
CILINDRO
 10
0
 20
0
 30
0
 70
128
 71
10
 72
2
 73
14
 74
14
 0
VERTEX
 8
CILINDRO
 10
0
 20
0
 30
0
 70
128
 71
1
 72
11
 73
15
 74
15
 0
VERTEX
 8
CILINDRO
 10
0
 20
0
 30
0
 70
128
 71
12
 72
13
 73
17
 74
16
 0
VERTEX
 8
CILINDRO
 10
0
 20
0
 30
0
 70
128
 71
14
 72
2
 73
18
 74
18
 0
VERTEX
 8
CILINDRO
 10
0
 20
0
 30
0
 70
128
 71
1
 72
15
 73
19
 74
19
 0
VERTEX
 8
CILINDRO
 10
0
 20
0
 30
0
 70
128
 71
16
 72
17
 73
21
 74
20
 0
VERTEX
 8
CILINDRO
 10
0
 20
0
 30
0
 70
128
 71
18
 72
2
 73
22
 74
22
 0
VERTEX
 8
CILINDRO
 10
0
 20
0
 30
0
 70
128
 71
1
 72
19
 73
23
 74
23
 0
VERTEX
 8
CILINDRO
 10
0
 20
0
 30
0
 70
128
 71
20
 72
21
 73
25
 74
24
 0
VERTEX
 8
CILINDRO
 10
0
 20
0
 30
0
 70
128
 71
22
 72
2
 73
26
 74
26
 0
VERTEX
 8
CILINDRO
 10
0
 20
0
 30
0
 70
128
 71
1
 72
23
 73
27
 74
27
 0
VERTEX
 8
CILINDRO
 10
0
 20
0
 30
0
 70
128
 71
24
 72
25
 73
29
 74
28
 0
VERTEX
 8
CILINDRO
 10
0
 20
0
 30
0
 70
128
 71
26
 72
2
 73
30
 74
30
 0
VERTEX
 8
CILINDRO
 10
0
 20
0
 30
0
 70
128
 71
1
 72
27
 73
31
 74
31
 0
VERTEX
 8
CILINDRO
 10
0
 20
0
 30
0
 70
128
 71
28
 72
29
 73
33
 74
32
 0
VERTEX
 8
CILINDRO
 10
0
 20
0
 30
0
 70
128
 71
30
 72
2
 73
34
 74
34
 0
VERTEX
 8
CILINDRO
 10
0
 20
0
 30
0
 70
128
 71
1
 72
31
 73
35
 74
35
 0
VERTEX
 8
CILINDRO
 10
0
 20
0
 30
0
 70
128
 71
32
 72
33
 73
37
 74
36
 0
VERTEX
 8
CILINDRO
 10
0
 20
0
 30
0
 70
128
 71
34
 72
2
 73
38
 74
38
 0
VERTEX
 8
CILINDRO
 10
0
 20
0
 30
0
 70
128
 71
1
 72
35
 73
39
 74
39
 0
VERTEX
 8
CILINDRO
 10
0
 20
0
 30
0
 70
128
 71
36
 72
37
 73
41
 74
40
 0
VERTEX
 8
CILINDRO
 10
0
 20
0
 30
0
 70
128
 71
38
 72
2
 73
42
 74
42
 0
VERTEX
 8
CILINDRO
 10
0
 20
0
 30
0
 70
128
 71
1
 72
39
 73
43
 74
43
 0
VERTEX
 8
CILINDRO
 10
0
 20
0
 30
0
 70
128
 71
40
 72
41
 73
45
 74
44
 0
VERTEX
 8
CILINDRO
 10
0
 20
0
 30
0
 70
128
 71
42
 72
2
 73
46
 74
46
 0
VERTEX
 8
CILINDRO
 10
0
 20
0
 30
0
 70
128
 71
1
 72
43
 73
47
 74
47
 0
VERTEX
 8
CILINDRO
 10
0
 20
0
 30
0
 70
128
 71
44
 72
45
 73
49
 74
48
 0
VERTEX
 8
CILINDRO
 10
0
 20
0
 30
0
 70
128
 71
46
 72
2
 73
50
 74
50
 0
VERTEX
 8
CILINDRO
 10
0
 20
0
 30
0
 70
128
 71
1
 72
47
 73
51
 74
51
 0
VERTEX
 8
CILINDRO
 10
0
 20
0
 30
0
 70
128
 71
48
 72
49
 73
53
 74
52
 0
VERTEX
 8
CILINDRO
 10
0
 20
0
 30
0
 70
128
 71
50
 72
2
 73
54
 74
54
 0
VERTEX
 8
CILINDRO
 10
0
 20
0
 30
0
 70
128
 71
1
 72
51
 73
55
 74
55
 0
VERTEX
 8
CILINDRO
 10
0
 20
0
 30
0
 70
128
 71
52
 72
53
 73
57
 74
56
 0
VERTEX
 8
CILINDRO
 10
0
 20
0
 30
0
 70
128
 71
54
 72
2
 73
58
 74
58
 0
VERTEX
 8
CILINDRO
 10
0
 20
0
 30
0
 70
128
 71
1
 72
55
 73
59
 74
59
 0
VERTEX
 8
CILINDRO
 10
0
 20
0
 30
0
 70
128
 71
56
 72
57
 73
61
 74
60
 0
VERTEX
 8
CILINDRO
 10
0
 20
0
 30
0
 70
128
 71
58
 72
2
 73
62
 74
62
 0
VERTEX
 8
CILINDRO
 10
0
 20
0
 30
0
 70
128
 71
1
 72
59
 73
63
 74
63
 0
VERTEX
 8
CILINDRO
 10
0
 20
0
 30
0
 70
128
 71
60
 72
61
 73
65
 74
64
 0
VERTEX
 8
CILINDRO
 10
0
 20
0
 30
0
 70
128
 71
62
 72
2
 73
66
 74
66
 0
VERTEX
 8
CILINDRO
 10
0
 20
0
 30
0
 70
128
 71
1
 72
63
 73
67
 74
67
 0
VERTEX
 8
CILINDRO
 10
0
 20
0
 30
0
 70
128
 71
64
 72
65
 73
69
 74
68
 0
VERTEX
 8
CILINDRO
 10
0
 20
0
 30
0
 70
128
 71
66
 72
2
 73
70
 74
70
 0
VERTEX
 8
CILINDRO
 10
0
 20
0
 30
0
 70
128
 71
1
 72
67
 73
71
 74
71
 0
VERTEX
 8
CILINDRO
 10
0
 20
0
 30
0
 70
128
 71
68
 72
69
 73
73
 74
72
 0
VERTEX
 8
CILINDRO
 10
0
 20
0
 30
0
 70
128
 71
70
 72
2
 73
74
 74
74
 0
VERTEX
 8
CILINDRO
 10
0
 20
0
 30
0
 70
128
 71
1
 72
71
 73
75
 74
75
 0
VERTEX
 8
CILINDRO
 10
0
 20
0
 30
0
 70
128
 71
72
 72
73
 73
77
 74
76
 0
VERTEX
 8
CILINDRO
 10
0
 20
0
 30
0
 70
128
 71
74
 72
2
 73
78
 74
78
 0
VERTEX
 8
CILINDRO
 10
0
 20
0
 30
0
 70
128
 71
1
 72
75
 73
79
 74
79
 0
VERTEX
 8
CILINDRO
 10
0
 20
0
 30
0
 70
128
 71
76
 72
77
 73
81
 74
80
 0
VERTEX
 8
CILINDRO
 10
0
 20
0
 30
0
 70
128
 71
78
 72
2
 73
82
 74
82
 0
VERTEX
 8
CILINDRO
 10
0
 20
0
 30
0
 70
128
 71
1
 72
79
 73
83
 74
83
 0
VERTEX
 8
CILINDRO
 10
0
 20
0
 30
0
 70
128
 71
80
 72
81
 73
85
 74
84
 0
VERTEX
 8
CILINDRO
 10
0
 20
0
 30
0
 70
128
 71
82
 72
2
 73
86
 74
86
 0
VERTEX
 8
CILINDRO
 10
0
 20
0
 30
0
 70
128
 71
1
 72
83
 73
87
 74
87
 0
VERTEX
 8
CILINDRO
 10
0
 20
0
 30
0
 70
128
 71
84
 72
85
 73
89
 74
88
 0
VERTEX
 8
CILINDRO
 10
0
 20
0
 30
0
 70
128
 71
86
 72
2
 73
90
 74
90
 0
VERTEX
 8
CILINDRO
 10
0
 20
0
 30
0
 70
128
 71
1
 72
87
 73
91
 74
91
 0
VERTEX
 8
CILINDRO
 10
0
 20
0
 30
0
 70
128
 71
88
 72
89
 73
93
 74
92
 0
VERTEX
 8
CILINDRO
 10
0
 20
0
 30
0
 70
128
 71
90
 72
2
 73
94
 74
94
 0
VERTEX
 8
CILINDRO
 10
0
 20
0
 30
0
 70
128
 71
1
 72
91
 73
95
 74
95
 0
VERTEX
 8
CILINDRO
 10
0
 20
0
 30
0
 70
128
 71
92
 72
93
 73
97
 74
96
 0
VERTEX
 8
CILINDRO
 10
0
 20
0
 30
0
 70
128
 71
94
 72
2
 73
98
 74
98
 0
VERTEX
 8
CILINDRO
 10
0
 20
0
 30
0
 70
128
 71
1
 72
95
 73
99
 74
99
 0
VERTEX
 8
CILINDRO
 10
0
 20
0
 30
0
 70
128
 71
96
 72
97
 73
101
 74
100
 0
VERTEX
 8
CILINDRO
 10
0
 20
0
 30
0
 70
128
 71
98
 72
2
 73
102
 74
102
 0
VERTEX
 8
CILINDRO
 10
0
 20
0
 30
0
 70
128
 71
1
 72
99
 73
103
 74
103
 0
VERTEX
 8
CILINDRO
 10
0
 20
0
 30
0
 70
128
 71
100
 72
101
 73
105
 74
104
 0
VERTEX
 8
CILINDRO
 10
0
 20
0
 30
0
 70
128
 71
102
 72
2
 73
106
 74
106
 0
VERTEX
 8
CILINDRO
 10
0
 20
0
 30
0
 70
128
 71
1
 72
103
 73
107
 74
107
 0
VERTEX
 8
CILINDRO
 10
0
 20
0
 30
0
 70
128
 71
104
 72
105
 73
109
 74
108
 0
VERTEX
 8
CILINDRO
 10
0
 20
0
 30
0
 70
128
 71
106
 72
2
 73
110
 74
110
 0
VERTEX
 8
CILINDRO
 10
0
 20
0
 30
0
 70
128
 71
1
 72
107
 73
111
 74
111
 0
VERTEX
 8
CILINDRO
 10
0
 20
0
 30
0
 70
128
 71
108
 72
109
 73
113
 74
112
 0
VERTEX
 8
CILINDRO
 10
0
 20
0
 30
0
 70
128
 71
110
 72
2
 73
114
 74
114
 0
VERTEX
 8
CILINDRO
 10
0
 20
0
 30
0
 70
128
 71
1
 72
111
 73
115
 74
115
 0
VERTEX
 8
CILINDRO
 10
0
 20
0
 30
0
 70
128
 71
112
 72
113
 73
117
 74
116
 0
VERTEX
 8
CILINDRO
 10
0
 20
0
 30
0
 70
128
 71
114
 72
2
 73
118
 74
118
 0
VERTEX
 8
CILINDRO
 10
0
 20
0
 30
0
 70
128
 71
1
 72
115
 73
119
 74
119
 0
VERTEX
 8
CILINDRO
 10
0
 20
0
 30
0
 70
128
 71
116
 72
117
 73
121
 74
120
 0
VERTEX
 8
CILINDRO
 10
0
 20
0
 30
0
 70
128
 71
118
 72
2
 73
122
 74
122
 0
VERTEX
 8
CILINDRO
 10
0
 20
0
 30
0
 70
128
 71
1
 72
119
 73
123
 74
123
 0
VERTEX
 8
CILINDRO
 10
0
 20
0
 30
0
 70
128
 71
120
 72
121
 73
125
 74
124
 0
VERTEX
 8
CILINDRO
 10
0
 20
0
 30
0
 70
128
 71
122
 72
2
 73
126
 74
126
 0
VERTEX
 8
CILINDRO
 10
0
 20
0
 30
0
 70
128
 71
1
 72
123
 73
127
 74
127
 0
VERTEX
 8
CILINDRO
 10
0
 20
0
 30
0
 70
128
 71
124
 72
125
 73
129
 74
128
 0
VERTEX
 8
CILINDRO
 10
0
 20
0
 30
0
 70
128
 71
126
 72
2
 73
130
 74
130
 0
VERTEX
 8
CILINDRO
 10
0
 20
0
 30
0
 70
128
 71
1
 72
127
 73
131
 74
131
 0
VERTEX
 8
CILINDRO
 10
0
 20
0
 30
0
 70
128
 71
128
 72
129
 73
133
 74
132
 0
VERTEX
 8
CILINDRO
 10
0
 20
0
 30
0
 70
128
 71
130
 72
2
 73
134
 74
134
 0
VERTEX
 8
CILINDRO
 10
0
 20
0
 30
0
 70
128
 71
1
 72
131
 73
135
 74
135
 0
VERTEX
 8
CILINDRO
 10
0
 20
0
 30
0
 70
128
 71
132
 72
133
 73
137
 74
136
 0
VERTEX
 8
CILINDRO
 10
0
 20
0
 30
0
 70
128
 71
134
 72
2
 73
138
 74
138
 0
VERTEX
 8
CILINDRO
 10
0
 20
0
 30
0
 70
128
 71
1
 72
135
 73
139
 74
139
 0
VERTEX
 8
CILINDRO
 10
0
 20
0
 30
0
 70
128
 71
136
 72
137
 73
141
 74
140
 0
VERTEX
 8
CILINDRO
 10
0
 20
0
 30
0
 70
128
 71
138
 72
2
 73
142
 74
142
 0
VERTEX
 8
CILINDRO
 10
0
 20
0
 30
0
 70
128
 71
1
 72
139
 73
143
 74
143
 0
VERTEX
 8
CILINDRO
 10
0
 20
0
 30
0
 70
128
 71
140
 72
141
 73
145
 74
144
 0
VERTEX
 8
CILINDRO
 10
0
 20
0
 30
0
 70
128
 71
142
 72
2
 73
146
 74
146
 0
VERTEX
 8
CILINDRO
 10
0
 20
0
 30
0
 70
128
 71
1
 72
143
 73
3
 74
3
 0
VERTEX
 8
CILINDRO
 10
0
 20
0
 30
0
 70
128
 71
144
 72
145
 73
5
 74
4
 0
VERTEX
 8
CILINDRO
 10
0
 20
0
 30
0
 70
128
 71
146
 72
2
 73
6
 74
6
 0
SEQEND
 0
POLYLINE
 8
CILINDRO_1
 66
1
 10
0.0
 20
0.0
 30
0.0
 70
64
 71
146
 72
108
 0
VERTEX
 8
CILINDRO_1
 10
-21.3327
 20
-9.319
 30
4.4261
 70
192
 0
VERTEX
 8
CILINDRO_1
 10
25.1673
 20
-9.319
 30
4.4261
 70
192
 0
VERTEX
 8
CILINDRO_1
 10
-21.3327
 20
-9.319
 30
2.9261
 70
192
 0
VERTEX
 8
CILINDRO_1
 10
-21.3327
 20
-9.319
 30
2.9261
 70
192
 0
VERTEX
 8
CILINDRO_1
 10
25.1673
 20
-9.319
 30
2.9261
 70
192
 0
VERTEX
 8
CILINDRO_1
 10
25.1673
 20
-9.319
 30
2.9261
 70
192
 0
VERTEX
 8
CILINDRO_1
 10
-21.3327
 20
-9.0586
 30
2.9488
 70
192
 0
VERTEX
 8
CILINDRO_1
 10
-21.3327
 20
-9.0586
 30
2.9488
 70
192
 0
VERTEX
 8
CILINDRO_1
 10
25.1673
 20
-9.0586
 30
2.9488
 70
192
 0
VERTEX
 8
CILINDRO_1
 10
25.1673
 20
-9.0586
 30
2.9488
 70
192
 0
VERTEX
 8
CILINDRO_1
 10
-21.3327
 20
-8.806
 30
3.0165
 70
192
 0
VERTEX
 8
CILINDRO_1
 10
-21.3327
 20
-8.806
 30
3.0165
 70
192
 0
VERTEX
 8
CILINDRO_1
 10
25.1673
 20
-8.806
 30
3.0165
 70
192
 0
VERTEX
 8
CILINDRO_1
 10
25.1673
 20
-8.806
 30
3.0165
 70
192
 0
VERTEX
 8
CILINDRO_1
 10
-21.3327
 20
-8.569
 30
3.127
 70
192
 0
VERTEX
 8
CILINDRO_1
 10
-21.3327
 20
-8.569
 30
3.127
 70
192
 0
VERTEX
 8
CILINDRO_1
 10
25.1673
 20
-8.569
 30
3.127
 70
192
 0
VERTEX
 8
CILINDRO_1
 10
25.1673
 20
-8.569
 30
3.127
 70
192
 0
VERTEX
 8
CILINDRO_1
 10
-21.3327
 20
-8.3549
 30
3.277
 70
192
 0
VERTEX
 8
CILINDRO_1
 10
-21.3327
 20
-8.3549
 30
3.277
 70
192
 0
VERTEX
 8
CILINDRO_1
 10
25.1673
 20
-8.3549
 30
3.277
 70
192
 0
VERTEX
 8
CILINDRO_1
 10
25.1673
 20
-8.3549
 30
3.277
 70
192
 0
VERTEX
 8
CILINDRO_1
 10
-21.3327
 20
-8.17
 30
3.4619
 70
192
 0
VERTEX
 8
CILINDRO_1
 10
-21.3327
 20
-8.17
 30
3.4619
 70
192
 0
VERTEX
 8
CILINDRO_1
 10
25.1673
 20
-8.17
 30
3.4619
 70
192
 0
VERTEX
 8
CILINDRO_1
 10
25.1673
 20
-8.17
 30
3.4619
 70
192
 0
VERTEX
 8
CILINDRO_1
 10
-21.3327
 20
-8.02
 30
3.6761
 70
192
 0
VERTEX
 8
CILINDRO_1
 10
-21.3327
 20
-8.02
 30
3.6761
 70
192
 0
VERTEX
 8
CILINDRO_1
 10
25.1673
 20
-8.02
 30
3.6761
 70
192
 0
VERTEX
 8
CILINDRO_1
 10
25.1673
 20
-8.02
 30
3.6761
 70
192
 0
VERTEX
 8
CILINDRO_1
 10
-21.3327
 20
-7.9095
 30
3.913
 70
192
 0
VERTEX
 8
CILINDRO_1
 10
-21.3327
 20
-7.9095
 30
3.913
 70
192
 0
VERTEX
 8
CILINDRO_1
 10
25.1673
 20
-7.9095
 30
3.913
 70
192
 0
VERTEX
 8
CILINDRO_1
 10
25.1673
 20
-7.9095
 30
3.913
 70
192
 0
VERTEX
 8
CILINDRO_1
 10
-21.3327
 20
-7.8418
 30
4.1656
 70
192
 0
VERTEX
 8
CILINDRO_1
 10
-21.3327
 20
-7.8418
 30
4.1656
 70
192
 0
VERTEX
 8
CILINDRO_1
 10
25.1673
 20
-7.8418
 30
4.1656
 70
192
 0
VERTEX
 8
CILINDRO_1
 10
25.1673
 20
-7.8418
 30
4.1656
 70
192
 0
VERTEX
 8
CILINDRO_1
 10
-21.3327
 20
-7.819
 30
4.4261
 70
192
 0
VERTEX
 8
CILINDRO_1
 10
-21.3327
 20
-7.819
 30
4.4261
 70
192
 0
VERTEX
 8
CILINDRO_1
 10
25.1673
 20
-7.819
 30
4.4261
 70
192
 0
VERTEX
 8
CILINDRO_1
 10
25.1673
 20
-7.819
 30
4.4261
 70
192
 0
VERTEX
 8
CILINDRO_1
 10
-21.3327
 20
-7.8418
 30
4.6865
 70
192
 0
VERTEX
 8
CILINDRO_1
 10
-21.3327
 20
-7.8418
 30
4.6865
 70
192
 0
VERTEX
 8
CILINDRO_1
 10
25.1673
 20
-7.8418
 30
4.6865
 70
192
 0
VERTEX
 8
CILINDRO_1
 10
25.1673
 20
-7.8418
 30
4.6865
 70
192
 0
VERTEX
 8
CILINDRO_1
 10
-21.3327
 20
-7.9095
 30
4.9391
 70
192
 0
VERTEX
 8
CILINDRO_1
 10
-21.3327
 20
-7.9095
 30
4.9391
 70
192
 0
VERTEX
 8
CILINDRO_1
 10
25.1673
 20
-7.9095
 30
4.9391
 70
192
 0
VERTEX
 8
CILINDRO_1
 10
25.1673
 20
-7.9095
 30
4.9391
 70
192
 0
VERTEX
 8
CILINDRO_1
 10
-21.3327
 20
-8.02
 30
5.1761
 70
192
 0
VERTEX
 8
CILINDRO_1
 10
-21.3327
 20
-8.02
 30
5.1761
 70
192
 0
VERTEX
 8
CILINDRO_1
 10
25.1673
 20
-8.02
 30
5.1761
 70
192
 0
VERTEX
 8
CILINDRO_1
 10
25.1673
 20
-8.02
 30
5.1761
 70
192
 0
VERTEX
 8
CILINDRO_1
 10
-21.3327
 20
-8.17
 30
5.3902
 70
192
 0
VERTEX
 8
CILINDRO_1
 10
-21.3327
 20
-8.17
 30
5.3902
 70
192
 0
VERTEX
 8
CILINDRO_1
 10
25.1673
 20
-8.17
 30
5.3902
 70
192
 0
VERTEX
 8
CILINDRO_1
 10
25.1673
 20
-8.17
 30
5.3902
 70
192
 0
VERTEX
 8
CILINDRO_1
 10
-21.3327
 20
-8.3549
 30
5.5751
 70
192
 0
VERTEX
 8
CILINDRO_1
 10
-21.3327
 20
-8.3549
 30
5.5751
 70
192
 0
VERTEX
 8
CILINDRO_1
 10
25.1673
 20
-8.3549
 30
5.5751
 70
192
 0
VERTEX
 8
CILINDRO_1
 10
25.1673
 20
-8.3549
 30
5.5751
 70
192
 0
VERTEX
 8
CILINDRO_1
 10
-21.3327
 20
-8.569
 30
5.7251
 70
192
 0
VERTEX
 8
CILINDRO_1
 10
-21.3327
 20
-8.569
 30
5.7251
 70
192
 0
VERTEX
 8
CILINDRO_1
 10
25.1673
 20
-8.569
 30
5.7251
 70
192
 0
VERTEX
 8
CILINDRO_1
 10
25.1673
 20
-8.569
 30
5.7251
 70
192
 0
VERTEX
 8
CILINDRO_1
 10
-21.3327
 20
-8.806
 30
5.8356
 70
192
 0
VERTEX
 8
CILINDRO_1
 10
-21.3327
 20
-8.806
 30
5.8356
 70
192
 0
VERTEX
 8
CILINDRO_1
 10
25.1673
 20
-8.806
 30
5.8356
 70
192
 0
VERTEX
 8
CILINDRO_1
 10
25.1673
 20
-8.806
 30
5.8356
 70
192
 0
VERTEX
 8
CILINDRO_1
 10
-21.3327
 20
-9.0586
 30
5.9033
 70
192
 0
VERTEX
 8
CILINDRO_1
 10
-21.3327
 20
-9.0586
 30
5.9033
 70
192
 0
VERTEX
 8
CILINDRO_1
 10
25.1673
 20
-9.0586
 30
5.9033
 70
192
 0
VERTEX
 8
CILINDRO_1
 10
25.1673
 20
-9.0586
 30
5.9033
 70
192
 0
VERTEX
 8
CILINDRO_1
 10
-21.3327
 20
-9.319
 30
5.9261
 70
192
 0
VERTEX
 8
CILINDRO_1
 10
-21.3327
 20
-9.319
 30
5.9261
 70
192
 0
VERTEX
 8
CILINDRO_1
 10
25.1673
 20
-9.319
 30
5.9261
 70
192
 0
VERTEX
 8
CILINDRO_1
 10
25.1673
 20
-9.319
 30
5.9261
 70
192
 0
VERTEX
 8
CILINDRO_1
 10
-21.3327
 20
-9.5795
 30
5.9033
 70
192
 0
VERTEX
 8
CILINDRO_1
 10
-21.3327
 20
-9.5795
 30
5.9033
 70
192
 0
VERTEX
 8
CILINDRO_1
 10
25.1673
 20
-9.5795
 30
5.9033
 70
192
 0
VERTEX
 8
CILINDRO_1
 10
25.1673
 20
-9.5795
 30
5.9033
 70
192
 0
VERTEX
 8
CILINDRO_1
 10
-21.3327
 20
-9.8321
 30
5.8356
 70
192
 0
VERTEX
 8
CILINDRO_1
 10
-21.3327
 20
-9.8321
 30
5.8356
 70
192
 0
VERTEX
 8
CILINDRO_1
 10
25.1673
 20
-9.8321
 30
5.8356
 70
192
 0
VERTEX
 8
CILINDRO_1
 10
25.1673
 20
-9.8321
 30
5.8356
 70
192
 0
VERTEX
 8
CILINDRO_1
 10
-21.3327
 20
-10.069
 30
5.7251
 70
192
 0
VERTEX
 8
CILINDRO_1
 10
-21.3327
 20
-10.069
 30
5.7251
 70
192
 0
VERTEX
 8
CILINDRO_1
 10
25.1673
 20
-10.069
 30
5.7251
 70
192
 0
VERTEX
 8
CILINDRO_1
 10
25.1673
 20
-10.069
 30
5.7251
 70
192
 0
VERTEX
 8
CILINDRO_1
 10
-21.3327
 20
-10.2832
 30
5.5751
 70
192
 0
VERTEX
 8
CILINDRO_1
 10
-21.3327
 20
-10.2832
 30
5.5751
 70
192
 0
VERTEX
 8
CILINDRO_1
 10
25.1673
 20
-10.2832
 30
5.5751
 70
192
 0
VERTEX
 8
CILINDRO_1
 10
25.1673
 20
-10.2832
 30
5.5751
 70
192
 0
VERTEX
 8
CILINDRO_1
 10
-21.3327
 20
-10.4681
 30
5.3902
 70
192
 0
VERTEX
 8
CILINDRO_1
 10
-21.3327
 20
-10.4681
 30
5.3902
 70
192
 0
VERTEX
 8
CILINDRO_1
 10
25.1673
 20
-10.4681
 30
5.3902
 70
192
 0
VERTEX
 8
CILINDRO_1
 10
25.1673
 20
-10.4681
 30
5.3902
 70
192
 0
VERTEX
 8
CILINDRO_1
 10
-21.3327
 20
-10.6181
 30
5.1761
 70
192
 0
VERTEX
 8
CILINDRO_1
 10
-21.3327
 20
-10.6181
 30
5.1761
 70
192
 0
VERTEX
 8
CILINDRO_1
 10
25.1673
 20
-10.6181
 30
5.1761
 70
192
 0
VERTEX
 8
CILINDRO_1
 10
25.1673
 20
-10.6181
 30
5.1761
 70
192
 0
VERTEX
 8
CILINDRO_1
 10
-21.3327
 20
-10.7286
 30
4.9391
 70
192
 0
VERTEX
 8
CILINDRO_1
 10
-21.3327
 20
-10.7286
 30
4.9391
 70
192
 0
VERTEX
 8
CILINDRO_1
 10
25.1673
 20
-10.7286
 30
4.9391
 70
192
 0
VERTEX
 8
CILINDRO_1
 10
25.1673
 20
-10.7286
 30
4.9391
 70
192
 0
VERTEX
 8
CILINDRO_1
 10
-21.3327
 20
-10.7962
 30
4.6865
 70
192
 0
VERTEX
 8
CILINDRO_1
 10
-21.3327
 20
-10.7962
 30
4.6865
 70
192
 0
VERTEX
 8
CILINDRO_1
 10
25.1673
 20
-10.7962
 30
4.6865
 70
192
 0
VERTEX
 8
CILINDRO_1
 10
25.1673
 20
-10.7962
 30
4.6865
 70
192
 0
VERTEX
 8
CILINDRO_1
 10
-21.3327
 20
-10.819
 30
4.4261
 70
192
 0
VERTEX
 8
CILINDRO_1
 10
-21.3327
 20
-10.819
 30
4.4261
 70
192
 0
VERTEX
 8
CILINDRO_1
 10
25.1673
 20
-10.819
 30
4.4261
 70
192
 0
VERTEX
 8
CILINDRO_1
 10
25.1673
 20
-10.819
 30
4.4261
 70
192
 0
VERTEX
 8
CILINDRO_1
 10
-21.3327
 20
-10.7962
 30
4.1656
 70
192
 0
VERTEX
 8
CILINDRO_1
 10
-21.3327
 20
-10.7962
 30
4.1656
 70
192
 0
VERTEX
 8
CILINDRO_1
 10
25.1673
 20
-10.7962
 30
4.1656
 70
192
 0
VERTEX
 8
CILINDRO_1
 10
25.1673
 20
-10.7962
 30
4.1656
 70
192
 0
VERTEX
 8
CILINDRO_1
 10
-21.3327
 20
-10.7286
 30
3.913
 70
192
 0
VERTEX
 8
CILINDRO_1
 10
-21.3327
 20
-10.7286
 30
3.913
 70
192
 0
VERTEX
 8
CILINDRO_1
 10
25.1673
 20
-10.7286
 30
3.913
 70
192
 0
VERTEX
 8
CILINDRO_1
 10
25.1673
 20
-10.7286
 30
3.913
 70
192
 0
VERTEX
 8
CILINDRO_1
 10
-21.3327
 20
-10.6181
 30
3.6761
 70
192
 0
VERTEX
 8
CILINDRO_1
 10
-21.3327
 20
-10.6181
 30
3.6761
 70
192
 0
VERTEX
 8
CILINDRO_1
 10
25.1673
 20
-10.6181
 30
3.6761
 70
192
 0
VERTEX
 8
CILINDRO_1
 10
25.1673
 20
-10.6181
 30
3.6761
 70
192
 0
VERTEX
 8
CILINDRO_1
 10
-21.3327
 20
-10.4681
 30
3.4619
 70
192
 0
VERTEX
 8
CILINDRO_1
 10
-21.3327
 20
-10.4681
 30
3.4619
 70
192
 0
VERTEX
 8
CILINDRO_1
 10
25.1673
 20
-10.4681
 30
3.4619
 70
192
 0
VERTEX
 8
CILINDRO_1
 10
25.1673
 20
-10.4681
 30
3.4619
 70
192
 0
VERTEX
 8
CILINDRO_1
 10
-21.3327
 20
-10.2832
 30
3.277
 70
192
 0
VERTEX
 8
CILINDRO_1
 10
-21.3327
 20
-10.2832
 30
3.277
 70
192
 0
VERTEX
 8
CILINDRO_1
 10
25.1673
 20
-10.2832
 30
3.277
 70
192
 0
VERTEX
 8
CILINDRO_1
 10
25.1673
 20
-10.2832
 30
3.277
 70
192
 0
VERTEX
 8
CILINDRO_1
 10
-21.3327
 20
-10.069
 30
3.127
 70
192
 0
VERTEX
 8
CILINDRO_1
 10
-21.3327
 20
-10.069
 30
3.127
 70
192
 0
VERTEX
 8
CILINDRO_1
 10
25.1673
 20
-10.069
 30
3.127
 70
192
 0
VERTEX
 8
CILINDRO_1
 10
25.1673
 20
-10.069
 30
3.127
 70
192
 0
VERTEX
 8
CILINDRO_1
 10
-21.3327
 20
-9.8321
 30
3.0165
 70
192
 0
VERTEX
 8
CILINDRO_1
 10
-21.3327
 20
-9.8321
 30
3.0165
 70
192
 0
VERTEX
 8
CILINDRO_1
 10
25.1673
 20
-9.8321
 30
3.0165
 70
192
 0
VERTEX
 8
CILINDRO_1
 10
25.1673
 20
-9.8321
 30
3.0165
 70
192
 0
VERTEX
 8
CILINDRO_1
 10
-21.3327
 20
-9.5795
 30
2.9488
 70
192
 0
VERTEX
 8
CILINDRO_1
 10
-21.3327
 20
-9.5795
 30
2.9488
 70
192
 0
VERTEX
 8
CILINDRO_1
 10
25.1673
 20
-9.5795
 30
2.9488
 70
192
 0
VERTEX
 8
CILINDRO_1
 10
25.1673
 20
-9.5795
 30
2.9488
 70
192
 0
VERTEX
 8
CILINDRO_1
 10
0
 20
0
 30
0
 70
128
 71
1
 72
3
 73
7
 74
7
 0
VERTEX
 8
CILINDRO_1
 10
0
 20
0
 30
0
 70
128
 71
4
 72
5
 73
9
 74
8
 0
VERTEX
 8
CILINDRO_1
 10
0
 20
0
 30
0
 70
128
 71
6
 72
2
 73
10
 74
10
 0
VERTEX
 8
CILINDRO_1
 10
0
 20
0
 30
0
 70
128
 71
1
 72
7
 73
11
 74
11
 0
VERTEX
 8
CILINDRO_1
 10
0
 20
0
 30
0
 70
128
 71
8
 72
9
 73
13
 74
12
 0
VERTEX
 8
CILINDRO_1
 10
0
 20
0
 30
0
 70
128
 71
10
 72
2
 73
14
 74
14
 0
VERTEX
 8
CILINDRO_1
 10
0
 20
0
 30
0
 70
128
 71
1
 72
11
 73
15
 74
15
 0
VERTEX
 8
CILINDRO_1
 10
0
 20
0
 30
0
 70
128
 71
12
 72
13
 73
17
 74
16
 0
VERTEX
 8
CILINDRO_1
 10
0
 20
0
 30
0
 70
128
 71
14
 72
2
 73
18
 74
18
 0
VERTEX
 8
CILINDRO_1
 10
0
 20
0
 30
0
 70
128
 71
1
 72
15
 73
19
 74
19
 0
VERTEX
 8
CILINDRO_1
 10
0
 20
0
 30
0
 70
128
 71
16
 72
17
 73
21
 74
20
 0
VERTEX
 8
CILINDRO_1
 10
0
 20
0
 30
0
 70
128
 71
18
 72
2
 73
22
 74
22
 0
VERTEX
 8
CILINDRO_1
 10
0
 20
0
 30
0
 70
128
 71
1
 72
19
 73
23
 74
23
 0
VERTEX
 8
CILINDRO_1
 10
0
 20
0
 30
0
 70
128
 71
20
 72
21
 73
25
 74
24
 0
VERTEX
 8
CILINDRO_1
 10
0
 20
0
 30
0
 70
128
 71
22
 72
2
 73
26
 74
26
 0
VERTEX
 8
CILINDRO_1
 10
0
 20
0
 30
0
 70
128
 71
1
 72
23
 73
27
 74
27
 0
VERTEX
 8
CILINDRO_1
 10
0
 20
0
 30
0
 70
128
 71
24
 72
25
 73
29
 74
28
 0
VERTEX
 8
CILINDRO_1
 10
0
 20
0
 30
0
 70
128
 71
26
 72
2
 73
30
 74
30
 0
VERTEX
 8
CILINDRO_1
 10
0
 20
0
 30
0
 70
128
 71
1
 72
27
 73
31
 74
31
 0
VERTEX
 8
CILINDRO_1
 10
0
 20
0
 30
0
 70
128
 71
28
 72
29
 73
33
 74
32
 0
VERTEX
 8
CILINDRO_1
 10
0
 20
0
 30
0
 70
128
 71
30
 72
2
 73
34
 74
34
 0
VERTEX
 8
CILINDRO_1
 10
0
 20
0
 30
0
 70
128
 71
1
 72
31
 73
35
 74
35
 0
VERTEX
 8
CILINDRO_1
 10
0
 20
0
 30
0
 70
128
 71
32
 72
33
 73
37
 74
36
 0
VERTEX
 8
CILINDRO_1
 10
0
 20
0
 30
0
 70
128
 71
34
 72
2
 73
38
 74
38
 0
VERTEX
 8
CILINDRO_1
 10
0
 20
0
 30
0
 70
128
 71
1
 72
35
 73
39
 74
39
 0
VERTEX
 8
CILINDRO_1
 10
0
 20
0
 30
0
 70
128
 71
36
 72
37
 73
41
 74
40
 0
VERTEX
 8
CILINDRO_1
 10
0
 20
0
 30
0
 70
128
 71
38
 72
2
 73
42
 74
42
 0
VERTEX
 8
CILINDRO_1
 10
0
 20
0
 30
0
 70
128
 71
1
 72
39
 73
43
 74
43
 0
VERTEX
 8
CILINDRO_1
 10
0
 20
0
 30
0
 70
128
 71
40
 72
41
 73
45
 74
44
 0
VERTEX
 8
CILINDRO_1
 10
0
 20
0
 30
0
 70
128
 71
42
 72
2
 73
46
 74
46
 0
VERTEX
 8
CILINDRO_1
 10
0
 20
0
 30
0
 70
128
 71
1
 72
43
 73
47
 74
47
 0
VERTEX
 8
CILINDRO_1
 10
0
 20
0
 30
0
 70
128
 71
44
 72
45
 73
49
 74
48
 0
VERTEX
 8
CILINDRO_1
 10
0
 20
0
 30
0
 70
128
 71
46
 72
2
 73
50
 74
50
 0
VERTEX
 8
CILINDRO_1
 10
0
 20
0
 30
0
 70
128
 71
1
 72
47
 73
51
 74
51
 0
VERTEX
 8
CILINDRO_1
 10
0
 20
0
 30
0
 70
128
 71
48
 72
49
 73
53
 74
52
 0
VERTEX
 8
CILINDRO_1
 10
0
 20
0
 30
0
 70
128
 71
50
 72
2
 73
54
 74
54
 0
VERTEX
 8
CILINDRO_1
 10
0
 20
0
 30
0
 70
128
 71
1
 72
51
 73
55
 74
55
 0
VERTEX
 8
CILINDRO_1
 10
0
 20
0
 30
0
 70
128
 71
52
 72
53
 73
57
 74
56
 0
VERTEX
 8
CILINDRO_1
 10
0
 20
0
 30
0
 70
128
 71
54
 72
2
 73
58
 74
58
 0
VERTEX
 8
CILINDRO_1
 10
0
 20
0
 30
0
 70
128
 71
1
 72
55
 73
59
 74
59
 0
VERTEX
 8
CILINDRO_1
 10
0
 20
0
 30
0
 70
128
 71
56
 72
57
 73
61
 74
60
 0
VERTEX
 8
CILINDRO_1
 10
0
 20
0
 30
0
 70
128
 71
58
 72
2
 73
62
 74
62
 0
VERTEX
 8
CILINDRO_1
 10
0
 20
0
 30
0
 70
128
 71
1
 72
59
 73
63
 74
63
 0
VERTEX
 8
CILINDRO_1
 10
0
 20
0
 30
0
 70
128
 71
60
 72
61
 73
65
 74
64
 0
VERTEX
 8
CILINDRO_1
 10
0
 20
0
 30
0
 70
128
 71
62
 72
2
 73
66
 74
66
 0
VERTEX
 8
CILINDRO_1
 10
0
 20
0
 30
0
 70
128
 71
1
 72
63
 73
67
 74
67
 0
VERTEX
 8
CILINDRO_1
 10
0
 20
0
 30
0
 70
128
 71
64
 72
65
 73
69
 74
68
 0
VERTEX
 8
CILINDRO_1
 10
0
 20
0
 30
0
 70
128
 71
66
 72
2
 73
70
 74
70
 0
VERTEX
 8
CILINDRO_1
 10
0
 20
0
 30
0
 70
128
 71
1
 72
67
 73
71
 74
71
 0
VERTEX
 8
CILINDRO_1
 10
0
 20
0
 30
0
 70
128
 71
68
 72
69
 73
73
 74
72
 0
VERTEX
 8
CILINDRO_1
 10
0
 20
0
 30
0
 70
128
 71
70
 72
2
 73
74
 74
74
 0
VERTEX
 8
CILINDRO_1
 10
0
 20
0
 30
0
 70
128
 71
1
 72
71
 73
75
 74
75
 0
VERTEX
 8
CILINDRO_1
 10
0
 20
0
 30
0
 70
128
 71
72
 72
73
 73
77
 74
76
 0
VERTEX
 8
CILINDRO_1
 10
0
 20
0
 30
0
 70
128
 71
74
 72
2
 73
78
 74
78
 0
VERTEX
 8
CILINDRO_1
 10
0
 20
0
 30
0
 70
128
 71
1
 72
75
 73
79
 74
79
 0
VERTEX
 8
CILINDRO_1
 10
0
 20
0
 30
0
 70
128
 71
76
 72
77
 73
81
 74
80
 0
VERTEX
 8
CILINDRO_1
 10
0
 20
0
 30
0
 70
128
 71
78
 72
2
 73
82
 74
82
 0
VERTEX
 8
CILINDRO_1
 10
0
 20
0
 30
0
 70
128
 71
1
 72
79
 73
83
 74
83
 0
VERTEX
 8
CILINDRO_1
 10
0
 20
0
 30
0
 70
128
 71
80
 72
81
 73
85
 74
84
 0
VERTEX
 8
CILINDRO_1
 10
0
 20
0
 30
0
 70
128
 71
82
 72
2
 73
86
 74
86
 0
VERTEX
 8
CILINDRO_1
 10
0
 20
0
 30
0
 70
128
 71
1
 72
83
 73
87
 74
87
 0
VERTEX
 8
CILINDRO_1
 10
0
 20
0
 30
0
 70
128
 71
84
 72
85
 73
89
 74
88
 0
VERTEX
 8
CILINDRO_1
 10
0
 20
0
 30
0
 70
128
 71
86
 72
2
 73
90
 74
90
 0
VERTEX
 8
CILINDRO_1
 10
0
 20
0
 30
0
 70
128
 71
1
 72
87
 73
91
 74
91
 0
VERTEX
 8
CILINDRO_1
 10
0
 20
0
 30
0
 70
128
 71
88
 72
89
 73
93
 74
92
 0
VERTEX
 8
CILINDRO_1
 10
0
 20
0
 30
0
 70
128
 71
90
 72
2
 73
94
 74
94
 0
VERTEX
 8
CILINDRO_1
 10
0
 20
0
 30
0
 70
128
 71
1
 72
91
 73
95
 74
95
 0
VERTEX
 8
CILINDRO_1
 10
0
 20
0
 30
0
 70
128
 71
92
 72
93
 73
97
 74
96
 0
VERTEX
 8
CILINDRO_1
 10
0
 20
0
 30
0
 70
128
 71
94
 72
2
 73
98
 74
98
 0
VERTEX
 8
CILINDRO_1
 10
0
 20
0
 30
0
 70
128
 71
1
 72
95
 73
99
 74
99
 0
VERTEX
 8
CILINDRO_1
 10
0
 20
0
 30
0
 70
128
 71
96
 72
97
 73
101
 74
100
 0
VERTEX
 8
CILINDRO_1
 10
0
 20
0
 30
0
 70
128
 71
98
 72
2
 73
102
 74
102
 0
VERTEX
 8
CILINDRO_1
 10
0
 20
0
 30
0
 70
128
 71
1
 72
99
 73
103
 74
103
 0
VERTEX
 8
CILINDRO_1
 10
0
 20
0
 30
0
 70
128
 71
100
 72
101
 73
105
 74
104
 0
VERTEX
 8
CILINDRO_1
 10
0
 20
0
 30
0
 70
128
 71
102
 72
2
 73
106
 74
106
 0
VERTEX
 8
CILINDRO_1
 10
0
 20
0
 30
0
 70
128
 71
1
 72
103
 73
107
 74
107
 0
VERTEX
 8
CILINDRO_1
 10
0
 20
0
 30
0
 70
128
 71
104
 72
105
 73
109
 74
108
 0
VERTEX
 8
CILINDRO_1
 10
0
 20
0
 30
0
 70
128
 71
106
 72
2
 73
110
 74
110
 0
VERTEX
 8
CILINDRO_1
 10
0
 20
0
 30
0
 70
128
 71
1
 72
107
 73
111
 74
111
 0
VERTEX
 8
CILINDRO_1
 10
0
 20
0
 30
0
 70
128
 71
108
 72
109
 73
113
 74
112
 0
VERTEX
 8
CILINDRO_1
 10
0
 20
0
 30
0
 70
128
 71
110
 72
2
 73
114
 74
114
 0
VERTEX
 8
CILINDRO_1
 10
0
 20
0
 30
0
 70
128
 71
1
 72
111
 73
115
 74
115
 0
VERTEX
 8
CILINDRO_1
 10
0
 20
0
 30
0
 70
128
 71
112
 72
113
 73
117
 74
116
 0
VERTEX
 8
CILINDRO_1
 10
0
 20
0
 30
0
 70
128
 71
114
 72
2
 73
118
 74
118
 0
VERTEX
 8
CILINDRO_1
 10
0
 20
0
 30
0
 70
128
 71
1
 72
115
 73
119
 74
119
 0
VERTEX
 8
CILINDRO_1
 10
0
 20
0
 30
0
 70
128
 71
116
 72
117
 73
121
 74
120
 0
VERTEX
 8
CILINDRO_1
 10
0
 20
0
 30
0
 70
128
 71
118
 72
2
 73
122
 74
122
 0
VERTEX
 8
CILINDRO_1
 10
0
 20
0
 30
0
 70
128
 71
1
 72
119
 73
123
 74
123
 0
VERTEX
 8
CILINDRO_1
 10
0
 20
0
 30
0
 70
128
 71
120
 72
121
 73
125
 74
124
 0
VERTEX
 8
CILINDRO_1
 10
0
 20
0
 30
0
 70
128
 71
122
 72
2
 73
126
 74
126
 0
VERTEX
 8
CILINDRO_1
 10
0
 20
0
 30
0
 70
128
 71
1
 72
123
 73
127
 74
127
 0
VERTEX
 8
CILINDRO_1
 10
0
 20
0
 30
0
 70
128
 71
124
 72
125
 73
129
 74
128
 0
VERTEX
 8
CILINDRO_1
 10
0
 20
0
 30
0
 70
128
 71
126
 72
2
 73
130
 74
130
 0
VERTEX
 8
CILINDRO_1
 10
0
 20
0
 30
0
 70
128
 71
1
 72
127
 73
131
 74
131
 0
VERTEX
 8
CILINDRO_1
 10
0
 20
0
 30
0
 70
128
 71
128
 72
129
 73
133
 74
132
 0
VERTEX
 8
CILINDRO_1
 10
0
 20
0
 30
0
 70
128
 71
130
 72
2
 73
134
 74
134
 0
VERTEX
 8
CILINDRO_1
 10
0
 20
0
 30
0
 70
128
 71
1
 72
131
 73
135
 74
135
 0
VERTEX
 8
CILINDRO_1
 10
0
 20
0
 30
0
 70
128
 71
132
 72
133
 73
137
 74
136
 0
VERTEX
 8
CILINDRO_1
 10
0
 20
0
 30
0
 70
128
 71
134
 72
2
 73
138
 74
138
 0
VERTEX
 8
CILINDRO_1
 10
0
 20
0
 30
0
 70
128
 71
1
 72
135
 73
139
 74
139
 0
VERTEX
 8
CILINDRO_1
 10
0
 20
0
 30
0
 70
128
 71
136
 72
137
 73
141
 74
140
 0
VERTEX
 8
CILINDRO_1
 10
0
 20
0
 30
0
 70
128
 71
138
 72
2
 73
142
 74
142
 0
VERTEX
 8
CILINDRO_1
 10
0
 20
0
 30
0
 70
128
 71
1
 72
139
 73
143
 74
143
 0
VERTEX
 8
CILINDRO_1
 10
0
 20
0
 30
0
 70
128
 71
140
 72
141
 73
145
 74
144
 0
VERTEX
 8
CILINDRO_1
 10
0
 20
0
 30
0
 70
128
 71
142
 72
2
 73
146
 74
146
 0
VERTEX
 8
CILINDRO_1
 10
0
 20
0
 30
0
 70
128
 71
1
 72
143
 73
3
 74
3
 0
VERTEX
 8
CILINDRO_1
 10
0
 20
0
 30
0
 70
128
 71
144
 72
145
 73
5
 74
4
 0
VERTEX
 8
CILINDRO_1
 10
0
 20
0
 30
0
 70
128
 71
146
 72
2
 73
6
 74
6
 0
SEQEND
 0
POLYLINE
 8
PROFILO
 66
1
 10
0.0
 20
0.0
 30
0.0
 70
64
 71
24
 72
22
 0
VERTEX
 8
PROFILO
 10
32.8989
 20
-4.4058
 30
-21.5922
 70
192
 0
VERTEX
 8
PROFILO
 10
32.8989
 20
-4.4058
 30
0.1098
 70
192
 0
VERTEX
 8
PROFILO
 10
34.3989
 20
-4.4058
 30
-21.5922
 70
192
 0
VERTEX
 8
PROFILO
 10
34.3989
 20
-4.4058
 30
0.1098
 70
192
 0
VERTEX
 8
PROFILO
 10
34.3989
 20
-4.2963
 30
-21.5922
 70
192
 0
VERTEX
 8
PROFILO
 10
34.3989
 20
-4.2963
 30
0.1098
 70
192
 0
VERTEX
 8
PROFILO
 10
34.3989
 20
-2.945
 30
-20.1863
 70
192
 0
VERTEX
 8
PROFILO
 10
34.3989
 20
-2.945
 30
-1.2976
 70
192
 0
VERTEX
 8
PROFILO
 10
34.3989
 20
-2.6569
 30
-20.1863
 70
192
 0
VERTEX
 8
PROFILO
 10
34.3989
 20
-2.6569
 30
-1.2976
 70
192
 0
VERTEX
 8
PROFILO
 10
32.8989
 20
-2.6569
 30
-20.1863
 70
192
 0
VERTEX
 8
PROFILO
 10
32.8989
 20
-2.6569
 30
-1.2976
 70
192
 0
VERTEX
 8
PROFILO
 10
32.8989
 20
-2.945
 30
-20.1863
 70
192
 0
VERTEX
 8
PROFILO
 10
32.8989
 20
-2.945
 30
-1.2976
 70
192
 0
VERTEX
 8
PROFILO
 10
32.8989
 20
-4.2963
 30
-21.5922
 70
192
 0
VERTEX
 8
PROFILO
 10
32.8989
 20
-4.2963
 30
0.1098
 70
192
 0
VERTEX
 8
PROFILO
 10
32.8989
 20
-4.4058
 30
0.2103
 70
192
 0
VERTEX
 8
PROFILO
 10
34.3989
 20
-4.4058
 30
0.2103
 70
192
 0
VERTEX
 8
PROFILO
 10
34.3989
 20
-4.2963
 30
0.2103
 70
192
 0
VERTEX
 8
PROFILO
 10
32.8989
 20
-4.2963
 30
0.2103
 70
192
 0
VERTEX
 8
PROFILO
 10
32.8989
 20
-4.4058
 30
-21.6925
 70
192
 0
VERTEX
 8
PROFILO
 10
34.3989
 20
-4.4058
 30
-21.6925
 70
192
 0
VERTEX
 8
PROFILO
 10
34.3989
 20
-4.2963
 30
-21.6925
 70
192
 0
VERTEX
 8
PROFILO
 10
32.8989
 20
-4.2963
 30
-21.6925
 70
192
 0
VERTEX
 8
PROFILO
 10
0
 20
0
 30
0
 70
128
 71
1
 72
2
 73
4
 74
3
 0
VERTEX
 8
PROFILO
 10
0
 20
0
 30
0
 70
128
 71
3
 72
4
 73
6
 74
5
 0
VERTEX
 8
PROFILO
 10
0
 20
0
 30
0
 70
128
 71
5
 72
6
 73
8
 74
7
 0
VERTEX
 8
PROFILO
 10
0
 20
0
 30
0
 70
128
 71
7
 72
8
 73
10
 74
9
 0
VERTEX
 8
PROFILO
 10
0
 20
0
 30
0
 70
128
 71
9
 72
10
 73
12
 74
11
 0
VERTEX
 8
PROFILO
 10
0
 20
0
 30
0
 70
128
 71
11
 72
12
 73
14
 74
13
 0
VERTEX
 8
PROFILO
 10
0
 20
0
 30
0
 70
128
 71
13
 72
14
 73
16
 74
15
 0
VERTEX
 8
PROFILO
 10
0
 20
0
 30
0
 70
128
 71
15
 72
16
 73
2
 74
1
 0
VERTEX
 8
PROFILO
 10
0
 20
0
 30
0
 70
128
 71
17
 72
20
 73
19
 74
18
 0
VERTEX
 8
PROFILO
 10
0
 20
0
 30
0
 70
128
 71
16
 72
14
 73
8
 74
6
 0
VERTEX
 8
PROFILO
 10
0
 20
0
 30
0
 70
128
 71
14
 72
12
 73
10
 74
8
 0
VERTEX
 8
PROFILO
 10
0
 20
0
 30
0
 70
128
 71
11
 72
13
 73
7
 74
9
 0
VERTEX
 8
PROFILO
 10
0
 20
0
 30
0
 70
128
 71
13
 72
15
 73
5
 74
7
 0
VERTEX
 8
PROFILO
 10
0
 20
0
 30
0
 70
128
 71
24
 72
21
 73
22
 74
23
 0
VERTEX
 8
PROFILO
 10
0
 20
0
 30
0
 70
128
 71
2
 72
17
 73
18
 74
4
 0
VERTEX
 8
PROFILO
 10
0
 20
0
 30
0
 70
128
 71
4
 72
18
 73
19
 74
6
 0
VERTEX
 8
PROFILO
 10
0
 20
0
 30
0
 70
128
 71
6
 72
19
 73
20
 74
16
 0
VERTEX
 8
PROFILO
 10
0
 20
0
 30
0
 70
128
 71
16
 72
20
 73
17
 74
2
 0
VERTEX
 8
PROFILO
 10
0
 20
0
 30
0
 70
128
 71
15
 72
24
 73
23
 74
5
 0
VERTEX
 8
PROFILO
 10
0
 20
0
 30
0
 70
128
 71
5
 72
23
 73
22
 74
3
 0
VERTEX
 8
PROFILO
 10
0
 20
0
 30
0
 70
128
 71
3
 72
22
 73
21
 74
1
 0
VERTEX
 8
PROFILO
 10
0
 20
0
 30
0
 70
128
 71
1
 72
21
 73
24
 74
15
 0
SEQEND
 0
POLYLINE
 8
PROFILO_1
 66
1
 10
0.0
 20
0.0
 30
0.0
 70
64
 71
24
 72
22
 0
VERTEX
 8
PROFILO_1
 10
-29.1014
 20
-4.4058
 30
-21.5922
 70
192
 0
VERTEX
 8
PROFILO_1
 10
-29.1014
 20
-4.4058
 30
0.1098
 70
192
 0
VERTEX
 8
PROFILO_1
 10
-30.6014
 20
-4.4058
 30
-21.5922
 70
192
 0
VERTEX
 8
PROFILO_1
 10
-30.6014
 20
-4.4058
 30
0.1098
 70
192
 0
VERTEX
 8
PROFILO_1
 10
-30.6014
 20
-4.2963
 30
-21.5922
 70
192
 0
VERTEX
 8
PROFILO_1
 10
-30.6014
 20
-4.2963
 30
0.1098
 70
192
 0
VERTEX
 8
PROFILO_1
 10
-30.6014
 20
-2.945
 30
-20.1863
 70
192
 0
VERTEX
 8
PROFILO_1
 10
-30.6014
 20
-2.945
 30
-1.2976
 70
192
 0
VERTEX
 8
PROFILO_1
 10
-30.6014
 20
-2.6569
 30
-20.1863
 70
192
 0
VERTEX
 8
PROFILO_1
 10
-30.6014
 20
-2.6569
 30
-1.2976
 70
192
 0
VERTEX
 8
PROFILO_1
 10
-29.1014
 20
-2.6569
 30
-20.1863
 70
192
 0
VERTEX
 8
PROFILO_1
 10
-29.1014
 20
-2.6569
 30
-1.2976
 70
192
 0
VERTEX
 8
PROFILO_1
 10
-29.1014
 20
-2.945
 30
-20.1863
 70
192
 0
VERTEX
 8
PROFILO_1
 10
-29.1014
 20
-2.945
 30
-1.2976
 70
192
 0
VERTEX
 8
PROFILO_1
 10
-29.1014
 20
-4.2963
 30
-21.5922
 70
192
 0
VERTEX
 8
PROFILO_1
 10
-29.1014
 20
-4.2963
 30
0.1098
 70
192
 0
VERTEX
 8
PROFILO_1
 10
-29.1014
 20
-4.4058
 30
0.2103
 70
192
 0
VERTEX
 8
PROFILO_1
 10
-30.6014
 20
-4.4058
 30
0.2103
 70
192
 0
VERTEX
 8
PROFILO_1
 10
-30.6014
 20
-4.2963
 30
0.2103
 70
192
 0
VERTEX
 8
PROFILO_1
 10
-29.1014
 20
-4.2963
 30
0.2103
 70
192
 0
VERTEX
 8
PROFILO_1
 10
-29.1014
 20
-4.4058
 30
-21.6925
 70
192
 0
VERTEX
 8
PROFILO_1
 10
-30.6014
 20
-4.4058
 30
-21.6925
 70
192
 0
VERTEX
 8
PROFILO_1
 10
-30.6014
 20
-4.2963
 30
-21.6925
 70
192
 0
VERTEX
 8
PROFILO_1
 10
-29.1014
 20
-4.2963
 30
-21.6925
 70
192
 0
VERTEX
 8
PROFILO_1
 10
0
 20
0
 30
0
 70
128
 71
1
 72
2
 73
4
 74
3
 0
VERTEX
 8
PROFILO_1
 10
0
 20
0
 30
0
 70
128
 71
3
 72
4
 73
6
 74
5
 0
VERTEX
 8
PROFILO_1
 10
0
 20
0
 30
0
 70
128
 71
5
 72
6
 73
8
 74
7
 0
VERTEX
 8
PROFILO_1
 10
0
 20
0
 30
0
 70
128
 71
7
 72
8
 73
10
 74
9
 0
VERTEX
 8
PROFILO_1
 10
0
 20
0
 30
0
 70
128
 71
9
 72
10
 73
12
 74
11
 0
VERTEX
 8
PROFILO_1
 10
0
 20
0
 30
0
 70
128
 71
11
 72
12
 73
14
 74
13
 0
VERTEX
 8
PROFILO_1
 10
0
 20
0
 30
0
 70
128
 71
13
 72
14
 73
16
 74
15
 0
VERTEX
 8
PROFILO_1
 10
0
 20
0
 30
0
 70
128
 71
15
 72
16
 73
2
 74
1
 0
VERTEX
 8
PROFILO_1
 10
0
 20
0
 30
0
 70
128
 71
17
 72
20
 73
19
 74
18
 0
VERTEX
 8
PROFILO_1
 10
0
 20
0
 30
0
 70
128
 71
16
 72
14
 73
8
 74
6
 0
VERTEX
 8
PROFILO_1
 10
0
 20
0
 30
0
 70
128
 71
14
 72
12
 73
10
 74
8
 0
VERTEX
 8
PROFILO_1
 10
0
 20
0
 30
0
 70
128
 71
11
 72
13
 73
7
 74
9
 0
VERTEX
 8
PROFILO_1
 10
0
 20
0
 30
0
 70
128
 71
13
 72
15
 73
5
 74
7
 0
VERTEX
 8
PROFILO_1
 10
0
 20
0
 30
0
 70
128
 71
24
 72
21
 73
22
 74
23
 0
VERTEX
 8
PROFILO_1
 10
0
 20
0
 30
0
 70
128
 71
2
 72
17
 73
18
 74
4
 0
VERTEX
 8
PROFILO_1
 10
0
 20
0
 30
0
 70
128
 71
4
 72
18
 73
19
 74
6
 0
VERTEX
 8
PROFILO_1
 10
0
 20
0
 30
0
 70
128
 71
6
 72
19
 73
20
 74
16
 0
VERTEX
 8
PROFILO_1
 10
0
 20
0
 30
0
 70
128
 71
16
 72
20
 73
17
 74
2
 0
VERTEX
 8
PROFILO_1
 10
0
 20
0
 30
0
 70
128
 71
15
 72
24
 73
23
 74
5
 0
VERTEX
 8
PROFILO_1
 10
0
 20
0
 30
0
 70
128
 71
5
 72
23
 73
22
 74
3
 0
VERTEX
 8
PROFILO_1
 10
0
 20
0
 30
0
 70
128
 71
3
 72
22
 73
21
 74
1
 0
VERTEX
 8
PROFILO_1
 10
0
 20
0
 30
0
 70
128
 71
1
 72
21
 73
24
 74
15
 0
SEQEND
 0
POLYLINE
 8
ANTA
 66
1
 10
0.0
 20
0.0
 30
0.0
 70
64
 71
96
 72
96
 0
VERTEX
 8
ANTA
 10
-35.8977
 20
-4.3075
 30
-25.7419
 70
192
 0
VERTEX
 8
ANTA
 10
-35.8977
 20
-4.3075
 30
-20.149
 70
192
 0
VERTEX
 8
ANTA
 10
-35.8977
 20
-4.3075
 30
-1.335
 70
192
 0
VERTEX
 8
ANTA
 10
-35.8977
 20
-4.3075
 30
6.3581
 70
192
 0
VERTEX
 8
ANTA
 10
-30.2972
 20
-4.3075
 30
-25.7419
 70
192
 0
VERTEX
 8
ANTA
 10
-30.2972
 20
-4.3075
 30
-21.5796
 70
192
 0
VERTEX
 8
ANTA
 10
-30.2972
 20
-4.3075
 30
0.0952
 70
192
 0
VERTEX
 8
ANTA
 10
-30.2972
 20
-4.3075
 30
6.3581
 70
192
 0
VERTEX
 8
ANTA
 10
34.1038
 20
-4.3075
 30
-25.7419
 70
192
 0
VERTEX
 8
ANTA
 10
34.1038
 20
-4.3075
 30
-21.5796
 70
192
 0
VERTEX
 8
ANTA
 10
34.1038
 20
-4.3075
 30
0.0952
 70
192
 0
VERTEX
 8
ANTA
 10
34.1038
 20
-4.3075
 30
6.3581
 70
192
 0
VERTEX
 8
ANTA
 10
39.7033
 20
-4.3075
 30
-25.7419
 70
192
 0
VERTEX
 8
ANTA
 10
39.7033
 20
-4.3075
 30
-20.149
 70
192
 0
VERTEX
 8
ANTA
 10
39.7033
 20
-4.3075
 30
-1.335
 70
192
 0
VERTEX
 8
ANTA
 10
39.7033
 20
-4.3075
 30
6.3581
 70
192
 0
VERTEX
 8
ANTA
 10
39.8033
 20
-2.8713
 30
-25.8419
 70
192
 0
VERTEX
 8
ANTA
 10
39.8033
 20
-2.8713
 30
-20.1494
 70
192
 0
VERTEX
 8
ANTA
 10
39.8033
 20
-2.8713
 30
-1.335
 70
192
 0
VERTEX
 8
ANTA
 10
39.8033
 20
-2.8713
 30
6.4581
 70
192
 0
VERTEX
 8
ANTA
 10
34.1038
 20
-2.8713
 30
-25.8419
 70
192
 0
VERTEX
 8
ANTA
 10
33.8038
 20
-2.8713
 30
-20.1497
 70
192
 0
VERTEX
 8
ANTA
 10
33.8038
 20
-2.8713
 30
-1.3348
 70
192
 0
VERTEX
 8
ANTA
 10
34.1038
 20
-2.8713
 30
6.4581
 70
192
 0
VERTEX
 8
ANTA
 10
-30.2972
 20
-2.8713
 30
-25.8419
 70
192
 0
VERTEX
 8
ANTA
 10
-29.9972
 20
-2.8713
 30
-20.1497
 70
192
 0
VERTEX
 8
ANTA
 10
-29.9972
 20
-2.8713
 30
-1.3348
 70
192
 0
VERTEX
 8
ANTA
 10
-30.2972
 20
-2.8713
 30
6.4581
 70
192
 0
VERTEX
 8
ANTA
 10
-35.9977
 20
-2.8713
 30
-25.8419
 70
192
 0
VERTEX
 8
ANTA
 10
-35.9977
 20
-2.8713
 30
-20.1494
 70
192
 0
VERTEX
 8
ANTA
 10
-35.9977
 20
-2.8713
 30
-1.335
 70
192
 0
VERTEX
 8
ANTA
 10
-35.9977
 20
-2.8713
 30
6.4581
 70
192
 0
VERTEX
 8
ANTA
 10
39.7033
 20
-2.6713
 30
-25.7419
 70
192
 0
VERTEX
 8
ANTA
 10
39.7033
 20
-2.6713
 30
-20.1494
 70
192
 0
VERTEX
 8
ANTA
 10
39.7033
 20
-2.6713
 30
-1.335
 70
192
 0
VERTEX
 8
ANTA
 10
39.7033
 20
-2.6713
 30
6.3581
 70
192
 0
VERTEX
 8
ANTA
 10
34.1038
 20
-2.6713
 30
-25.7419
 70
192
 0
VERTEX
 8
ANTA
 10
33.8038
 20
-2.6713
 30
-20.1497
 70
192
 0
VERTEX
 8
ANTA
 10
33.8038
 20
-2.6713
 30
-1.3348
 70
192
 0
VERTEX
 8
ANTA
 10
34.1038
 20
-2.6713
 30
6.3581
 70
192
 0
VERTEX
 8
ANTA
 10
-30.2972
 20
-2.6713
 30
-25.7419
 70
192
 0
VERTEX
 8
ANTA
 10
-29.9972
 20
-2.6713
 30
-20.1497
 70
192
 0
VERTEX
 8
ANTA
 10
-29.9972
 20
-2.6713
 30
-1.3348
 70
192
 0
VERTEX
 8
ANTA
 10
-30.2972
 20
-2.6713
 30
6.3581
 70
192
 0
VERTEX
 8
ANTA
 10
-35.8977
 20
-2.6713
 30
-25.7419
 70
192
 0
VERTEX
 8
ANTA
 10
-35.8977
 20
-2.6713
 30
-20.1494
 70
192
 0
VERTEX
 8
ANTA
 10
-35.8977
 20
-2.6713
 30
-1.335
 70
192
 0
VERTEX
 8
ANTA
 10
-35.8977
 20
-2.6713
 30
6.3581
 70
192
 0
VERTEX
 8
ANTA
 10
-35.9977
 20
-4.3075
 30
-25.8419
 70
192
 0
VERTEX
 8
ANTA
 10
-35.9977
 20
-4.3075
 30
-20.149
 70
192
 0
VERTEX
 8
ANTA
 10
-35.9977
 20
-4.3075
 30
-1.335
 70
192
 0
VERTEX
 8
ANTA
 10
-35.9977
 20
-4.3075
 30
6.4581
 70
192
 0
VERTEX
 8
ANTA
 10
-30.2972
 20
-4.3075
 30
-25.8419
 70
192
 0
VERTEX
 8
ANTA
 10
-30.2972
 20
-4.3075
 30
6.4581
 70
192
 0
VERTEX
 8
ANTA
 10
34.1038
 20
-4.3075
 30
-25.8419
 70
192
 0
VERTEX
 8
ANTA
 10
34.1038
 20
-4.3075
 30
6.4581
 70
192
 0
VERTEX
 8
ANTA
 10
39.8033
 20
-4.3075
 30
-25.8419
 70
192
 0
VERTEX
 8
ANTA
 10
39.8033
 20
-4.3075
 30
-20.149
 70
192
 0
VERTEX
 8
ANTA
 10
39.8033
 20
-4.3075
 30
-1.335
 70
192
 0
VERTEX
 8
ANTA
 10
39.8033
 20
-4.3075
 30
6.4581
 70
192
 0
VERTEX
 8
ANTA
 10
39.8033
 20
-2.6713
 30
-25.8419
 70
192
 0
VERTEX
 8
ANTA
 10
39.8033
 20
-2.6713
 30
-20.1494
 70
192
 0
VERTEX
 8
ANTA
 10
39.8033
 20
-2.6713
 30
-1.335
 70
192
 0
VERTEX
 8
ANTA
 10
39.8033
 20
-2.6713
 30
6.4581
 70
192
 0
VERTEX
 8
ANTA
 10
34.1038
 20
-2.6713
 30
-25.8419
 70
192
 0
VERTEX
 8
ANTA
 10
34.1038
 20
-2.6713
 30
6.4581
 70
192
 0
VERTEX
 8
ANTA
 10
-30.2972
 20
-2.6713
 30
-25.8419
 70
192
 0
VERTEX
 8
ANTA
 10
-30.2972
 20
-2.6713
 30
6.4581
 70
192
 0
VERTEX
 8
ANTA
 10
-35.9977
 20
-2.6713
 30
-25.8419
 70
192
 0
VERTEX
 8
ANTA
 10
-35.9977
 20
-2.6713
 30
-20.1494
 70
192
 0
VERTEX
 8
ANTA
 10
-35.9977
 20
-2.6713
 30
-1.335
 70
192
 0
VERTEX
 8
ANTA
 10
-35.9977
 20
-2.6713
 30
6.4581
 70
192
 0
VERTEX
 8
ANTA
 10
39.7033
 20
-1.1213
 30
-25.7419
 70
192
 0
VERTEX
 8
ANTA
 10
39.7033
 20
-1.1213
 30
-20.1494
 70
192
 0
VERTEX
 8
ANTA
 10
39.7033
 20
-1.1213
 30
-1.335
 70
192
 0
VERTEX
 8
ANTA
 10
39.7033
 20
-1.1213
 30
6.3581
 70
192
 0
VERTEX
 8
ANTA
 10
34.1038
 20
-1.1213
 30
-25.7419
 70
192
 0
VERTEX
 8
ANTA
 10
34.1038
 20
-1.1213
 30
6.3581
 70
192
 0
VERTEX
 8
ANTA
 10
-30.2972
 20
-1.1213
 30
-25.7419
 70
192
 0
VERTEX
 8
ANTA
 10
-30.2972
 20
-1.1213
 30
6.3581
 70
192
 0
VERTEX
 8
ANTA
 10
-35.8977
 20
-1.1213
 30
-25.7419
 70
192
 0
VERTEX
 8
ANTA
 10
-35.8977
 20
-1.1213
 30
-20.1494
 70
192
 0
VERTEX
 8
ANTA
 10
-35.8977
 20
-1.1213
 30
-1.335
 70
192
 0
VERTEX
 8
ANTA
 10
-35.8977
 20
-1.1213
 30
6.3581
 70
192
 0
VERTEX
 8
ANTA
 10
39.8033
 20
-1.1213
 30
-25.8419
 70
192
 0
VERTEX
 8
ANTA
 10
39.8033
 20
-1.1213
 30
-20.1494
 70
192
 0
VERTEX
 8
ANTA
 10
39.8033
 20
-1.1213
 30
-1.335
 70
192
 0
VERTEX
 8
ANTA
 10
39.8033
 20
-1.1213
 30
6.4581
 70
192
 0
VERTEX
 8
ANTA
 10
34.1038
 20
-1.1213
 30
-25.8419
 70
192
 0
VERTEX
 8
ANTA
 10
34.1038
 20
-1.1213
 30
6.4581
 70
192
 0
VERTEX
 8
ANTA
 10
-30.2972
 20
-1.1213
 30
-25.8419
 70
192
 0
VERTEX
 8
ANTA
 10
-30.2972
 20
-1.1213
 30
6.4581
 70
192
 0
VERTEX
 8
ANTA
 10
-35.9977
 20
-1.1213
 30
-25.8419
 70
192
 0
VERTEX
 8
ANTA
 10
-35.9977
 20
-1.1213
 30
-20.1494
 70
192
 0
VERTEX
 8
ANTA
 10
-35.9977
 20
-1.1213
 30
-1.335
 70
192
 0
VERTEX
 8
ANTA
 10
-35.9977
 20
-1.1213
 30
6.4581
 70
192
 0
VERTEX
 8
ANTA
 10
0
 20
0
 30
0
 70
128
 71
1
 72
2
 73
6
 74
5
 0
VERTEX
 8
ANTA
 10
0
 20
0
 30
0
 70
128
 71
5
 72
6
 73
10
 74
9
 0
VERTEX
 8
ANTA
 10
0
 20
0
 30
0
 70
128
 71
9
 72
10
 73
14
 74
13
 0
VERTEX
 8
ANTA
 10
0
 20
0
 30
0
 70
128
 71
2
 72
3
 73
7
 74
6
 0
VERTEX
 8
ANTA
 10
0
 20
0
 30
0
 70
128
 71
21
 72
55
 73
57
 74
17
 0
VERTEX
 8
ANTA
 10
0
 20
0
 30
0
 70
128
 71
10
 72
11
 73
15
 74
14
 0
VERTEX
 8
ANTA
 10
0
 20
0
 30
0
 70
128
 71
3
 72
4
 73
8
 74
7
 0
VERTEX
 8
ANTA
 10
0
 20
0
 30
0
 70
128
 71
7
 72
8
 73
12
 74
11
 0
VERTEX
 8
ANTA
 10
0
 20
0
 30
0
 70
128
 71
11
 72
12
 73
16
 74
15
 0
VERTEX
 8
ANTA
 10
0
 20
0
 30
0
 70
128
 71
57
 72
58
 73
18
 74
17
 0
VERTEX
 8
ANTA
 10
0
 20
0
 30
0
 70
128
 71
58
 72
59
 73
19
 74
18
 0
VERTEX
 8
ANTA
 10
0
 20
0
 30
0
 70
128
 71
59
 72
60
 73
20
 74
19
 0
VERTEX
 8
ANTA
 10
0
 20
0
 30
0
 70
128
 71
33
 72
34
 73
38
 74
37
 0
VERTEX
 8
ANTA
 10
0
 20
0
 30
0
 70
128
 71
37
 72
38
 73
42
 74
41
 0
VERTEX
 8
ANTA
 10
0
 20
0
 30
0
 70
128
 71
41
 72
42
 73
46
 74
45
 0
VERTEX
 8
ANTA
 10
0
 20
0
 30
0
 70
128
 71
34
 72
35
 73
39
 74
38
 0
VERTEX
 8
ANTA
 10
0
 20
0
 30
0
 70
128
 71
25
 72
53
 73
55
 74
21
 0
VERTEX
 8
ANTA
 10
0
 20
0
 30
0
 70
128
 71
42
 72
43
 73
47
 74
46
 0
VERTEX
 8
ANTA
 10
0
 20
0
 30
0
 70
128
 71
35
 72
36
 73
40
 74
39
 0
VERTEX
 8
ANTA
 10
0
 20
0
 30
0
 70
128
 71
39
 72
40
 73
44
 74
43
 0
VERTEX
 8
ANTA
 10
0
 20
0
 30
0
 70
128
 71
43
 72
44
 73
48
 74
47
 0
VERTEX
 8
ANTA
 10
0
 20
0
 30
0
 70
128
 71
29
 72
30
 73
50
 74
49
 0
VERTEX
 8
ANTA
 10
0
 20
0
 30
0
 70
128
 71
30
 72
31
 73
51
 74
50
 0
VERTEX
 8
ANTA
 10
0
 20
0
 30
0
 70
128
 71
31
 72
32
 73
52
 74
51
 0
VERTEX
 8
ANTA
 10
0
 20
0
 30
0
 70
128
 71
52
 72
32
 73
28
 74
54
 0
VERTEX
 8
ANTA
 10
0
 20
0
 30
0
 70
128
 71
54
 72
28
 73
24
 74
56
 0
VERTEX
 8
ANTA
 10
0
 20
0
 30
0
 70
128
 71
56
 72
24
 73
20
 74
60
 0
VERTEX
 8
ANTA
 10
0
 20
0
 30
0
 70
128
 71
29
 72
49
 73
53
 74
25
 0
VERTEX
 8
ANTA
 10
0
 20
0
 30
0
 70
128
 71
7
 72
11
 73
23
 74
27
 0
VERTEX
 8
ANTA
 10
0
 20
0
 30
0
 70
128
 71
6
 72
7
 73
27
 74
26
 0
VERTEX
 8
ANTA
 10
0
 20
0
 30
0
 70
128
 71
10
 72
6
 73
26
 74
22
 0
VERTEX
 8
ANTA
 10
0
 20
0
 30
0
 70
128
 71
11
 72
10
 73
22
 74
23
 0
VERTEX
 8
ANTA
 10
0
 20
0
 30
0
 70
128
 71
17
 72
61
 73
65
 74
21
 0
VERTEX
 8
ANTA
 10
0
 20
0
 30
0
 70
128
 71
18
 72
62
 73
61
 74
17
 0
VERTEX
 8
ANTA
 10
0
 20
0
 30
0
 70
128
 71
21
 72
65
 73
67
 74
25
 0
VERTEX
 8
ANTA
 10
0
 20
0
 30
0
 70
128
 71
26
 72
42
 73
38
 74
22
 0
VERTEX
 8
ANTA
 10
0
 20
0
 30
0
 70
128
 71
25
 72
67
 73
69
 74
29
 0
VERTEX
 8
ANTA
 10
0
 20
0
 30
0
 70
128
 71
29
 72
69
 73
70
 74
30
 0
VERTEX
 8
ANTA
 10
0
 20
0
 30
0
 70
128
 71
22
 72
38
 73
39
 74
23
 0
VERTEX
 8
ANTA
 10
0
 20
0
 30
0
 70
128
 71
19
 72
63
 73
62
 74
18
 0
VERTEX
 8
ANTA
 10
0
 20
0
 30
0
 70
128
 71
30
 72
70
 73
71
 74
31
 0
VERTEX
 8
ANTA
 10
0
 20
0
 30
0
 70
128
 71
27
 72
43
 73
42
 74
26
 0
VERTEX
 8
ANTA
 10
0
 20
0
 30
0
 70
128
 71
24
 72
66
 73
64
 74
20
 0
VERTEX
 8
ANTA
 10
0
 20
0
 30
0
 70
128
 71
20
 72
64
 73
63
 74
19
 0
VERTEX
 8
ANTA
 10
0
 20
0
 30
0
 70
128
 71
23
 72
39
 73
43
 74
27
 0
VERTEX
 8
ANTA
 10
0
 20
0
 30
0
 70
128
 71
28
 72
68
 73
66
 74
24
 0
VERTEX
 8
ANTA
 10
0
 20
0
 30
0
 70
128
 71
31
 72
71
 73
72
 74
32
 0
VERTEX
 8
ANTA
 10
0
 20
0
 30
0
 70
128
 71
32
 72
72
 73
68
 74
28
 0
VERTEX
 8
ANTA
 10
0
 20
0
 30
0
 70
128
 71
55
 72
9
 73
13
 74
57
 0
VERTEX
 8
ANTA
 10
0
 20
0
 30
0
 70
128
 71
57
 72
13
 73
14
 74
58
 0
VERTEX
 8
ANTA
 10
0
 20
0
 30
0
 70
128
 71
58
 72
14
 73
15
 74
59
 0
VERTEX
 8
ANTA
 10
0
 20
0
 30
0
 70
128
 71
59
 72
15
 73
16
 74
60
 0
VERTEX
 8
ANTA
 10
0
 20
0
 30
0
 70
128
 71
53
 72
5
 73
9
 74
55
 0
VERTEX
 8
ANTA
 10
0
 20
0
 30
0
 70
128
 71
50
 72
2
 73
1
 74
49
 0
VERTEX
 8
ANTA
 10
0
 20
0
 30
0
 70
128
 71
51
 72
3
 73
2
 74
50
 0
VERTEX
 8
ANTA
 10
0
 20
0
 30
0
 70
128
 71
52
 72
4
 73
3
 74
51
 0
VERTEX
 8
ANTA
 10
0
 20
0
 30
0
 70
128
 71
54
 72
8
 73
4
 74
52
 0
VERTEX
 8
ANTA
 10
0
 20
0
 30
0
 70
128
 71
56
 72
12
 73
8
 74
54
 0
VERTEX
 8
ANTA
 10
0
 20
0
 30
0
 70
128
 71
60
 72
16
 73
12
 74
56
 0
VERTEX
 8
ANTA
 10
0
 20
0
 30
0
 70
128
 71
49
 72
1
 73
5
 74
53
 0
VERTEX
 8
ANTA
 10
0
 20
0
 30
0
 70
128
 71
85
 72
73
 73
77
 74
89
 0
VERTEX
 8
ANTA
 10
0
 20
0
 30
0
 70
128
 71
86
 72
74
 73
73
 74
85
 0
VERTEX
 8
ANTA
 10
0
 20
0
 30
0
 70
128
 71
89
 72
77
 73
79
 74
91
 0
VERTEX
 8
ANTA
 10
0
 20
0
 30
0
 70
128
 71
91
 72
79
 73
81
 74
93
 0
VERTEX
 8
ANTA
 10
0
 20
0
 30
0
 70
128
 71
93
 72
81
 73
82
 74
94
 0
VERTEX
 8
ANTA
 10
0
 20
0
 30
0
 70
128
 71
87
 72
75
 73
74
 74
86
 0
VERTEX
 8
ANTA
 10
0
 20
0
 30
0
 70
128
 71
94
 72
82
 73
83
 74
95
 0
VERTEX
 8
ANTA
 10
0
 20
0
 30
0
 70
128
 71
90
 72
78
 73
76
 74
88
 0
VERTEX
 8
ANTA
 10
0
 20
0
 30
0
 70
128
 71
88
 72
76
 73
75
 74
87
 0
VERTEX
 8
ANTA
 10
0
 20
0
 30
0
 70
128
 71
92
 72
80
 73
78
 74
90
 0
VERTEX
 8
ANTA
 10
0
 20
0
 30
0
 70
128
 71
95
 72
83
 73
84
 74
96
 0
VERTEX
 8
ANTA
 10
0
 20
0
 30
0
 70
128
 71
96
 72
84
 73
80
 74
92
 0
VERTEX
 8
ANTA
 10
0
 20
0
 30
0
 70
128
 71
73
 72
33
 73
37
 74
77
 0
VERTEX
 8
ANTA
 10
0
 20
0
 30
0
 70
128
 71
89
 72
65
 73
61
 74
85
 0
VERTEX
 8
ANTA
 10
0
 20
0
 30
0
 70
128
 71
74
 72
34
 73
33
 74
73
 0
VERTEX
 8
ANTA
 10
0
 20
0
 30
0
 70
128
 71
85
 72
61
 73
62
 74
86
 0
VERTEX
 8
ANTA
 10
0
 20
0
 30
0
 70
128
 71
77
 72
37
 73
41
 74
79
 0
VERTEX
 8
ANTA
 10
0
 20
0
 30
0
 70
128
 71
91
 72
67
 73
65
 74
89
 0
VERTEX
 8
ANTA
 10
0
 20
0
 30
0
 70
128
 71
79
 72
41
 73
45
 74
81
 0
VERTEX
 8
ANTA
 10
0
 20
0
 30
0
 70
128
 71
93
 72
69
 73
67
 74
91
 0
VERTEX
 8
ANTA
 10
0
 20
0
 30
0
 70
128
 71
81
 72
45
 73
46
 74
82
 0
VERTEX
 8
ANTA
 10
0
 20
0
 30
0
 70
128
 71
94
 72
70
 73
69
 74
93
 0
VERTEX
 8
ANTA
 10
0
 20
0
 30
0
 70
128
 71
75
 72
35
 73
34
 74
74
 0
VERTEX
 8
ANTA
 10
0
 20
0
 30
0
 70
128
 71
86
 72
62
 73
63
 74
87
 0
VERTEX
 8
ANTA
 10
0
 20
0
 30
0
 70
128
 71
82
 72
46
 73
47
 74
83
 0
VERTEX
 8
ANTA
 10
0
 20
0
 30
0
 70
128
 71
95
 72
71
 73
70
 74
94
 0
VERTEX
 8
ANTA
 10
0
 20
0
 30
0
 70
128
 71
78
 72
40
 73
36
 74
76
 0
VERTEX
 8
ANTA
 10
0
 20
0
 30
0
 70
128
 71
88
 72
64
 73
66
 74
90
 0
VERTEX
 8
ANTA
 10
0
 20
0
 30
0
 70
128
 71
76
 72
36
 73
35
 74
75
 0
VERTEX
 8
ANTA
 10
0
 20
0
 30
0
 70
128
 71
87
 72
63
 73
64
 74
88
 0
VERTEX
 8
ANTA
 10
0
 20
0
 30
0
 70
128
 71
80
 72
44
 73
40
 74
78
 0
VERTEX
 8
ANTA
 10
0
 20
0
 30
0
 70
128
 71
90
 72
66
 73
68
 74
92
 0
VERTEX
 8
ANTA
 10
0
 20
0
 30
0
 70
128
 71
83
 72
47
 73
48
 74
84
 0
VERTEX
 8
ANTA
 10
0
 20
0
 30
0
 70
128
 71
96
 72
72
 73
71
 74
95
 0
VERTEX
 8
ANTA
 10
0
 20
0
 30
0
 70
128
 71
84
 72
48
 73
44
 74
80
 0
VERTEX
 8
ANTA
 10
0
 20
0
 30
0
 70
128
 71
92
 72
68
 73
72
 74
96
 0
SEQEND
 0
POLYLINE
 8
CUBO
 66
1
 10
0.0
 20
0.0
 30
0.0
 70
64
 71
104
 72
104
 0
VERTEX
 8
CUBO
 10
-36.0044
 20
-4.2717
 30
7.2511
 70
192
 0
VERTEX
 8
CUBO
 10
-36.0044
 20
-4.2717
 30
7.6511
 70
192
 0
VERTEX
 8
CUBO
 10
-36.0044
 20
-4.2717
 30
8.5914
 70
192
 0
VERTEX
 8
CUBO
 10
-36.0044
 20
-4.2717
 30
19.1925
 70
192
 0
VERTEX
 8
CUBO
 10
-36.0044
 20
-4.2717
 30
20.1384
 70
192
 0
VERTEX
 8
CUBO
 10
-36.0044
 20
-4.2717
 30
20.5384
 70
192
 0
VERTEX
 8
CUBO
 10
-33.7167
 20
-4.2717
 30
7.2511
 70
192
 0
VERTEX
 8
CUBO
 10
-33.7167
 20
-4.2717
 30
7.6511
 70
192
 0
VERTEX
 8
CUBO
 10
-33.7167
 20
-4.2717
 30
8.5914
 70
192
 0
VERTEX
 8
CUBO
 10
-33.7167
 20
-4.2717
 30
19.1925
 70
192
 0
VERTEX
 8
CUBO
 10
-33.7167
 20
-4.2717
 30
20.1384
 70
192
 0
VERTEX
 8
CUBO
 10
-33.7167
 20
-4.2717
 30
20.5384
 70
192
 0
VERTEX
 8
CUBO
 10
-22.008
 20
-4.2717
 30
7.2511
 70
192
 0
VERTEX
 8
CUBO
 10
-22.008
 20
-4.2717
 30
7.6511
 70
192
 0
VERTEX
 8
CUBO
 10
-22.008
 20
-4.2717
 30
8.5914
 70
192
 0
VERTEX
 8
CUBO
 10
-22.008
 20
-4.2717
 30
19.1925
 70
192
 0
VERTEX
 8
CUBO
 10
-22.008
 20
-4.2717
 30
20.1384
 70
192
 0
VERTEX
 8
CUBO
 10
-22.008
 20
-4.2717
 30
20.5384
 70
192
 0
VERTEX
 8
CUBO
 10
25.8517
 20
-4.2717
 30
7.2511
 70
192
 0
VERTEX
 8
CUBO
 10
25.8517
 20
-4.2717
 30
7.6511
 70
192
 0
VERTEX
 8
CUBO
 10
25.8517
 20
-4.2717
 30
8.5914
 70
192
 0
VERTEX
 8
CUBO
 10
25.8517
 20
-4.2717
 30
19.1925
 70
192
 0
VERTEX
 8
CUBO
 10
25.8517
 20
-4.2717
 30
20.1384
 70
192
 0
VERTEX
 8
CUBO
 10
25.8517
 20
-4.2717
 30
20.5384
 70
192
 0
VERTEX
 8
CUBO
 10
37.5213
 20
-4.2717
 30
7.2511
 70
192
 0
VERTEX
 8
CUBO
 10
37.5213
 20
-4.2717
 30
7.6511
 70
192
 0
VERTEX
 8
CUBO
 10
37.5213
 20
-4.2717
 30
8.5914
 70
192
 0
VERTEX
 8
CUBO
 10
37.5213
 20
-4.2717
 30
19.1925
 70
192
 0
VERTEX
 8
CUBO
 10
37.5213
 20
-4.2717
 30
20.1384
 70
192
 0
VERTEX
 8
CUBO
 10
37.5213
 20
-4.2717
 30
20.5384
 70
192
 0
VERTEX
 8
CUBO
 10
39.8093
 20
-4.2717
 30
7.2511
 70
192
 0
VERTEX
 8
CUBO
 10
39.8093
 20
-4.2717
 30
7.6511
 70
192
 0
VERTEX
 8
CUBO
 10
39.8093
 20
-4.2717
 30
8.5914
 70
192
 0
VERTEX
 8
CUBO
 10
39.8093
 20
-4.2717
 30
19.1925
 70
192
 0
VERTEX
 8
CUBO
 10
39.8093
 20
-4.2717
 30
20.1384
 70
192
 0
VERTEX
 8
CUBO
 10
39.8093
 20
-4.2717
 30
20.5384
 70
192
 0
VERTEX
 8
CUBO
 10
39.8093
 20
-4.1717
 30
7.2511
 70
192
 0
VERTEX
 8
CUBO
 10
39.8093
 20
-4.1717
 30
7.6511
 70
192
 0
VERTEX
 8
CUBO
 10
39.8093
 20
-4.1717
 30
8.5914
 70
192
 0
VERTEX
 8
CUBO
 10
39.8093
 20
-4.1717
 30
19.1925
 70
192
 0
VERTEX
 8
CUBO
 10
39.8093
 20
-4.1717
 30
20.1384
 70
192
 0
VERTEX
 8
CUBO
 10
39.8093
 20
-4.1717
 30
20.5384
 70
192
 0
VERTEX
 8
CUBO
 10
37.5213
 20
-4.1717
 30
7.2511
 70
192
 0
VERTEX
 8
CUBO
 10
37.5213
 20
-4.1717
 30
7.6511
 70
192
 0
VERTEX
 8
CUBO
 10
37.5213
 20
-4.1717
 30
8.5914
 70
192
 0
VERTEX
 8
CUBO
 10
37.5213
 20
-4.1717
 30
19.1925
 70
192
 0
VERTEX
 8
CUBO
 10
37.5213
 20
-4.1717
 30
20.1384
 70
192
 0
VERTEX
 8
CUBO
 10
37.5213
 20
-4.1717
 30
20.5384
 70
192
 0
VERTEX
 8
CUBO
 10
25.8517
 20
-4.1717
 30
7.2511
 70
192
 0
VERTEX
 8
CUBO
 10
25.8517
 20
-4.1717
 30
7.6511
 70
192
 0
VERTEX
 8
CUBO
 10
25.8517
 20
-4.1717
 30
8.5914
 70
192
 0
VERTEX
 8
CUBO
 10
25.8517
 20
-4.1717
 30
19.1925
 70
192
 0
VERTEX
 8
CUBO
 10
25.8517
 20
-4.1717
 30
20.1384
 70
192
 0
VERTEX
 8
CUBO
 10
25.8517
 20
-4.1717
 30
20.5384
 70
192
 0
VERTEX
 8
CUBO
 10
-22.008
 20
-4.1717
 30
7.2511
 70
192
 0
VERTEX
 8
CUBO
 10
-22.008
 20
-4.1717
 30
7.6511
 70
192
 0
VERTEX
 8
CUBO
 10
-22.008
 20
-4.1717
 30
8.5914
 70
192
 0
VERTEX
 8
CUBO
 10
-22.008
 20
-4.1717
 30
19.1925
 70
192
 0
VERTEX
 8
CUBO
 10
-22.008
 20
-4.1717
 30
20.1384
 70
192
 0
VERTEX
 8
CUBO
 10
-22.008
 20
-4.1717
 30
20.5384
 70
192
 0
VERTEX
 8
CUBO
 10
-33.7167
 20
-4.1717
 30
7.2511
 70
192
 0
VERTEX
 8
CUBO
 10
-33.7167
 20
-4.1717
 30
7.6511
 70
192
 0
VERTEX
 8
CUBO
 10
-33.7167
 20
-4.1717
 30
8.5914
 70
192
 0
VERTEX
 8
CUBO
 10
-33.7167
 20
-4.1717
 30
19.1925
 70
192
 0
VERTEX
 8
CUBO
 10
-33.7167
 20
-4.1717
 30
20.1384
 70
192
 0
VERTEX
 8
CUBO
 10
-33.7167
 20
-4.1717
 30
20.5384
 70
192
 0
VERTEX
 8
CUBO
 10
-36.0044
 20
-4.1717
 30
7.2511
 70
192
 0
VERTEX
 8
CUBO
 10
-36.0044
 20
-4.1717
 30
7.6511
 70
192
 0
VERTEX
 8
CUBO
 10
-36.0044
 20
-4.1717
 30
8.5914
 70
192
 0
VERTEX
 8
CUBO
 10
-36.0044
 20
-4.1717
 30
19.1925
 70
192
 0
VERTEX
 8
CUBO
 10
-36.0044
 20
-4.1717
 30
20.1384
 70
192
 0
VERTEX
 8
CUBO
 10
-36.0044
 20
-4.1717
 30
20.5384
 70
192
 0
VERTEX
 8
CUBO
 10
39.8093
 20
0.8428
 30
7.2511
 70
192
 0
VERTEX
 8
CUBO
 10
39.8093
 20
0.8428
 30
7.6511
 70
192
 0
VERTEX
 8
CUBO
 10
39.8093
 20
0.8428
 30
8.5914
 70
192
 0
VERTEX
 8
CUBO
 10
39.8093
 20
0.8428
 30
19.1925
 70
192
 0
VERTEX
 8
CUBO
 10
39.8093
 20
0.8428
 30
20.1384
 70
192
 0
VERTEX
 8
CUBO
 10
39.8093
 20
0.8428
 30
20.5384
 70
192
 0
VERTEX
 8
CUBO
 10
37.5213
 20
0.8428
 30
7.2511
 70
192
 0
VERTEX
 8
CUBO
 10
37.5213
 20
0.8428
 30
7.6511
 70
192
 0
VERTEX
 8
CUBO
 10
37.5213
 20
0.8428
 30
8.5914
 70
192
 0
VERTEX
 8
CUBO
 10
37.5213
 20
0.8428
 30
19.1925
 70
192
 0
VERTEX
 8
CUBO
 10
37.5213
 20
0.8428
 30
20.1384
 70
192
 0
VERTEX
 8
CUBO
 10
37.5213
 20
0.8428
 30
20.5384
 70
192
 0
VERTEX
 8
CUBO
 10
25.8517
 20
0.8428
 30
7.2511
 70
192
 0
VERTEX
 8
CUBO
 10
25.8517
 20
0.8428
 30
7.6511
 70
192
 0
VERTEX
 8
CUBO
 10
25.8517
 20
0.8428
 30
20.1384
 70
192
 0
VERTEX
 8
CUBO
 10
25.8517
 20
0.8428
 30
20.5384
 70
192
 0
VERTEX
 8
CUBO
 10
-22.008
 20
0.8428
 30
7.2511
 70
192
 0
VERTEX
 8
CUBO
 10
-22.008
 20
0.8428
 30
7.6511
 70
192
 0
VERTEX
 8
CUBO
 10
-22.008
 20
0.8428
 30
20.1384
 70
192
 0
VERTEX
 8
CUBO
 10
-22.008
 20
0.8428
 30
20.5384
 70
192
 0
VERTEX
 8
CUBO
 10
-33.7167
 20
0.8428
 30
7.2511
 70
192
 0
VERTEX
 8
CUBO
 10
-33.7167
 20
0.8428
 30
7.6511
 70
192
 0
VERTEX
 8
CUBO
 10
-33.7167
 20
0.8428
 30
8.5914
 70
192
 0
VERTEX
 8
CUBO
 10
-33.7167
 20
0.8428
 30
19.1925
 70
192
 0
VERTEX
 8
CUBO
 10
-33.7167
 20
0.8428
 30
20.1384
 70
192
 0
VERTEX
 8
CUBO
 10
-33.7167
 20
0.8428
 30
20.5384
 70
192
 0
VERTEX
 8
CUBO
 10
-36.0044
 20
0.8428
 30
7.2511
 70
192
 0
VERTEX
 8
CUBO
 10
-36.0044
 20
0.8428
 30
7.6511
 70
192
 0
VERTEX
 8
CUBO
 10
-36.0044
 20
0.8428
 30
8.5914
 70
192
 0
VERTEX
 8
CUBO
 10
-36.0044
 20
0.8428
 30
19.1925
 70
192
 0
VERTEX
 8
CUBO
 10
-36.0044
 20
0.8428
 30
20.1384
 70
192
 0
VERTEX
 8
CUBO
 10
-36.0044
 20
0.8428
 30
20.5384
 70
192
 0
VERTEX
 8
CUBO
 10
0
 20
0
 30
0
 70
128
 71
1
 72
2
 73
8
 74
7
 0
VERTEX
 8
CUBO
 10
0
 20
0
 30
0
 70
128
 71
7
 72
8
 73
14
 74
13
 0
VERTEX
 8
CUBO
 10
0
 20
0
 30
0
 70
128
 71
13
 72
14
 73
20
 74
19
 0
VERTEX
 8
CUBO
 10
0
 20
0
 30
0
 70
128
 71
19
 72
20
 73
26
 74
25
 0
VERTEX
 8
CUBO
 10
0
 20
0
 30
0
 70
128
 71
25
 72
26
 73
32
 74
31
 0
VERTEX
 8
CUBO
 10
0
 20
0
 30
0
 70
128
 71
2
 72
3
 73
9
 74
8
 0
VERTEX
 8
CUBO
 10
0
 20
0
 30
0
 70
128
 71
8
 72
9
 73
15
 74
14
 0
VERTEX
 8
CUBO
 10
0
 20
0
 30
0
 70
128
 71
14
 72
15
 73
21
 74
20
 0
VERTEX
 8
CUBO
 10
0
 20
0
 30
0
 70
128
 71
20
 72
21
 73
27
 74
26
 0
VERTEX
 8
CUBO
 10
0
 20
0
 30
0
 70
128
 71
26
 72
27
 73
33
 74
32
 0
VERTEX
 8
CUBO
 10
0
 20
0
 30
0
 70
128
 71
3
 72
4
 73
10
 74
9
 0
VERTEX
 8
CUBO
 10
0
 20
0
 30
0
 70
128
 71
9
 72
10
 73
16
 74
15
 0
VERTEX
 8
CUBO
 10
0
 20
0
 30
0
 70
128
 71
43
 72
25
 73
31
 74
37
 0
VERTEX
 8
CUBO
 10
0
 20
0
 30
0
 70
128
 71
21
 72
22
 73
28
 74
27
 0
VERTEX
 8
CUBO
 10
0
 20
0
 30
0
 70
128
 71
27
 72
28
 73
34
 74
33
 0
VERTEX
 8
CUBO
 10
0
 20
0
 30
0
 70
128
 71
4
 72
5
 73
11
 74
10
 0
VERTEX
 8
CUBO
 10
0
 20
0
 30
0
 70
128
 71
10
 72
11
 73
17
 74
16
 0
VERTEX
 8
CUBO
 10
0
 20
0
 30
0
 70
128
 71
16
 72
17
 73
23
 74
22
 0
VERTEX
 8
CUBO
 10
0
 20
0
 30
0
 70
128
 71
22
 72
23
 73
29
 74
28
 0
VERTEX
 8
CUBO
 10
0
 20
0
 30
0
 70
128
 71
28
 72
29
 73
35
 74
34
 0
VERTEX
 8
CUBO
 10
0
 20
0
 30
0
 70
128
 71
5
 72
6
 73
12
 74
11
 0
VERTEX
 8
CUBO
 10
0
 20
0
 30
0
 70
128
 71
11
 72
12
 73
18
 74
17
 0
VERTEX
 8
CUBO
 10
0
 20
0
 30
0
 70
128
 71
17
 72
18
 73
24
 74
23
 0
VERTEX
 8
CUBO
 10
0
 20
0
 30
0
 70
128
 71
23
 72
24
 73
30
 74
29
 0
VERTEX
 8
CUBO
 10
0
 20
0
 30
0
 70
128
 71
29
 72
30
 73
36
 74
35
 0
VERTEX
 8
CUBO
 10
0
 20
0
 30
0
 70
128
 71
31
 72
32
 73
38
 74
37
 0
VERTEX
 8
CUBO
 10
0
 20
0
 30
0
 70
128
 71
32
 72
33
 73
39
 74
38
 0
VERTEX
 8
CUBO
 10
0
 20
0
 30
0
 70
128
 71
33
 72
34
 73
40
 74
39
 0
VERTEX
 8
CUBO
 10
0
 20
0
 30
0
 70
128
 71
34
 72
35
 73
41
 74
40
 0
VERTEX
 8
CUBO
 10
0
 20
0
 30
0
 70
128
 71
35
 72
36
 73
42
 74
41
 0
VERTEX
 8
CUBO
 10
0
 20
0
 30
0
 70
128
 71
73
 72
74
 73
80
 74
79
 0
VERTEX
 8
CUBO
 10
0
 20
0
 30
0
 70
128
 71
79
 72
80
 73
86
 74
85
 0
VERTEX
 8
CUBO
 10
0
 20
0
 30
0
 70
128
 71
85
 72
86
 73
90
 74
89
 0
VERTEX
 8
CUBO
 10
0
 20
0
 30
0
 70
128
 71
89
 72
90
 73
94
 74
93
 0
VERTEX
 8
CUBO
 10
0
 20
0
 30
0
 70
128
 71
93
 72
94
 73
100
 74
99
 0
VERTEX
 8
CUBO
 10
0
 20
0
 30
0
 70
128
 71
74
 72
75
 73
81
 74
80
 0
VERTEX
 8
CUBO
 10
0
 20
0
 30
0
 70
128
 71
44
 72
45
 73
51
 74
50
 0
VERTEX
 8
CUBO
 10
0
 20
0
 30
0
 70
128
 71
50
 72
51
 73
57
 74
56
 0
VERTEX
 8
CUBO
 10
0
 20
0
 30
0
 70
128
 71
56
 72
57
 73
63
 74
62
 0
VERTEX
 8
CUBO
 10
0
 20
0
 30
0
 70
128
 71
94
 72
95
 73
101
 74
100
 0
VERTEX
 8
CUBO
 10
0
 20
0
 30
0
 70
128
 71
75
 72
76
 73
82
 74
81
 0
VERTEX
 8
CUBO
 10
0
 20
0
 30
0
 70
128
 71
45
 72
46
 73
52
 74
51
 0
VERTEX
 8
CUBO
 10
0
 20
0
 30
0
 70
128
 71
49
 72
19
 73
25
 74
43
 0
VERTEX
 8
CUBO
 10
0
 20
0
 30
0
 70
128
 71
57
 72
58
 73
64
 74
63
 0
VERTEX
 8
CUBO
 10
0
 20
0
 30
0
 70
128
 71
95
 72
96
 73
102
 74
101
 0
VERTEX
 8
CUBO
 10
0
 20
0
 30
0
 70
128
 71
76
 72
77
 73
83
 74
82
 0
VERTEX
 8
CUBO
 10
0
 20
0
 30
0
 70
128
 71
46
 72
47
 73
53
 74
52
 0
VERTEX
 8
CUBO
 10
0
 20
0
 30
0
 70
128
 71
52
 72
53
 73
59
 74
58
 0
VERTEX
 8
CUBO
 10
0
 20
0
 30
0
 70
128
 71
58
 72
59
 73
65
 74
64
 0
VERTEX
 8
CUBO
 10
0
 20
0
 30
0
 70
128
 71
96
 72
97
 73
103
 74
102
 0
VERTEX
 8
CUBO
 10
0
 20
0
 30
0
 70
128
 71
77
 72
78
 73
84
 74
83
 0
VERTEX
 8
CUBO
 10
0
 20
0
 30
0
 70
128
 71
83
 72
84
 73
88
 74
87
 0
VERTEX
 8
CUBO
 10
0
 20
0
 30
0
 70
128
 71
87
 72
88
 73
92
 74
91
 0
VERTEX
 8
CUBO
 10
0
 20
0
 30
0
 70
128
 71
91
 72
92
 73
98
 74
97
 0
VERTEX
 8
CUBO
 10
0
 20
0
 30
0
 70
128
 71
97
 72
98
 73
104
 74
103
 0
VERTEX
 8
CUBO
 10
0
 20
0
 30
0
 70
128
 71
67
 72
68
 73
2
 74
1
 0
VERTEX
 8
CUBO
 10
0
 20
0
 30
0
 70
128
 71
68
 72
69
 73
3
 74
2
 0
VERTEX
 8
CUBO
 10
0
 20
0
 30
0
 70
128
 71
69
 72
70
 73
4
 74
3
 0
VERTEX
 8
CUBO
 10
0
 20
0
 30
0
 70
128
 71
70
 72
71
 73
5
 74
4
 0
VERTEX
 8
CUBO
 10
0
 20
0
 30
0
 70
128
 71
71
 72
72
 73
6
 74
5
 0
VERTEX
 8
CUBO
 10
0
 20
0
 30
0
 70
128
 71
6
 72
72
 73
66
 74
12
 0
VERTEX
 8
CUBO
 10
0
 20
0
 30
0
 70
128
 71
12
 72
66
 73
60
 74
18
 0
VERTEX
 8
CUBO
 10
0
 20
0
 30
0
 70
128
 71
18
 72
60
 73
54
 74
24
 0
VERTEX
 8
CUBO
 10
0
 20
0
 30
0
 70
128
 71
24
 72
54
 73
48
 74
30
 0
VERTEX
 8
CUBO
 10
0
 20
0
 30
0
 70
128
 71
30
 72
48
 73
42
 74
36
 0
VERTEX
 8
CUBO
 10
0
 20
0
 30
0
 70
128
 71
67
 72
1
 73
7
 74
61
 0
VERTEX
 8
CUBO
 10
0
 20
0
 30
0
 70
128
 71
61
 72
7
 73
13
 74
55
 0
VERTEX
 8
CUBO
 10
0
 20
0
 30
0
 70
128
 71
55
 72
13
 73
19
 74
49
 0
VERTEX
 8
CUBO
 10
0
 20
0
 30
0
 70
128
 71
16
 72
22
 73
52
 74
58
 0
VERTEX
 8
CUBO
 10
0
 20
0
 30
0
 70
128
 71
22
 72
21
 73
51
 74
52
 0
VERTEX
 8
CUBO
 10
0
 20
0
 30
0
 70
128
 71
21
 72
15
 73
57
 74
51
 0
VERTEX
 8
CUBO
 10
0
 20
0
 30
0
 70
128
 71
15
 72
16
 73
58
 74
57
 0
VERTEX
 8
CUBO
 10
0
 20
0
 30
0
 70
128
 71
37
 72
73
 73
79
 74
43
 0
VERTEX
 8
CUBO
 10
0
 20
0
 30
0
 70
128
 71
38
 72
74
 73
73
 74
37
 0
VERTEX
 8
CUBO
 10
0
 20
0
 30
0
 70
128
 71
43
 72
79
 73
85
 74
49
 0
VERTEX
 8
CUBO
 10
0
 20
0
 30
0
 70
128
 71
50
 72
86
 73
80
 74
44
 0
VERTEX
 8
CUBO
 10
0
 20
0
 30
0
 70
128
 71
49
 72
85
 73
89
 74
55
 0
VERTEX
 8
CUBO
 10
0
 20
0
 30
0
 70
128
 71
56
 72
90
 73
86
 74
50
 0
VERTEX
 8
CUBO
 10
0
 20
0
 30
0
 70
128
 71
55
 72
89
 73
93
 74
61
 0
VERTEX
 8
CUBO
 10
0
 20
0
 30
0
 70
128
 71
62
 72
94
 73
90
 74
56
 0
VERTEX
 8
CUBO
 10
0
 20
0
 30
0
 70
128
 71
61
 72
93
 73
99
 74
67
 0
VERTEX
 8
CUBO
 10
0
 20
0
 30
0
 70
128
 71
67
 72
99
 73
100
 74
68
 0
VERTEX
 8
CUBO
 10
0
 20
0
 30
0
 70
128
 71
44
 72
80
 73
81
 74
45
 0
VERTEX
 8
CUBO
 10
0
 20
0
 30
0
 70
128
 71
39
 72
75
 73
74
 74
38
 0
VERTEX
 8
CUBO
 10
0
 20
0
 30
0
 70
128
 71
68
 72
100
 73
101
 74
69
 0
VERTEX
 8
CUBO
 10
0
 20
0
 30
0
 70
128
 71
63
 72
95
 73
94
 74
62
 0
VERTEX
 8
CUBO
 10
0
 20
0
 30
0
 70
128
 71
45
 72
81
 73
82
 74
46
 0
VERTEX
 8
CUBO
 10
0
 20
0
 30
0
 70
128
 71
40
 72
76
 73
75
 74
39
 0
VERTEX
 8
CUBO
 10
0
 20
0
 30
0
 70
128
 71
69
 72
101
 73
102
 74
70
 0
VERTEX
 8
CUBO
 10
0
 20
0
 30
0
 70
128
 71
64
 72
96
 73
95
 74
63
 0
VERTEX
 8
CUBO
 10
0
 20
0
 30
0
 70
128
 71
46
 72
82
 73
83
 74
47
 0
VERTEX
 8
CUBO
 10
0
 20
0
 30
0
 70
128
 71
41
 72
77
 73
76
 74
40
 0
VERTEX
 8
CUBO
 10
0
 20
0
 30
0
 70
128
 71
70
 72
102
 73
103
 74
71
 0
VERTEX
 8
CUBO
 10
0
 20
0
 30
0
 70
128
 71
65
 72
97
 73
96
 74
64
 0
VERTEX
 8
CUBO
 10
0
 20
0
 30
0
 70
128
 71
48
 72
84
 73
78
 74
42
 0
VERTEX
 8
CUBO
 10
0
 20
0
 30
0
 70
128
 71
42
 72
78
 73
77
 74
41
 0
VERTEX
 8
CUBO
 10
0
 20
0
 30
0
 70
128
 71
47
 72
83
 73
87
 74
53
 0
VERTEX
 8
CUBO
 10
0
 20
0
 30
0
 70
128
 71
54
 72
88
 73
84
 74
48
 0
VERTEX
 8
CUBO
 10
0
 20
0
 30
0
 70
128
 71
53
 72
87
 73
91
 74
59
 0
VERTEX
 8
CUBO
 10
0
 20
0
 30
0
 70
128
 71
60
 72
92
 73
88
 74
54
 0
VERTEX
 8
CUBO
 10
0
 20
0
 30
0
 70
128
 71
59
 72
91
 73
97
 74
65
 0
VERTEX
 8
CUBO
 10
0
 20
0
 30
0
 70
128
 71
66
 72
98
 73
92
 74
60
 0
VERTEX
 8
CUBO
 10
0
 20
0
 30
0
 70
128
 71
71
 72
103
 73
104
 74
72
 0
VERTEX
 8
CUBO
 10
0
 20
0
 30
0
 70
128
 71
72
 72
104
 73
98
 74
66
 0
SEQEND
 0
POLYLINE
 8
CUBO_1
 66
1
 10
0.0
 20
0.0
 30
0.0
 70
64
 71
56
 72
54
 0
VERTEX
 8
CUBO_1
 10
-33.3977
 20
-0.8857
 30
-25.6767
 70
192
 0
VERTEX
 8
CUBO_1
 10
-33.3977
 20
-0.8857
 30
16.7956
 70
192
 0
VERTEX
 8
CUBO_1
 10
37.2023
 20
-0.8857
 30
-25.6767
 70
192
 0
VERTEX
 8
CUBO_1
 10
37.2023
 20
-0.8857
 30
16.7956
 70
192
 0
VERTEX
 8
CUBO_1
 10
37.2023
 20
53.651
 30
-25.6767
 70
192
 0
VERTEX
 8
CUBO_1
 10
37.2023
 20
40.9412
 30
16.7956
 70
192
 0
VERTEX
 8
CUBO_1
 10
-33.3977
 20
53.651
 30
-25.6767
 70
192
 0
VERTEX
 8
CUBO_1
 10
-33.3977
 20
40.9412
 30
16.7956
 70
192
 0
VERTEX
 8
CUBO_1
 10
37.2023
 20
0.4821
 30
16.7956
 70
192
 0
VERTEX
 8
CUBO_1
 10
37.2023
 20
0.4821
 30
-25.6767
 70
192
 0
VERTEX
 8
CUBO_1
 10
-33.3977
 20
0.4821
 30
16.7956
 70
192
 0
VERTEX
 8
CUBO_1
 10
-33.3977
 20
0.4821
 30
-25.6767
 70
192
 0
VERTEX
 8
CUBO_1
 10
-33.3977
 20
-0.8857
 30
20.4191
 70
192
 0
VERTEX
 8
CUBO_1
 10
37.2023
 20
-0.8857
 30
20.4191
 70
192
 0
VERTEX
 8
CUBO_1
 10
37.2023
 20
0.4821
 30
20.4191
 70
192
 0
VERTEX
 8
CUBO_1
 10
-33.3977
 20
0.4821
 30
20.4191
 70
192
 0
VERTEX
 8
CUBO_1
 10
-31.9362
 20
-0.8857
 30
16.7956
 70
192
 0
VERTEX
 8
CUBO_1
 10
35.7403
 20
-0.8857
 30
16.7956
 70
192
 0
VERTEX
 8
CUBO_1
 10
-31.9362
 20
-0.8857
 30
-25.6767
 70
192
 0
VERTEX
 8
CUBO_1
 10
35.7403
 20
-0.8857
 30
-25.6767
 70
192
 0
VERTEX
 8
CUBO_1
 10
35.7403
 20
40.9412
 30
16.7956
 70
192
 0
VERTEX
 8
CUBO_1
 10
-31.9362
 20
40.9412
 30
16.7956
 70
192
 0
VERTEX
 8
CUBO_1
 10
35.7403
 20
53.651
 30
-25.6767
 70
192
 0
VERTEX
 8
CUBO_1
 10
-31.9362
 20
53.651
 30
-25.6767
 70
192
 0
VERTEX
 8
CUBO_1
 10
35.7403
 20
0.4821
 30
20.4191
 70
192
 0
VERTEX
 8
CUBO_1
 10
-31.9362
 20
0.4821
 30
20.4191
 70
192
 0
VERTEX
 8
CUBO_1
 10
-31.9362
 20
-0.8857
 30
20.4191
 70
192
 0
VERTEX
 8
CUBO_1
 10
35.7403
 20
-0.8857
 30
20.4191
 70
192
 0
VERTEX
 8
CUBO_1
 10
35.7403
 20
0.4821
 30
-25.6767
 70
192
 0
VERTEX
 8
CUBO_1
 10
-31.9362
 20
0.4821
 30
-25.6767
 70
192
 0
VERTEX
 8
CUBO_1
 10
35.7403
 20
0.4821
 30
16.7956
 70
192
 0
VERTEX
 8
CUBO_1
 10
-31.9362
 20
0.4821
 30
16.7956
 70
192
 0
VERTEX
 8
CUBO_1
 10
-33.3977
 20
-0.8857
 30
-21.8075
 70
192
 0
VERTEX
 8
CUBO_1
 10
-33.3977
 20
-0.8857
 30
8.884
 70
192
 0
VERTEX
 8
CUBO_1
 10
-31.9362
 20
-0.8857
 30
8.884
 70
192
 0
VERTEX
 8
CUBO_1
 10
-31.9362
 20
-0.8857
 30
-21.8075
 70
192
 0
VERTEX
 8
CUBO_1
 10
37.2023
 20
-0.8857
 30
-21.8075
 70
192
 0
VERTEX
 8
CUBO_1
 10
37.2023
 20
-0.8857
 30
8.884
 70
192
 0
VERTEX
 8
CUBO_1
 10
37.2023
 20
0.4821
 30
8.884
 70
192
 0
VERTEX
 8
CUBO_1
 10
37.2023
 20
0.4821
 30
-21.8075
 70
192
 0
VERTEX
 8
CUBO_1
 10
-33.3977
 20
53.651
 30
-21.8075
 70
192
 0
VERTEX
 8
CUBO_1
 10
-33.3977
 20
53.651
 30
8.884
 70
192
 0
VERTEX
 8
CUBO_1
 10
-31.9362
 20
53.651
 30
8.884
 70
192
 0
VERTEX
 8
CUBO_1
 10
-31.9362
 20
53.651
 30
-21.8075
 70
192
 0
VERTEX
 8
CUBO_1
 10
-33.3977
 20
0.4821
 30
8.884
 70
192
 0
VERTEX
 8
CUBO_1
 10
-33.3977
 20
0.4821
 30
-21.8075
 70
192
 0
VERTEX
 8
CUBO_1
 10
37.2023
 20
53.651
 30
-21.8075
 70
192
 0
VERTEX
 8
CUBO_1
 10
37.2023
 20
53.651
 30
8.884
 70
192
 0
VERTEX
 8
CUBO_1
 10
35.7403
 20
-0.8857
 30
8.884
 70
192
 0
VERTEX
 8
CUBO_1
 10
35.7403
 20
-0.8857
 30
-21.8075
 70
192
 0
VERTEX
 8
CUBO_1
 10
35.7403
 20
53.651
 30
8.884
 70
192
 0
VERTEX
 8
CUBO_1
 10
35.7403
 20
53.651
 30
-21.8075
 70
192
 0
VERTEX
 8
CUBO_1
 10
-31.9362
 20
39.87
 30
8.884
 70
192
 0
VERTEX
 8
CUBO_1
 10
-31.9362
 20
39.87
 30
-21.8075
 70
192
 0
VERTEX
 8
CUBO_1
 10
35.7403
 20
39.87
 30
8.884
 70
192
 0
VERTEX
 8
CUBO_1
 10
35.7403
 20
39.87
 30
-21.8075
 70
192
 0
VERTEX
 8
CUBO_1
 10
0
 20
0
 30
0
 70
128
 71
34
 72
2
 73
17
 74
35
 0
VERTEX
 8
CUBO_1
 10
0
 20
0
 30
0
 70
128
 71
38
 72
4
 73
9
 74
39
 0
VERTEX
 8
CUBO_1
 10
0
 20
0
 30
0
 70
128
 71
22
 72
8
 73
42
 74
43
 0
VERTEX
 8
CUBO_1
 10
0
 20
0
 30
0
 70
128
 71
42
 72
8
 73
11
 74
45
 0
VERTEX
 8
CUBO_1
 10
0
 20
0
 30
0
 70
128
 71
13
 72
16
 73
26
 74
27
 0
VERTEX
 8
CUBO_1
 10
0
 20
0
 30
0
 70
128
 71
7
 72
12
 73
30
 74
24
 0
VERTEX
 8
CUBO_1
 10
0
 20
0
 30
0
 70
128
 71
9
 72
6
 73
48
 74
39
 0
VERTEX
 8
CUBO_1
 10
0
 20
0
 30
0
 70
128
 71
11
 72
2
 73
34
 74
45
 0
VERTEX
 8
CUBO_1
 10
0
 20
0
 30
0
 70
128
 71
11
 72
8
 73
22
 74
32
 0
VERTEX
 8
CUBO_1
 10
0
 20
0
 30
0
 70
128
 71
12
 72
1
 73
19
 74
30
 0
VERTEX
 8
CUBO_1
 10
0
 20
0
 30
0
 70
128
 71
2
 72
13
 73
27
 74
17
 0
VERTEX
 8
CUBO_1
 10
0
 20
0
 30
0
 70
128
 71
4
 72
14
 73
15
 74
9
 0
VERTEX
 8
CUBO_1
 10
0
 20
0
 30
0
 70
128
 71
26
 72
16
 73
11
 74
32
 0
VERTEX
 8
CUBO_1
 10
0
 20
0
 30
0
 70
128
 71
11
 72
16
 73
13
 74
2
 0
VERTEX
 8
CUBO_1
 10
0
 20
0
 30
0
 70
128
 71
17
 72
18
 73
49
 74
35
 0
VERTEX
 8
CUBO_1
 10
0
 20
0
 30
0
 70
128
 71
18
 72
4
 73
38
 74
49
 0
VERTEX
 8
CUBO_1
 10
0
 20
0
 30
0
 70
128
 71
48
 72
6
 73
21
 74
51
 0
VERTEX
 8
CUBO_1
 10
0
 20
0
 30
0
 70
128
 71
21
 72
22
 73
43
 74
51
 0
VERTEX
 8
CUBO_1
 10
0
 20
0
 30
0
 70
128
 71
26
 72
25
 73
28
 74
27
 0
VERTEX
 8
CUBO_1
 10
0
 20
0
 30
0
 70
128
 71
25
 72
15
 73
14
 74
28
 0
VERTEX
 8
CUBO_1
 10
0
 20
0
 30
0
 70
128
 71
30
 72
29
 73
23
 74
24
 0
VERTEX
 8
CUBO_1
 10
0
 20
0
 30
0
 70
128
 71
29
 72
10
 73
5
 74
23
 0
VERTEX
 8
CUBO_1
 10
0
 20
0
 30
0
 70
128
 71
22
 72
21
 73
31
 74
32
 0
VERTEX
 8
CUBO_1
 10
0
 20
0
 30
0
 70
128
 71
21
 72
6
 73
9
 74
31
 0
VERTEX
 8
CUBO_1
 10
0
 20
0
 30
0
 70
128
 71
19
 72
20
 73
29
 74
30
 0
VERTEX
 8
CUBO_1
 10
0
 20
0
 30
0
 70
128
 71
20
 72
3
 73
10
 74
29
 0
VERTEX
 8
CUBO_1
 10
0
 20
0
 30
0
 70
128
 71
27
 72
28
 73
18
 74
17
 0
VERTEX
 8
CUBO_1
 10
0
 20
0
 30
0
 70
128
 71
28
 72
14
 73
4
 74
18
 0
VERTEX
 8
CUBO_1
 10
0
 20
0
 30
0
 70
128
 71
31
 72
9
 73
15
 74
25
 0
VERTEX
 8
CUBO_1
 10
0
 20
0
 30
0
 70
128
 71
25
 72
26
 73
32
 74
31
 0
VERTEX
 8
CUBO_1
 10
0
 20
0
 30
0
 70
128
 71
36
 72
19
 73
1
 74
33
 0
VERTEX
 8
CUBO_1
 10
0
 20
0
 30
0
 70
128
 71
33
 72
34
 73
35
 74
36
 0
VERTEX
 8
CUBO_1
 10
0
 20
0
 30
0
 70
128
 71
40
 72
10
 73
3
 74
37
 0
VERTEX
 8
CUBO_1
 10
0
 20
0
 30
0
 70
128
 71
37
 72
38
 73
39
 74
40
 0
VERTEX
 8
CUBO_1
 10
0
 20
0
 30
0
 70
128
 71
42
 72
41
 73
44
 74
43
 0
VERTEX
 8
CUBO_1
 10
0
 20
0
 30
0
 70
128
 71
41
 72
7
 73
24
 74
44
 0
VERTEX
 8
CUBO_1
 10
0
 20
0
 30
0
 70
128
 71
46
 72
12
 73
7
 74
41
 0
VERTEX
 8
CUBO_1
 10
0
 20
0
 30
0
 70
128
 71
41
 72
42
 73
45
 74
46
 0
VERTEX
 8
CUBO_1
 10
0
 20
0
 30
0
 70
128
 71
48
 72
47
 73
40
 74
39
 0
VERTEX
 8
CUBO_1
 10
0
 20
0
 30
0
 70
128
 71
47
 72
5
 73
10
 74
40
 0
VERTEX
 8
CUBO_1
 10
0
 20
0
 30
0
 70
128
 71
34
 72
33
 73
46
 74
45
 0
VERTEX
 8
CUBO_1
 10
0
 20
0
 30
0
 70
128
 71
33
 72
1
 73
12
 74
46
 0
VERTEX
 8
CUBO_1
 10
0
 20
0
 30
0
 70
128
 71
55
 72
56
 73
54
 74
53
 0
VERTEX
 8
CUBO_1
 10
0
 20
0
 30
0
 70
128
 71
50
 72
20
 73
19
 74
36
 0
VERTEX
 8
CUBO_1
 10
0
 20
0
 30
0
 70
128
 71
38
 72
37
 73
50
 74
49
 0
VERTEX
 8
CUBO_1
 10
0
 20
0
 30
0
 70
128
 71
37
 72
3
 73
20
 74
50
 0
VERTEX
 8
CUBO_1
 10
0
 20
0
 30
0
 70
128
 71
52
 72
23
 73
5
 74
47
 0
VERTEX
 8
CUBO_1
 10
0
 20
0
 30
0
 70
128
 71
47
 72
48
 73
51
 74
52
 0
VERTEX
 8
CUBO_1
 10
0
 20
0
 30
0
 70
128
 71
43
 72
44
 73
52
 74
51
 0
VERTEX
 8
CUBO_1
 10
0
 20
0
 30
0
 70
128
 71
44
 72
24
 73
23
 74
52
 0
VERTEX
 8
CUBO_1
 10
0
 20
0
 30
0
 70
128
 71
49
 72
55
 73
53
 74
35
 0
VERTEX
 8
CUBO_1
 10
0
 20
0
 30
0
 70
128
 71
35
 72
53
 73
54
 74
36
 0
VERTEX
 8
CUBO_1
 10
0
 20
0
 30
0
 70
128
 71
36
 72
54
 73
56
 74
50
 0
VERTEX
 8
CUBO_1
 10
0
 20
0
 30
0
 70
128
 71
50
 72
56
 73
55
 74
49
 0
SEQEND
 0
POLYLINE
 8
CUBO_2
 66
1
 10
0.0
 20
0.0
 30
0.0
 70
64
 71
8
 72
6
 0
VERTEX
 8
CUBO_2
 10
-27.68
 20
-4.0072
 30
8.188
 70
192
 0
VERTEX
 8
CUBO_2
 10
-27.68
 20
-4.0072
 30
19.488
 70
192
 0
VERTEX
 8
CUBO_2
 10
31.52
 20
-4.0072
 30
8.188
 70
192
 0
VERTEX
 8
CUBO_2
 10
31.52
 20
-4.0072
 30
19.488
 70
192
 0
VERTEX
 8
CUBO_2
 10
31.52
 20
-3.6072
 30
8.188
 70
192
 0
VERTEX
 8
CUBO_2
 10
31.52
 20
-3.6072
 30
19.488
 70
192
 0
VERTEX
 8
CUBO_2
 10
-27.68
 20
-3.6072
 30
8.188
 70
192
 0
VERTEX
 8
CUBO_2
 10
-27.68
 20
-3.6072
 30
19.488
 70
192
 0
VERTEX
 8
CUBO_2
 10
0
 20
0
 30
0
 70
128
 71
1
 72
2
 73
4
 74
3
 0
VERTEX
 8
CUBO_2
 10
0
 20
0
 30
0
 70
128
 71
3
 72
4
 73
6
 74
5
 0
VERTEX
 8
CUBO_2
 10
0
 20
0
 30
0
 70
128
 71
5
 72
6
 73
8
 74
7
 0
VERTEX
 8
CUBO_2
 10
0
 20
0
 30
0
 70
128
 71
7
 72
8
 73
2
 74
1
 0
VERTEX
 8
CUBO_2
 10
0
 20
0
 30
0
 70
128
 71
2
 72
8
 73
6
 74
4
 0
VERTEX
 8
CUBO_2
 10
0
 20
0
 30
0
 70
128
 71
7
 72
1
 73
3
 74
5
 0
SEQEND
 0
ENDSEC
 0
EOF
