 0
SECTION
 2
HEADER
 9
$ACADVER
 1
AC1009
 0
ENDSEC
 0
SECTION
 2
TABLES
 0
TABLE
 2
LTYPE
 70
1
 0
LTYPE
 2
CONTINUOUS
 70
64
 3
solid line
 72
65
 73
0
 40
0.0
 0
ENDTAB
 0
TABLE
 2
LAYER
 70
6
 0
LAYER
 2
0
 70
0
 62
7
 6
CONTINUOUS
 0
LAYER
 2
F7SCO24S1_-_COMPACT_STEAM_OVEN
 70
64
 62
7
 6
CONTINUOUS
 0
LAYER
 2
CUBO
 70
64
 62
39
 6
CONTINUOUS
 0
LAYER
 2
CRUSCOTTO
 70
64
 62
253
 6
CONTINUOUS
 0
LAYER
 2
SUPPORTO_MNIGLIA
 70
64
 62
253
 6
CONTINUOUS
 0
LAYER
 2
SUPPORTO_MNIGLIA_1
 70
64
 62
253
 6
CONTINUOUS
 0
LAYER
 2
CILINDRO
 70
64
 62
253
 6
CONTINUOUS
 0
LAYER
 2
ANTA
 70
64
 62
253
 6
CONTINUOUS
 0
LAYER
 2
VETRO_SERIGRAFATO
 70
64
 62
39
 6
CONTINUOUS
 0
LAYER
 2
VETRO_TRASP
 70
64
 62
37
 6
CONTINUOUS
 0
LAYER
 2
CUBO_2
 70
64
 62
253
 6
CONTINUOUS
 0
LAYER
 2
CUBO_1
 70
64
 62
253
 6
CONTINUOUS
 0
LAYER
 2
CUBO_3
 70
64
 62
253
 6
CONTINUOUS
 0
ENDTAB
 0
ENDSEC
 0
SECTION
 2
BLOCKS
 0
ENDSEC
 0
SECTION
 2
ENTITIES
 0
POLYLINE
 8
CUBO
 66
1
 10
0.0
 20
0.0
 30
0.0
 70
64
 71
8
 72
6
 0
VERTEX
 8
CUBO
 10
-29.4896
 20
-2.0777
 30
6.5454
 70
192
 0
VERTEX
 8
CUBO
 10
-29.4896
 20
-2.0777
 30
17.5454
 70
192
 0
VERTEX
 8
CUBO
 10
29.5104
 20
-2.0777
 30
6.5454
 70
192
 0
VERTEX
 8
CUBO
 10
29.5104
 20
-2.0777
 30
17.5454
 70
192
 0
VERTEX
 8
CUBO
 10
29.5104
 20
-1.5777
 30
6.5454
 70
192
 0
VERTEX
 8
CUBO
 10
29.5104
 20
-1.5777
 30
17.5454
 70
192
 0
VERTEX
 8
CUBO
 10
-29.4896
 20
-1.5777
 30
6.5454
 70
192
 0
VERTEX
 8
CUBO
 10
-29.4896
 20
-1.5777
 30
17.5454
 70
192
 0
VERTEX
 8
CUBO
 10
0
 20
0
 30
0
 70
128
 71
1
 72
2
 73
4
 74
3
 0
VERTEX
 8
CUBO
 10
0
 20
0
 30
0
 70
128
 71
3
 72
4
 73
6
 74
5
 0
VERTEX
 8
CUBO
 10
0
 20
0
 30
0
 70
128
 71
5
 72
6
 73
8
 74
7
 0
VERTEX
 8
CUBO
 10
0
 20
0
 30
0
 70
128
 71
7
 72
8
 73
2
 74
1
 0
VERTEX
 8
CUBO
 10
0
 20
0
 30
0
 70
128
 71
2
 72
8
 73
6
 74
4
 0
VERTEX
 8
CUBO
 10
0
 20
0
 30
0
 70
128
 71
7
 72
1
 73
3
 74
5
 0
SEQEND
 0
POLYLINE
 8
CRUSCOTTO
 66
1
 10
0.0
 20
0.0
 30
0.0
 70
64
 71
32
 72
32
 0
VERTEX
 8
CRUSCOTTO
 10
-29.6896
 20
-2.2177
 30
6.3394
 70
192
 0
VERTEX
 8
CRUSCOTTO
 10
-29.6896
 20
-2.2177
 30
7.8404
 70
192
 0
VERTEX
 8
CRUSCOTTO
 10
-29.6896
 20
-2.2177
 30
16.3406
 70
192
 0
VERTEX
 8
CRUSCOTTO
 10
-29.6896
 20
-2.2177
 30
17.8409
 70
192
 0
VERTEX
 8
CRUSCOTTO
 10
-21.5116
 20
-2.2177
 30
6.3394
 70
192
 0
VERTEX
 8
CRUSCOTTO
 10
-21.5116
 20
-2.2177
 30
7.8404
 70
192
 0
VERTEX
 8
CRUSCOTTO
 10
-21.5116
 20
-2.2177
 30
16.3406
 70
192
 0
VERTEX
 8
CRUSCOTTO
 10
-21.5116
 20
-2.2177
 30
17.8409
 70
192
 0
VERTEX
 8
CRUSCOTTO
 10
21.5324
 20
-2.2177
 30
6.3394
 70
192
 0
VERTEX
 8
CRUSCOTTO
 10
21.5324
 20
-2.2177
 30
7.8404
 70
192
 0
VERTEX
 8
CRUSCOTTO
 10
21.5324
 20
-2.2177
 30
16.3406
 70
192
 0
VERTEX
 8
CRUSCOTTO
 10
21.5324
 20
-2.2177
 30
17.8409
 70
192
 0
VERTEX
 8
CRUSCOTTO
 10
29.7104
 20
-2.2177
 30
6.3394
 70
192
 0
VERTEX
 8
CRUSCOTTO
 10
29.7104
 20
-2.2177
 30
7.8404
 70
192
 0
VERTEX
 8
CRUSCOTTO
 10
29.7104
 20
-2.2177
 30
16.3406
 70
192
 0
VERTEX
 8
CRUSCOTTO
 10
29.7104
 20
-2.2177
 30
17.8409
 70
192
 0
VERTEX
 8
CRUSCOTTO
 10
29.7104
 20
-1.7177
 30
6.3394
 70
192
 0
VERTEX
 8
CRUSCOTTO
 10
29.7104
 20
-1.7177
 30
7.8404
 70
192
 0
VERTEX
 8
CRUSCOTTO
 10
29.7104
 20
-1.7177
 30
16.3406
 70
192
 0
VERTEX
 8
CRUSCOTTO
 10
29.7104
 20
-1.7177
 30
17.8409
 70
192
 0
VERTEX
 8
CRUSCOTTO
 10
21.5324
 20
-1.7177
 30
6.3394
 70
192
 0
VERTEX
 8
CRUSCOTTO
 10
21.5324
 20
-1.7177
 30
7.8404
 70
192
 0
VERTEX
 8
CRUSCOTTO
 10
21.5324
 20
-1.7177
 30
16.3406
 70
192
 0
VERTEX
 8
CRUSCOTTO
 10
21.5324
 20
-1.7177
 30
17.8409
 70
192
 0
VERTEX
 8
CRUSCOTTO
 10
-21.5116
 20
-1.7177
 30
6.3394
 70
192
 0
VERTEX
 8
CRUSCOTTO
 10
-21.5116
 20
-1.7177
 30
7.8404
 70
192
 0
VERTEX
 8
CRUSCOTTO
 10
-21.5116
 20
-1.7177
 30
16.3406
 70
192
 0
VERTEX
 8
CRUSCOTTO
 10
-21.5116
 20
-1.7177
 30
17.8409
 70
192
 0
VERTEX
 8
CRUSCOTTO
 10
-29.6896
 20
-1.7177
 30
6.3394
 70
192
 0
VERTEX
 8
CRUSCOTTO
 10
-29.6896
 20
-1.7177
 30
7.8404
 70
192
 0
VERTEX
 8
CRUSCOTTO
 10
-29.6896
 20
-1.7177
 30
16.3406
 70
192
 0
VERTEX
 8
CRUSCOTTO
 10
-29.6896
 20
-1.7177
 30
17.8409
 70
192
 0
VERTEX
 8
CRUSCOTTO
 10
0
 20
0
 30
0
 70
128
 71
1
 72
2
 73
6
 74
5
 0
VERTEX
 8
CRUSCOTTO
 10
0
 20
0
 30
0
 70
128
 71
5
 72
6
 73
10
 74
9
 0
VERTEX
 8
CRUSCOTTO
 10
0
 20
0
 30
0
 70
128
 71
9
 72
10
 73
14
 74
13
 0
VERTEX
 8
CRUSCOTTO
 10
0
 20
0
 30
0
 70
128
 71
2
 72
3
 73
7
 74
6
 0
VERTEX
 8
CRUSCOTTO
 10
0
 20
0
 30
0
 70
128
 71
21
 72
9
 73
13
 74
17
 0
VERTEX
 8
CRUSCOTTO
 10
0
 20
0
 30
0
 70
128
 71
10
 72
11
 73
15
 74
14
 0
VERTEX
 8
CRUSCOTTO
 10
0
 20
0
 30
0
 70
128
 71
3
 72
4
 73
8
 74
7
 0
VERTEX
 8
CRUSCOTTO
 10
0
 20
0
 30
0
 70
128
 71
7
 72
8
 73
12
 74
11
 0
VERTEX
 8
CRUSCOTTO
 10
0
 20
0
 30
0
 70
128
 71
11
 72
12
 73
16
 74
15
 0
VERTEX
 8
CRUSCOTTO
 10
0
 20
0
 30
0
 70
128
 71
13
 72
14
 73
18
 74
17
 0
VERTEX
 8
CRUSCOTTO
 10
0
 20
0
 30
0
 70
128
 71
14
 72
15
 73
19
 74
18
 0
VERTEX
 8
CRUSCOTTO
 10
0
 20
0
 30
0
 70
128
 71
15
 72
16
 73
20
 74
19
 0
VERTEX
 8
CRUSCOTTO
 10
0
 20
0
 30
0
 70
128
 71
17
 72
18
 73
22
 74
21
 0
VERTEX
 8
CRUSCOTTO
 10
0
 20
0
 30
0
 70
128
 71
21
 72
22
 73
26
 74
25
 0
VERTEX
 8
CRUSCOTTO
 10
0
 20
0
 30
0
 70
128
 71
25
 72
26
 73
30
 74
29
 0
VERTEX
 8
CRUSCOTTO
 10
0
 20
0
 30
0
 70
128
 71
18
 72
19
 73
23
 74
22
 0
VERTEX
 8
CRUSCOTTO
 10
0
 20
0
 30
0
 70
128
 71
25
 72
5
 73
9
 74
21
 0
VERTEX
 8
CRUSCOTTO
 10
0
 20
0
 30
0
 70
128
 71
26
 72
27
 73
31
 74
30
 0
VERTEX
 8
CRUSCOTTO
 10
0
 20
0
 30
0
 70
128
 71
19
 72
20
 73
24
 74
23
 0
VERTEX
 8
CRUSCOTTO
 10
0
 20
0
 30
0
 70
128
 71
23
 72
24
 73
28
 74
27
 0
VERTEX
 8
CRUSCOTTO
 10
0
 20
0
 30
0
 70
128
 71
27
 72
28
 73
32
 74
31
 0
VERTEX
 8
CRUSCOTTO
 10
0
 20
0
 30
0
 70
128
 71
29
 72
30
 73
2
 74
1
 0
VERTEX
 8
CRUSCOTTO
 10
0
 20
0
 30
0
 70
128
 71
30
 72
31
 73
3
 74
2
 0
VERTEX
 8
CRUSCOTTO
 10
0
 20
0
 30
0
 70
128
 71
31
 72
32
 73
4
 74
3
 0
VERTEX
 8
CRUSCOTTO
 10
0
 20
0
 30
0
 70
128
 71
4
 72
32
 73
28
 74
8
 0
VERTEX
 8
CRUSCOTTO
 10
0
 20
0
 30
0
 70
128
 71
8
 72
28
 73
24
 74
12
 0
VERTEX
 8
CRUSCOTTO
 10
0
 20
0
 30
0
 70
128
 71
12
 72
24
 73
20
 74
16
 0
VERTEX
 8
CRUSCOTTO
 10
0
 20
0
 30
0
 70
128
 71
29
 72
1
 73
5
 74
25
 0
VERTEX
 8
CRUSCOTTO
 10
0
 20
0
 30
0
 70
128
 71
27
 72
26
 73
6
 74
7
 0
VERTEX
 8
CRUSCOTTO
 10
0
 20
0
 30
0
 70
128
 71
23
 72
27
 73
7
 74
11
 0
VERTEX
 8
CRUSCOTTO
 10
0
 20
0
 30
0
 70
128
 71
22
 72
23
 73
11
 74
10
 0
VERTEX
 8
CRUSCOTTO
 10
0
 20
0
 30
0
 70
128
 71
26
 72
22
 73
10
 74
6
 0
SEQEND
 0
POLYLINE
 8
SUPPORTO_MNIGLIA
 66
1
 10
0.0
 20
0.0
 30
0.0
 70
64
 71
461
 72
458
 0
VERTEX
 8
SUPPORTO_MNIGLIA
 10
-23.0294
 20
-2.1947
 30
3.2455
 70
192
 0
VERTEX
 8
SUPPORTO_MNIGLIA
 10
-22.0294
 20
-2.1947
 30
3.2455
 70
192
 0
VERTEX
 8
SUPPORTO_MNIGLIA
 10
-26.0294
 20
-2.1947
 30
1.7593
 70
192
 0
VERTEX
 8
SUPPORTO_MNIGLIA
 10
-25.0294
 20
-2.1947
 30
1.7593
 70
192
 0
VERTEX
 8
SUPPORTO_MNIGLIA
 10
-24.0294
 20
-2.1947
 30
1.7593
 70
192
 0
VERTEX
 8
SUPPORTO_MNIGLIA
 10
-23.0294
 20
-2.1947
 30
1.7593
 70
192
 0
VERTEX
 8
SUPPORTO_MNIGLIA
 10
-22.0294
 20
-2.1947
 30
1.7593
 70
192
 0
VERTEX
 8
SUPPORTO_MNIGLIA
 10
-26.0294
 20
-2.1947
 30
1.777
 70
192
 0
VERTEX
 8
SUPPORTO_MNIGLIA
 10
-25.0294
 20
-5.1431
 30
1.777
 70
192
 0
VERTEX
 8
SUPPORTO_MNIGLIA
 10
-24.0294
 20
-5.1431
 30
1.777
 70
192
 0
VERTEX
 8
SUPPORTO_MNIGLIA
 10
-23.0294
 20
-5.1431
 30
1.777
 70
192
 0
VERTEX
 8
SUPPORTO_MNIGLIA
 10
-22.0294
 20
-2.1947
 30
1.777
 70
192
 0
VERTEX
 8
SUPPORTO_MNIGLIA
 10
-26.0294
 20
-2.1947
 30
1.7953
 70
192
 0
VERTEX
 8
SUPPORTO_MNIGLIA
 10
-25.0294
 20
-5.1243
 30
1.7953
 70
192
 0
VERTEX
 8
SUPPORTO_MNIGLIA
 10
-24.0294
 20
-5.1243
 30
1.7953
 70
192
 0
VERTEX
 8
SUPPORTO_MNIGLIA
 10
-23.0294
 20
-5.1243
 30
1.7953
 70
192
 0
VERTEX
 8
SUPPORTO_MNIGLIA
 10
-22.0294
 20
-2.1947
 30
1.7953
 70
192
 0
VERTEX
 8
SUPPORTO_MNIGLIA
 10
-26.0294
 20
-2.1947
 30
1.814
 70
192
 0
VERTEX
 8
SUPPORTO_MNIGLIA
 10
-25.0294
 20
-5.106
 30
1.814
 70
192
 0
VERTEX
 8
SUPPORTO_MNIGLIA
 10
-24.0294
 20
-5.106
 30
1.814
 70
192
 0
VERTEX
 8
SUPPORTO_MNIGLIA
 10
-23.0294
 20
-5.106
 30
1.814
 70
192
 0
VERTEX
 8
SUPPORTO_MNIGLIA
 10
-22.0294
 20
-2.1947
 30
1.814
 70
192
 0
VERTEX
 8
SUPPORTO_MNIGLIA
 10
-26.0294
 20
-2.1947
 30
1.8333
 70
192
 0
VERTEX
 8
SUPPORTO_MNIGLIA
 10
-25.0294
 20
-5.0883
 30
1.8333
 70
192
 0
VERTEX
 8
SUPPORTO_MNIGLIA
 10
-24.0294
 20
-5.0883
 30
1.8333
 70
192
 0
VERTEX
 8
SUPPORTO_MNIGLIA
 10
-23.0294
 20
-5.0883
 30
1.8333
 70
192
 0
VERTEX
 8
SUPPORTO_MNIGLIA
 10
-22.0294
 20
-2.1947
 30
1.8333
 70
192
 0
VERTEX
 8
SUPPORTO_MNIGLIA
 10
-26.0294
 20
-2.1947
 30
1.853
 70
192
 0
VERTEX
 8
SUPPORTO_MNIGLIA
 10
-25.0294
 20
-5.071
 30
1.853
 70
192
 0
VERTEX
 8
SUPPORTO_MNIGLIA
 10
-24.0294
 20
-5.071
 30
1.853
 70
192
 0
VERTEX
 8
SUPPORTO_MNIGLIA
 10
-23.0294
 20
-5.071
 30
1.853
 70
192
 0
VERTEX
 8
SUPPORTO_MNIGLIA
 10
-22.0294
 20
-2.1947
 30
1.853
 70
192
 0
VERTEX
 8
SUPPORTO_MNIGLIA
 10
-26.0294
 20
-2.1947
 30
1.8731
 70
192
 0
VERTEX
 8
SUPPORTO_MNIGLIA
 10
-25.0294
 20
-5.0543
 30
1.8731
 70
192
 0
VERTEX
 8
SUPPORTO_MNIGLIA
 10
-24.0294
 20
-5.0543
 30
1.8731
 70
192
 0
VERTEX
 8
SUPPORTO_MNIGLIA
 10
-23.0294
 20
-5.0543
 30
1.8731
 70
192
 0
VERTEX
 8
SUPPORTO_MNIGLIA
 10
-22.0294
 20
-2.1947
 30
1.8731
 70
192
 0
VERTEX
 8
SUPPORTO_MNIGLIA
 10
-26.0294
 20
-2.1947
 30
1.8936
 70
192
 0
VERTEX
 8
SUPPORTO_MNIGLIA
 10
-25.0294
 20
-5.0381
 30
1.8936
 70
192
 0
VERTEX
 8
SUPPORTO_MNIGLIA
 10
-24.0294
 20
-5.0381
 30
1.8936
 70
192
 0
VERTEX
 8
SUPPORTO_MNIGLIA
 10
-23.0294
 20
-5.0381
 30
1.8936
 70
192
 0
VERTEX
 8
SUPPORTO_MNIGLIA
 10
-22.0294
 20
-2.1947
 30
1.8936
 70
192
 0
VERTEX
 8
SUPPORTO_MNIGLIA
 10
-26.0294
 20
-2.1947
 30
1.9146
 70
192
 0
VERTEX
 8
SUPPORTO_MNIGLIA
 10
-25.0294
 20
-5.0224
 30
1.9146
 70
192
 0
VERTEX
 8
SUPPORTO_MNIGLIA
 10
-24.0294
 20
-5.0224
 30
1.9146
 70
192
 0
VERTEX
 8
SUPPORTO_MNIGLIA
 10
-23.0294
 20
-5.0224
 30
1.9146
 70
192
 0
VERTEX
 8
SUPPORTO_MNIGLIA
 10
-22.0294
 20
-2.1947
 30
1.9146
 70
192
 0
VERTEX
 8
SUPPORTO_MNIGLIA
 10
-26.0294
 20
-2.1947
 30
1.936
 70
192
 0
VERTEX
 8
SUPPORTO_MNIGLIA
 10
-25.0294
 20
-5.0073
 30
1.936
 70
192
 0
VERTEX
 8
SUPPORTO_MNIGLIA
 10
-24.0294
 20
-5.0073
 30
1.936
 70
192
 0
VERTEX
 8
SUPPORTO_MNIGLIA
 10
-23.0294
 20
-5.0073
 30
1.936
 70
192
 0
VERTEX
 8
SUPPORTO_MNIGLIA
 10
-22.0294
 20
-2.1947
 30
1.936
 70
192
 0
VERTEX
 8
SUPPORTO_MNIGLIA
 10
-26.0294
 20
-2.1947
 30
1.9578
 70
192
 0
VERTEX
 8
SUPPORTO_MNIGLIA
 10
-25.0294
 20
-4.9927
 30
1.9578
 70
192
 0
VERTEX
 8
SUPPORTO_MNIGLIA
 10
-24.0294
 20
-4.9927
 30
1.9578
 70
192
 0
VERTEX
 8
SUPPORTO_MNIGLIA
 10
-23.0294
 20
-4.9927
 30
1.9578
 70
192
 0
VERTEX
 8
SUPPORTO_MNIGLIA
 10
-22.0294
 20
-2.1947
 30
1.9578
 70
192
 0
VERTEX
 8
SUPPORTO_MNIGLIA
 10
-26.0294
 20
-2.1947
 30
1.9799
 70
192
 0
VERTEX
 8
SUPPORTO_MNIGLIA
 10
-25.0294
 20
-4.9788
 30
1.9799
 70
192
 0
VERTEX
 8
SUPPORTO_MNIGLIA
 10
-24.0294
 20
-4.9788
 30
1.9799
 70
192
 0
VERTEX
 8
SUPPORTO_MNIGLIA
 10
-23.0294
 20
-4.9788
 30
1.9799
 70
192
 0
VERTEX
 8
SUPPORTO_MNIGLIA
 10
-22.0294
 20
-2.1947
 30
1.9799
 70
192
 0
VERTEX
 8
SUPPORTO_MNIGLIA
 10
-26.0294
 20
-2.1947
 30
2.0024
 70
192
 0
VERTEX
 8
SUPPORTO_MNIGLIA
 10
-25.0294
 20
-4.9654
 30
2.0024
 70
192
 0
VERTEX
 8
SUPPORTO_MNIGLIA
 10
-24.0294
 20
-4.9654
 30
2.0024
 70
192
 0
VERTEX
 8
SUPPORTO_MNIGLIA
 10
-23.0294
 20
-4.9654
 30
2.0024
 70
192
 0
VERTEX
 8
SUPPORTO_MNIGLIA
 10
-22.0294
 20
-2.1947
 30
2.0024
 70
192
 0
VERTEX
 8
SUPPORTO_MNIGLIA
 10
-26.0294
 20
-2.1947
 30
2.0252
 70
192
 0
VERTEX
 8
SUPPORTO_MNIGLIA
 10
-25.0294
 20
-4.9526
 30
2.0252
 70
192
 0
VERTEX
 8
SUPPORTO_MNIGLIA
 10
-24.0294
 20
-4.9526
 30
2.0252
 70
192
 0
VERTEX
 8
SUPPORTO_MNIGLIA
 10
-23.0294
 20
-4.9526
 30
2.0252
 70
192
 0
VERTEX
 8
SUPPORTO_MNIGLIA
 10
-22.0294
 20
-2.1947
 30
2.0252
 70
192
 0
VERTEX
 8
SUPPORTO_MNIGLIA
 10
-26.0294
 20
-2.1947
 30
2.0484
 70
192
 0
VERTEX
 8
SUPPORTO_MNIGLIA
 10
-25.0294
 20
-4.9404
 30
2.0484
 70
192
 0
VERTEX
 8
SUPPORTO_MNIGLIA
 10
-24.0294
 20
-4.9404
 30
2.0484
 70
192
 0
VERTEX
 8
SUPPORTO_MNIGLIA
 10
-23.0294
 20
-4.9404
 30
2.0484
 70
192
 0
VERTEX
 8
SUPPORTO_MNIGLIA
 10
-22.0294
 20
-2.1947
 30
2.0484
 70
192
 0
VERTEX
 8
SUPPORTO_MNIGLIA
 10
-26.0294
 20
-2.1947
 30
2.0719
 70
192
 0
VERTEX
 8
SUPPORTO_MNIGLIA
 10
-25.0294
 20
-4.9288
 30
2.0719
 70
192
 0
VERTEX
 8
SUPPORTO_MNIGLIA
 10
-24.0294
 20
-4.9288
 30
2.0719
 70
192
 0
VERTEX
 8
SUPPORTO_MNIGLIA
 10
-23.0294
 20
-4.9288
 30
2.0719
 70
192
 0
VERTEX
 8
SUPPORTO_MNIGLIA
 10
-22.0294
 20
-2.1947
 30
2.0719
 70
192
 0
VERTEX
 8
SUPPORTO_MNIGLIA
 10
-26.0294
 20
-2.1947
 30
2.0957
 70
192
 0
VERTEX
 8
SUPPORTO_MNIGLIA
 10
-25.0294
 20
-4.9179
 30
2.0957
 70
192
 0
VERTEX
 8
SUPPORTO_MNIGLIA
 10
-24.0294
 20
-4.9179
 30
2.0957
 70
192
 0
VERTEX
 8
SUPPORTO_MNIGLIA
 10
-23.0294
 20
-4.9179
 30
2.0957
 70
192
 0
VERTEX
 8
SUPPORTO_MNIGLIA
 10
-22.0294
 20
-2.1947
 30
2.0957
 70
192
 0
VERTEX
 8
SUPPORTO_MNIGLIA
 10
-26.0294
 20
-2.1947
 30
2.1197
 70
192
 0
VERTEX
 8
SUPPORTO_MNIGLIA
 10
-25.0294
 20
-4.9075
 30
2.1197
 70
192
 0
VERTEX
 8
SUPPORTO_MNIGLIA
 10
-24.0294
 20
-4.9075
 30
2.1197
 70
192
 0
VERTEX
 8
SUPPORTO_MNIGLIA
 10
-23.0294
 20
-4.9075
 30
2.1197
 70
192
 0
VERTEX
 8
SUPPORTO_MNIGLIA
 10
-22.0294
 20
-2.1947
 30
2.1197
 70
192
 0
VERTEX
 8
SUPPORTO_MNIGLIA
 10
-26.0294
 20
-2.1947
 30
2.144
 70
192
 0
VERTEX
 8
SUPPORTO_MNIGLIA
 10
-25.0294
 20
-4.8978
 30
2.144
 70
192
 0
VERTEX
 8
SUPPORTO_MNIGLIA
 10
-24.0294
 20
-4.8978
 30
2.144
 70
192
 0
VERTEX
 8
SUPPORTO_MNIGLIA
 10
-23.0294
 20
-4.8978
 30
2.144
 70
192
 0
VERTEX
 8
SUPPORTO_MNIGLIA
 10
-22.0294
 20
-2.1947
 30
2.144
 70
192
 0
VERTEX
 8
SUPPORTO_MNIGLIA
 10
-26.0294
 20
-2.1947
 30
2.1686
 70
192
 0
VERTEX
 8
SUPPORTO_MNIGLIA
 10
-25.0294
 20
-4.8888
 30
2.1686
 70
192
 0
VERTEX
 8
SUPPORTO_MNIGLIA
 10
-24.0294
 20
-4.8888
 30
2.1686
 70
192
 0
VERTEX
 8
SUPPORTO_MNIGLIA
 10
-23.0294
 20
-4.8888
 30
2.1686
 70
192
 0
VERTEX
 8
SUPPORTO_MNIGLIA
 10
-22.0294
 20
-2.1947
 30
2.1686
 70
192
 0
VERTEX
 8
SUPPORTO_MNIGLIA
 10
-26.0294
 20
-2.1947
 30
2.1934
 70
192
 0
VERTEX
 8
SUPPORTO_MNIGLIA
 10
-25.0294
 20
-4.8804
 30
2.1934
 70
192
 0
VERTEX
 8
SUPPORTO_MNIGLIA
 10
-24.0294
 20
-4.8804
 30
2.1934
 70
192
 0
VERTEX
 8
SUPPORTO_MNIGLIA
 10
-23.0294
 20
-4.8804
 30
2.1934
 70
192
 0
VERTEX
 8
SUPPORTO_MNIGLIA
 10
-22.0294
 20
-2.1947
 30
2.1934
 70
192
 0
VERTEX
 8
SUPPORTO_MNIGLIA
 10
-26.0294
 20
-2.1947
 30
2.2184
 70
192
 0
VERTEX
 8
SUPPORTO_MNIGLIA
 10
-25.0294
 20
-4.8726
 30
2.2184
 70
192
 0
VERTEX
 8
SUPPORTO_MNIGLIA
 10
-24.0294
 20
-4.8726
 30
2.2184
 70
192
 0
VERTEX
 8
SUPPORTO_MNIGLIA
 10
-23.0294
 20
-4.8726
 30
2.2184
 70
192
 0
VERTEX
 8
SUPPORTO_MNIGLIA
 10
-22.0294
 20
-2.1947
 30
2.2184
 70
192
 0
VERTEX
 8
SUPPORTO_MNIGLIA
 10
-26.0294
 20
-2.1947
 30
2.2436
 70
192
 0
VERTEX
 8
SUPPORTO_MNIGLIA
 10
-25.0294
 20
-4.8655
 30
2.2436
 70
192
 0
VERTEX
 8
SUPPORTO_MNIGLIA
 10
-24.0294
 20
-4.8655
 30
2.2436
 70
192
 0
VERTEX
 8
SUPPORTO_MNIGLIA
 10
-23.0294
 20
-4.8655
 30
2.2436
 70
192
 0
VERTEX
 8
SUPPORTO_MNIGLIA
 10
-22.0294
 20
-2.1947
 30
2.2436
 70
192
 0
VERTEX
 8
SUPPORTO_MNIGLIA
 10
-26.0294
 20
-2.1947
 30
2.269
 70
192
 0
VERTEX
 8
SUPPORTO_MNIGLIA
 10
-25.0294
 20
-4.859
 30
2.269
 70
192
 0
VERTEX
 8
SUPPORTO_MNIGLIA
 10
-24.0294
 20
-4.859
 30
2.269
 70
192
 0
VERTEX
 8
SUPPORTO_MNIGLIA
 10
-23.0294
 20
-4.859
 30
2.269
 70
192
 0
VERTEX
 8
SUPPORTO_MNIGLIA
 10
-22.0294
 20
-2.1947
 30
2.269
 70
192
 0
VERTEX
 8
SUPPORTO_MNIGLIA
 10
-26.0294
 20
-2.1947
 30
2.2945
 70
192
 0
VERTEX
 8
SUPPORTO_MNIGLIA
 10
-25.0294
 20
-4.8533
 30
2.2945
 70
192
 0
VERTEX
 8
SUPPORTO_MNIGLIA
 10
-24.0294
 20
-4.8533
 30
2.2945
 70
192
 0
VERTEX
 8
SUPPORTO_MNIGLIA
 10
-23.0294
 20
-4.8533
 30
2.2945
 70
192
 0
VERTEX
 8
SUPPORTO_MNIGLIA
 10
-22.0294
 20
-2.1947
 30
2.2945
 70
192
 0
VERTEX
 8
SUPPORTO_MNIGLIA
 10
-26.0294
 20
-2.1947
 30
2.3202
 70
192
 0
VERTEX
 8
SUPPORTO_MNIGLIA
 10
-25.0294
 20
-4.8482
 30
2.3202
 70
192
 0
VERTEX
 8
SUPPORTO_MNIGLIA
 10
-24.0294
 20
-4.8482
 30
2.3202
 70
192
 0
VERTEX
 8
SUPPORTO_MNIGLIA
 10
-23.0294
 20
-4.8482
 30
2.3202
 70
192
 0
VERTEX
 8
SUPPORTO_MNIGLIA
 10
-22.0294
 20
-2.1947
 30
2.3202
 70
192
 0
VERTEX
 8
SUPPORTO_MNIGLIA
 10
-26.0294
 20
-2.1947
 30
2.346
 70
192
 0
VERTEX
 8
SUPPORTO_MNIGLIA
 10
-25.0294
 20
-4.8437
 30
2.346
 70
192
 0
VERTEX
 8
SUPPORTO_MNIGLIA
 10
-24.0294
 20
-4.8437
 30
2.346
 70
192
 0
VERTEX
 8
SUPPORTO_MNIGLIA
 10
-23.0294
 20
-4.8437
 30
2.346
 70
192
 0
VERTEX
 8
SUPPORTO_MNIGLIA
 10
-22.0294
 20
-2.1947
 30
2.346
 70
192
 0
VERTEX
 8
SUPPORTO_MNIGLIA
 10
-26.0294
 20
-2.1947
 30
2.3719
 70
192
 0
VERTEX
 8
SUPPORTO_MNIGLIA
 10
-25.0294
 20
-4.84
 30
2.3719
 70
192
 0
VERTEX
 8
SUPPORTO_MNIGLIA
 10
-24.0294
 20
-4.84
 30
2.3719
 70
192
 0
VERTEX
 8
SUPPORTO_MNIGLIA
 10
-23.0294
 20
-4.84
 30
2.3719
 70
192
 0
VERTEX
 8
SUPPORTO_MNIGLIA
 10
-22.0294
 20
-2.1947
 30
2.3719
 70
192
 0
VERTEX
 8
SUPPORTO_MNIGLIA
 10
-26.0294
 20
-2.1947
 30
2.3979
 70
192
 0
VERTEX
 8
SUPPORTO_MNIGLIA
 10
-25.0294
 20
-4.8369
 30
2.3979
 70
192
 0
VERTEX
 8
SUPPORTO_MNIGLIA
 10
-24.0294
 20
-4.8369
 30
2.3979
 70
192
 0
VERTEX
 8
SUPPORTO_MNIGLIA
 10
-23.0294
 20
-4.8369
 30
2.3979
 70
192
 0
VERTEX
 8
SUPPORTO_MNIGLIA
 10
-22.0294
 20
-2.1947
 30
2.3979
 70
192
 0
VERTEX
 8
SUPPORTO_MNIGLIA
 10
-26.0294
 20
-2.1947
 30
2.4239
 70
192
 0
VERTEX
 8
SUPPORTO_MNIGLIA
 10
-25.0294
 20
-4.8345
 30
2.4239
 70
192
 0
VERTEX
 8
SUPPORTO_MNIGLIA
 10
-24.0294
 20
-4.8345
 30
2.4239
 70
192
 0
VERTEX
 8
SUPPORTO_MNIGLIA
 10
-23.0294
 20
-4.8345
 30
2.4239
 70
192
 0
VERTEX
 8
SUPPORTO_MNIGLIA
 10
-22.0294
 20
-2.1947
 30
2.4239
 70
192
 0
VERTEX
 8
SUPPORTO_MNIGLIA
 10
-26.0294
 20
-2.1947
 30
2.4501
 70
192
 0
VERTEX
 8
SUPPORTO_MNIGLIA
 10
-25.0294
 20
-4.8328
 30
2.4501
 70
192
 0
VERTEX
 8
SUPPORTO_MNIGLIA
 10
-24.0294
 20
-4.8328
 30
2.4501
 70
192
 0
VERTEX
 8
SUPPORTO_MNIGLIA
 10
-23.0294
 20
-4.8328
 30
2.4501
 70
192
 0
VERTEX
 8
SUPPORTO_MNIGLIA
 10
-22.0294
 20
-2.1947
 30
2.4501
 70
192
 0
VERTEX
 8
SUPPORTO_MNIGLIA
 10
-26.0294
 20
-2.1947
 30
2.4762
 70
192
 0
VERTEX
 8
SUPPORTO_MNIGLIA
 10
-25.0294
 20
-4.8318
 30
2.4762
 70
192
 0
VERTEX
 8
SUPPORTO_MNIGLIA
 10
-24.0294
 20
-4.8318
 30
2.4762
 70
192
 0
VERTEX
 8
SUPPORTO_MNIGLIA
 10
-23.0294
 20
-4.8318
 30
2.4762
 70
192
 0
VERTEX
 8
SUPPORTO_MNIGLIA
 10
-22.0294
 20
-2.1947
 30
2.4762
 70
192
 0
VERTEX
 8
SUPPORTO_MNIGLIA
 10
-26.0294
 20
-2.1947
 30
2.5024
 70
192
 0
VERTEX
 8
SUPPORTO_MNIGLIA
 10
-25.0294
 20
-4.8314
 30
2.5024
 70
192
 0
VERTEX
 8
SUPPORTO_MNIGLIA
 10
-24.0294
 20
-4.8314
 30
2.5024
 70
192
 0
VERTEX
 8
SUPPORTO_MNIGLIA
 10
-23.0294
 20
-4.8314
 30
2.5024
 70
192
 0
VERTEX
 8
SUPPORTO_MNIGLIA
 10
-22.0294
 20
-2.1947
 30
2.5024
 70
192
 0
VERTEX
 8
SUPPORTO_MNIGLIA
 10
-26.0294
 20
-2.1947
 30
2.5286
 70
192
 0
VERTEX
 8
SUPPORTO_MNIGLIA
 10
-25.0294
 20
-4.8318
 30
2.5286
 70
192
 0
VERTEX
 8
SUPPORTO_MNIGLIA
 10
-24.0294
 20
-4.8318
 30
2.5286
 70
192
 0
VERTEX
 8
SUPPORTO_MNIGLIA
 10
-23.0294
 20
-4.8318
 30
2.5286
 70
192
 0
VERTEX
 8
SUPPORTO_MNIGLIA
 10
-22.0294
 20
-2.1947
 30
2.5286
 70
192
 0
VERTEX
 8
SUPPORTO_MNIGLIA
 10
-26.0294
 20
-2.1947
 30
2.5547
 70
192
 0
VERTEX
 8
SUPPORTO_MNIGLIA
 10
-25.0294
 20
-4.8328
 30
2.5547
 70
192
 0
VERTEX
 8
SUPPORTO_MNIGLIA
 10
-24.0294
 20
-4.8328
 30
2.5547
 70
192
 0
VERTEX
 8
SUPPORTO_MNIGLIA
 10
-23.0294
 20
-4.8328
 30
2.5547
 70
192
 0
VERTEX
 8
SUPPORTO_MNIGLIA
 10
-22.0294
 20
-2.1947
 30
2.5547
 70
192
 0
VERTEX
 8
SUPPORTO_MNIGLIA
 10
-26.0294
 20
-2.1947
 30
2.5809
 70
192
 0
VERTEX
 8
SUPPORTO_MNIGLIA
 10
-25.0294
 20
-4.8345
 30
2.5809
 70
192
 0
VERTEX
 8
SUPPORTO_MNIGLIA
 10
-24.0294
 20
-4.8345
 30
2.5809
 70
192
 0
VERTEX
 8
SUPPORTO_MNIGLIA
 10
-23.0294
 20
-4.8345
 30
2.5809
 70
192
 0
VERTEX
 8
SUPPORTO_MNIGLIA
 10
-22.0294
 20
-2.1947
 30
2.5809
 70
192
 0
VERTEX
 8
SUPPORTO_MNIGLIA
 10
-26.0294
 20
-2.1947
 30
2.6069
 70
192
 0
VERTEX
 8
SUPPORTO_MNIGLIA
 10
-25.0294
 20
-4.8369
 30
2.6069
 70
192
 0
VERTEX
 8
SUPPORTO_MNIGLIA
 10
-24.0294
 20
-4.8369
 30
2.6069
 70
192
 0
VERTEX
 8
SUPPORTO_MNIGLIA
 10
-23.0294
 20
-4.8369
 30
2.6069
 70
192
 0
VERTEX
 8
SUPPORTO_MNIGLIA
 10
-22.0294
 20
-2.1947
 30
2.6069
 70
192
 0
VERTEX
 8
SUPPORTO_MNIGLIA
 10
-26.0294
 20
-2.1947
 30
2.6329
 70
192
 0
VERTEX
 8
SUPPORTO_MNIGLIA
 10
-25.0294
 20
-4.84
 30
2.6329
 70
192
 0
VERTEX
 8
SUPPORTO_MNIGLIA
 10
-24.0294
 20
-4.84
 30
2.6329
 70
192
 0
VERTEX
 8
SUPPORTO_MNIGLIA
 10
-23.0294
 20
-4.84
 30
2.6329
 70
192
 0
VERTEX
 8
SUPPORTO_MNIGLIA
 10
-22.0294
 20
-2.1947
 30
2.6329
 70
192
 0
VERTEX
 8
SUPPORTO_MNIGLIA
 10
-26.0294
 20
-2.1947
 30
2.6588
 70
192
 0
VERTEX
 8
SUPPORTO_MNIGLIA
 10
-25.0294
 20
-4.8437
 30
2.6588
 70
192
 0
VERTEX
 8
SUPPORTO_MNIGLIA
 10
-24.0294
 20
-4.8437
 30
2.6588
 70
192
 0
VERTEX
 8
SUPPORTO_MNIGLIA
 10
-23.0294
 20
-4.8437
 30
2.6588
 70
192
 0
VERTEX
 8
SUPPORTO_MNIGLIA
 10
-22.0294
 20
-2.1947
 30
2.6588
 70
192
 0
VERTEX
 8
SUPPORTO_MNIGLIA
 10
-26.0294
 20
-2.1947
 30
2.6846
 70
192
 0
VERTEX
 8
SUPPORTO_MNIGLIA
 10
-25.0294
 20
-4.8482
 30
2.6846
 70
192
 0
VERTEX
 8
SUPPORTO_MNIGLIA
 10
-24.0294
 20
-4.8482
 30
2.6846
 70
192
 0
VERTEX
 8
SUPPORTO_MNIGLIA
 10
-23.0294
 20
-4.8482
 30
2.6846
 70
192
 0
VERTEX
 8
SUPPORTO_MNIGLIA
 10
-22.0294
 20
-2.1947
 30
2.6846
 70
192
 0
VERTEX
 8
SUPPORTO_MNIGLIA
 10
-26.0294
 20
-2.1947
 30
2.7103
 70
192
 0
VERTEX
 8
SUPPORTO_MNIGLIA
 10
-25.0294
 20
-4.8533
 30
2.7103
 70
192
 0
VERTEX
 8
SUPPORTO_MNIGLIA
 10
-24.0294
 20
-4.8533
 30
2.7103
 70
192
 0
VERTEX
 8
SUPPORTO_MNIGLIA
 10
-23.0294
 20
-4.8533
 30
2.7103
 70
192
 0
VERTEX
 8
SUPPORTO_MNIGLIA
 10
-22.0294
 20
-2.1947
 30
2.7103
 70
192
 0
VERTEX
 8
SUPPORTO_MNIGLIA
 10
-26.0294
 20
-2.1947
 30
2.7358
 70
192
 0
VERTEX
 8
SUPPORTO_MNIGLIA
 10
-25.0294
 20
-4.859
 30
2.7358
 70
192
 0
VERTEX
 8
SUPPORTO_MNIGLIA
 10
-24.0294
 20
-4.859
 30
2.7358
 70
192
 0
VERTEX
 8
SUPPORTO_MNIGLIA
 10
-23.0294
 20
-4.859
 30
2.7358
 70
192
 0
VERTEX
 8
SUPPORTO_MNIGLIA
 10
-22.0294
 20
-2.1947
 30
2.7358
 70
192
 0
VERTEX
 8
SUPPORTO_MNIGLIA
 10
-26.0294
 20
-2.1947
 30
2.7612
 70
192
 0
VERTEX
 8
SUPPORTO_MNIGLIA
 10
-25.0294
 20
-4.8655
 30
2.7612
 70
192
 0
VERTEX
 8
SUPPORTO_MNIGLIA
 10
-24.0294
 20
-4.8655
 30
2.7612
 70
192
 0
VERTEX
 8
SUPPORTO_MNIGLIA
 10
-23.0294
 20
-4.8655
 30
2.7612
 70
192
 0
VERTEX
 8
SUPPORTO_MNIGLIA
 10
-22.0294
 20
-2.1947
 30
2.7612
 70
192
 0
VERTEX
 8
SUPPORTO_MNIGLIA
 10
-26.0294
 20
-2.1947
 30
2.7864
 70
192
 0
VERTEX
 8
SUPPORTO_MNIGLIA
 10
-25.0294
 20
-4.8726
 30
2.7864
 70
192
 0
VERTEX
 8
SUPPORTO_MNIGLIA
 10
-24.0294
 20
-4.8726
 30
2.7864
 70
192
 0
VERTEX
 8
SUPPORTO_MNIGLIA
 10
-23.0294
 20
-4.8726
 30
2.7864
 70
192
 0
VERTEX
 8
SUPPORTO_MNIGLIA
 10
-22.0294
 20
-2.1947
 30
2.7864
 70
192
 0
VERTEX
 8
SUPPORTO_MNIGLIA
 10
-26.0294
 20
-2.1947
 30
2.8114
 70
192
 0
VERTEX
 8
SUPPORTO_MNIGLIA
 10
-25.0294
 20
-4.8804
 30
2.8114
 70
192
 0
VERTEX
 8
SUPPORTO_MNIGLIA
 10
-24.0294
 20
-4.8804
 30
2.8114
 70
192
 0
VERTEX
 8
SUPPORTO_MNIGLIA
 10
-23.0294
 20
-4.8804
 30
2.8114
 70
192
 0
VERTEX
 8
SUPPORTO_MNIGLIA
 10
-22.0294
 20
-2.1947
 30
2.8114
 70
192
 0
VERTEX
 8
SUPPORTO_MNIGLIA
 10
-26.0294
 20
-2.1947
 30
2.8362
 70
192
 0
VERTEX
 8
SUPPORTO_MNIGLIA
 10
-25.0294
 20
-4.8888
 30
2.8362
 70
192
 0
VERTEX
 8
SUPPORTO_MNIGLIA
 10
-24.0294
 20
-4.8888
 30
2.8362
 70
192
 0
VERTEX
 8
SUPPORTO_MNIGLIA
 10
-23.0294
 20
-4.8888
 30
2.8362
 70
192
 0
VERTEX
 8
SUPPORTO_MNIGLIA
 10
-22.0294
 20
-2.1947
 30
2.8362
 70
192
 0
VERTEX
 8
SUPPORTO_MNIGLIA
 10
-26.0294
 20
-2.1947
 30
2.8608
 70
192
 0
VERTEX
 8
SUPPORTO_MNIGLIA
 10
-25.0294
 20
-4.8978
 30
2.8608
 70
192
 0
VERTEX
 8
SUPPORTO_MNIGLIA
 10
-24.0294
 20
-4.8978
 30
2.8608
 70
192
 0
VERTEX
 8
SUPPORTO_MNIGLIA
 10
-23.0294
 20
-4.8978
 30
2.8608
 70
192
 0
VERTEX
 8
SUPPORTO_MNIGLIA
 10
-22.0294
 20
-2.1947
 30
2.8608
 70
192
 0
VERTEX
 8
SUPPORTO_MNIGLIA
 10
-26.0294
 20
-2.1947
 30
2.8851
 70
192
 0
VERTEX
 8
SUPPORTO_MNIGLIA
 10
-25.0294
 20
-4.9075
 30
2.8851
 70
192
 0
VERTEX
 8
SUPPORTO_MNIGLIA
 10
-24.0294
 20
-4.9075
 30
2.8851
 70
192
 0
VERTEX
 8
SUPPORTO_MNIGLIA
 10
-23.0294
 20
-4.9075
 30
2.8851
 70
192
 0
VERTEX
 8
SUPPORTO_MNIGLIA
 10
-22.0294
 20
-2.1947
 30
2.8851
 70
192
 0
VERTEX
 8
SUPPORTO_MNIGLIA
 10
-26.0294
 20
-2.1947
 30
2.9091
 70
192
 0
VERTEX
 8
SUPPORTO_MNIGLIA
 10
-25.0294
 20
-4.9179
 30
2.9091
 70
192
 0
VERTEX
 8
SUPPORTO_MNIGLIA
 10
-24.0294
 20
-4.9179
 30
2.9091
 70
192
 0
VERTEX
 8
SUPPORTO_MNIGLIA
 10
-23.0294
 20
-4.9179
 30
2.9091
 70
192
 0
VERTEX
 8
SUPPORTO_MNIGLIA
 10
-22.0294
 20
-2.1947
 30
2.9091
 70
192
 0
VERTEX
 8
SUPPORTO_MNIGLIA
 10
-26.0294
 20
-2.1947
 30
2.9329
 70
192
 0
VERTEX
 8
SUPPORTO_MNIGLIA
 10
-25.0294
 20
-4.9288
 30
2.9329
 70
192
 0
VERTEX
 8
SUPPORTO_MNIGLIA
 10
-24.0294
 20
-4.9288
 30
2.9329
 70
192
 0
VERTEX
 8
SUPPORTO_MNIGLIA
 10
-23.0294
 20
-4.9288
 30
2.9329
 70
192
 0
VERTEX
 8
SUPPORTO_MNIGLIA
 10
-22.0294
 20
-2.1947
 30
2.9329
 70
192
 0
VERTEX
 8
SUPPORTO_MNIGLIA
 10
-26.0294
 20
-2.1947
 30
2.9564
 70
192
 0
VERTEX
 8
SUPPORTO_MNIGLIA
 10
-25.0294
 20
-4.9404
 30
2.9564
 70
192
 0
VERTEX
 8
SUPPORTO_MNIGLIA
 10
-24.0294
 20
-4.9404
 30
2.9564
 70
192
 0
VERTEX
 8
SUPPORTO_MNIGLIA
 10
-23.0294
 20
-4.9404
 30
2.9564
 70
192
 0
VERTEX
 8
SUPPORTO_MNIGLIA
 10
-22.0294
 20
-2.1947
 30
2.9564
 70
192
 0
VERTEX
 8
SUPPORTO_MNIGLIA
 10
-26.0294
 20
-2.1947
 30
2.9796
 70
192
 0
VERTEX
 8
SUPPORTO_MNIGLIA
 10
-25.0294
 20
-4.9526
 30
2.9796
 70
192
 0
VERTEX
 8
SUPPORTO_MNIGLIA
 10
-24.0294
 20
-4.9526
 30
2.9796
 70
192
 0
VERTEX
 8
SUPPORTO_MNIGLIA
 10
-23.0294
 20
-4.9526
 30
2.9796
 70
192
 0
VERTEX
 8
SUPPORTO_MNIGLIA
 10
-22.0294
 20
-2.1947
 30
2.9796
 70
192
 0
VERTEX
 8
SUPPORTO_MNIGLIA
 10
-26.0294
 20
-2.1947
 30
3.0024
 70
192
 0
VERTEX
 8
SUPPORTO_MNIGLIA
 10
-25.0294
 20
-4.9654
 30
3.0024
 70
192
 0
VERTEX
 8
SUPPORTO_MNIGLIA
 10
-24.0294
 20
-4.9654
 30
3.0024
 70
192
 0
VERTEX
 8
SUPPORTO_MNIGLIA
 10
-23.0294
 20
-4.9654
 30
3.0024
 70
192
 0
VERTEX
 8
SUPPORTO_MNIGLIA
 10
-22.0294
 20
-2.1947
 30
3.0024
 70
192
 0
VERTEX
 8
SUPPORTO_MNIGLIA
 10
-26.0294
 20
-2.1947
 30
3.0249
 70
192
 0
VERTEX
 8
SUPPORTO_MNIGLIA
 10
-25.0294
 20
-4.9788
 30
3.0249
 70
192
 0
VERTEX
 8
SUPPORTO_MNIGLIA
 10
-24.0294
 20
-4.9788
 30
3.0249
 70
192
 0
VERTEX
 8
SUPPORTO_MNIGLIA
 10
-23.0294
 20
-4.9788
 30
3.0249
 70
192
 0
VERTEX
 8
SUPPORTO_MNIGLIA
 10
-22.0294
 20
-2.1947
 30
3.0249
 70
192
 0
VERTEX
 8
SUPPORTO_MNIGLIA
 10
-26.0294
 20
-2.1947
 30
3.047
 70
192
 0
VERTEX
 8
SUPPORTO_MNIGLIA
 10
-25.0294
 20
-4.9927
 30
3.047
 70
192
 0
VERTEX
 8
SUPPORTO_MNIGLIA
 10
-24.0294
 20
-4.9927
 30
3.047
 70
192
 0
VERTEX
 8
SUPPORTO_MNIGLIA
 10
-23.0294
 20
-4.9927
 30
3.047
 70
192
 0
VERTEX
 8
SUPPORTO_MNIGLIA
 10
-22.0294
 20
-2.1947
 30
3.047
 70
192
 0
VERTEX
 8
SUPPORTO_MNIGLIA
 10
-26.0294
 20
-2.1947
 30
3.0688
 70
192
 0
VERTEX
 8
SUPPORTO_MNIGLIA
 10
-25.0294
 20
-5.0073
 30
3.0688
 70
192
 0
VERTEX
 8
SUPPORTO_MNIGLIA
 10
-24.0294
 20
-5.0073
 30
3.0688
 70
192
 0
VERTEX
 8
SUPPORTO_MNIGLIA
 10
-23.0294
 20
-5.0073
 30
3.0688
 70
192
 0
VERTEX
 8
SUPPORTO_MNIGLIA
 10
-22.0294
 20
-2.1947
 30
3.0688
 70
192
 0
VERTEX
 8
SUPPORTO_MNIGLIA
 10
-26.0294
 20
-2.1947
 30
3.0902
 70
192
 0
VERTEX
 8
SUPPORTO_MNIGLIA
 10
-25.0294
 20
-5.0224
 30
3.0902
 70
192
 0
VERTEX
 8
SUPPORTO_MNIGLIA
 10
-24.0294
 20
-5.0224
 30
3.0902
 70
192
 0
VERTEX
 8
SUPPORTO_MNIGLIA
 10
-23.0294
 20
-5.0224
 30
3.0902
 70
192
 0
VERTEX
 8
SUPPORTO_MNIGLIA
 10
-22.0294
 20
-2.1947
 30
3.0902
 70
192
 0
VERTEX
 8
SUPPORTO_MNIGLIA
 10
-26.0294
 20
-2.1947
 30
3.1112
 70
192
 0
VERTEX
 8
SUPPORTO_MNIGLIA
 10
-25.0294
 20
-5.0381
 30
3.1112
 70
192
 0
VERTEX
 8
SUPPORTO_MNIGLIA
 10
-24.0294
 20
-5.0381
 30
3.1112
 70
192
 0
VERTEX
 8
SUPPORTO_MNIGLIA
 10
-23.0294
 20
-5.0381
 30
3.1112
 70
192
 0
VERTEX
 8
SUPPORTO_MNIGLIA
 10
-22.0294
 20
-2.1947
 30
3.1112
 70
192
 0
VERTEX
 8
SUPPORTO_MNIGLIA
 10
-26.0294
 20
-2.1947
 30
3.1317
 70
192
 0
VERTEX
 8
SUPPORTO_MNIGLIA
 10
-25.0294
 20
-5.0543
 30
3.1317
 70
192
 0
VERTEX
 8
SUPPORTO_MNIGLIA
 10
-24.0294
 20
-5.0543
 30
3.1317
 70
192
 0
VERTEX
 8
SUPPORTO_MNIGLIA
 10
-23.0294
 20
-5.0543
 30
3.1317
 70
192
 0
VERTEX
 8
SUPPORTO_MNIGLIA
 10
-22.0294
 20
-2.1947
 30
3.1317
 70
192
 0
VERTEX
 8
SUPPORTO_MNIGLIA
 10
-26.0294
 20
-2.1947
 30
3.1518
 70
192
 0
VERTEX
 8
SUPPORTO_MNIGLIA
 10
-25.0294
 20
-5.071
 30
3.1518
 70
192
 0
VERTEX
 8
SUPPORTO_MNIGLIA
 10
-24.0294
 20
-5.071
 30
3.1518
 70
192
 0
VERTEX
 8
SUPPORTO_MNIGLIA
 10
-23.0294
 20
-5.071
 30
3.1518
 70
192
 0
VERTEX
 8
SUPPORTO_MNIGLIA
 10
-22.0294
 20
-2.1947
 30
3.1518
 70
192
 0
VERTEX
 8
SUPPORTO_MNIGLIA
 10
-26.0294
 20
-2.1947
 30
3.1715
 70
192
 0
VERTEX
 8
SUPPORTO_MNIGLIA
 10
-25.0294
 20
-5.0883
 30
3.1715
 70
192
 0
VERTEX
 8
SUPPORTO_MNIGLIA
 10
-24.0294
 20
-5.0883
 30
3.1715
 70
192
 0
VERTEX
 8
SUPPORTO_MNIGLIA
 10
-23.0294
 20
-5.0883
 30
3.1715
 70
192
 0
VERTEX
 8
SUPPORTO_MNIGLIA
 10
-22.0294
 20
-2.1947
 30
3.1715
 70
192
 0
VERTEX
 8
SUPPORTO_MNIGLIA
 10
-26.0294
 20
-2.1947
 30
3.1908
 70
192
 0
VERTEX
 8
SUPPORTO_MNIGLIA
 10
-25.0294
 20
-5.106
 30
3.1908
 70
192
 0
VERTEX
 8
SUPPORTO_MNIGLIA
 10
-24.0294
 20
-5.106
 30
3.1908
 70
192
 0
VERTEX
 8
SUPPORTO_MNIGLIA
 10
-23.0294
 20
-5.106
 30
3.1908
 70
192
 0
VERTEX
 8
SUPPORTO_MNIGLIA
 10
-22.0294
 20
-2.1947
 30
3.1908
 70
192
 0
VERTEX
 8
SUPPORTO_MNIGLIA
 10
-26.0294
 20
-2.1947
 30
3.2095
 70
192
 0
VERTEX
 8
SUPPORTO_MNIGLIA
 10
-25.0294
 20
-5.1243
 30
3.2095
 70
192
 0
VERTEX
 8
SUPPORTO_MNIGLIA
 10
-24.0294
 20
-5.1243
 30
3.2095
 70
192
 0
VERTEX
 8
SUPPORTO_MNIGLIA
 10
-23.0294
 20
-5.1243
 30
3.2095
 70
192
 0
VERTEX
 8
SUPPORTO_MNIGLIA
 10
-22.0294
 20
-2.1947
 30
3.2095
 70
192
 0
VERTEX
 8
SUPPORTO_MNIGLIA
 10
-26.0294
 20
-2.1947
 30
3.2278
 70
192
 0
VERTEX
 8
SUPPORTO_MNIGLIA
 10
-25.0294
 20
-5.1431
 30
3.2278
 70
192
 0
VERTEX
 8
SUPPORTO_MNIGLIA
 10
-24.0294
 20
-5.1431
 30
3.2278
 70
192
 0
VERTEX
 8
SUPPORTO_MNIGLIA
 10
-23.0294
 20
-5.1431
 30
3.2278
 70
192
 0
VERTEX
 8
SUPPORTO_MNIGLIA
 10
-22.0294
 20
-2.1947
 30
3.2278
 70
192
 0
VERTEX
 8
SUPPORTO_MNIGLIA
 10
-26.0294
 20
-2.1947
 30
3.2455
 70
192
 0
VERTEX
 8
SUPPORTO_MNIGLIA
 10
-25.0294
 20
-2.1947
 30
3.2455
 70
192
 0
VERTEX
 8
SUPPORTO_MNIGLIA
 10
-24.0294
 20
-2.1947
 30
3.2455
 70
192
 0
VERTEX
 8
SUPPORTO_MNIGLIA
 10
-23.0294
 20
-5.1623
 30
3.2455
 70
192
 0
VERTEX
 8
SUPPORTO_MNIGLIA
 10
-22.0294
 20
-5.1623
 30
3.2455
 70
192
 0
VERTEX
 8
SUPPORTO_MNIGLIA
 10
-26.0294
 20
-5.1623
 30
1.7593
 70
192
 0
VERTEX
 8
SUPPORTO_MNIGLIA
 10
-25.0294
 20
-5.1623
 30
1.7593
 70
192
 0
VERTEX
 8
SUPPORTO_MNIGLIA
 10
-24.0294
 20
-5.1623
 30
1.7593
 70
192
 0
VERTEX
 8
SUPPORTO_MNIGLIA
 10
-23.0294
 20
-5.1623
 30
1.7593
 70
192
 0
VERTEX
 8
SUPPORTO_MNIGLIA
 10
-22.0294
 20
-5.1623
 30
1.7593
 70
192
 0
VERTEX
 8
SUPPORTO_MNIGLIA
 10
-26.0294
 20
-5.1431
 30
1.777
 70
192
 0
VERTEX
 8
SUPPORTO_MNIGLIA
 10
-22.0294
 20
-5.1431
 30
1.777
 70
192
 0
VERTEX
 8
SUPPORTO_MNIGLIA
 10
-26.0294
 20
-5.1243
 30
1.7953
 70
192
 0
VERTEX
 8
SUPPORTO_MNIGLIA
 10
-22.0294
 20
-5.1243
 30
1.7953
 70
192
 0
VERTEX
 8
SUPPORTO_MNIGLIA
 10
-26.0294
 20
-5.106
 30
1.814
 70
192
 0
VERTEX
 8
SUPPORTO_MNIGLIA
 10
-22.0294
 20
-5.106
 30
1.814
 70
192
 0
VERTEX
 8
SUPPORTO_MNIGLIA
 10
-26.0294
 20
-5.0883
 30
1.8333
 70
192
 0
VERTEX
 8
SUPPORTO_MNIGLIA
 10
-22.0294
 20
-5.0883
 30
1.8333
 70
192
 0
VERTEX
 8
SUPPORTO_MNIGLIA
 10
-26.0294
 20
-5.071
 30
1.853
 70
192
 0
VERTEX
 8
SUPPORTO_MNIGLIA
 10
-22.0294
 20
-5.071
 30
1.853
 70
192
 0
VERTEX
 8
SUPPORTO_MNIGLIA
 10
-26.0294
 20
-5.0543
 30
1.8731
 70
192
 0
VERTEX
 8
SUPPORTO_MNIGLIA
 10
-22.0294
 20
-5.0543
 30
1.8731
 70
192
 0
VERTEX
 8
SUPPORTO_MNIGLIA
 10
-26.0294
 20
-5.0381
 30
1.8936
 70
192
 0
VERTEX
 8
SUPPORTO_MNIGLIA
 10
-22.0294
 20
-5.0381
 30
1.8936
 70
192
 0
VERTEX
 8
SUPPORTO_MNIGLIA
 10
-26.0294
 20
-5.0224
 30
1.9146
 70
192
 0
VERTEX
 8
SUPPORTO_MNIGLIA
 10
-22.0294
 20
-5.0224
 30
1.9146
 70
192
 0
VERTEX
 8
SUPPORTO_MNIGLIA
 10
-26.0294
 20
-5.0073
 30
1.936
 70
192
 0
VERTEX
 8
SUPPORTO_MNIGLIA
 10
-22.0294
 20
-5.0073
 30
1.936
 70
192
 0
VERTEX
 8
SUPPORTO_MNIGLIA
 10
-26.0294
 20
-4.9927
 30
1.9578
 70
192
 0
VERTEX
 8
SUPPORTO_MNIGLIA
 10
-22.0294
 20
-4.9927
 30
1.9578
 70
192
 0
VERTEX
 8
SUPPORTO_MNIGLIA
 10
-26.0294
 20
-4.9788
 30
1.9799
 70
192
 0
VERTEX
 8
SUPPORTO_MNIGLIA
 10
-22.0294
 20
-4.9788
 30
1.9799
 70
192
 0
VERTEX
 8
SUPPORTO_MNIGLIA
 10
-26.0294
 20
-4.9654
 30
2.0024
 70
192
 0
VERTEX
 8
SUPPORTO_MNIGLIA
 10
-22.0294
 20
-4.9654
 30
2.0024
 70
192
 0
VERTEX
 8
SUPPORTO_MNIGLIA
 10
-26.0294
 20
-4.9526
 30
2.0252
 70
192
 0
VERTEX
 8
SUPPORTO_MNIGLIA
 10
-22.0294
 20
-4.9526
 30
2.0252
 70
192
 0
VERTEX
 8
SUPPORTO_MNIGLIA
 10
-26.0294
 20
-4.9404
 30
2.0484
 70
192
 0
VERTEX
 8
SUPPORTO_MNIGLIA
 10
-22.0294
 20
-4.9404
 30
2.0484
 70
192
 0
VERTEX
 8
SUPPORTO_MNIGLIA
 10
-26.0294
 20
-4.9288
 30
2.0719
 70
192
 0
VERTEX
 8
SUPPORTO_MNIGLIA
 10
-22.0294
 20
-4.9288
 30
2.0719
 70
192
 0
VERTEX
 8
SUPPORTO_MNIGLIA
 10
-26.0294
 20
-4.9179
 30
2.0957
 70
192
 0
VERTEX
 8
SUPPORTO_MNIGLIA
 10
-22.0294
 20
-4.9179
 30
2.0957
 70
192
 0
VERTEX
 8
SUPPORTO_MNIGLIA
 10
-26.0294
 20
-4.9075
 30
2.1197
 70
192
 0
VERTEX
 8
SUPPORTO_MNIGLIA
 10
-22.0294
 20
-4.9075
 30
2.1197
 70
192
 0
VERTEX
 8
SUPPORTO_MNIGLIA
 10
-26.0294
 20
-4.8978
 30
2.144
 70
192
 0
VERTEX
 8
SUPPORTO_MNIGLIA
 10
-22.0294
 20
-4.8978
 30
2.144
 70
192
 0
VERTEX
 8
SUPPORTO_MNIGLIA
 10
-26.0294
 20
-4.8888
 30
2.1686
 70
192
 0
VERTEX
 8
SUPPORTO_MNIGLIA
 10
-22.0294
 20
-4.8888
 30
2.1686
 70
192
 0
VERTEX
 8
SUPPORTO_MNIGLIA
 10
-26.0294
 20
-4.8804
 30
2.1934
 70
192
 0
VERTEX
 8
SUPPORTO_MNIGLIA
 10
-22.0294
 20
-4.8804
 30
2.1934
 70
192
 0
VERTEX
 8
SUPPORTO_MNIGLIA
 10
-26.0294
 20
-4.8726
 30
2.2184
 70
192
 0
VERTEX
 8
SUPPORTO_MNIGLIA
 10
-22.0294
 20
-4.8726
 30
2.2184
 70
192
 0
VERTEX
 8
SUPPORTO_MNIGLIA
 10
-26.0294
 20
-4.8655
 30
2.2436
 70
192
 0
VERTEX
 8
SUPPORTO_MNIGLIA
 10
-22.0294
 20
-4.8655
 30
2.2436
 70
192
 0
VERTEX
 8
SUPPORTO_MNIGLIA
 10
-26.0294
 20
-4.859
 30
2.269
 70
192
 0
VERTEX
 8
SUPPORTO_MNIGLIA
 10
-22.0294
 20
-4.859
 30
2.269
 70
192
 0
VERTEX
 8
SUPPORTO_MNIGLIA
 10
-26.0294
 20
-4.8533
 30
2.2945
 70
192
 0
VERTEX
 8
SUPPORTO_MNIGLIA
 10
-22.0294
 20
-4.8533
 30
2.2945
 70
192
 0
VERTEX
 8
SUPPORTO_MNIGLIA
 10
-26.0294
 20
-4.8482
 30
2.3202
 70
192
 0
VERTEX
 8
SUPPORTO_MNIGLIA
 10
-22.0294
 20
-4.8482
 30
2.3202
 70
192
 0
VERTEX
 8
SUPPORTO_MNIGLIA
 10
-26.0294
 20
-4.8437
 30
2.346
 70
192
 0
VERTEX
 8
SUPPORTO_MNIGLIA
 10
-22.0294
 20
-4.8437
 30
2.346
 70
192
 0
VERTEX
 8
SUPPORTO_MNIGLIA
 10
-26.0294
 20
-4.84
 30
2.3719
 70
192
 0
VERTEX
 8
SUPPORTO_MNIGLIA
 10
-22.0294
 20
-4.84
 30
2.3719
 70
192
 0
VERTEX
 8
SUPPORTO_MNIGLIA
 10
-26.0294
 20
-4.8369
 30
2.3979
 70
192
 0
VERTEX
 8
SUPPORTO_MNIGLIA
 10
-22.0294
 20
-4.8369
 30
2.3979
 70
192
 0
VERTEX
 8
SUPPORTO_MNIGLIA
 10
-26.0294
 20
-4.8345
 30
2.4239
 70
192
 0
VERTEX
 8
SUPPORTO_MNIGLIA
 10
-22.0294
 20
-4.8345
 30
2.4239
 70
192
 0
VERTEX
 8
SUPPORTO_MNIGLIA
 10
-26.0294
 20
-4.8328
 30
2.4501
 70
192
 0
VERTEX
 8
SUPPORTO_MNIGLIA
 10
-22.0294
 20
-4.8328
 30
2.4501
 70
192
 0
VERTEX
 8
SUPPORTO_MNIGLIA
 10
-26.0294
 20
-4.8318
 30
2.4762
 70
192
 0
VERTEX
 8
SUPPORTO_MNIGLIA
 10
-22.0294
 20
-4.8318
 30
2.4762
 70
192
 0
VERTEX
 8
SUPPORTO_MNIGLIA
 10
-26.0294
 20
-4.8314
 30
2.5024
 70
192
 0
VERTEX
 8
SUPPORTO_MNIGLIA
 10
-22.0294
 20
-4.8314
 30
2.5024
 70
192
 0
VERTEX
 8
SUPPORTO_MNIGLIA
 10
-26.0294
 20
-4.8318
 30
2.5286
 70
192
 0
VERTEX
 8
SUPPORTO_MNIGLIA
 10
-22.0294
 20
-4.8318
 30
2.5286
 70
192
 0
VERTEX
 8
SUPPORTO_MNIGLIA
 10
-26.0294
 20
-4.8328
 30
2.5547
 70
192
 0
VERTEX
 8
SUPPORTO_MNIGLIA
 10
-22.0294
 20
-4.8328
 30
2.5547
 70
192
 0
VERTEX
 8
SUPPORTO_MNIGLIA
 10
-26.0294
 20
-4.8345
 30
2.5809
 70
192
 0
VERTEX
 8
SUPPORTO_MNIGLIA
 10
-22.0294
 20
-4.8345
 30
2.5809
 70
192
 0
VERTEX
 8
SUPPORTO_MNIGLIA
 10
-26.0294
 20
-4.8369
 30
2.6069
 70
192
 0
VERTEX
 8
SUPPORTO_MNIGLIA
 10
-22.0294
 20
-4.8369
 30
2.6069
 70
192
 0
VERTEX
 8
SUPPORTO_MNIGLIA
 10
-26.0294
 20
-4.84
 30
2.6329
 70
192
 0
VERTEX
 8
SUPPORTO_MNIGLIA
 10
-22.0294
 20
-4.84
 30
2.6329
 70
192
 0
VERTEX
 8
SUPPORTO_MNIGLIA
 10
-26.0294
 20
-4.8437
 30
2.6588
 70
192
 0
VERTEX
 8
SUPPORTO_MNIGLIA
 10
-22.0294
 20
-4.8437
 30
2.6588
 70
192
 0
VERTEX
 8
SUPPORTO_MNIGLIA
 10
-26.0294
 20
-4.8482
 30
2.6846
 70
192
 0
VERTEX
 8
SUPPORTO_MNIGLIA
 10
-22.0294
 20
-4.8482
 30
2.6846
 70
192
 0
VERTEX
 8
SUPPORTO_MNIGLIA
 10
-26.0294
 20
-4.8533
 30
2.7103
 70
192
 0
VERTEX
 8
SUPPORTO_MNIGLIA
 10
-22.0294
 20
-4.8533
 30
2.7103
 70
192
 0
VERTEX
 8
SUPPORTO_MNIGLIA
 10
-26.0294
 20
-4.859
 30
2.7358
 70
192
 0
VERTEX
 8
SUPPORTO_MNIGLIA
 10
-22.0294
 20
-4.859
 30
2.7358
 70
192
 0
VERTEX
 8
SUPPORTO_MNIGLIA
 10
-26.0294
 20
-4.8655
 30
2.7612
 70
192
 0
VERTEX
 8
SUPPORTO_MNIGLIA
 10
-22.0294
 20
-4.8655
 30
2.7612
 70
192
 0
VERTEX
 8
SUPPORTO_MNIGLIA
 10
-26.0294
 20
-4.8726
 30
2.7864
 70
192
 0
VERTEX
 8
SUPPORTO_MNIGLIA
 10
-22.0294
 20
-4.8726
 30
2.7864
 70
192
 0
VERTEX
 8
SUPPORTO_MNIGLIA
 10
-26.0294
 20
-4.8804
 30
2.8114
 70
192
 0
VERTEX
 8
SUPPORTO_MNIGLIA
 10
-22.0294
 20
-4.8804
 30
2.8114
 70
192
 0
VERTEX
 8
SUPPORTO_MNIGLIA
 10
-26.0294
 20
-4.8888
 30
2.8362
 70
192
 0
VERTEX
 8
SUPPORTO_MNIGLIA
 10
-22.0294
 20
-4.8888
 30
2.8362
 70
192
 0
VERTEX
 8
SUPPORTO_MNIGLIA
 10
-26.0294
 20
-4.8978
 30
2.8608
 70
192
 0
VERTEX
 8
SUPPORTO_MNIGLIA
 10
-22.0294
 20
-4.8978
 30
2.8608
 70
192
 0
VERTEX
 8
SUPPORTO_MNIGLIA
 10
-26.0294
 20
-4.9075
 30
2.8851
 70
192
 0
VERTEX
 8
SUPPORTO_MNIGLIA
 10
-22.0294
 20
-4.9075
 30
2.8851
 70
192
 0
VERTEX
 8
SUPPORTO_MNIGLIA
 10
-26.0294
 20
-4.9179
 30
2.9091
 70
192
 0
VERTEX
 8
SUPPORTO_MNIGLIA
 10
-22.0294
 20
-4.9179
 30
2.9091
 70
192
 0
VERTEX
 8
SUPPORTO_MNIGLIA
 10
-26.0294
 20
-4.9288
 30
2.9329
 70
192
 0
VERTEX
 8
SUPPORTO_MNIGLIA
 10
-22.0294
 20
-4.9288
 30
2.9329
 70
192
 0
VERTEX
 8
SUPPORTO_MNIGLIA
 10
-26.0294
 20
-4.9404
 30
2.9564
 70
192
 0
VERTEX
 8
SUPPORTO_MNIGLIA
 10
-22.0294
 20
-4.9404
 30
2.9564
 70
192
 0
VERTEX
 8
SUPPORTO_MNIGLIA
 10
-26.0294
 20
-4.9526
 30
2.9796
 70
192
 0
VERTEX
 8
SUPPORTO_MNIGLIA
 10
-22.0294
 20
-4.9526
 30
2.9796
 70
192
 0
VERTEX
 8
SUPPORTO_MNIGLIA
 10
-26.0294
 20
-4.9654
 30
3.0024
 70
192
 0
VERTEX
 8
SUPPORTO_MNIGLIA
 10
-22.0294
 20
-4.9654
 30
3.0024
 70
192
 0
VERTEX
 8
SUPPORTO_MNIGLIA
 10
-26.0294
 20
-4.9788
 30
3.0249
 70
192
 0
VERTEX
 8
SUPPORTO_MNIGLIA
 10
-22.0294
 20
-4.9788
 30
3.0249
 70
192
 0
VERTEX
 8
SUPPORTO_MNIGLIA
 10
-26.0294
 20
-4.9927
 30
3.047
 70
192
 0
VERTEX
 8
SUPPORTO_MNIGLIA
 10
-22.0294
 20
-4.9927
 30
3.047
 70
192
 0
VERTEX
 8
SUPPORTO_MNIGLIA
 10
-26.0294
 20
-5.0073
 30
3.0688
 70
192
 0
VERTEX
 8
SUPPORTO_MNIGLIA
 10
-22.0294
 20
-5.0073
 30
3.0688
 70
192
 0
VERTEX
 8
SUPPORTO_MNIGLIA
 10
-26.0294
 20
-5.0224
 30
3.0902
 70
192
 0
VERTEX
 8
SUPPORTO_MNIGLIA
 10
-22.0294
 20
-5.0224
 30
3.0902
 70
192
 0
VERTEX
 8
SUPPORTO_MNIGLIA
 10
-26.0294
 20
-5.0381
 30
3.1112
 70
192
 0
VERTEX
 8
SUPPORTO_MNIGLIA
 10
-22.0294
 20
-5.0381
 30
3.1112
 70
192
 0
VERTEX
 8
SUPPORTO_MNIGLIA
 10
-26.0294
 20
-5.0543
 30
3.1317
 70
192
 0
VERTEX
 8
SUPPORTO_MNIGLIA
 10
-22.0294
 20
-5.0543
 30
3.1317
 70
192
 0
VERTEX
 8
SUPPORTO_MNIGLIA
 10
-26.0294
 20
-5.071
 30
3.1518
 70
192
 0
VERTEX
 8
SUPPORTO_MNIGLIA
 10
-22.0294
 20
-5.071
 30
3.1518
 70
192
 0
VERTEX
 8
SUPPORTO_MNIGLIA
 10
-26.0294
 20
-5.0883
 30
3.1715
 70
192
 0
VERTEX
 8
SUPPORTO_MNIGLIA
 10
-22.0294
 20
-5.0883
 30
3.1715
 70
192
 0
VERTEX
 8
SUPPORTO_MNIGLIA
 10
-26.0294
 20
-5.106
 30
3.1908
 70
192
 0
VERTEX
 8
SUPPORTO_MNIGLIA
 10
-22.0294
 20
-5.106
 30
3.1908
 70
192
 0
VERTEX
 8
SUPPORTO_MNIGLIA
 10
-26.0294
 20
-5.1243
 30
3.2095
 70
192
 0
VERTEX
 8
SUPPORTO_MNIGLIA
 10
-22.0294
 20
-5.1243
 30
3.2095
 70
192
 0
VERTEX
 8
SUPPORTO_MNIGLIA
 10
-26.0294
 20
-5.1431
 30
3.2278
 70
192
 0
VERTEX
 8
SUPPORTO_MNIGLIA
 10
-22.0294
 20
-5.1431
 30
3.2278
 70
192
 0
VERTEX
 8
SUPPORTO_MNIGLIA
 10
-26.0294
 20
-5.1623
 30
3.2455
 70
192
 0
VERTEX
 8
SUPPORTO_MNIGLIA
 10
-25.0294
 20
-5.1623
 30
3.2455
 70
192
 0
VERTEX
 8
SUPPORTO_MNIGLIA
 10
-24.0294
 20
-5.1623
 30
3.2455
 70
192
 0
VERTEX
 8
SUPPORTO_MNIGLIA
 10
0
 20
0
 30
0
 70
128
 71
269
 72
270
 73
275
 74
274
 0
VERTEX
 8
SUPPORTO_MNIGLIA
 10
0
 20
0
 30
0
 70
128
 71
328
 72
329
 73
9
 74
333
 0
VERTEX
 8
SUPPORTO_MNIGLIA
 10
0
 20
0
 30
0
 70
128
 71
329
 72
330
 73
10
 74
9
 0
VERTEX
 8
SUPPORTO_MNIGLIA
 10
0
 20
0
 30
0
 70
128
 71
330
 72
331
 73
11
 74
10
 0
VERTEX
 8
SUPPORTO_MNIGLIA
 10
0
 20
0
 30
0
 70
128
 71
331
 72
332
 73
334
 74
11
 0
VERTEX
 8
SUPPORTO_MNIGLIA
 10
0
 20
0
 30
0
 70
128
 71
437
 72
269
 73
274
 74
439
 0
VERTEX
 8
SUPPORTO_MNIGLIA
 10
0
 20
0
 30
0
 70
128
 71
226
 72
420
 73
422
 74
231
 0
VERTEX
 8
SUPPORTO_MNIGLIA
 10
0
 20
0
 30
0
 70
128
 71
333
 72
9
 73
14
 74
335
 0
VERTEX
 8
SUPPORTO_MNIGLIA
 10
0
 20
0
 30
0
 70
128
 71
9
 72
10
 73
15
 74
14
 0
VERTEX
 8
SUPPORTO_MNIGLIA
 10
0
 20
0
 30
0
 70
128
 71
10
 72
11
 73
16
 74
15
 0
VERTEX
 8
SUPPORTO_MNIGLIA
 10
0
 20
0
 30
0
 70
128
 71
11
 72
334
 73
336
 74
16
 0
VERTEX
 8
SUPPORTO_MNIGLIA
 10
0
 20
0
 30
0
 70
128
 71
321
 72
458
 73
327
 74
326
 0
VERTEX
 8
SUPPORTO_MNIGLIA
 10
0
 20
0
 30
0
 70
128
 71
274
 72
275
 73
280
 74
279
 0
VERTEX
 8
SUPPORTO_MNIGLIA
 10
0
 20
0
 30
0
 70
128
 71
335
 72
14
 73
19
 74
337
 0
VERTEX
 8
SUPPORTO_MNIGLIA
 10
0
 20
0
 30
0
 70
128
 71
14
 72
15
 73
20
 74
19
 0
VERTEX
 8
SUPPORTO_MNIGLIA
 10
0
 20
0
 30
0
 70
128
 71
15
 72
16
 73
21
 74
20
 0
VERTEX
 8
SUPPORTO_MNIGLIA
 10
0
 20
0
 30
0
 70
128
 71
16
 72
336
 73
338
 74
21
 0
VERTEX
 8
SUPPORTO_MNIGLIA
 10
0
 20
0
 30
0
 70
128
 71
320
 72
321
 73
326
 74
461
 0
VERTEX
 8
SUPPORTO_MNIGLIA
 10
0
 20
0
 30
0
 70
128
 71
266
 72
436
 73
438
 74
271
 0
VERTEX
 8
SUPPORTO_MNIGLIA
 10
0
 20
0
 30
0
 70
128
 71
337
 72
19
 73
24
 74
339
 0
VERTEX
 8
SUPPORTO_MNIGLIA
 10
0
 20
0
 30
0
 70
128
 71
19
 72
20
 73
25
 74
24
 0
VERTEX
 8
SUPPORTO_MNIGLIA
 10
0
 20
0
 30
0
 70
128
 71
20
 72
21
 73
26
 74
25
 0
VERTEX
 8
SUPPORTO_MNIGLIA
 10
0
 20
0
 30
0
 70
128
 71
21
 72
338
 73
340
 74
26
 0
VERTEX
 8
SUPPORTO_MNIGLIA
 10
0
 20
0
 30
0
 70
128
 71
319
 72
320
 73
461
 74
460
 0
VERTEX
 8
SUPPORTO_MNIGLIA
 10
0
 20
0
 30
0
 70
128
 71
265
 72
266
 73
271
 74
270
 0
VERTEX
 8
SUPPORTO_MNIGLIA
 10
0
 20
0
 30
0
 70
128
 71
339
 72
24
 73
29
 74
341
 0
VERTEX
 8
SUPPORTO_MNIGLIA
 10
0
 20
0
 30
0
 70
128
 71
24
 72
25
 73
30
 74
29
 0
VERTEX
 8
SUPPORTO_MNIGLIA
 10
0
 20
0
 30
0
 70
128
 71
25
 72
26
 73
31
 74
30
 0
VERTEX
 8
SUPPORTO_MNIGLIA
 10
0
 20
0
 30
0
 70
128
 71
26
 72
340
 73
342
 74
31
 0
VERTEX
 8
SUPPORTO_MNIGLIA
 10
0
 20
0
 30
0
 70
128
 71
457
 72
319
 73
460
 74
459
 0
VERTEX
 8
SUPPORTO_MNIGLIA
 10
0
 20
0
 30
0
 70
128
 71
264
 72
265
 73
270
 74
269
 0
VERTEX
 8
SUPPORTO_MNIGLIA
 10
0
 20
0
 30
0
 70
128
 71
341
 72
29
 73
34
 74
343
 0
VERTEX
 8
SUPPORTO_MNIGLIA
 10
0
 20
0
 30
0
 70
128
 71
29
 72
30
 73
35
 74
34
 0
VERTEX
 8
SUPPORTO_MNIGLIA
 10
0
 20
0
 30
0
 70
128
 71
30
 72
31
 73
36
 74
35
 0
VERTEX
 8
SUPPORTO_MNIGLIA
 10
0
 20
0
 30
0
 70
128
 71
31
 72
342
 73
344
 74
36
 0
VERTEX
 8
SUPPORTO_MNIGLIA
 10
0
 20
0
 30
0
 70
128
 71
225
 72
226
 73
231
 74
230
 0
VERTEX
 8
SUPPORTO_MNIGLIA
 10
0
 20
0
 30
0
 70
128
 71
435
 72
264
 73
269
 74
437
 0
VERTEX
 8
SUPPORTO_MNIGLIA
 10
0
 20
0
 30
0
 70
128
 71
343
 72
34
 73
39
 74
345
 0
VERTEX
 8
SUPPORTO_MNIGLIA
 10
0
 20
0
 30
0
 70
128
 71
34
 72
35
 73
40
 74
39
 0
VERTEX
 8
SUPPORTO_MNIGLIA
 10
0
 20
0
 30
0
 70
128
 71
35
 72
36
 73
41
 74
40
 0
VERTEX
 8
SUPPORTO_MNIGLIA
 10
0
 20
0
 30
0
 70
128
 71
36
 72
344
 73
346
 74
41
 0
VERTEX
 8
SUPPORTO_MNIGLIA
 10
0
 20
0
 30
0
 70
128
 71
224
 72
225
 73
230
 74
229
 0
VERTEX
 8
SUPPORTO_MNIGLIA
 10
0
 20
0
 30
0
 70
128
 71
419
 72
224
 73
229
 74
421
 0
VERTEX
 8
SUPPORTO_MNIGLIA
 10
0
 20
0
 30
0
 70
128
 71
345
 72
39
 73
44
 74
347
 0
VERTEX
 8
SUPPORTO_MNIGLIA
 10
0
 20
0
 30
0
 70
128
 71
39
 72
40
 73
45
 74
44
 0
VERTEX
 8
SUPPORTO_MNIGLIA
 10
0
 20
0
 30
0
 70
128
 71
40
 72
41
 73
46
 74
45
 0
VERTEX
 8
SUPPORTO_MNIGLIA
 10
0
 20
0
 30
0
 70
128
 71
41
 72
346
 73
348
 74
46
 0
VERTEX
 8
SUPPORTO_MNIGLIA
 10
0
 20
0
 30
0
 70
128
 71
316
 72
456
 73
458
 74
321
 0
VERTEX
 8
SUPPORTO_MNIGLIA
 10
0
 20
0
 30
0
 70
128
 71
275
 72
276
 73
281
 74
280
 0
VERTEX
 8
SUPPORTO_MNIGLIA
 10
0
 20
0
 30
0
 70
128
 71
347
 72
44
 73
49
 74
349
 0
VERTEX
 8
SUPPORTO_MNIGLIA
 10
0
 20
0
 30
0
 70
128
 71
44
 72
45
 73
50
 74
49
 0
VERTEX
 8
SUPPORTO_MNIGLIA
 10
0
 20
0
 30
0
 70
128
 71
45
 72
46
 73
51
 74
50
 0
VERTEX
 8
SUPPORTO_MNIGLIA
 10
0
 20
0
 30
0
 70
128
 71
46
 72
348
 73
350
 74
51
 0
VERTEX
 8
SUPPORTO_MNIGLIA
 10
0
 20
0
 30
0
 70
128
 71
315
 72
316
 73
321
 74
320
 0
VERTEX
 8
SUPPORTO_MNIGLIA
 10
0
 20
0
 30
0
 70
128
 71
261
 72
434
 73
436
 74
266
 0
VERTEX
 8
SUPPORTO_MNIGLIA
 10
0
 20
0
 30
0
 70
128
 71
349
 72
49
 73
54
 74
351
 0
VERTEX
 8
SUPPORTO_MNIGLIA
 10
0
 20
0
 30
0
 70
128
 71
49
 72
50
 73
55
 74
54
 0
VERTEX
 8
SUPPORTO_MNIGLIA
 10
0
 20
0
 30
0
 70
128
 71
50
 72
51
 73
56
 74
55
 0
VERTEX
 8
SUPPORTO_MNIGLIA
 10
0
 20
0
 30
0
 70
128
 71
51
 72
350
 73
352
 74
56
 0
VERTEX
 8
SUPPORTO_MNIGLIA
 10
0
 20
0
 30
0
 70
128
 71
314
 72
315
 73
320
 74
319
 0
VERTEX
 8
SUPPORTO_MNIGLIA
 10
0
 20
0
 30
0
 70
128
 71
260
 72
261
 73
266
 74
265
 0
VERTEX
 8
SUPPORTO_MNIGLIA
 10
0
 20
0
 30
0
 70
128
 71
351
 72
54
 73
59
 74
353
 0
VERTEX
 8
SUPPORTO_MNIGLIA
 10
0
 20
0
 30
0
 70
128
 71
54
 72
55
 73
60
 74
59
 0
VERTEX
 8
SUPPORTO_MNIGLIA
 10
0
 20
0
 30
0
 70
128
 71
55
 72
56
 73
61
 74
60
 0
VERTEX
 8
SUPPORTO_MNIGLIA
 10
0
 20
0
 30
0
 70
128
 71
56
 72
352
 73
354
 74
61
 0
VERTEX
 8
SUPPORTO_MNIGLIA
 10
0
 20
0
 30
0
 70
128
 71
455
 72
314
 73
319
 74
457
 0
VERTEX
 8
SUPPORTO_MNIGLIA
 10
0
 20
0
 30
0
 70
128
 71
259
 72
260
 73
265
 74
264
 0
VERTEX
 8
SUPPORTO_MNIGLIA
 10
0
 20
0
 30
0
 70
128
 71
353
 72
59
 73
64
 74
355
 0
VERTEX
 8
SUPPORTO_MNIGLIA
 10
0
 20
0
 30
0
 70
128
 71
59
 72
60
 73
65
 74
64
 0
VERTEX
 8
SUPPORTO_MNIGLIA
 10
0
 20
0
 30
0
 70
128
 71
60
 72
61
 73
66
 74
65
 0
VERTEX
 8
SUPPORTO_MNIGLIA
 10
0
 20
0
 30
0
 70
128
 71
61
 72
354
 73
356
 74
66
 0
VERTEX
 8
SUPPORTO_MNIGLIA
 10
0
 20
0
 30
0
 70
128
 71
281
 72
442
 73
444
 74
286
 0
VERTEX
 8
SUPPORTO_MNIGLIA
 10
0
 20
0
 30
0
 70
128
 71
433
 72
259
 73
264
 74
435
 0
VERTEX
 8
SUPPORTO_MNIGLIA
 10
0
 20
0
 30
0
 70
128
 71
355
 72
64
 73
69
 74
357
 0
VERTEX
 8
SUPPORTO_MNIGLIA
 10
0
 20
0
 30
0
 70
128
 71
64
 72
65
 73
70
 74
69
 0
VERTEX
 8
SUPPORTO_MNIGLIA
 10
0
 20
0
 30
0
 70
128
 71
65
 72
66
 73
71
 74
70
 0
VERTEX
 8
SUPPORTO_MNIGLIA
 10
0
 20
0
 30
0
 70
128
 71
66
 72
356
 73
358
 74
71
 0
VERTEX
 8
SUPPORTO_MNIGLIA
 10
0
 20
0
 30
0
 70
128
 71
311
 72
454
 73
456
 74
316
 0
VERTEX
 8
SUPPORTO_MNIGLIA
 10
0
 20
0
 30
0
 70
128
 71
221
 72
418
 73
420
 74
226
 0
VERTEX
 8
SUPPORTO_MNIGLIA
 10
0
 20
0
 30
0
 70
128
 71
357
 72
69
 73
74
 74
359
 0
VERTEX
 8
SUPPORTO_MNIGLIA
 10
0
 20
0
 30
0
 70
128
 71
69
 72
70
 73
75
 74
74
 0
VERTEX
 8
SUPPORTO_MNIGLIA
 10
0
 20
0
 30
0
 70
128
 71
70
 72
71
 73
76
 74
75
 0
VERTEX
 8
SUPPORTO_MNIGLIA
 10
0
 20
0
 30
0
 70
128
 71
71
 72
358
 73
360
 74
76
 0
VERTEX
 8
SUPPORTO_MNIGLIA
 10
0
 20
0
 30
0
 70
128
 71
310
 72
311
 73
316
 74
315
 0
VERTEX
 8
SUPPORTO_MNIGLIA
 10
0
 20
0
 30
0
 70
128
 71
276
 72
440
 73
442
 74
281
 0
VERTEX
 8
SUPPORTO_MNIGLIA
 10
0
 20
0
 30
0
 70
128
 71
359
 72
74
 73
79
 74
361
 0
VERTEX
 8
SUPPORTO_MNIGLIA
 10
0
 20
0
 30
0
 70
128
 71
74
 72
75
 73
80
 74
79
 0
VERTEX
 8
SUPPORTO_MNIGLIA
 10
0
 20
0
 30
0
 70
128
 71
75
 72
76
 73
81
 74
80
 0
VERTEX
 8
SUPPORTO_MNIGLIA
 10
0
 20
0
 30
0
 70
128
 71
76
 72
360
 73
362
 74
81
 0
VERTEX
 8
SUPPORTO_MNIGLIA
 10
0
 20
0
 30
0
 70
128
 71
309
 72
310
 73
315
 74
314
 0
VERTEX
 8
SUPPORTO_MNIGLIA
 10
0
 20
0
 30
0
 70
128
 71
256
 72
432
 73
434
 74
261
 0
VERTEX
 8
SUPPORTO_MNIGLIA
 10
0
 20
0
 30
0
 70
128
 71
361
 72
79
 73
84
 74
363
 0
VERTEX
 8
SUPPORTO_MNIGLIA
 10
0
 20
0
 30
0
 70
128
 71
79
 72
80
 73
85
 74
84
 0
VERTEX
 8
SUPPORTO_MNIGLIA
 10
0
 20
0
 30
0
 70
128
 71
80
 72
81
 73
86
 74
85
 0
VERTEX
 8
SUPPORTO_MNIGLIA
 10
0
 20
0
 30
0
 70
128
 71
81
 72
362
 73
364
 74
86
 0
VERTEX
 8
SUPPORTO_MNIGLIA
 10
0
 20
0
 30
0
 70
128
 71
453
 72
309
 73
314
 74
455
 0
VERTEX
 8
SUPPORTO_MNIGLIA
 10
0
 20
0
 30
0
 70
128
 71
255
 72
256
 73
261
 74
260
 0
VERTEX
 8
SUPPORTO_MNIGLIA
 10
0
 20
0
 30
0
 70
128
 71
363
 72
84
 73
89
 74
365
 0
VERTEX
 8
SUPPORTO_MNIGLIA
 10
0
 20
0
 30
0
 70
128
 71
84
 72
85
 73
90
 74
89
 0
VERTEX
 8
SUPPORTO_MNIGLIA
 10
0
 20
0
 30
0
 70
128
 71
85
 72
86
 73
91
 74
90
 0
VERTEX
 8
SUPPORTO_MNIGLIA
 10
0
 20
0
 30
0
 70
128
 71
86
 72
364
 73
366
 74
91
 0
VERTEX
 8
SUPPORTO_MNIGLIA
 10
0
 20
0
 30
0
 70
128
 71
220
 72
221
 73
226
 74
225
 0
VERTEX
 8
SUPPORTO_MNIGLIA
 10
0
 20
0
 30
0
 70
128
 71
254
 72
255
 73
260
 74
259
 0
VERTEX
 8
SUPPORTO_MNIGLIA
 10
0
 20
0
 30
0
 70
128
 71
365
 72
89
 73
94
 74
367
 0
VERTEX
 8
SUPPORTO_MNIGLIA
 10
0
 20
0
 30
0
 70
128
 71
89
 72
90
 73
95
 74
94
 0
VERTEX
 8
SUPPORTO_MNIGLIA
 10
0
 20
0
 30
0
 70
128
 71
90
 72
91
 73
96
 74
95
 0
VERTEX
 8
SUPPORTO_MNIGLIA
 10
0
 20
0
 30
0
 70
128
 71
91
 72
366
 73
368
 74
96
 0
VERTEX
 8
SUPPORTO_MNIGLIA
 10
0
 20
0
 30
0
 70
128
 71
306
 72
452
 73
454
 74
311
 0
VERTEX
 8
SUPPORTO_MNIGLIA
 10
0
 20
0
 30
0
 70
128
 71
431
 72
254
 73
259
 74
433
 0
VERTEX
 8
SUPPORTO_MNIGLIA
 10
0
 20
0
 30
0
 70
128
 71
367
 72
94
 73
99
 74
369
 0
VERTEX
 8
SUPPORTO_MNIGLIA
 10
0
 20
0
 30
0
 70
128
 71
94
 72
95
 73
100
 74
99
 0
VERTEX
 8
SUPPORTO_MNIGLIA
 10
0
 20
0
 30
0
 70
128
 71
95
 72
96
 73
101
 74
100
 0
VERTEX
 8
SUPPORTO_MNIGLIA
 10
0
 20
0
 30
0
 70
128
 71
96
 72
368
 73
370
 74
101
 0
VERTEX
 8
SUPPORTO_MNIGLIA
 10
0
 20
0
 30
0
 70
128
 71
305
 72
306
 73
311
 74
310
 0
VERTEX
 8
SUPPORTO_MNIGLIA
 10
0
 20
0
 30
0
 70
128
 71
219
 72
220
 73
225
 74
224
 0
VERTEX
 8
SUPPORTO_MNIGLIA
 10
0
 20
0
 30
0
 70
128
 71
369
 72
99
 73
104
 74
371
 0
VERTEX
 8
SUPPORTO_MNIGLIA
 10
0
 20
0
 30
0
 70
128
 71
99
 72
100
 73
105
 74
104
 0
VERTEX
 8
SUPPORTO_MNIGLIA
 10
0
 20
0
 30
0
 70
128
 71
100
 72
101
 73
106
 74
105
 0
VERTEX
 8
SUPPORTO_MNIGLIA
 10
0
 20
0
 30
0
 70
128
 71
101
 72
370
 73
372
 74
106
 0
VERTEX
 8
SUPPORTO_MNIGLIA
 10
0
 20
0
 30
0
 70
128
 71
304
 72
305
 73
310
 74
309
 0
VERTEX
 8
SUPPORTO_MNIGLIA
 10
0
 20
0
 30
0
 70
128
 71
251
 72
430
 73
432
 74
256
 0
VERTEX
 8
SUPPORTO_MNIGLIA
 10
0
 20
0
 30
0
 70
128
 71
371
 72
104
 73
109
 74
373
 0
VERTEX
 8
SUPPORTO_MNIGLIA
 10
0
 20
0
 30
0
 70
128
 71
104
 72
105
 73
110
 74
109
 0
VERTEX
 8
SUPPORTO_MNIGLIA
 10
0
 20
0
 30
0
 70
128
 71
105
 72
106
 73
111
 74
110
 0
VERTEX
 8
SUPPORTO_MNIGLIA
 10
0
 20
0
 30
0
 70
128
 71
106
 72
372
 73
374
 74
111
 0
VERTEX
 8
SUPPORTO_MNIGLIA
 10
0
 20
0
 30
0
 70
128
 71
451
 72
304
 73
309
 74
453
 0
VERTEX
 8
SUPPORTO_MNIGLIA
 10
0
 20
0
 30
0
 70
128
 71
250
 72
251
 73
256
 74
255
 0
VERTEX
 8
SUPPORTO_MNIGLIA
 10
0
 20
0
 30
0
 70
128
 71
373
 72
109
 73
114
 74
375
 0
VERTEX
 8
SUPPORTO_MNIGLIA
 10
0
 20
0
 30
0
 70
128
 71
109
 72
110
 73
115
 74
114
 0
VERTEX
 8
SUPPORTO_MNIGLIA
 10
0
 20
0
 30
0
 70
128
 71
110
 72
111
 73
116
 74
115
 0
VERTEX
 8
SUPPORTO_MNIGLIA
 10
0
 20
0
 30
0
 70
128
 71
111
 72
374
 73
376
 74
116
 0
VERTEX
 8
SUPPORTO_MNIGLIA
 10
0
 20
0
 30
0
 70
128
 71
417
 72
219
 73
224
 74
419
 0
VERTEX
 8
SUPPORTO_MNIGLIA
 10
0
 20
0
 30
0
 70
128
 71
249
 72
250
 73
255
 74
254
 0
VERTEX
 8
SUPPORTO_MNIGLIA
 10
0
 20
0
 30
0
 70
128
 71
375
 72
114
 73
119
 74
377
 0
VERTEX
 8
SUPPORTO_MNIGLIA
 10
0
 20
0
 30
0
 70
128
 71
114
 72
115
 73
120
 74
119
 0
VERTEX
 8
SUPPORTO_MNIGLIA
 10
0
 20
0
 30
0
 70
128
 71
115
 72
116
 73
121
 74
120
 0
VERTEX
 8
SUPPORTO_MNIGLIA
 10
0
 20
0
 30
0
 70
128
 71
116
 72
376
 73
378
 74
121
 0
VERTEX
 8
SUPPORTO_MNIGLIA
 10
0
 20
0
 30
0
 70
128
 71
301
 72
450
 73
452
 74
306
 0
VERTEX
 8
SUPPORTO_MNIGLIA
 10
0
 20
0
 30
0
 70
128
 71
429
 72
249
 73
254
 74
431
 0
VERTEX
 8
SUPPORTO_MNIGLIA
 10
0
 20
0
 30
0
 70
128
 71
377
 72
119
 73
124
 74
379
 0
VERTEX
 8
SUPPORTO_MNIGLIA
 10
0
 20
0
 30
0
 70
128
 71
119
 72
120
 73
125
 74
124
 0
VERTEX
 8
SUPPORTO_MNIGLIA
 10
0
 20
0
 30
0
 70
128
 71
120
 72
121
 73
126
 74
125
 0
VERTEX
 8
SUPPORTO_MNIGLIA
 10
0
 20
0
 30
0
 70
128
 71
121
 72
378
 73
380
 74
126
 0
VERTEX
 8
SUPPORTO_MNIGLIA
 10
0
 20
0
 30
0
 70
128
 71
300
 72
301
 73
306
 74
305
 0
VERTEX
 8
SUPPORTO_MNIGLIA
 10
0
 20
0
 30
0
 70
128
 71
441
 72
279
 73
284
 74
443
 0
VERTEX
 8
SUPPORTO_MNIGLIA
 10
0
 20
0
 30
0
 70
128
 71
379
 72
124
 73
129
 74
381
 0
VERTEX
 8
SUPPORTO_MNIGLIA
 10
0
 20
0
 30
0
 70
128
 71
124
 72
125
 73
130
 74
129
 0
VERTEX
 8
SUPPORTO_MNIGLIA
 10
0
 20
0
 30
0
 70
128
 71
125
 72
126
 73
131
 74
130
 0
VERTEX
 8
SUPPORTO_MNIGLIA
 10
0
 20
0
 30
0
 70
128
 71
126
 72
380
 73
382
 74
131
 0
VERTEX
 8
SUPPORTO_MNIGLIA
 10
0
 20
0
 30
0
 70
128
 71
299
 72
300
 73
305
 74
304
 0
VERTEX
 8
SUPPORTO_MNIGLIA
 10
0
 20
0
 30
0
 70
128
 71
246
 72
428
 73
430
 74
251
 0
VERTEX
 8
SUPPORTO_MNIGLIA
 10
0
 20
0
 30
0
 70
128
 71
381
 72
129
 73
134
 74
383
 0
VERTEX
 8
SUPPORTO_MNIGLIA
 10
0
 20
0
 30
0
 70
128
 71
129
 72
130
 73
135
 74
134
 0
VERTEX
 8
SUPPORTO_MNIGLIA
 10
0
 20
0
 30
0
 70
128
 71
130
 72
131
 73
136
 74
135
 0
VERTEX
 8
SUPPORTO_MNIGLIA
 10
0
 20
0
 30
0
 70
128
 71
131
 72
382
 73
384
 74
136
 0
VERTEX
 8
SUPPORTO_MNIGLIA
 10
0
 20
0
 30
0
 70
128
 71
449
 72
299
 73
304
 74
451
 0
VERTEX
 8
SUPPORTO_MNIGLIA
 10
0
 20
0
 30
0
 70
128
 71
245
 72
246
 73
251
 74
250
 0
VERTEX
 8
SUPPORTO_MNIGLIA
 10
0
 20
0
 30
0
 70
128
 71
383
 72
134
 73
139
 74
385
 0
VERTEX
 8
SUPPORTO_MNIGLIA
 10
0
 20
0
 30
0
 70
128
 71
134
 72
135
 73
140
 74
139
 0
VERTEX
 8
SUPPORTO_MNIGLIA
 10
0
 20
0
 30
0
 70
128
 71
135
 72
136
 73
141
 74
140
 0
VERTEX
 8
SUPPORTO_MNIGLIA
 10
0
 20
0
 30
0
 70
128
 71
136
 72
384
 73
386
 74
141
 0
VERTEX
 8
SUPPORTO_MNIGLIA
 10
0
 20
0
 30
0
 70
128
 71
439
 72
274
 73
279
 74
441
 0
VERTEX
 8
SUPPORTO_MNIGLIA
 10
0
 20
0
 30
0
 70
128
 71
244
 72
245
 73
250
 74
249
 0
VERTEX
 8
SUPPORTO_MNIGLIA
 10
0
 20
0
 30
0
 70
128
 71
385
 72
139
 73
144
 74
387
 0
VERTEX
 8
SUPPORTO_MNIGLIA
 10
0
 20
0
 30
0
 70
128
 71
139
 72
140
 73
145
 74
144
 0
VERTEX
 8
SUPPORTO_MNIGLIA
 10
0
 20
0
 30
0
 70
128
 71
140
 72
141
 73
146
 74
145
 0
VERTEX
 8
SUPPORTO_MNIGLIA
 10
0
 20
0
 30
0
 70
128
 71
141
 72
386
 73
388
 74
146
 0
VERTEX
 8
SUPPORTO_MNIGLIA
 10
0
 20
0
 30
0
 70
128
 71
271
 72
438
 73
440
 74
276
 0
VERTEX
 8
SUPPORTO_MNIGLIA
 10
0
 20
0
 30
0
 70
128
 71
427
 72
244
 73
249
 74
429
 0
VERTEX
 8
SUPPORTO_MNIGLIA
 10
0
 20
0
 30
0
 70
128
 71
387
 72
144
 73
149
 74
389
 0
VERTEX
 8
SUPPORTO_MNIGLIA
 10
0
 20
0
 30
0
 70
128
 71
144
 72
145
 73
150
 74
149
 0
VERTEX
 8
SUPPORTO_MNIGLIA
 10
0
 20
0
 30
0
 70
128
 71
145
 72
146
 73
151
 74
150
 0
VERTEX
 8
SUPPORTO_MNIGLIA
 10
0
 20
0
 30
0
 70
128
 71
146
 72
388
 73
390
 74
151
 0
VERTEX
 8
SUPPORTO_MNIGLIA
 10
0
 20
0
 30
0
 70
128
 71
421
 72
229
 73
234
 74
423
 0
VERTEX
 8
SUPPORTO_MNIGLIA
 10
0
 20
0
 30
0
 70
128
 71
270
 72
271
 73
276
 74
275
 0
VERTEX
 8
SUPPORTO_MNIGLIA
 10
0
 20
0
 30
0
 70
128
 71
389
 72
149
 73
154
 74
391
 0
VERTEX
 8
SUPPORTO_MNIGLIA
 10
0
 20
0
 30
0
 70
128
 71
149
 72
150
 73
155
 74
154
 0
VERTEX
 8
SUPPORTO_MNIGLIA
 10
0
 20
0
 30
0
 70
128
 71
150
 72
151
 73
156
 74
155
 0
VERTEX
 8
SUPPORTO_MNIGLIA
 10
0
 20
0
 30
0
 70
128
 71
151
 72
390
 73
392
 74
156
 0
VERTEX
 8
SUPPORTO_MNIGLIA
 10
0
 20
0
 30
0
 70
128
 71
296
 72
448
 73
450
 74
301
 0
VERTEX
 8
SUPPORTO_MNIGLIA
 10
0
 20
0
 30
0
 70
128
 71
241
 72
426
 73
428
 74
246
 0
VERTEX
 8
SUPPORTO_MNIGLIA
 10
0
 20
0
 30
0
 70
128
 71
391
 72
154
 73
159
 74
393
 0
VERTEX
 8
SUPPORTO_MNIGLIA
 10
0
 20
0
 30
0
 70
128
 71
154
 72
155
 73
160
 74
159
 0
VERTEX
 8
SUPPORTO_MNIGLIA
 10
0
 20
0
 30
0
 70
128
 71
155
 72
156
 73
161
 74
160
 0
VERTEX
 8
SUPPORTO_MNIGLIA
 10
0
 20
0
 30
0
 70
128
 71
156
 72
392
 73
394
 74
161
 0
VERTEX
 8
SUPPORTO_MNIGLIA
 10
0
 20
0
 30
0
 70
128
 71
295
 72
296
 73
301
 74
300
 0
VERTEX
 8
SUPPORTO_MNIGLIA
 10
0
 20
0
 30
0
 70
128
 71
240
 72
241
 73
246
 74
245
 0
VERTEX
 8
SUPPORTO_MNIGLIA
 10
0
 20
0
 30
0
 70
128
 71
393
 72
159
 73
164
 74
395
 0
VERTEX
 8
SUPPORTO_MNIGLIA
 10
0
 20
0
 30
0
 70
128
 71
159
 72
160
 73
165
 74
164
 0
VERTEX
 8
SUPPORTO_MNIGLIA
 10
0
 20
0
 30
0
 70
128
 71
160
 72
161
 73
166
 74
165
 0
VERTEX
 8
SUPPORTO_MNIGLIA
 10
0
 20
0
 30
0
 70
128
 71
161
 72
394
 73
396
 74
166
 0
VERTEX
 8
SUPPORTO_MNIGLIA
 10
0
 20
0
 30
0
 70
128
 71
294
 72
295
 73
300
 74
299
 0
VERTEX
 8
SUPPORTO_MNIGLIA
 10
0
 20
0
 30
0
 70
128
 71
239
 72
240
 73
245
 74
244
 0
VERTEX
 8
SUPPORTO_MNIGLIA
 10
0
 20
0
 30
0
 70
128
 71
395
 72
164
 73
169
 74
397
 0
VERTEX
 8
SUPPORTO_MNIGLIA
 10
0
 20
0
 30
0
 70
128
 71
164
 72
165
 73
170
 74
169
 0
VERTEX
 8
SUPPORTO_MNIGLIA
 10
0
 20
0
 30
0
 70
128
 71
165
 72
166
 73
171
 74
170
 0
VERTEX
 8
SUPPORTO_MNIGLIA
 10
0
 20
0
 30
0
 70
128
 71
166
 72
396
 73
398
 74
171
 0
VERTEX
 8
SUPPORTO_MNIGLIA
 10
0
 20
0
 30
0
 70
128
 71
447
 72
294
 73
299
 74
449
 0
VERTEX
 8
SUPPORTO_MNIGLIA
 10
0
 20
0
 30
0
 70
128
 71
425
 72
239
 73
244
 74
427
 0
VERTEX
 8
SUPPORTO_MNIGLIA
 10
0
 20
0
 30
0
 70
128
 71
397
 72
169
 73
174
 74
399
 0
VERTEX
 8
SUPPORTO_MNIGLIA
 10
0
 20
0
 30
0
 70
128
 71
169
 72
170
 73
175
 74
174
 0
VERTEX
 8
SUPPORTO_MNIGLIA
 10
0
 20
0
 30
0
 70
128
 71
170
 72
171
 73
176
 74
175
 0
VERTEX
 8
SUPPORTO_MNIGLIA
 10
0
 20
0
 30
0
 70
128
 71
171
 72
398
 73
400
 74
176
 0
VERTEX
 8
SUPPORTO_MNIGLIA
 10
0
 20
0
 30
0
 70
128
 71
443
 72
284
 73
289
 74
445
 0
VERTEX
 8
SUPPORTO_MNIGLIA
 10
0
 20
0
 30
0
 70
128
 71
279
 72
280
 73
285
 74
284
 0
VERTEX
 8
SUPPORTO_MNIGLIA
 10
0
 20
0
 30
0
 70
128
 71
399
 72
174
 73
179
 74
401
 0
VERTEX
 8
SUPPORTO_MNIGLIA
 10
0
 20
0
 30
0
 70
128
 71
174
 72
175
 73
180
 74
179
 0
VERTEX
 8
SUPPORTO_MNIGLIA
 10
0
 20
0
 30
0
 70
128
 71
175
 72
176
 73
181
 74
180
 0
VERTEX
 8
SUPPORTO_MNIGLIA
 10
0
 20
0
 30
0
 70
128
 71
176
 72
400
 73
402
 74
181
 0
VERTEX
 8
SUPPORTO_MNIGLIA
 10
0
 20
0
 30
0
 70
128
 71
291
 72
446
 73
448
 74
296
 0
VERTEX
 8
SUPPORTO_MNIGLIA
 10
0
 20
0
 30
0
 70
128
 71
236
 72
424
 73
426
 74
241
 0
VERTEX
 8
SUPPORTO_MNIGLIA
 10
0
 20
0
 30
0
 70
128
 71
401
 72
179
 73
184
 74
403
 0
VERTEX
 8
SUPPORTO_MNIGLIA
 10
0
 20
0
 30
0
 70
128
 71
179
 72
180
 73
185
 74
184
 0
VERTEX
 8
SUPPORTO_MNIGLIA
 10
0
 20
0
 30
0
 70
128
 71
180
 72
181
 73
186
 74
185
 0
VERTEX
 8
SUPPORTO_MNIGLIA
 10
0
 20
0
 30
0
 70
128
 71
181
 72
402
 73
404
 74
186
 0
VERTEX
 8
SUPPORTO_MNIGLIA
 10
0
 20
0
 30
0
 70
128
 71
290
 72
291
 73
296
 74
295
 0
VERTEX
 8
SUPPORTO_MNIGLIA
 10
0
 20
0
 30
0
 70
128
 71
235
 72
236
 73
241
 74
240
 0
VERTEX
 8
SUPPORTO_MNIGLIA
 10
0
 20
0
 30
0
 70
128
 71
403
 72
184
 73
189
 74
405
 0
VERTEX
 8
SUPPORTO_MNIGLIA
 10
0
 20
0
 30
0
 70
128
 71
184
 72
185
 73
190
 74
189
 0
VERTEX
 8
SUPPORTO_MNIGLIA
 10
0
 20
0
 30
0
 70
128
 71
185
 72
186
 73
191
 74
190
 0
VERTEX
 8
SUPPORTO_MNIGLIA
 10
0
 20
0
 30
0
 70
128
 71
186
 72
404
 73
406
 74
191
 0
VERTEX
 8
SUPPORTO_MNIGLIA
 10
0
 20
0
 30
0
 70
128
 71
289
 72
290
 73
295
 74
294
 0
VERTEX
 8
SUPPORTO_MNIGLIA
 10
0
 20
0
 30
0
 70
128
 71
234
 72
235
 73
240
 74
239
 0
VERTEX
 8
SUPPORTO_MNIGLIA
 10
0
 20
0
 30
0
 70
128
 71
405
 72
189
 73
194
 74
407
 0
VERTEX
 8
SUPPORTO_MNIGLIA
 10
0
 20
0
 30
0
 70
128
 71
189
 72
190
 73
195
 74
194
 0
VERTEX
 8
SUPPORTO_MNIGLIA
 10
0
 20
0
 30
0
 70
128
 71
190
 72
191
 73
196
 74
195
 0
VERTEX
 8
SUPPORTO_MNIGLIA
 10
0
 20
0
 30
0
 70
128
 71
191
 72
406
 73
408
 74
196
 0
VERTEX
 8
SUPPORTO_MNIGLIA
 10
0
 20
0
 30
0
 70
128
 71
445
 72
289
 73
294
 74
447
 0
VERTEX
 8
SUPPORTO_MNIGLIA
 10
0
 20
0
 30
0
 70
128
 71
423
 72
234
 73
239
 74
425
 0
VERTEX
 8
SUPPORTO_MNIGLIA
 10
0
 20
0
 30
0
 70
128
 71
407
 72
194
 73
199
 74
409
 0
VERTEX
 8
SUPPORTO_MNIGLIA
 10
0
 20
0
 30
0
 70
128
 71
194
 72
195
 73
200
 74
199
 0
VERTEX
 8
SUPPORTO_MNIGLIA
 10
0
 20
0
 30
0
 70
128
 71
195
 72
196
 73
201
 74
200
 0
VERTEX
 8
SUPPORTO_MNIGLIA
 10
0
 20
0
 30
0
 70
128
 71
196
 72
408
 73
410
 74
201
 0
VERTEX
 8
SUPPORTO_MNIGLIA
 10
0
 20
0
 30
0
 70
128
 71
216
 72
416
 73
418
 74
221
 0
VERTEX
 8
SUPPORTO_MNIGLIA
 10
0
 20
0
 30
0
 70
128
 71
280
 72
281
 73
286
 74
285
 0
VERTEX
 8
SUPPORTO_MNIGLIA
 10
0
 20
0
 30
0
 70
128
 71
409
 72
199
 73
204
 74
411
 0
VERTEX
 8
SUPPORTO_MNIGLIA
 10
0
 20
0
 30
0
 70
128
 71
199
 72
200
 73
205
 74
204
 0
VERTEX
 8
SUPPORTO_MNIGLIA
 10
0
 20
0
 30
0
 70
128
 71
200
 72
201
 73
206
 74
205
 0
VERTEX
 8
SUPPORTO_MNIGLIA
 10
0
 20
0
 30
0
 70
128
 71
201
 72
410
 73
412
 74
206
 0
VERTEX
 8
SUPPORTO_MNIGLIA
 10
0
 20
0
 30
0
 70
128
 71
286
 72
444
 73
446
 74
291
 0
VERTEX
 8
SUPPORTO_MNIGLIA
 10
0
 20
0
 30
0
 70
128
 71
231
 72
422
 73
424
 74
236
 0
VERTEX
 8
SUPPORTO_MNIGLIA
 10
0
 20
0
 30
0
 70
128
 71
411
 72
204
 73
209
 74
413
 0
VERTEX
 8
SUPPORTO_MNIGLIA
 10
0
 20
0
 30
0
 70
128
 71
204
 72
205
 73
210
 74
209
 0
VERTEX
 8
SUPPORTO_MNIGLIA
 10
0
 20
0
 30
0
 70
128
 71
205
 72
206
 73
211
 74
210
 0
VERTEX
 8
SUPPORTO_MNIGLIA
 10
0
 20
0
 30
0
 70
128
 71
206
 72
412
 73
414
 74
211
 0
VERTEX
 8
SUPPORTO_MNIGLIA
 10
0
 20
0
 30
0
 70
128
 71
285
 72
286
 73
291
 74
290
 0
VERTEX
 8
SUPPORTO_MNIGLIA
 10
0
 20
0
 30
0
 70
128
 71
230
 72
231
 73
236
 74
235
 0
VERTEX
 8
SUPPORTO_MNIGLIA
 10
0
 20
0
 30
0
 70
128
 71
413
 72
209
 73
214
 74
415
 0
VERTEX
 8
SUPPORTO_MNIGLIA
 10
0
 20
0
 30
0
 70
128
 71
209
 72
210
 73
215
 74
214
 0
VERTEX
 8
SUPPORTO_MNIGLIA
 10
0
 20
0
 30
0
 70
128
 71
210
 72
211
 73
216
 74
215
 0
VERTEX
 8
SUPPORTO_MNIGLIA
 10
0
 20
0
 30
0
 70
128
 71
211
 72
414
 73
416
 74
216
 0
VERTEX
 8
SUPPORTO_MNIGLIA
 10
0
 20
0
 30
0
 70
128
 71
284
 72
285
 73
290
 74
289
 0
VERTEX
 8
SUPPORTO_MNIGLIA
 10
0
 20
0
 30
0
 70
128
 71
229
 72
230
 73
235
 74
234
 0
VERTEX
 8
SUPPORTO_MNIGLIA
 10
0
 20
0
 30
0
 70
128
 71
415
 72
214
 73
219
 74
417
 0
VERTEX
 8
SUPPORTO_MNIGLIA
 10
0
 20
0
 30
0
 70
128
 71
214
 72
215
 73
220
 74
219
 0
VERTEX
 8
SUPPORTO_MNIGLIA
 10
0
 20
0
 30
0
 70
128
 71
215
 72
216
 73
221
 74
220
 0
VERTEX
 8
SUPPORTO_MNIGLIA
 10
0
 20
0
 30
0
 70
128
 71
328
 72
3
 73
4
 74
329
 0
VERTEX
 8
SUPPORTO_MNIGLIA
 10
0
 20
0
 30
0
 70
128
 71
333
 72
8
 73
3
 74
328
 0
VERTEX
 8
SUPPORTO_MNIGLIA
 10
0
 20
0
 30
0
 70
128
 71
329
 72
4
 73
5
 74
330
 0
VERTEX
 8
SUPPORTO_MNIGLIA
 10
0
 20
0
 30
0
 70
128
 71
330
 72
5
 73
6
 74
331
 0
VERTEX
 8
SUPPORTO_MNIGLIA
 10
0
 20
0
 30
0
 70
128
 71
331
 72
6
 73
7
 74
332
 0
VERTEX
 8
SUPPORTO_MNIGLIA
 10
0
 20
0
 30
0
 70
128
 71
332
 72
7
 73
12
 74
334
 0
VERTEX
 8
SUPPORTO_MNIGLIA
 10
0
 20
0
 30
0
 70
128
 71
439
 72
273
 73
268
 74
437
 0
VERTEX
 8
SUPPORTO_MNIGLIA
 10
0
 20
0
 30
0
 70
128
 71
420
 72
227
 73
232
 74
422
 0
VERTEX
 8
SUPPORTO_MNIGLIA
 10
0
 20
0
 30
0
 70
128
 71
335
 72
13
 73
8
 74
333
 0
VERTEX
 8
SUPPORTO_MNIGLIA
 10
0
 20
0
 30
0
 70
128
 71
334
 72
12
 73
17
 74
336
 0
VERTEX
 8
SUPPORTO_MNIGLIA
 10
0
 20
0
 30
0
 70
128
 71
458
 72
322
 73
2
 74
327
 0
VERTEX
 8
SUPPORTO_MNIGLIA
 10
0
 20
0
 30
0
 70
128
 71
327
 72
2
 73
1
 74
326
 0
VERTEX
 8
SUPPORTO_MNIGLIA
 10
0
 20
0
 30
0
 70
128
 71
337
 72
18
 73
13
 74
335
 0
VERTEX
 8
SUPPORTO_MNIGLIA
 10
0
 20
0
 30
0
 70
128
 71
336
 72
17
 73
22
 74
338
 0
VERTEX
 8
SUPPORTO_MNIGLIA
 10
0
 20
0
 30
0
 70
128
 71
326
 72
1
 73
325
 74
461
 0
VERTEX
 8
SUPPORTO_MNIGLIA
 10
0
 20
0
 30
0
 70
128
 71
436
 72
267
 73
272
 74
438
 0
VERTEX
 8
SUPPORTO_MNIGLIA
 10
0
 20
0
 30
0
 70
128
 71
339
 72
23
 73
18
 74
337
 0
VERTEX
 8
SUPPORTO_MNIGLIA
 10
0
 20
0
 30
0
 70
128
 71
338
 72
22
 73
27
 74
340
 0
VERTEX
 8
SUPPORTO_MNIGLIA
 10
0
 20
0
 30
0
 70
128
 71
461
 72
325
 73
324
 74
460
 0
VERTEX
 8
SUPPORTO_MNIGLIA
 10
0
 20
0
 30
0
 70
128
 71
341
 72
28
 73
23
 74
339
 0
VERTEX
 8
SUPPORTO_MNIGLIA
 10
0
 20
0
 30
0
 70
128
 71
340
 72
27
 73
32
 74
342
 0
VERTEX
 8
SUPPORTO_MNIGLIA
 10
0
 20
0
 30
0
 70
128
 71
460
 72
324
 73
323
 74
459
 0
VERTEX
 8
SUPPORTO_MNIGLIA
 10
0
 20
0
 30
0
 70
128
 71
459
 72
323
 73
318
 74
457
 0
VERTEX
 8
SUPPORTO_MNIGLIA
 10
0
 20
0
 30
0
 70
128
 71
343
 72
33
 73
28
 74
341
 0
VERTEX
 8
SUPPORTO_MNIGLIA
 10
0
 20
0
 30
0
 70
128
 71
342
 72
32
 73
37
 74
344
 0
VERTEX
 8
SUPPORTO_MNIGLIA
 10
0
 20
0
 30
0
 70
128
 71
437
 72
268
 73
263
 74
435
 0
VERTEX
 8
SUPPORTO_MNIGLIA
 10
0
 20
0
 30
0
 70
128
 71
345
 72
38
 73
33
 74
343
 0
VERTEX
 8
SUPPORTO_MNIGLIA
 10
0
 20
0
 30
0
 70
128
 71
344
 72
37
 73
42
 74
346
 0
VERTEX
 8
SUPPORTO_MNIGLIA
 10
0
 20
0
 30
0
 70
128
 71
421
 72
228
 73
223
 74
419
 0
VERTEX
 8
SUPPORTO_MNIGLIA
 10
0
 20
0
 30
0
 70
128
 71
347
 72
43
 73
38
 74
345
 0
VERTEX
 8
SUPPORTO_MNIGLIA
 10
0
 20
0
 30
0
 70
128
 71
346
 72
42
 73
47
 74
348
 0
VERTEX
 8
SUPPORTO_MNIGLIA
 10
0
 20
0
 30
0
 70
128
 71
456
 72
317
 73
322
 74
458
 0
VERTEX
 8
SUPPORTO_MNIGLIA
 10
0
 20
0
 30
0
 70
128
 71
349
 72
48
 73
43
 74
347
 0
VERTEX
 8
SUPPORTO_MNIGLIA
 10
0
 20
0
 30
0
 70
128
 71
348
 72
47
 73
52
 74
350
 0
VERTEX
 8
SUPPORTO_MNIGLIA
 10
0
 20
0
 30
0
 70
128
 71
434
 72
262
 73
267
 74
436
 0
VERTEX
 8
SUPPORTO_MNIGLIA
 10
0
 20
0
 30
0
 70
128
 71
351
 72
53
 73
48
 74
349
 0
VERTEX
 8
SUPPORTO_MNIGLIA
 10
0
 20
0
 30
0
 70
128
 71
350
 72
52
 73
57
 74
352
 0
VERTEX
 8
SUPPORTO_MNIGLIA
 10
0
 20
0
 30
0
 70
128
 71
353
 72
58
 73
53
 74
351
 0
VERTEX
 8
SUPPORTO_MNIGLIA
 10
0
 20
0
 30
0
 70
128
 71
352
 72
57
 73
62
 74
354
 0
VERTEX
 8
SUPPORTO_MNIGLIA
 10
0
 20
0
 30
0
 70
128
 71
457
 72
318
 73
313
 74
455
 0
VERTEX
 8
SUPPORTO_MNIGLIA
 10
0
 20
0
 30
0
 70
128
 71
355
 72
63
 73
58
 74
353
 0
VERTEX
 8
SUPPORTO_MNIGLIA
 10
0
 20
0
 30
0
 70
128
 71
354
 72
62
 73
67
 74
356
 0
VERTEX
 8
SUPPORTO_MNIGLIA
 10
0
 20
0
 30
0
 70
128
 71
442
 72
282
 73
287
 74
444
 0
VERTEX
 8
SUPPORTO_MNIGLIA
 10
0
 20
0
 30
0
 70
128
 71
435
 72
263
 73
258
 74
433
 0
VERTEX
 8
SUPPORTO_MNIGLIA
 10
0
 20
0
 30
0
 70
128
 71
357
 72
68
 73
63
 74
355
 0
VERTEX
 8
SUPPORTO_MNIGLIA
 10
0
 20
0
 30
0
 70
128
 71
356
 72
67
 73
72
 74
358
 0
VERTEX
 8
SUPPORTO_MNIGLIA
 10
0
 20
0
 30
0
 70
128
 71
454
 72
312
 73
317
 74
456
 0
VERTEX
 8
SUPPORTO_MNIGLIA
 10
0
 20
0
 30
0
 70
128
 71
418
 72
222
 73
227
 74
420
 0
VERTEX
 8
SUPPORTO_MNIGLIA
 10
0
 20
0
 30
0
 70
128
 71
359
 72
73
 73
68
 74
357
 0
VERTEX
 8
SUPPORTO_MNIGLIA
 10
0
 20
0
 30
0
 70
128
 71
358
 72
72
 73
77
 74
360
 0
VERTEX
 8
SUPPORTO_MNIGLIA
 10
0
 20
0
 30
0
 70
128
 71
440
 72
277
 73
282
 74
442
 0
VERTEX
 8
SUPPORTO_MNIGLIA
 10
0
 20
0
 30
0
 70
128
 71
361
 72
78
 73
73
 74
359
 0
VERTEX
 8
SUPPORTO_MNIGLIA
 10
0
 20
0
 30
0
 70
128
 71
360
 72
77
 73
82
 74
362
 0
VERTEX
 8
SUPPORTO_MNIGLIA
 10
0
 20
0
 30
0
 70
128
 71
432
 72
257
 73
262
 74
434
 0
VERTEX
 8
SUPPORTO_MNIGLIA
 10
0
 20
0
 30
0
 70
128
 71
363
 72
83
 73
78
 74
361
 0
VERTEX
 8
SUPPORTO_MNIGLIA
 10
0
 20
0
 30
0
 70
128
 71
362
 72
82
 73
87
 74
364
 0
VERTEX
 8
SUPPORTO_MNIGLIA
 10
0
 20
0
 30
0
 70
128
 71
455
 72
313
 73
308
 74
453
 0
VERTEX
 8
SUPPORTO_MNIGLIA
 10
0
 20
0
 30
0
 70
128
 71
365
 72
88
 73
83
 74
363
 0
VERTEX
 8
SUPPORTO_MNIGLIA
 10
0
 20
0
 30
0
 70
128
 71
364
 72
87
 73
92
 74
366
 0
VERTEX
 8
SUPPORTO_MNIGLIA
 10
0
 20
0
 30
0
 70
128
 71
367
 72
93
 73
88
 74
365
 0
VERTEX
 8
SUPPORTO_MNIGLIA
 10
0
 20
0
 30
0
 70
128
 71
366
 72
92
 73
97
 74
368
 0
VERTEX
 8
SUPPORTO_MNIGLIA
 10
0
 20
0
 30
0
 70
128
 71
452
 72
307
 73
312
 74
454
 0
VERTEX
 8
SUPPORTO_MNIGLIA
 10
0
 20
0
 30
0
 70
128
 71
433
 72
258
 73
253
 74
431
 0
VERTEX
 8
SUPPORTO_MNIGLIA
 10
0
 20
0
 30
0
 70
128
 71
369
 72
98
 73
93
 74
367
 0
VERTEX
 8
SUPPORTO_MNIGLIA
 10
0
 20
0
 30
0
 70
128
 71
368
 72
97
 73
102
 74
370
 0
VERTEX
 8
SUPPORTO_MNIGLIA
 10
0
 20
0
 30
0
 70
128
 71
371
 72
103
 73
98
 74
369
 0
VERTEX
 8
SUPPORTO_MNIGLIA
 10
0
 20
0
 30
0
 70
128
 71
370
 72
102
 73
107
 74
372
 0
VERTEX
 8
SUPPORTO_MNIGLIA
 10
0
 20
0
 30
0
 70
128
 71
430
 72
252
 73
257
 74
432
 0
VERTEX
 8
SUPPORTO_MNIGLIA
 10
0
 20
0
 30
0
 70
128
 71
373
 72
108
 73
103
 74
371
 0
VERTEX
 8
SUPPORTO_MNIGLIA
 10
0
 20
0
 30
0
 70
128
 71
372
 72
107
 73
112
 74
374
 0
VERTEX
 8
SUPPORTO_MNIGLIA
 10
0
 20
0
 30
0
 70
128
 71
453
 72
308
 73
303
 74
451
 0
VERTEX
 8
SUPPORTO_MNIGLIA
 10
0
 20
0
 30
0
 70
128
 71
375
 72
113
 73
108
 74
373
 0
VERTEX
 8
SUPPORTO_MNIGLIA
 10
0
 20
0
 30
0
 70
128
 71
374
 72
112
 73
117
 74
376
 0
VERTEX
 8
SUPPORTO_MNIGLIA
 10
0
 20
0
 30
0
 70
128
 71
419
 72
223
 73
218
 74
417
 0
VERTEX
 8
SUPPORTO_MNIGLIA
 10
0
 20
0
 30
0
 70
128
 71
377
 72
118
 73
113
 74
375
 0
VERTEX
 8
SUPPORTO_MNIGLIA
 10
0
 20
0
 30
0
 70
128
 71
376
 72
117
 73
122
 74
378
 0
VERTEX
 8
SUPPORTO_MNIGLIA
 10
0
 20
0
 30
0
 70
128
 71
450
 72
302
 73
307
 74
452
 0
VERTEX
 8
SUPPORTO_MNIGLIA
 10
0
 20
0
 30
0
 70
128
 71
431
 72
253
 73
248
 74
429
 0
VERTEX
 8
SUPPORTO_MNIGLIA
 10
0
 20
0
 30
0
 70
128
 71
379
 72
123
 73
118
 74
377
 0
VERTEX
 8
SUPPORTO_MNIGLIA
 10
0
 20
0
 30
0
 70
128
 71
378
 72
122
 73
127
 74
380
 0
VERTEX
 8
SUPPORTO_MNIGLIA
 10
0
 20
0
 30
0
 70
128
 71
443
 72
283
 73
278
 74
441
 0
VERTEX
 8
SUPPORTO_MNIGLIA
 10
0
 20
0
 30
0
 70
128
 71
381
 72
128
 73
123
 74
379
 0
VERTEX
 8
SUPPORTO_MNIGLIA
 10
0
 20
0
 30
0
 70
128
 71
380
 72
127
 73
132
 74
382
 0
VERTEX
 8
SUPPORTO_MNIGLIA
 10
0
 20
0
 30
0
 70
128
 71
428
 72
247
 73
252
 74
430
 0
VERTEX
 8
SUPPORTO_MNIGLIA
 10
0
 20
0
 30
0
 70
128
 71
383
 72
133
 73
128
 74
381
 0
VERTEX
 8
SUPPORTO_MNIGLIA
 10
0
 20
0
 30
0
 70
128
 71
382
 72
132
 73
137
 74
384
 0
VERTEX
 8
SUPPORTO_MNIGLIA
 10
0
 20
0
 30
0
 70
128
 71
451
 72
303
 73
298
 74
449
 0
VERTEX
 8
SUPPORTO_MNIGLIA
 10
0
 20
0
 30
0
 70
128
 71
385
 72
138
 73
133
 74
383
 0
VERTEX
 8
SUPPORTO_MNIGLIA
 10
0
 20
0
 30
0
 70
128
 71
384
 72
137
 73
142
 74
386
 0
VERTEX
 8
SUPPORTO_MNIGLIA
 10
0
 20
0
 30
0
 70
128
 71
441
 72
278
 73
273
 74
439
 0
VERTEX
 8
SUPPORTO_MNIGLIA
 10
0
 20
0
 30
0
 70
128
 71
387
 72
143
 73
138
 74
385
 0
VERTEX
 8
SUPPORTO_MNIGLIA
 10
0
 20
0
 30
0
 70
128
 71
386
 72
142
 73
147
 74
388
 0
VERTEX
 8
SUPPORTO_MNIGLIA
 10
0
 20
0
 30
0
 70
128
 71
438
 72
272
 73
277
 74
440
 0
VERTEX
 8
SUPPORTO_MNIGLIA
 10
0
 20
0
 30
0
 70
128
 71
429
 72
248
 73
243
 74
427
 0
VERTEX
 8
SUPPORTO_MNIGLIA
 10
0
 20
0
 30
0
 70
128
 71
389
 72
148
 73
143
 74
387
 0
VERTEX
 8
SUPPORTO_MNIGLIA
 10
0
 20
0
 30
0
 70
128
 71
388
 72
147
 73
152
 74
390
 0
VERTEX
 8
SUPPORTO_MNIGLIA
 10
0
 20
0
 30
0
 70
128
 71
423
 72
233
 73
228
 74
421
 0
VERTEX
 8
SUPPORTO_MNIGLIA
 10
0
 20
0
 30
0
 70
128
 71
391
 72
153
 73
148
 74
389
 0
VERTEX
 8
SUPPORTO_MNIGLIA
 10
0
 20
0
 30
0
 70
128
 71
390
 72
152
 73
157
 74
392
 0
VERTEX
 8
SUPPORTO_MNIGLIA
 10
0
 20
0
 30
0
 70
128
 71
448
 72
297
 73
302
 74
450
 0
VERTEX
 8
SUPPORTO_MNIGLIA
 10
0
 20
0
 30
0
 70
128
 71
426
 72
242
 73
247
 74
428
 0
VERTEX
 8
SUPPORTO_MNIGLIA
 10
0
 20
0
 30
0
 70
128
 71
393
 72
158
 73
153
 74
391
 0
VERTEX
 8
SUPPORTO_MNIGLIA
 10
0
 20
0
 30
0
 70
128
 71
392
 72
157
 73
162
 74
394
 0
VERTEX
 8
SUPPORTO_MNIGLIA
 10
0
 20
0
 30
0
 70
128
 71
395
 72
163
 73
158
 74
393
 0
VERTEX
 8
SUPPORTO_MNIGLIA
 10
0
 20
0
 30
0
 70
128
 71
394
 72
162
 73
167
 74
396
 0
VERTEX
 8
SUPPORTO_MNIGLIA
 10
0
 20
0
 30
0
 70
128
 71
397
 72
168
 73
163
 74
395
 0
VERTEX
 8
SUPPORTO_MNIGLIA
 10
0
 20
0
 30
0
 70
128
 71
396
 72
167
 73
172
 74
398
 0
VERTEX
 8
SUPPORTO_MNIGLIA
 10
0
 20
0
 30
0
 70
128
 71
449
 72
298
 73
293
 74
447
 0
VERTEX
 8
SUPPORTO_MNIGLIA
 10
0
 20
0
 30
0
 70
128
 71
427
 72
243
 73
238
 74
425
 0
VERTEX
 8
SUPPORTO_MNIGLIA
 10
0
 20
0
 30
0
 70
128
 71
399
 72
173
 73
168
 74
397
 0
VERTEX
 8
SUPPORTO_MNIGLIA
 10
0
 20
0
 30
0
 70
128
 71
398
 72
172
 73
177
 74
400
 0
VERTEX
 8
SUPPORTO_MNIGLIA
 10
0
 20
0
 30
0
 70
128
 71
445
 72
288
 73
283
 74
443
 0
VERTEX
 8
SUPPORTO_MNIGLIA
 10
0
 20
0
 30
0
 70
128
 71
401
 72
178
 73
173
 74
399
 0
VERTEX
 8
SUPPORTO_MNIGLIA
 10
0
 20
0
 30
0
 70
128
 71
400
 72
177
 73
182
 74
402
 0
VERTEX
 8
SUPPORTO_MNIGLIA
 10
0
 20
0
 30
0
 70
128
 71
446
 72
292
 73
297
 74
448
 0
VERTEX
 8
SUPPORTO_MNIGLIA
 10
0
 20
0
 30
0
 70
128
 71
424
 72
237
 73
242
 74
426
 0
VERTEX
 8
SUPPORTO_MNIGLIA
 10
0
 20
0
 30
0
 70
128
 71
403
 72
183
 73
178
 74
401
 0
VERTEX
 8
SUPPORTO_MNIGLIA
 10
0
 20
0
 30
0
 70
128
 71
402
 72
182
 73
187
 74
404
 0
VERTEX
 8
SUPPORTO_MNIGLIA
 10
0
 20
0
 30
0
 70
128
 71
405
 72
188
 73
183
 74
403
 0
VERTEX
 8
SUPPORTO_MNIGLIA
 10
0
 20
0
 30
0
 70
128
 71
404
 72
187
 73
192
 74
406
 0
VERTEX
 8
SUPPORTO_MNIGLIA
 10
0
 20
0
 30
0
 70
128
 71
407
 72
193
 73
188
 74
405
 0
VERTEX
 8
SUPPORTO_MNIGLIA
 10
0
 20
0
 30
0
 70
128
 71
406
 72
192
 73
197
 74
408
 0
VERTEX
 8
SUPPORTO_MNIGLIA
 10
0
 20
0
 30
0
 70
128
 71
447
 72
293
 73
288
 74
445
 0
VERTEX
 8
SUPPORTO_MNIGLIA
 10
0
 20
0
 30
0
 70
128
 71
425
 72
238
 73
233
 74
423
 0
VERTEX
 8
SUPPORTO_MNIGLIA
 10
0
 20
0
 30
0
 70
128
 71
409
 72
198
 73
193
 74
407
 0
VERTEX
 8
SUPPORTO_MNIGLIA
 10
0
 20
0
 30
0
 70
128
 71
408
 72
197
 73
202
 74
410
 0
VERTEX
 8
SUPPORTO_MNIGLIA
 10
0
 20
0
 30
0
 70
128
 71
416
 72
217
 73
222
 74
418
 0
VERTEX
 8
SUPPORTO_MNIGLIA
 10
0
 20
0
 30
0
 70
128
 71
411
 72
203
 73
198
 74
409
 0
VERTEX
 8
SUPPORTO_MNIGLIA
 10
0
 20
0
 30
0
 70
128
 71
410
 72
202
 73
207
 74
412
 0
VERTEX
 8
SUPPORTO_MNIGLIA
 10
0
 20
0
 30
0
 70
128
 71
444
 72
287
 73
292
 74
446
 0
VERTEX
 8
SUPPORTO_MNIGLIA
 10
0
 20
0
 30
0
 70
128
 71
422
 72
232
 73
237
 74
424
 0
VERTEX
 8
SUPPORTO_MNIGLIA
 10
0
 20
0
 30
0
 70
128
 71
413
 72
208
 73
203
 74
411
 0
VERTEX
 8
SUPPORTO_MNIGLIA
 10
0
 20
0
 30
0
 70
128
 71
412
 72
207
 73
212
 74
414
 0
VERTEX
 8
SUPPORTO_MNIGLIA
 10
0
 20
0
 30
0
 70
128
 71
415
 72
213
 73
208
 74
413
 0
VERTEX
 8
SUPPORTO_MNIGLIA
 10
0
 20
0
 30
0
 70
128
 71
414
 72
212
 73
217
 74
416
 0
VERTEX
 8
SUPPORTO_MNIGLIA
 10
0
 20
0
 30
0
 70
128
 71
417
 72
218
 73
213
 74
415
 0
VERTEX
 8
SUPPORTO_MNIGLIA
 10
0
 20
0
 30
0
 70
128
 71
2
 72
322
 73
318
 74
323
 0
VERTEX
 8
SUPPORTO_MNIGLIA
 10
0
 20
0
 30
0
 70
128
 71
313
 72
318
 73
322
 74
317
 0
VERTEX
 8
SUPPORTO_MNIGLIA
 10
0
 20
0
 30
0
 70
128
 71
317
 72
312
 73
308
 74
313
 0
VERTEX
 8
SUPPORTO_MNIGLIA
 10
0
 20
0
 30
0
 70
128
 71
303
 72
308
 73
312
 74
307
 0
VERTEX
 8
SUPPORTO_MNIGLIA
 10
0
 20
0
 30
0
 70
128
 71
307
 72
302
 73
298
 74
303
 0
VERTEX
 8
SUPPORTO_MNIGLIA
 10
0
 20
0
 30
0
 70
128
 71
302
 72
297
 73
293
 74
298
 0
VERTEX
 8
SUPPORTO_MNIGLIA
 10
0
 20
0
 30
0
 70
128
 71
288
 72
293
 73
297
 74
292
 0
VERTEX
 8
SUPPORTO_MNIGLIA
 10
0
 20
0
 30
0
 70
128
 71
292
 72
287
 73
283
 74
288
 0
VERTEX
 8
SUPPORTO_MNIGLIA
 10
0
 20
0
 30
0
 70
128
 71
278
 72
283
 73
287
 74
282
 0
VERTEX
 8
SUPPORTO_MNIGLIA
 10
0
 20
0
 30
0
 70
128
 71
282
 72
277
 73
273
 74
278
 0
VERTEX
 8
SUPPORTO_MNIGLIA
 10
0
 20
0
 30
0
 70
128
 71
268
 72
273
 73
277
 74
272
 0
VERTEX
 8
SUPPORTO_MNIGLIA
 10
0
 20
0
 30
0
 70
128
 71
272
 72
267
 73
263
 74
268
 0
VERTEX
 8
SUPPORTO_MNIGLIA
 10
0
 20
0
 30
0
 70
128
 71
258
 72
263
 73
267
 74
262
 0
VERTEX
 8
SUPPORTO_MNIGLIA
 10
0
 20
0
 30
0
 70
128
 71
262
 72
257
 73
253
 74
258
 0
VERTEX
 8
SUPPORTO_MNIGLIA
 10
0
 20
0
 30
0
 70
128
 71
248
 72
253
 73
257
 74
252
 0
VERTEX
 8
SUPPORTO_MNIGLIA
 10
0
 20
0
 30
0
 70
128
 71
252
 72
247
 73
243
 74
248
 0
VERTEX
 8
SUPPORTO_MNIGLIA
 10
0
 20
0
 30
0
 70
128
 71
238
 72
243
 73
247
 74
242
 0
VERTEX
 8
SUPPORTO_MNIGLIA
 10
0
 20
0
 30
0
 70
128
 71
242
 72
237
 73
233
 74
238
 0
VERTEX
 8
SUPPORTO_MNIGLIA
 10
0
 20
0
 30
0
 70
128
 71
228
 72
233
 73
237
 74
232
 0
VERTEX
 8
SUPPORTO_MNIGLIA
 10
0
 20
0
 30
0
 70
128
 71
232
 72
227
 73
223
 74
228
 0
VERTEX
 8
SUPPORTO_MNIGLIA
 10
0
 20
0
 30
0
 70
128
 71
218
 72
223
 73
227
 74
222
 0
VERTEX
 8
SUPPORTO_MNIGLIA
 10
0
 20
0
 30
0
 70
128
 71
222
 72
217
 73
213
 74
218
 0
VERTEX
 8
SUPPORTO_MNIGLIA
 10
0
 20
0
 30
0
 70
128
 71
208
 72
213
 73
217
 74
212
 0
VERTEX
 8
SUPPORTO_MNIGLIA
 10
0
 20
0
 30
0
 70
128
 71
212
 72
207
 73
203
 74
208
 0
VERTEX
 8
SUPPORTO_MNIGLIA
 10
0
 20
0
 30
0
 70
128
 71
198
 72
203
 73
207
 74
202
 0
VERTEX
 8
SUPPORTO_MNIGLIA
 10
0
 20
0
 30
0
 70
128
 71
202
 72
197
 73
193
 74
198
 0
VERTEX
 8
SUPPORTO_MNIGLIA
 10
0
 20
0
 30
0
 70
128
 71
188
 72
193
 73
197
 74
192
 0
VERTEX
 8
SUPPORTO_MNIGLIA
 10
0
 20
0
 30
0
 70
128
 71
192
 72
187
 73
183
 74
188
 0
VERTEX
 8
SUPPORTO_MNIGLIA
 10
0
 20
0
 30
0
 70
128
 71
178
 72
183
 73
187
 74
182
 0
VERTEX
 8
SUPPORTO_MNIGLIA
 10
0
 20
0
 30
0
 70
128
 71
182
 72
177
 73
173
 74
178
 0
VERTEX
 8
SUPPORTO_MNIGLIA
 10
0
 20
0
 30
0
 70
128
 71
168
 72
173
 73
177
 74
172
 0
VERTEX
 8
SUPPORTO_MNIGLIA
 10
0
 20
0
 30
0
 70
128
 71
172
 72
167
 73
163
 74
168
 0
VERTEX
 8
SUPPORTO_MNIGLIA
 10
0
 20
0
 30
0
 70
128
 71
158
 72
163
 73
167
 74
162
 0
VERTEX
 8
SUPPORTO_MNIGLIA
 10
0
 20
0
 30
0
 70
128
 71
162
 72
157
 73
153
 74
158
 0
VERTEX
 8
SUPPORTO_MNIGLIA
 10
0
 20
0
 30
0
 70
128
 71
148
 72
153
 73
157
 74
152
 0
VERTEX
 8
SUPPORTO_MNIGLIA
 10
0
 20
0
 30
0
 70
128
 71
152
 72
147
 73
143
 74
148
 0
VERTEX
 8
SUPPORTO_MNIGLIA
 10
0
 20
0
 30
0
 70
128
 71
138
 72
143
 73
147
 74
142
 0
VERTEX
 8
SUPPORTO_MNIGLIA
 10
0
 20
0
 30
0
 70
128
 71
142
 72
137
 73
133
 74
138
 0
VERTEX
 8
SUPPORTO_MNIGLIA
 10
0
 20
0
 30
0
 70
128
 71
128
 72
133
 73
137
 74
132
 0
VERTEX
 8
SUPPORTO_MNIGLIA
 10
0
 20
0
 30
0
 70
128
 71
132
 72
127
 73
123
 74
128
 0
VERTEX
 8
SUPPORTO_MNIGLIA
 10
0
 20
0
 30
0
 70
128
 71
118
 72
123
 73
127
 74
122
 0
VERTEX
 8
SUPPORTO_MNIGLIA
 10
0
 20
0
 30
0
 70
128
 71
117
 72
122
 73
117
 74
122
 0
VERTEX
 8
SUPPORTO_MNIGLIA
 10
0
 20
0
 30
0
 70
128
 71
117
 72
122
 73
117
 74
122
 0
VERTEX
 8
SUPPORTO_MNIGLIA
 10
0
 20
0
 30
0
 70
128
 71
122
 72
117
 73
113
 74
118
 0
VERTEX
 8
SUPPORTO_MNIGLIA
 10
0
 20
0
 30
0
 70
128
 71
108
 72
113
 73
117
 74
112
 0
VERTEX
 8
SUPPORTO_MNIGLIA
 10
0
 20
0
 30
0
 70
128
 71
112
 72
107
 73
103
 74
108
 0
VERTEX
 8
SUPPORTO_MNIGLIA
 10
0
 20
0
 30
0
 70
128
 71
98
 72
103
 73
107
 74
102
 0
VERTEX
 8
SUPPORTO_MNIGLIA
 10
0
 20
0
 30
0
 70
128
 71
102
 72
97
 73
93
 74
98
 0
VERTEX
 8
SUPPORTO_MNIGLIA
 10
0
 20
0
 30
0
 70
128
 71
88
 72
93
 73
97
 74
92
 0
VERTEX
 8
SUPPORTO_MNIGLIA
 10
0
 20
0
 30
0
 70
128
 71
92
 72
87
 73
83
 74
88
 0
VERTEX
 8
SUPPORTO_MNIGLIA
 10
0
 20
0
 30
0
 70
128
 71
78
 72
83
 73
87
 74
82
 0
VERTEX
 8
SUPPORTO_MNIGLIA
 10
0
 20
0
 30
0
 70
128
 71
82
 72
77
 73
73
 74
78
 0
VERTEX
 8
SUPPORTO_MNIGLIA
 10
0
 20
0
 30
0
 70
128
 71
68
 72
73
 73
77
 74
72
 0
VERTEX
 8
SUPPORTO_MNIGLIA
 10
0
 20
0
 30
0
 70
128
 71
72
 72
67
 73
63
 74
68
 0
VERTEX
 8
SUPPORTO_MNIGLIA
 10
0
 20
0
 30
0
 70
128
 71
67
 72
62
 73
58
 74
63
 0
VERTEX
 8
SUPPORTO_MNIGLIA
 10
0
 20
0
 30
0
 70
128
 71
53
 72
58
 73
62
 74
57
 0
VERTEX
 8
SUPPORTO_MNIGLIA
 10
0
 20
0
 30
0
 70
128
 71
48
 72
53
 73
57
 74
52
 0
VERTEX
 8
SUPPORTO_MNIGLIA
 10
0
 20
0
 30
0
 70
128
 71
52
 72
47
 73
43
 74
48
 0
VERTEX
 8
SUPPORTO_MNIGLIA
 10
0
 20
0
 30
0
 70
128
 71
38
 72
43
 73
47
 74
42
 0
VERTEX
 8
SUPPORTO_MNIGLIA
 10
0
 20
0
 30
0
 70
128
 71
42
 72
37
 73
33
 74
38
 0
VERTEX
 8
SUPPORTO_MNIGLIA
 10
0
 20
0
 30
0
 70
128
 71
28
 72
33
 73
37
 74
32
 0
VERTEX
 8
SUPPORTO_MNIGLIA
 10
0
 20
0
 30
0
 70
128
 71
32
 72
27
 73
23
 74
28
 0
VERTEX
 8
SUPPORTO_MNIGLIA
 10
0
 20
0
 30
0
 70
128
 71
18
 72
23
 73
27
 74
22
 0
VERTEX
 8
SUPPORTO_MNIGLIA
 10
0
 20
0
 30
0
 70
128
 71
22
 72
17
 73
13
 74
18
 0
VERTEX
 8
SUPPORTO_MNIGLIA
 10
0
 20
0
 30
0
 70
128
 71
8
 72
13
 73
17
 74
12
 0
VERTEX
 8
SUPPORTO_MNIGLIA
 10
0
 20
0
 30
0
 70
128
 71
12
 72
7
 73
3
 74
8
 0
SEQEND
 0
POLYLINE
 8
SUPPORTO_MNIGLIA_1
 66
1
 10
0.0
 20
0.0
 30
0.0
 70
64
 71
461
 72
458
 0
VERTEX
 8
SUPPORTO_MNIGLIA_1
 10
25.0504
 20
-2.1947
 30
3.2455
 70
192
 0
VERTEX
 8
SUPPORTO_MNIGLIA_1
 10
26.0504
 20
-2.1947
 30
3.2455
 70
192
 0
VERTEX
 8
SUPPORTO_MNIGLIA_1
 10
22.0504
 20
-2.1947
 30
1.7593
 70
192
 0
VERTEX
 8
SUPPORTO_MNIGLIA_1
 10
23.0504
 20
-2.1947
 30
1.7593
 70
192
 0
VERTEX
 8
SUPPORTO_MNIGLIA_1
 10
24.0504
 20
-2.1947
 30
1.7593
 70
192
 0
VERTEX
 8
SUPPORTO_MNIGLIA_1
 10
25.0504
 20
-2.1947
 30
1.7593
 70
192
 0
VERTEX
 8
SUPPORTO_MNIGLIA_1
 10
26.0504
 20
-2.1947
 30
1.7593
 70
192
 0
VERTEX
 8
SUPPORTO_MNIGLIA_1
 10
22.0504
 20
-2.1947
 30
1.777
 70
192
 0
VERTEX
 8
SUPPORTO_MNIGLIA_1
 10
23.0504
 20
-5.1431
 30
1.777
 70
192
 0
VERTEX
 8
SUPPORTO_MNIGLIA_1
 10
24.0504
 20
-5.1431
 30
1.777
 70
192
 0
VERTEX
 8
SUPPORTO_MNIGLIA_1
 10
25.0504
 20
-5.1431
 30
1.777
 70
192
 0
VERTEX
 8
SUPPORTO_MNIGLIA_1
 10
26.0504
 20
-2.1947
 30
1.777
 70
192
 0
VERTEX
 8
SUPPORTO_MNIGLIA_1
 10
22.0504
 20
-2.1947
 30
1.7953
 70
192
 0
VERTEX
 8
SUPPORTO_MNIGLIA_1
 10
23.0504
 20
-5.1243
 30
1.7953
 70
192
 0
VERTEX
 8
SUPPORTO_MNIGLIA_1
 10
24.0504
 20
-5.1243
 30
1.7953
 70
192
 0
VERTEX
 8
SUPPORTO_MNIGLIA_1
 10
25.0504
 20
-5.1243
 30
1.7953
 70
192
 0
VERTEX
 8
SUPPORTO_MNIGLIA_1
 10
26.0504
 20
-2.1947
 30
1.7953
 70
192
 0
VERTEX
 8
SUPPORTO_MNIGLIA_1
 10
22.0504
 20
-2.1947
 30
1.814
 70
192
 0
VERTEX
 8
SUPPORTO_MNIGLIA_1
 10
23.0504
 20
-5.106
 30
1.814
 70
192
 0
VERTEX
 8
SUPPORTO_MNIGLIA_1
 10
24.0504
 20
-5.106
 30
1.814
 70
192
 0
VERTEX
 8
SUPPORTO_MNIGLIA_1
 10
25.0504
 20
-5.106
 30
1.814
 70
192
 0
VERTEX
 8
SUPPORTO_MNIGLIA_1
 10
26.0504
 20
-2.1947
 30
1.814
 70
192
 0
VERTEX
 8
SUPPORTO_MNIGLIA_1
 10
22.0504
 20
-2.1947
 30
1.8333
 70
192
 0
VERTEX
 8
SUPPORTO_MNIGLIA_1
 10
23.0504
 20
-5.0883
 30
1.8333
 70
192
 0
VERTEX
 8
SUPPORTO_MNIGLIA_1
 10
24.0504
 20
-5.0883
 30
1.8333
 70
192
 0
VERTEX
 8
SUPPORTO_MNIGLIA_1
 10
25.0504
 20
-5.0883
 30
1.8333
 70
192
 0
VERTEX
 8
SUPPORTO_MNIGLIA_1
 10
26.0504
 20
-2.1947
 30
1.8333
 70
192
 0
VERTEX
 8
SUPPORTO_MNIGLIA_1
 10
22.0504
 20
-2.1947
 30
1.853
 70
192
 0
VERTEX
 8
SUPPORTO_MNIGLIA_1
 10
23.0504
 20
-5.071
 30
1.853
 70
192
 0
VERTEX
 8
SUPPORTO_MNIGLIA_1
 10
24.0504
 20
-5.071
 30
1.853
 70
192
 0
VERTEX
 8
SUPPORTO_MNIGLIA_1
 10
25.0504
 20
-5.071
 30
1.853
 70
192
 0
VERTEX
 8
SUPPORTO_MNIGLIA_1
 10
26.0504
 20
-2.1947
 30
1.853
 70
192
 0
VERTEX
 8
SUPPORTO_MNIGLIA_1
 10
22.0504
 20
-2.1947
 30
1.8731
 70
192
 0
VERTEX
 8
SUPPORTO_MNIGLIA_1
 10
23.0504
 20
-5.0543
 30
1.8731
 70
192
 0
VERTEX
 8
SUPPORTO_MNIGLIA_1
 10
24.0504
 20
-5.0543
 30
1.8731
 70
192
 0
VERTEX
 8
SUPPORTO_MNIGLIA_1
 10
25.0504
 20
-5.0543
 30
1.8731
 70
192
 0
VERTEX
 8
SUPPORTO_MNIGLIA_1
 10
26.0504
 20
-2.1947
 30
1.8731
 70
192
 0
VERTEX
 8
SUPPORTO_MNIGLIA_1
 10
22.0504
 20
-2.1947
 30
1.8936
 70
192
 0
VERTEX
 8
SUPPORTO_MNIGLIA_1
 10
23.0504
 20
-5.0381
 30
1.8936
 70
192
 0
VERTEX
 8
SUPPORTO_MNIGLIA_1
 10
24.0504
 20
-5.0381
 30
1.8936
 70
192
 0
VERTEX
 8
SUPPORTO_MNIGLIA_1
 10
25.0504
 20
-5.0381
 30
1.8936
 70
192
 0
VERTEX
 8
SUPPORTO_MNIGLIA_1
 10
26.0504
 20
-2.1947
 30
1.8936
 70
192
 0
VERTEX
 8
SUPPORTO_MNIGLIA_1
 10
22.0504
 20
-2.1947
 30
1.9146
 70
192
 0
VERTEX
 8
SUPPORTO_MNIGLIA_1
 10
23.0504
 20
-5.0224
 30
1.9146
 70
192
 0
VERTEX
 8
SUPPORTO_MNIGLIA_1
 10
24.0504
 20
-5.0224
 30
1.9146
 70
192
 0
VERTEX
 8
SUPPORTO_MNIGLIA_1
 10
25.0504
 20
-5.0224
 30
1.9146
 70
192
 0
VERTEX
 8
SUPPORTO_MNIGLIA_1
 10
26.0504
 20
-2.1947
 30
1.9146
 70
192
 0
VERTEX
 8
SUPPORTO_MNIGLIA_1
 10
22.0504
 20
-2.1947
 30
1.936
 70
192
 0
VERTEX
 8
SUPPORTO_MNIGLIA_1
 10
23.0504
 20
-5.0073
 30
1.936
 70
192
 0
VERTEX
 8
SUPPORTO_MNIGLIA_1
 10
24.0504
 20
-5.0073
 30
1.936
 70
192
 0
VERTEX
 8
SUPPORTO_MNIGLIA_1
 10
25.0504
 20
-5.0073
 30
1.936
 70
192
 0
VERTEX
 8
SUPPORTO_MNIGLIA_1
 10
26.0504
 20
-2.1947
 30
1.936
 70
192
 0
VERTEX
 8
SUPPORTO_MNIGLIA_1
 10
22.0504
 20
-2.1947
 30
1.9578
 70
192
 0
VERTEX
 8
SUPPORTO_MNIGLIA_1
 10
23.0504
 20
-4.9927
 30
1.9578
 70
192
 0
VERTEX
 8
SUPPORTO_MNIGLIA_1
 10
24.0504
 20
-4.9927
 30
1.9578
 70
192
 0
VERTEX
 8
SUPPORTO_MNIGLIA_1
 10
25.0504
 20
-4.9927
 30
1.9578
 70
192
 0
VERTEX
 8
SUPPORTO_MNIGLIA_1
 10
26.0504
 20
-2.1947
 30
1.9578
 70
192
 0
VERTEX
 8
SUPPORTO_MNIGLIA_1
 10
22.0504
 20
-2.1947
 30
1.9799
 70
192
 0
VERTEX
 8
SUPPORTO_MNIGLIA_1
 10
23.0504
 20
-4.9788
 30
1.9799
 70
192
 0
VERTEX
 8
SUPPORTO_MNIGLIA_1
 10
24.0504
 20
-4.9788
 30
1.9799
 70
192
 0
VERTEX
 8
SUPPORTO_MNIGLIA_1
 10
25.0504
 20
-4.9788
 30
1.9799
 70
192
 0
VERTEX
 8
SUPPORTO_MNIGLIA_1
 10
26.0504
 20
-2.1947
 30
1.9799
 70
192
 0
VERTEX
 8
SUPPORTO_MNIGLIA_1
 10
22.0504
 20
-2.1947
 30
2.0024
 70
192
 0
VERTEX
 8
SUPPORTO_MNIGLIA_1
 10
23.0504
 20
-4.9654
 30
2.0024
 70
192
 0
VERTEX
 8
SUPPORTO_MNIGLIA_1
 10
24.0504
 20
-4.9654
 30
2.0024
 70
192
 0
VERTEX
 8
SUPPORTO_MNIGLIA_1
 10
25.0504
 20
-4.9654
 30
2.0024
 70
192
 0
VERTEX
 8
SUPPORTO_MNIGLIA_1
 10
26.0504
 20
-2.1947
 30
2.0024
 70
192
 0
VERTEX
 8
SUPPORTO_MNIGLIA_1
 10
22.0504
 20
-2.1947
 30
2.0252
 70
192
 0
VERTEX
 8
SUPPORTO_MNIGLIA_1
 10
23.0504
 20
-4.9526
 30
2.0252
 70
192
 0
VERTEX
 8
SUPPORTO_MNIGLIA_1
 10
24.0504
 20
-4.9526
 30
2.0252
 70
192
 0
VERTEX
 8
SUPPORTO_MNIGLIA_1
 10
25.0504
 20
-4.9526
 30
2.0252
 70
192
 0
VERTEX
 8
SUPPORTO_MNIGLIA_1
 10
26.0504
 20
-2.1947
 30
2.0252
 70
192
 0
VERTEX
 8
SUPPORTO_MNIGLIA_1
 10
22.0504
 20
-2.1947
 30
2.0484
 70
192
 0
VERTEX
 8
SUPPORTO_MNIGLIA_1
 10
23.0504
 20
-4.9404
 30
2.0484
 70
192
 0
VERTEX
 8
SUPPORTO_MNIGLIA_1
 10
24.0504
 20
-4.9404
 30
2.0484
 70
192
 0
VERTEX
 8
SUPPORTO_MNIGLIA_1
 10
25.0504
 20
-4.9404
 30
2.0484
 70
192
 0
VERTEX
 8
SUPPORTO_MNIGLIA_1
 10
26.0504
 20
-2.1947
 30
2.0484
 70
192
 0
VERTEX
 8
SUPPORTO_MNIGLIA_1
 10
22.0504
 20
-2.1947
 30
2.0719
 70
192
 0
VERTEX
 8
SUPPORTO_MNIGLIA_1
 10
23.0504
 20
-4.9288
 30
2.0719
 70
192
 0
VERTEX
 8
SUPPORTO_MNIGLIA_1
 10
24.0504
 20
-4.9288
 30
2.0719
 70
192
 0
VERTEX
 8
SUPPORTO_MNIGLIA_1
 10
25.0504
 20
-4.9288
 30
2.0719
 70
192
 0
VERTEX
 8
SUPPORTO_MNIGLIA_1
 10
26.0504
 20
-2.1947
 30
2.0719
 70
192
 0
VERTEX
 8
SUPPORTO_MNIGLIA_1
 10
22.0504
 20
-2.1947
 30
2.0957
 70
192
 0
VERTEX
 8
SUPPORTO_MNIGLIA_1
 10
23.0504
 20
-4.9179
 30
2.0957
 70
192
 0
VERTEX
 8
SUPPORTO_MNIGLIA_1
 10
24.0504
 20
-4.9179
 30
2.0957
 70
192
 0
VERTEX
 8
SUPPORTO_MNIGLIA_1
 10
25.0504
 20
-4.9179
 30
2.0957
 70
192
 0
VERTEX
 8
SUPPORTO_MNIGLIA_1
 10
26.0504
 20
-2.1947
 30
2.0957
 70
192
 0
VERTEX
 8
SUPPORTO_MNIGLIA_1
 10
22.0504
 20
-2.1947
 30
2.1197
 70
192
 0
VERTEX
 8
SUPPORTO_MNIGLIA_1
 10
23.0504
 20
-4.9075
 30
2.1197
 70
192
 0
VERTEX
 8
SUPPORTO_MNIGLIA_1
 10
24.0504
 20
-4.9075
 30
2.1197
 70
192
 0
VERTEX
 8
SUPPORTO_MNIGLIA_1
 10
25.0504
 20
-4.9075
 30
2.1197
 70
192
 0
VERTEX
 8
SUPPORTO_MNIGLIA_1
 10
26.0504
 20
-2.1947
 30
2.1197
 70
192
 0
VERTEX
 8
SUPPORTO_MNIGLIA_1
 10
22.0504
 20
-2.1947
 30
2.144
 70
192
 0
VERTEX
 8
SUPPORTO_MNIGLIA_1
 10
23.0504
 20
-4.8978
 30
2.144
 70
192
 0
VERTEX
 8
SUPPORTO_MNIGLIA_1
 10
24.0504
 20
-4.8978
 30
2.144
 70
192
 0
VERTEX
 8
SUPPORTO_MNIGLIA_1
 10
25.0504
 20
-4.8978
 30
2.144
 70
192
 0
VERTEX
 8
SUPPORTO_MNIGLIA_1
 10
26.0504
 20
-2.1947
 30
2.144
 70
192
 0
VERTEX
 8
SUPPORTO_MNIGLIA_1
 10
22.0504
 20
-2.1947
 30
2.1686
 70
192
 0
VERTEX
 8
SUPPORTO_MNIGLIA_1
 10
23.0504
 20
-4.8888
 30
2.1686
 70
192
 0
VERTEX
 8
SUPPORTO_MNIGLIA_1
 10
24.0504
 20
-4.8888
 30
2.1686
 70
192
 0
VERTEX
 8
SUPPORTO_MNIGLIA_1
 10
25.0504
 20
-4.8888
 30
2.1686
 70
192
 0
VERTEX
 8
SUPPORTO_MNIGLIA_1
 10
26.0504
 20
-2.1947
 30
2.1686
 70
192
 0
VERTEX
 8
SUPPORTO_MNIGLIA_1
 10
22.0504
 20
-2.1947
 30
2.1934
 70
192
 0
VERTEX
 8
SUPPORTO_MNIGLIA_1
 10
23.0504
 20
-4.8804
 30
2.1934
 70
192
 0
VERTEX
 8
SUPPORTO_MNIGLIA_1
 10
24.0504
 20
-4.8804
 30
2.1934
 70
192
 0
VERTEX
 8
SUPPORTO_MNIGLIA_1
 10
25.0504
 20
-4.8804
 30
2.1934
 70
192
 0
VERTEX
 8
SUPPORTO_MNIGLIA_1
 10
26.0504
 20
-2.1947
 30
2.1934
 70
192
 0
VERTEX
 8
SUPPORTO_MNIGLIA_1
 10
22.0504
 20
-2.1947
 30
2.2184
 70
192
 0
VERTEX
 8
SUPPORTO_MNIGLIA_1
 10
23.0504
 20
-4.8726
 30
2.2184
 70
192
 0
VERTEX
 8
SUPPORTO_MNIGLIA_1
 10
24.0504
 20
-4.8726
 30
2.2184
 70
192
 0
VERTEX
 8
SUPPORTO_MNIGLIA_1
 10
25.0504
 20
-4.8726
 30
2.2184
 70
192
 0
VERTEX
 8
SUPPORTO_MNIGLIA_1
 10
26.0504
 20
-2.1947
 30
2.2184
 70
192
 0
VERTEX
 8
SUPPORTO_MNIGLIA_1
 10
22.0504
 20
-2.1947
 30
2.2436
 70
192
 0
VERTEX
 8
SUPPORTO_MNIGLIA_1
 10
23.0504
 20
-4.8655
 30
2.2436
 70
192
 0
VERTEX
 8
SUPPORTO_MNIGLIA_1
 10
24.0504
 20
-4.8655
 30
2.2436
 70
192
 0
VERTEX
 8
SUPPORTO_MNIGLIA_1
 10
25.0504
 20
-4.8655
 30
2.2436
 70
192
 0
VERTEX
 8
SUPPORTO_MNIGLIA_1
 10
26.0504
 20
-2.1947
 30
2.2436
 70
192
 0
VERTEX
 8
SUPPORTO_MNIGLIA_1
 10
22.0504
 20
-2.1947
 30
2.269
 70
192
 0
VERTEX
 8
SUPPORTO_MNIGLIA_1
 10
23.0504
 20
-4.859
 30
2.269
 70
192
 0
VERTEX
 8
SUPPORTO_MNIGLIA_1
 10
24.0504
 20
-4.859
 30
2.269
 70
192
 0
VERTEX
 8
SUPPORTO_MNIGLIA_1
 10
25.0504
 20
-4.859
 30
2.269
 70
192
 0
VERTEX
 8
SUPPORTO_MNIGLIA_1
 10
26.0504
 20
-2.1947
 30
2.269
 70
192
 0
VERTEX
 8
SUPPORTO_MNIGLIA_1
 10
22.0504
 20
-2.1947
 30
2.2945
 70
192
 0
VERTEX
 8
SUPPORTO_MNIGLIA_1
 10
23.0504
 20
-4.8533
 30
2.2945
 70
192
 0
VERTEX
 8
SUPPORTO_MNIGLIA_1
 10
24.0504
 20
-4.8533
 30
2.2945
 70
192
 0
VERTEX
 8
SUPPORTO_MNIGLIA_1
 10
25.0504
 20
-4.8533
 30
2.2945
 70
192
 0
VERTEX
 8
SUPPORTO_MNIGLIA_1
 10
26.0504
 20
-2.1947
 30
2.2945
 70
192
 0
VERTEX
 8
SUPPORTO_MNIGLIA_1
 10
22.0504
 20
-2.1947
 30
2.3202
 70
192
 0
VERTEX
 8
SUPPORTO_MNIGLIA_1
 10
23.0504
 20
-4.8482
 30
2.3202
 70
192
 0
VERTEX
 8
SUPPORTO_MNIGLIA_1
 10
24.0504
 20
-4.8482
 30
2.3202
 70
192
 0
VERTEX
 8
SUPPORTO_MNIGLIA_1
 10
25.0504
 20
-4.8482
 30
2.3202
 70
192
 0
VERTEX
 8
SUPPORTO_MNIGLIA_1
 10
26.0504
 20
-2.1947
 30
2.3202
 70
192
 0
VERTEX
 8
SUPPORTO_MNIGLIA_1
 10
22.0504
 20
-2.1947
 30
2.346
 70
192
 0
VERTEX
 8
SUPPORTO_MNIGLIA_1
 10
23.0504
 20
-4.8437
 30
2.346
 70
192
 0
VERTEX
 8
SUPPORTO_MNIGLIA_1
 10
24.0504
 20
-4.8437
 30
2.346
 70
192
 0
VERTEX
 8
SUPPORTO_MNIGLIA_1
 10
25.0504
 20
-4.8437
 30
2.346
 70
192
 0
VERTEX
 8
SUPPORTO_MNIGLIA_1
 10
26.0504
 20
-2.1947
 30
2.346
 70
192
 0
VERTEX
 8
SUPPORTO_MNIGLIA_1
 10
22.0504
 20
-2.1947
 30
2.3719
 70
192
 0
VERTEX
 8
SUPPORTO_MNIGLIA_1
 10
23.0504
 20
-4.84
 30
2.3719
 70
192
 0
VERTEX
 8
SUPPORTO_MNIGLIA_1
 10
24.0504
 20
-4.84
 30
2.3719
 70
192
 0
VERTEX
 8
SUPPORTO_MNIGLIA_1
 10
25.0504
 20
-4.84
 30
2.3719
 70
192
 0
VERTEX
 8
SUPPORTO_MNIGLIA_1
 10
26.0504
 20
-2.1947
 30
2.3719
 70
192
 0
VERTEX
 8
SUPPORTO_MNIGLIA_1
 10
22.0504
 20
-2.1947
 30
2.3979
 70
192
 0
VERTEX
 8
SUPPORTO_MNIGLIA_1
 10
23.0504
 20
-4.8369
 30
2.3979
 70
192
 0
VERTEX
 8
SUPPORTO_MNIGLIA_1
 10
24.0504
 20
-4.8369
 30
2.3979
 70
192
 0
VERTEX
 8
SUPPORTO_MNIGLIA_1
 10
25.0504
 20
-4.8369
 30
2.3979
 70
192
 0
VERTEX
 8
SUPPORTO_MNIGLIA_1
 10
26.0504
 20
-2.1947
 30
2.3979
 70
192
 0
VERTEX
 8
SUPPORTO_MNIGLIA_1
 10
22.0504
 20
-2.1947
 30
2.4239
 70
192
 0
VERTEX
 8
SUPPORTO_MNIGLIA_1
 10
23.0504
 20
-4.8345
 30
2.4239
 70
192
 0
VERTEX
 8
SUPPORTO_MNIGLIA_1
 10
24.0504
 20
-4.8345
 30
2.4239
 70
192
 0
VERTEX
 8
SUPPORTO_MNIGLIA_1
 10
25.0504
 20
-4.8345
 30
2.4239
 70
192
 0
VERTEX
 8
SUPPORTO_MNIGLIA_1
 10
26.0504
 20
-2.1947
 30
2.4239
 70
192
 0
VERTEX
 8
SUPPORTO_MNIGLIA_1
 10
22.0504
 20
-2.1947
 30
2.4501
 70
192
 0
VERTEX
 8
SUPPORTO_MNIGLIA_1
 10
23.0504
 20
-4.8328
 30
2.4501
 70
192
 0
VERTEX
 8
SUPPORTO_MNIGLIA_1
 10
24.0504
 20
-4.8328
 30
2.4501
 70
192
 0
VERTEX
 8
SUPPORTO_MNIGLIA_1
 10
25.0504
 20
-4.8328
 30
2.4501
 70
192
 0
VERTEX
 8
SUPPORTO_MNIGLIA_1
 10
26.0504
 20
-2.1947
 30
2.4501
 70
192
 0
VERTEX
 8
SUPPORTO_MNIGLIA_1
 10
22.0504
 20
-2.1947
 30
2.4762
 70
192
 0
VERTEX
 8
SUPPORTO_MNIGLIA_1
 10
23.0504
 20
-4.8318
 30
2.4762
 70
192
 0
VERTEX
 8
SUPPORTO_MNIGLIA_1
 10
24.0504
 20
-4.8318
 30
2.4762
 70
192
 0
VERTEX
 8
SUPPORTO_MNIGLIA_1
 10
25.0504
 20
-4.8318
 30
2.4762
 70
192
 0
VERTEX
 8
SUPPORTO_MNIGLIA_1
 10
26.0504
 20
-2.1947
 30
2.4762
 70
192
 0
VERTEX
 8
SUPPORTO_MNIGLIA_1
 10
22.0504
 20
-2.1947
 30
2.5024
 70
192
 0
VERTEX
 8
SUPPORTO_MNIGLIA_1
 10
23.0504
 20
-4.8314
 30
2.5024
 70
192
 0
VERTEX
 8
SUPPORTO_MNIGLIA_1
 10
24.0504
 20
-4.8314
 30
2.5024
 70
192
 0
VERTEX
 8
SUPPORTO_MNIGLIA_1
 10
25.0504
 20
-4.8314
 30
2.5024
 70
192
 0
VERTEX
 8
SUPPORTO_MNIGLIA_1
 10
26.0504
 20
-2.1947
 30
2.5024
 70
192
 0
VERTEX
 8
SUPPORTO_MNIGLIA_1
 10
22.0504
 20
-2.1947
 30
2.5286
 70
192
 0
VERTEX
 8
SUPPORTO_MNIGLIA_1
 10
23.0504
 20
-4.8318
 30
2.5286
 70
192
 0
VERTEX
 8
SUPPORTO_MNIGLIA_1
 10
24.0504
 20
-4.8318
 30
2.5286
 70
192
 0
VERTEX
 8
SUPPORTO_MNIGLIA_1
 10
25.0504
 20
-4.8318
 30
2.5286
 70
192
 0
VERTEX
 8
SUPPORTO_MNIGLIA_1
 10
26.0504
 20
-2.1947
 30
2.5286
 70
192
 0
VERTEX
 8
SUPPORTO_MNIGLIA_1
 10
22.0504
 20
-2.1947
 30
2.5547
 70
192
 0
VERTEX
 8
SUPPORTO_MNIGLIA_1
 10
23.0504
 20
-4.8328
 30
2.5547
 70
192
 0
VERTEX
 8
SUPPORTO_MNIGLIA_1
 10
24.0504
 20
-4.8328
 30
2.5547
 70
192
 0
VERTEX
 8
SUPPORTO_MNIGLIA_1
 10
25.0504
 20
-4.8328
 30
2.5547
 70
192
 0
VERTEX
 8
SUPPORTO_MNIGLIA_1
 10
26.0504
 20
-2.1947
 30
2.5547
 70
192
 0
VERTEX
 8
SUPPORTO_MNIGLIA_1
 10
22.0504
 20
-2.1947
 30
2.5809
 70
192
 0
VERTEX
 8
SUPPORTO_MNIGLIA_1
 10
23.0504
 20
-4.8345
 30
2.5809
 70
192
 0
VERTEX
 8
SUPPORTO_MNIGLIA_1
 10
24.0504
 20
-4.8345
 30
2.5809
 70
192
 0
VERTEX
 8
SUPPORTO_MNIGLIA_1
 10
25.0504
 20
-4.8345
 30
2.5809
 70
192
 0
VERTEX
 8
SUPPORTO_MNIGLIA_1
 10
26.0504
 20
-2.1947
 30
2.5809
 70
192
 0
VERTEX
 8
SUPPORTO_MNIGLIA_1
 10
22.0504
 20
-2.1947
 30
2.6069
 70
192
 0
VERTEX
 8
SUPPORTO_MNIGLIA_1
 10
23.0504
 20
-4.8369
 30
2.6069
 70
192
 0
VERTEX
 8
SUPPORTO_MNIGLIA_1
 10
24.0504
 20
-4.8369
 30
2.6069
 70
192
 0
VERTEX
 8
SUPPORTO_MNIGLIA_1
 10
25.0504
 20
-4.8369
 30
2.6069
 70
192
 0
VERTEX
 8
SUPPORTO_MNIGLIA_1
 10
26.0504
 20
-2.1947
 30
2.6069
 70
192
 0
VERTEX
 8
SUPPORTO_MNIGLIA_1
 10
22.0504
 20
-2.1947
 30
2.6329
 70
192
 0
VERTEX
 8
SUPPORTO_MNIGLIA_1
 10
23.0504
 20
-4.84
 30
2.6329
 70
192
 0
VERTEX
 8
SUPPORTO_MNIGLIA_1
 10
24.0504
 20
-4.84
 30
2.6329
 70
192
 0
VERTEX
 8
SUPPORTO_MNIGLIA_1
 10
25.0504
 20
-4.84
 30
2.6329
 70
192
 0
VERTEX
 8
SUPPORTO_MNIGLIA_1
 10
26.0504
 20
-2.1947
 30
2.6329
 70
192
 0
VERTEX
 8
SUPPORTO_MNIGLIA_1
 10
22.0504
 20
-2.1947
 30
2.6588
 70
192
 0
VERTEX
 8
SUPPORTO_MNIGLIA_1
 10
23.0504
 20
-4.8437
 30
2.6588
 70
192
 0
VERTEX
 8
SUPPORTO_MNIGLIA_1
 10
24.0504
 20
-4.8437
 30
2.6588
 70
192
 0
VERTEX
 8
SUPPORTO_MNIGLIA_1
 10
25.0504
 20
-4.8437
 30
2.6588
 70
192
 0
VERTEX
 8
SUPPORTO_MNIGLIA_1
 10
26.0504
 20
-2.1947
 30
2.6588
 70
192
 0
VERTEX
 8
SUPPORTO_MNIGLIA_1
 10
22.0504
 20
-2.1947
 30
2.6846
 70
192
 0
VERTEX
 8
SUPPORTO_MNIGLIA_1
 10
23.0504
 20
-4.8482
 30
2.6846
 70
192
 0
VERTEX
 8
SUPPORTO_MNIGLIA_1
 10
24.0504
 20
-4.8482
 30
2.6846
 70
192
 0
VERTEX
 8
SUPPORTO_MNIGLIA_1
 10
25.0504
 20
-4.8482
 30
2.6846
 70
192
 0
VERTEX
 8
SUPPORTO_MNIGLIA_1
 10
26.0504
 20
-2.1947
 30
2.6846
 70
192
 0
VERTEX
 8
SUPPORTO_MNIGLIA_1
 10
22.0504
 20
-2.1947
 30
2.7103
 70
192
 0
VERTEX
 8
SUPPORTO_MNIGLIA_1
 10
23.0504
 20
-4.8533
 30
2.7103
 70
192
 0
VERTEX
 8
SUPPORTO_MNIGLIA_1
 10
24.0504
 20
-4.8533
 30
2.7103
 70
192
 0
VERTEX
 8
SUPPORTO_MNIGLIA_1
 10
25.0504
 20
-4.8533
 30
2.7103
 70
192
 0
VERTEX
 8
SUPPORTO_MNIGLIA_1
 10
26.0504
 20
-2.1947
 30
2.7103
 70
192
 0
VERTEX
 8
SUPPORTO_MNIGLIA_1
 10
22.0504
 20
-2.1947
 30
2.7358
 70
192
 0
VERTEX
 8
SUPPORTO_MNIGLIA_1
 10
23.0504
 20
-4.859
 30
2.7358
 70
192
 0
VERTEX
 8
SUPPORTO_MNIGLIA_1
 10
24.0504
 20
-4.859
 30
2.7358
 70
192
 0
VERTEX
 8
SUPPORTO_MNIGLIA_1
 10
25.0504
 20
-4.859
 30
2.7358
 70
192
 0
VERTEX
 8
SUPPORTO_MNIGLIA_1
 10
26.0504
 20
-2.1947
 30
2.7358
 70
192
 0
VERTEX
 8
SUPPORTO_MNIGLIA_1
 10
22.0504
 20
-2.1947
 30
2.7612
 70
192
 0
VERTEX
 8
SUPPORTO_MNIGLIA_1
 10
23.0504
 20
-4.8655
 30
2.7612
 70
192
 0
VERTEX
 8
SUPPORTO_MNIGLIA_1
 10
24.0504
 20
-4.8655
 30
2.7612
 70
192
 0
VERTEX
 8
SUPPORTO_MNIGLIA_1
 10
25.0504
 20
-4.8655
 30
2.7612
 70
192
 0
VERTEX
 8
SUPPORTO_MNIGLIA_1
 10
26.0504
 20
-2.1947
 30
2.7612
 70
192
 0
VERTEX
 8
SUPPORTO_MNIGLIA_1
 10
22.0504
 20
-2.1947
 30
2.7864
 70
192
 0
VERTEX
 8
SUPPORTO_MNIGLIA_1
 10
23.0504
 20
-4.8726
 30
2.7864
 70
192
 0
VERTEX
 8
SUPPORTO_MNIGLIA_1
 10
24.0504
 20
-4.8726
 30
2.7864
 70
192
 0
VERTEX
 8
SUPPORTO_MNIGLIA_1
 10
25.0504
 20
-4.8726
 30
2.7864
 70
192
 0
VERTEX
 8
SUPPORTO_MNIGLIA_1
 10
26.0504
 20
-2.1947
 30
2.7864
 70
192
 0
VERTEX
 8
SUPPORTO_MNIGLIA_1
 10
22.0504
 20
-2.1947
 30
2.8114
 70
192
 0
VERTEX
 8
SUPPORTO_MNIGLIA_1
 10
23.0504
 20
-4.8804
 30
2.8114
 70
192
 0
VERTEX
 8
SUPPORTO_MNIGLIA_1
 10
24.0504
 20
-4.8804
 30
2.8114
 70
192
 0
VERTEX
 8
SUPPORTO_MNIGLIA_1
 10
25.0504
 20
-4.8804
 30
2.8114
 70
192
 0
VERTEX
 8
SUPPORTO_MNIGLIA_1
 10
26.0504
 20
-2.1947
 30
2.8114
 70
192
 0
VERTEX
 8
SUPPORTO_MNIGLIA_1
 10
22.0504
 20
-2.1947
 30
2.8362
 70
192
 0
VERTEX
 8
SUPPORTO_MNIGLIA_1
 10
23.0504
 20
-4.8888
 30
2.8362
 70
192
 0
VERTEX
 8
SUPPORTO_MNIGLIA_1
 10
24.0504
 20
-4.8888
 30
2.8362
 70
192
 0
VERTEX
 8
SUPPORTO_MNIGLIA_1
 10
25.0504
 20
-4.8888
 30
2.8362
 70
192
 0
VERTEX
 8
SUPPORTO_MNIGLIA_1
 10
26.0504
 20
-2.1947
 30
2.8362
 70
192
 0
VERTEX
 8
SUPPORTO_MNIGLIA_1
 10
22.0504
 20
-2.1947
 30
2.8608
 70
192
 0
VERTEX
 8
SUPPORTO_MNIGLIA_1
 10
23.0504
 20
-4.8978
 30
2.8608
 70
192
 0
VERTEX
 8
SUPPORTO_MNIGLIA_1
 10
24.0504
 20
-4.8978
 30
2.8608
 70
192
 0
VERTEX
 8
SUPPORTO_MNIGLIA_1
 10
25.0504
 20
-4.8978
 30
2.8608
 70
192
 0
VERTEX
 8
SUPPORTO_MNIGLIA_1
 10
26.0504
 20
-2.1947
 30
2.8608
 70
192
 0
VERTEX
 8
SUPPORTO_MNIGLIA_1
 10
22.0504
 20
-2.1947
 30
2.8851
 70
192
 0
VERTEX
 8
SUPPORTO_MNIGLIA_1
 10
23.0504
 20
-4.9075
 30
2.8851
 70
192
 0
VERTEX
 8
SUPPORTO_MNIGLIA_1
 10
24.0504
 20
-4.9075
 30
2.8851
 70
192
 0
VERTEX
 8
SUPPORTO_MNIGLIA_1
 10
25.0504
 20
-4.9075
 30
2.8851
 70
192
 0
VERTEX
 8
SUPPORTO_MNIGLIA_1
 10
26.0504
 20
-2.1947
 30
2.8851
 70
192
 0
VERTEX
 8
SUPPORTO_MNIGLIA_1
 10
22.0504
 20
-2.1947
 30
2.9091
 70
192
 0
VERTEX
 8
SUPPORTO_MNIGLIA_1
 10
23.0504
 20
-4.9179
 30
2.9091
 70
192
 0
VERTEX
 8
SUPPORTO_MNIGLIA_1
 10
24.0504
 20
-4.9179
 30
2.9091
 70
192
 0
VERTEX
 8
SUPPORTO_MNIGLIA_1
 10
25.0504
 20
-4.9179
 30
2.9091
 70
192
 0
VERTEX
 8
SUPPORTO_MNIGLIA_1
 10
26.0504
 20
-2.1947
 30
2.9091
 70
192
 0
VERTEX
 8
SUPPORTO_MNIGLIA_1
 10
22.0504
 20
-2.1947
 30
2.9329
 70
192
 0
VERTEX
 8
SUPPORTO_MNIGLIA_1
 10
23.0504
 20
-4.9288
 30
2.9329
 70
192
 0
VERTEX
 8
SUPPORTO_MNIGLIA_1
 10
24.0504
 20
-4.9288
 30
2.9329
 70
192
 0
VERTEX
 8
SUPPORTO_MNIGLIA_1
 10
25.0504
 20
-4.9288
 30
2.9329
 70
192
 0
VERTEX
 8
SUPPORTO_MNIGLIA_1
 10
26.0504
 20
-2.1947
 30
2.9329
 70
192
 0
VERTEX
 8
SUPPORTO_MNIGLIA_1
 10
22.0504
 20
-2.1947
 30
2.9564
 70
192
 0
VERTEX
 8
SUPPORTO_MNIGLIA_1
 10
23.0504
 20
-4.9404
 30
2.9564
 70
192
 0
VERTEX
 8
SUPPORTO_MNIGLIA_1
 10
24.0504
 20
-4.9404
 30
2.9564
 70
192
 0
VERTEX
 8
SUPPORTO_MNIGLIA_1
 10
25.0504
 20
-4.9404
 30
2.9564
 70
192
 0
VERTEX
 8
SUPPORTO_MNIGLIA_1
 10
26.0504
 20
-2.1947
 30
2.9564
 70
192
 0
VERTEX
 8
SUPPORTO_MNIGLIA_1
 10
22.0504
 20
-2.1947
 30
2.9796
 70
192
 0
VERTEX
 8
SUPPORTO_MNIGLIA_1
 10
23.0504
 20
-4.9526
 30
2.9796
 70
192
 0
VERTEX
 8
SUPPORTO_MNIGLIA_1
 10
24.0504
 20
-4.9526
 30
2.9796
 70
192
 0
VERTEX
 8
SUPPORTO_MNIGLIA_1
 10
25.0504
 20
-4.9526
 30
2.9796
 70
192
 0
VERTEX
 8
SUPPORTO_MNIGLIA_1
 10
26.0504
 20
-2.1947
 30
2.9796
 70
192
 0
VERTEX
 8
SUPPORTO_MNIGLIA_1
 10
22.0504
 20
-2.1947
 30
3.0024
 70
192
 0
VERTEX
 8
SUPPORTO_MNIGLIA_1
 10
23.0504
 20
-4.9654
 30
3.0024
 70
192
 0
VERTEX
 8
SUPPORTO_MNIGLIA_1
 10
24.0504
 20
-4.9654
 30
3.0024
 70
192
 0
VERTEX
 8
SUPPORTO_MNIGLIA_1
 10
25.0504
 20
-4.9654
 30
3.0024
 70
192
 0
VERTEX
 8
SUPPORTO_MNIGLIA_1
 10
26.0504
 20
-2.1947
 30
3.0024
 70
192
 0
VERTEX
 8
SUPPORTO_MNIGLIA_1
 10
22.0504
 20
-2.1947
 30
3.0249
 70
192
 0
VERTEX
 8
SUPPORTO_MNIGLIA_1
 10
23.0504
 20
-4.9788
 30
3.0249
 70
192
 0
VERTEX
 8
SUPPORTO_MNIGLIA_1
 10
24.0504
 20
-4.9788
 30
3.0249
 70
192
 0
VERTEX
 8
SUPPORTO_MNIGLIA_1
 10
25.0504
 20
-4.9788
 30
3.0249
 70
192
 0
VERTEX
 8
SUPPORTO_MNIGLIA_1
 10
26.0504
 20
-2.1947
 30
3.0249
 70
192
 0
VERTEX
 8
SUPPORTO_MNIGLIA_1
 10
22.0504
 20
-2.1947
 30
3.047
 70
192
 0
VERTEX
 8
SUPPORTO_MNIGLIA_1
 10
23.0504
 20
-4.9927
 30
3.047
 70
192
 0
VERTEX
 8
SUPPORTO_MNIGLIA_1
 10
24.0504
 20
-4.9927
 30
3.047
 70
192
 0
VERTEX
 8
SUPPORTO_MNIGLIA_1
 10
25.0504
 20
-4.9927
 30
3.047
 70
192
 0
VERTEX
 8
SUPPORTO_MNIGLIA_1
 10
26.0504
 20
-2.1947
 30
3.047
 70
192
 0
VERTEX
 8
SUPPORTO_MNIGLIA_1
 10
22.0504
 20
-2.1947
 30
3.0688
 70
192
 0
VERTEX
 8
SUPPORTO_MNIGLIA_1
 10
23.0504
 20
-5.0073
 30
3.0688
 70
192
 0
VERTEX
 8
SUPPORTO_MNIGLIA_1
 10
24.0504
 20
-5.0073
 30
3.0688
 70
192
 0
VERTEX
 8
SUPPORTO_MNIGLIA_1
 10
25.0504
 20
-5.0073
 30
3.0688
 70
192
 0
VERTEX
 8
SUPPORTO_MNIGLIA_1
 10
26.0504
 20
-2.1947
 30
3.0688
 70
192
 0
VERTEX
 8
SUPPORTO_MNIGLIA_1
 10
22.0504
 20
-2.1947
 30
3.0902
 70
192
 0
VERTEX
 8
SUPPORTO_MNIGLIA_1
 10
23.0504
 20
-5.0224
 30
3.0902
 70
192
 0
VERTEX
 8
SUPPORTO_MNIGLIA_1
 10
24.0504
 20
-5.0224
 30
3.0902
 70
192
 0
VERTEX
 8
SUPPORTO_MNIGLIA_1
 10
25.0504
 20
-5.0224
 30
3.0902
 70
192
 0
VERTEX
 8
SUPPORTO_MNIGLIA_1
 10
26.0504
 20
-2.1947
 30
3.0902
 70
192
 0
VERTEX
 8
SUPPORTO_MNIGLIA_1
 10
22.0504
 20
-2.1947
 30
3.1112
 70
192
 0
VERTEX
 8
SUPPORTO_MNIGLIA_1
 10
23.0504
 20
-5.0381
 30
3.1112
 70
192
 0
VERTEX
 8
SUPPORTO_MNIGLIA_1
 10
24.0504
 20
-5.0381
 30
3.1112
 70
192
 0
VERTEX
 8
SUPPORTO_MNIGLIA_1
 10
25.0504
 20
-5.0381
 30
3.1112
 70
192
 0
VERTEX
 8
SUPPORTO_MNIGLIA_1
 10
26.0504
 20
-2.1947
 30
3.1112
 70
192
 0
VERTEX
 8
SUPPORTO_MNIGLIA_1
 10
22.0504
 20
-2.1947
 30
3.1317
 70
192
 0
VERTEX
 8
SUPPORTO_MNIGLIA_1
 10
23.0504
 20
-5.0543
 30
3.1317
 70
192
 0
VERTEX
 8
SUPPORTO_MNIGLIA_1
 10
24.0504
 20
-5.0543
 30
3.1317
 70
192
 0
VERTEX
 8
SUPPORTO_MNIGLIA_1
 10
25.0504
 20
-5.0543
 30
3.1317
 70
192
 0
VERTEX
 8
SUPPORTO_MNIGLIA_1
 10
26.0504
 20
-2.1947
 30
3.1317
 70
192
 0
VERTEX
 8
SUPPORTO_MNIGLIA_1
 10
22.0504
 20
-2.1947
 30
3.1518
 70
192
 0
VERTEX
 8
SUPPORTO_MNIGLIA_1
 10
23.0504
 20
-5.071
 30
3.1518
 70
192
 0
VERTEX
 8
SUPPORTO_MNIGLIA_1
 10
24.0504
 20
-5.071
 30
3.1518
 70
192
 0
VERTEX
 8
SUPPORTO_MNIGLIA_1
 10
25.0504
 20
-5.071
 30
3.1518
 70
192
 0
VERTEX
 8
SUPPORTO_MNIGLIA_1
 10
26.0504
 20
-2.1947
 30
3.1518
 70
192
 0
VERTEX
 8
SUPPORTO_MNIGLIA_1
 10
22.0504
 20
-2.1947
 30
3.1715
 70
192
 0
VERTEX
 8
SUPPORTO_MNIGLIA_1
 10
23.0504
 20
-5.0883
 30
3.1715
 70
192
 0
VERTEX
 8
SUPPORTO_MNIGLIA_1
 10
24.0504
 20
-5.0883
 30
3.1715
 70
192
 0
VERTEX
 8
SUPPORTO_MNIGLIA_1
 10
25.0504
 20
-5.0883
 30
3.1715
 70
192
 0
VERTEX
 8
SUPPORTO_MNIGLIA_1
 10
26.0504
 20
-2.1947
 30
3.1715
 70
192
 0
VERTEX
 8
SUPPORTO_MNIGLIA_1
 10
22.0504
 20
-2.1947
 30
3.1908
 70
192
 0
VERTEX
 8
SUPPORTO_MNIGLIA_1
 10
23.0504
 20
-5.106
 30
3.1908
 70
192
 0
VERTEX
 8
SUPPORTO_MNIGLIA_1
 10
24.0504
 20
-5.106
 30
3.1908
 70
192
 0
VERTEX
 8
SUPPORTO_MNIGLIA_1
 10
25.0504
 20
-5.106
 30
3.1908
 70
192
 0
VERTEX
 8
SUPPORTO_MNIGLIA_1
 10
26.0504
 20
-2.1947
 30
3.1908
 70
192
 0
VERTEX
 8
SUPPORTO_MNIGLIA_1
 10
22.0504
 20
-2.1947
 30
3.2095
 70
192
 0
VERTEX
 8
SUPPORTO_MNIGLIA_1
 10
23.0504
 20
-5.1243
 30
3.2095
 70
192
 0
VERTEX
 8
SUPPORTO_MNIGLIA_1
 10
24.0504
 20
-5.1243
 30
3.2095
 70
192
 0
VERTEX
 8
SUPPORTO_MNIGLIA_1
 10
25.0504
 20
-5.1243
 30
3.2095
 70
192
 0
VERTEX
 8
SUPPORTO_MNIGLIA_1
 10
26.0504
 20
-2.1947
 30
3.2095
 70
192
 0
VERTEX
 8
SUPPORTO_MNIGLIA_1
 10
22.0504
 20
-2.1947
 30
3.2278
 70
192
 0
VERTEX
 8
SUPPORTO_MNIGLIA_1
 10
23.0504
 20
-5.1431
 30
3.2278
 70
192
 0
VERTEX
 8
SUPPORTO_MNIGLIA_1
 10
24.0504
 20
-5.1431
 30
3.2278
 70
192
 0
VERTEX
 8
SUPPORTO_MNIGLIA_1
 10
25.0504
 20
-5.1431
 30
3.2278
 70
192
 0
VERTEX
 8
SUPPORTO_MNIGLIA_1
 10
26.0504
 20
-2.1947
 30
3.2278
 70
192
 0
VERTEX
 8
SUPPORTO_MNIGLIA_1
 10
22.0504
 20
-2.1947
 30
3.2455
 70
192
 0
VERTEX
 8
SUPPORTO_MNIGLIA_1
 10
23.0504
 20
-2.1947
 30
3.2455
 70
192
 0
VERTEX
 8
SUPPORTO_MNIGLIA_1
 10
24.0504
 20
-2.1947
 30
3.2455
 70
192
 0
VERTEX
 8
SUPPORTO_MNIGLIA_1
 10
25.0504
 20
-5.1623
 30
3.2455
 70
192
 0
VERTEX
 8
SUPPORTO_MNIGLIA_1
 10
26.0504
 20
-5.1623
 30
3.2455
 70
192
 0
VERTEX
 8
SUPPORTO_MNIGLIA_1
 10
22.0504
 20
-5.1623
 30
1.7593
 70
192
 0
VERTEX
 8
SUPPORTO_MNIGLIA_1
 10
23.0504
 20
-5.1623
 30
1.7593
 70
192
 0
VERTEX
 8
SUPPORTO_MNIGLIA_1
 10
24.0504
 20
-5.1623
 30
1.7593
 70
192
 0
VERTEX
 8
SUPPORTO_MNIGLIA_1
 10
25.0504
 20
-5.1623
 30
1.7593
 70
192
 0
VERTEX
 8
SUPPORTO_MNIGLIA_1
 10
26.0504
 20
-5.1623
 30
1.7593
 70
192
 0
VERTEX
 8
SUPPORTO_MNIGLIA_1
 10
22.0504
 20
-5.1431
 30
1.777
 70
192
 0
VERTEX
 8
SUPPORTO_MNIGLIA_1
 10
26.0504
 20
-5.1431
 30
1.777
 70
192
 0
VERTEX
 8
SUPPORTO_MNIGLIA_1
 10
22.0504
 20
-5.1243
 30
1.7953
 70
192
 0
VERTEX
 8
SUPPORTO_MNIGLIA_1
 10
26.0504
 20
-5.1243
 30
1.7953
 70
192
 0
VERTEX
 8
SUPPORTO_MNIGLIA_1
 10
22.0504
 20
-5.106
 30
1.814
 70
192
 0
VERTEX
 8
SUPPORTO_MNIGLIA_1
 10
26.0504
 20
-5.106
 30
1.814
 70
192
 0
VERTEX
 8
SUPPORTO_MNIGLIA_1
 10
22.0504
 20
-5.0883
 30
1.8333
 70
192
 0
VERTEX
 8
SUPPORTO_MNIGLIA_1
 10
26.0504
 20
-5.0883
 30
1.8333
 70
192
 0
VERTEX
 8
SUPPORTO_MNIGLIA_1
 10
22.0504
 20
-5.071
 30
1.853
 70
192
 0
VERTEX
 8
SUPPORTO_MNIGLIA_1
 10
26.0504
 20
-5.071
 30
1.853
 70
192
 0
VERTEX
 8
SUPPORTO_MNIGLIA_1
 10
22.0504
 20
-5.0543
 30
1.8731
 70
192
 0
VERTEX
 8
SUPPORTO_MNIGLIA_1
 10
26.0504
 20
-5.0543
 30
1.8731
 70
192
 0
VERTEX
 8
SUPPORTO_MNIGLIA_1
 10
22.0504
 20
-5.0381
 30
1.8936
 70
192
 0
VERTEX
 8
SUPPORTO_MNIGLIA_1
 10
26.0504
 20
-5.0381
 30
1.8936
 70
192
 0
VERTEX
 8
SUPPORTO_MNIGLIA_1
 10
22.0504
 20
-5.0224
 30
1.9146
 70
192
 0
VERTEX
 8
SUPPORTO_MNIGLIA_1
 10
26.0504
 20
-5.0224
 30
1.9146
 70
192
 0
VERTEX
 8
SUPPORTO_MNIGLIA_1
 10
22.0504
 20
-5.0073
 30
1.936
 70
192
 0
VERTEX
 8
SUPPORTO_MNIGLIA_1
 10
26.0504
 20
-5.0073
 30
1.936
 70
192
 0
VERTEX
 8
SUPPORTO_MNIGLIA_1
 10
22.0504
 20
-4.9927
 30
1.9578
 70
192
 0
VERTEX
 8
SUPPORTO_MNIGLIA_1
 10
26.0504
 20
-4.9927
 30
1.9578
 70
192
 0
VERTEX
 8
SUPPORTO_MNIGLIA_1
 10
22.0504
 20
-4.9788
 30
1.9799
 70
192
 0
VERTEX
 8
SUPPORTO_MNIGLIA_1
 10
26.0504
 20
-4.9788
 30
1.9799
 70
192
 0
VERTEX
 8
SUPPORTO_MNIGLIA_1
 10
22.0504
 20
-4.9654
 30
2.0024
 70
192
 0
VERTEX
 8
SUPPORTO_MNIGLIA_1
 10
26.0504
 20
-4.9654
 30
2.0024
 70
192
 0
VERTEX
 8
SUPPORTO_MNIGLIA_1
 10
22.0504
 20
-4.9526
 30
2.0252
 70
192
 0
VERTEX
 8
SUPPORTO_MNIGLIA_1
 10
26.0504
 20
-4.9526
 30
2.0252
 70
192
 0
VERTEX
 8
SUPPORTO_MNIGLIA_1
 10
22.0504
 20
-4.9404
 30
2.0484
 70
192
 0
VERTEX
 8
SUPPORTO_MNIGLIA_1
 10
26.0504
 20
-4.9404
 30
2.0484
 70
192
 0
VERTEX
 8
SUPPORTO_MNIGLIA_1
 10
22.0504
 20
-4.9288
 30
2.0719
 70
192
 0
VERTEX
 8
SUPPORTO_MNIGLIA_1
 10
26.0504
 20
-4.9288
 30
2.0719
 70
192
 0
VERTEX
 8
SUPPORTO_MNIGLIA_1
 10
22.0504
 20
-4.9179
 30
2.0957
 70
192
 0
VERTEX
 8
SUPPORTO_MNIGLIA_1
 10
26.0504
 20
-4.9179
 30
2.0957
 70
192
 0
VERTEX
 8
SUPPORTO_MNIGLIA_1
 10
22.0504
 20
-4.9075
 30
2.1197
 70
192
 0
VERTEX
 8
SUPPORTO_MNIGLIA_1
 10
26.0504
 20
-4.9075
 30
2.1197
 70
192
 0
VERTEX
 8
SUPPORTO_MNIGLIA_1
 10
22.0504
 20
-4.8978
 30
2.144
 70
192
 0
VERTEX
 8
SUPPORTO_MNIGLIA_1
 10
26.0504
 20
-4.8978
 30
2.144
 70
192
 0
VERTEX
 8
SUPPORTO_MNIGLIA_1
 10
22.0504
 20
-4.8888
 30
2.1686
 70
192
 0
VERTEX
 8
SUPPORTO_MNIGLIA_1
 10
26.0504
 20
-4.8888
 30
2.1686
 70
192
 0
VERTEX
 8
SUPPORTO_MNIGLIA_1
 10
22.0504
 20
-4.8804
 30
2.1934
 70
192
 0
VERTEX
 8
SUPPORTO_MNIGLIA_1
 10
26.0504
 20
-4.8804
 30
2.1934
 70
192
 0
VERTEX
 8
SUPPORTO_MNIGLIA_1
 10
22.0504
 20
-4.8726
 30
2.2184
 70
192
 0
VERTEX
 8
SUPPORTO_MNIGLIA_1
 10
26.0504
 20
-4.8726
 30
2.2184
 70
192
 0
VERTEX
 8
SUPPORTO_MNIGLIA_1
 10
22.0504
 20
-4.8655
 30
2.2436
 70
192
 0
VERTEX
 8
SUPPORTO_MNIGLIA_1
 10
26.0504
 20
-4.8655
 30
2.2436
 70
192
 0
VERTEX
 8
SUPPORTO_MNIGLIA_1
 10
22.0504
 20
-4.859
 30
2.269
 70
192
 0
VERTEX
 8
SUPPORTO_MNIGLIA_1
 10
26.0504
 20
-4.859
 30
2.269
 70
192
 0
VERTEX
 8
SUPPORTO_MNIGLIA_1
 10
22.0504
 20
-4.8533
 30
2.2945
 70
192
 0
VERTEX
 8
SUPPORTO_MNIGLIA_1
 10
26.0504
 20
-4.8533
 30
2.2945
 70
192
 0
VERTEX
 8
SUPPORTO_MNIGLIA_1
 10
22.0504
 20
-4.8482
 30
2.3202
 70
192
 0
VERTEX
 8
SUPPORTO_MNIGLIA_1
 10
26.0504
 20
-4.8482
 30
2.3202
 70
192
 0
VERTEX
 8
SUPPORTO_MNIGLIA_1
 10
22.0504
 20
-4.8437
 30
2.346
 70
192
 0
VERTEX
 8
SUPPORTO_MNIGLIA_1
 10
26.0504
 20
-4.8437
 30
2.346
 70
192
 0
VERTEX
 8
SUPPORTO_MNIGLIA_1
 10
22.0504
 20
-4.84
 30
2.3719
 70
192
 0
VERTEX
 8
SUPPORTO_MNIGLIA_1
 10
26.0504
 20
-4.84
 30
2.3719
 70
192
 0
VERTEX
 8
SUPPORTO_MNIGLIA_1
 10
22.0504
 20
-4.8369
 30
2.3979
 70
192
 0
VERTEX
 8
SUPPORTO_MNIGLIA_1
 10
26.0504
 20
-4.8369
 30
2.3979
 70
192
 0
VERTEX
 8
SUPPORTO_MNIGLIA_1
 10
22.0504
 20
-4.8345
 30
2.4239
 70
192
 0
VERTEX
 8
SUPPORTO_MNIGLIA_1
 10
26.0504
 20
-4.8345
 30
2.4239
 70
192
 0
VERTEX
 8
SUPPORTO_MNIGLIA_1
 10
22.0504
 20
-4.8328
 30
2.4501
 70
192
 0
VERTEX
 8
SUPPORTO_MNIGLIA_1
 10
26.0504
 20
-4.8328
 30
2.4501
 70
192
 0
VERTEX
 8
SUPPORTO_MNIGLIA_1
 10
22.0504
 20
-4.8318
 30
2.4762
 70
192
 0
VERTEX
 8
SUPPORTO_MNIGLIA_1
 10
26.0504
 20
-4.8318
 30
2.4762
 70
192
 0
VERTEX
 8
SUPPORTO_MNIGLIA_1
 10
22.0504
 20
-4.8314
 30
2.5024
 70
192
 0
VERTEX
 8
SUPPORTO_MNIGLIA_1
 10
26.0504
 20
-4.8314
 30
2.5024
 70
192
 0
VERTEX
 8
SUPPORTO_MNIGLIA_1
 10
22.0504
 20
-4.8318
 30
2.5286
 70
192
 0
VERTEX
 8
SUPPORTO_MNIGLIA_1
 10
26.0504
 20
-4.8318
 30
2.5286
 70
192
 0
VERTEX
 8
SUPPORTO_MNIGLIA_1
 10
22.0504
 20
-4.8328
 30
2.5547
 70
192
 0
VERTEX
 8
SUPPORTO_MNIGLIA_1
 10
26.0504
 20
-4.8328
 30
2.5547
 70
192
 0
VERTEX
 8
SUPPORTO_MNIGLIA_1
 10
22.0504
 20
-4.8345
 30
2.5809
 70
192
 0
VERTEX
 8
SUPPORTO_MNIGLIA_1
 10
26.0504
 20
-4.8345
 30
2.5809
 70
192
 0
VERTEX
 8
SUPPORTO_MNIGLIA_1
 10
22.0504
 20
-4.8369
 30
2.6069
 70
192
 0
VERTEX
 8
SUPPORTO_MNIGLIA_1
 10
26.0504
 20
-4.8369
 30
2.6069
 70
192
 0
VERTEX
 8
SUPPORTO_MNIGLIA_1
 10
22.0504
 20
-4.84
 30
2.6329
 70
192
 0
VERTEX
 8
SUPPORTO_MNIGLIA_1
 10
26.0504
 20
-4.84
 30
2.6329
 70
192
 0
VERTEX
 8
SUPPORTO_MNIGLIA_1
 10
22.0504
 20
-4.8437
 30
2.6588
 70
192
 0
VERTEX
 8
SUPPORTO_MNIGLIA_1
 10
26.0504
 20
-4.8437
 30
2.6588
 70
192
 0
VERTEX
 8
SUPPORTO_MNIGLIA_1
 10
22.0504
 20
-4.8482
 30
2.6846
 70
192
 0
VERTEX
 8
SUPPORTO_MNIGLIA_1
 10
26.0504
 20
-4.8482
 30
2.6846
 70
192
 0
VERTEX
 8
SUPPORTO_MNIGLIA_1
 10
22.0504
 20
-4.8533
 30
2.7103
 70
192
 0
VERTEX
 8
SUPPORTO_MNIGLIA_1
 10
26.0504
 20
-4.8533
 30
2.7103
 70
192
 0
VERTEX
 8
SUPPORTO_MNIGLIA_1
 10
22.0504
 20
-4.859
 30
2.7358
 70
192
 0
VERTEX
 8
SUPPORTO_MNIGLIA_1
 10
26.0504
 20
-4.859
 30
2.7358
 70
192
 0
VERTEX
 8
SUPPORTO_MNIGLIA_1
 10
22.0504
 20
-4.8655
 30
2.7612
 70
192
 0
VERTEX
 8
SUPPORTO_MNIGLIA_1
 10
26.0504
 20
-4.8655
 30
2.7612
 70
192
 0
VERTEX
 8
SUPPORTO_MNIGLIA_1
 10
22.0504
 20
-4.8726
 30
2.7864
 70
192
 0
VERTEX
 8
SUPPORTO_MNIGLIA_1
 10
26.0504
 20
-4.8726
 30
2.7864
 70
192
 0
VERTEX
 8
SUPPORTO_MNIGLIA_1
 10
22.0504
 20
-4.8804
 30
2.8114
 70
192
 0
VERTEX
 8
SUPPORTO_MNIGLIA_1
 10
26.0504
 20
-4.8804
 30
2.8114
 70
192
 0
VERTEX
 8
SUPPORTO_MNIGLIA_1
 10
22.0504
 20
-4.8888
 30
2.8362
 70
192
 0
VERTEX
 8
SUPPORTO_MNIGLIA_1
 10
26.0504
 20
-4.8888
 30
2.8362
 70
192
 0
VERTEX
 8
SUPPORTO_MNIGLIA_1
 10
22.0504
 20
-4.8978
 30
2.8608
 70
192
 0
VERTEX
 8
SUPPORTO_MNIGLIA_1
 10
26.0504
 20
-4.8978
 30
2.8608
 70
192
 0
VERTEX
 8
SUPPORTO_MNIGLIA_1
 10
22.0504
 20
-4.9075
 30
2.8851
 70
192
 0
VERTEX
 8
SUPPORTO_MNIGLIA_1
 10
26.0504
 20
-4.9075
 30
2.8851
 70
192
 0
VERTEX
 8
SUPPORTO_MNIGLIA_1
 10
22.0504
 20
-4.9179
 30
2.9091
 70
192
 0
VERTEX
 8
SUPPORTO_MNIGLIA_1
 10
26.0504
 20
-4.9179
 30
2.9091
 70
192
 0
VERTEX
 8
SUPPORTO_MNIGLIA_1
 10
22.0504
 20
-4.9288
 30
2.9329
 70
192
 0
VERTEX
 8
SUPPORTO_MNIGLIA_1
 10
26.0504
 20
-4.9288
 30
2.9329
 70
192
 0
VERTEX
 8
SUPPORTO_MNIGLIA_1
 10
22.0504
 20
-4.9404
 30
2.9564
 70
192
 0
VERTEX
 8
SUPPORTO_MNIGLIA_1
 10
26.0504
 20
-4.9404
 30
2.9564
 70
192
 0
VERTEX
 8
SUPPORTO_MNIGLIA_1
 10
22.0504
 20
-4.9526
 30
2.9796
 70
192
 0
VERTEX
 8
SUPPORTO_MNIGLIA_1
 10
26.0504
 20
-4.9526
 30
2.9796
 70
192
 0
VERTEX
 8
SUPPORTO_MNIGLIA_1
 10
22.0504
 20
-4.9654
 30
3.0024
 70
192
 0
VERTEX
 8
SUPPORTO_MNIGLIA_1
 10
26.0504
 20
-4.9654
 30
3.0024
 70
192
 0
VERTEX
 8
SUPPORTO_MNIGLIA_1
 10
22.0504
 20
-4.9788
 30
3.0249
 70
192
 0
VERTEX
 8
SUPPORTO_MNIGLIA_1
 10
26.0504
 20
-4.9788
 30
3.0249
 70
192
 0
VERTEX
 8
SUPPORTO_MNIGLIA_1
 10
22.0504
 20
-4.9927
 30
3.047
 70
192
 0
VERTEX
 8
SUPPORTO_MNIGLIA_1
 10
26.0504
 20
-4.9927
 30
3.047
 70
192
 0
VERTEX
 8
SUPPORTO_MNIGLIA_1
 10
22.0504
 20
-5.0073
 30
3.0688
 70
192
 0
VERTEX
 8
SUPPORTO_MNIGLIA_1
 10
26.0504
 20
-5.0073
 30
3.0688
 70
192
 0
VERTEX
 8
SUPPORTO_MNIGLIA_1
 10
22.0504
 20
-5.0224
 30
3.0902
 70
192
 0
VERTEX
 8
SUPPORTO_MNIGLIA_1
 10
26.0504
 20
-5.0224
 30
3.0902
 70
192
 0
VERTEX
 8
SUPPORTO_MNIGLIA_1
 10
22.0504
 20
-5.0381
 30
3.1112
 70
192
 0
VERTEX
 8
SUPPORTO_MNIGLIA_1
 10
26.0504
 20
-5.0381
 30
3.1112
 70
192
 0
VERTEX
 8
SUPPORTO_MNIGLIA_1
 10
22.0504
 20
-5.0543
 30
3.1317
 70
192
 0
VERTEX
 8
SUPPORTO_MNIGLIA_1
 10
26.0504
 20
-5.0543
 30
3.1317
 70
192
 0
VERTEX
 8
SUPPORTO_MNIGLIA_1
 10
22.0504
 20
-5.071
 30
3.1518
 70
192
 0
VERTEX
 8
SUPPORTO_MNIGLIA_1
 10
26.0504
 20
-5.071
 30
3.1518
 70
192
 0
VERTEX
 8
SUPPORTO_MNIGLIA_1
 10
22.0504
 20
-5.0883
 30
3.1715
 70
192
 0
VERTEX
 8
SUPPORTO_MNIGLIA_1
 10
26.0504
 20
-5.0883
 30
3.1715
 70
192
 0
VERTEX
 8
SUPPORTO_MNIGLIA_1
 10
22.0504
 20
-5.106
 30
3.1908
 70
192
 0
VERTEX
 8
SUPPORTO_MNIGLIA_1
 10
26.0504
 20
-5.106
 30
3.1908
 70
192
 0
VERTEX
 8
SUPPORTO_MNIGLIA_1
 10
22.0504
 20
-5.1243
 30
3.2095
 70
192
 0
VERTEX
 8
SUPPORTO_MNIGLIA_1
 10
26.0504
 20
-5.1243
 30
3.2095
 70
192
 0
VERTEX
 8
SUPPORTO_MNIGLIA_1
 10
22.0504
 20
-5.1431
 30
3.2278
 70
192
 0
VERTEX
 8
SUPPORTO_MNIGLIA_1
 10
26.0504
 20
-5.1431
 30
3.2278
 70
192
 0
VERTEX
 8
SUPPORTO_MNIGLIA_1
 10
22.0504
 20
-5.1623
 30
3.2455
 70
192
 0
VERTEX
 8
SUPPORTO_MNIGLIA_1
 10
23.0504
 20
-5.1623
 30
3.2455
 70
192
 0
VERTEX
 8
SUPPORTO_MNIGLIA_1
 10
24.0504
 20
-5.1623
 30
3.2455
 70
192
 0
VERTEX
 8
SUPPORTO_MNIGLIA_1
 10
0
 20
0
 30
0
 70
128
 71
269
 72
270
 73
275
 74
274
 0
VERTEX
 8
SUPPORTO_MNIGLIA_1
 10
0
 20
0
 30
0
 70
128
 71
328
 72
329
 73
9
 74
333
 0
VERTEX
 8
SUPPORTO_MNIGLIA_1
 10
0
 20
0
 30
0
 70
128
 71
329
 72
330
 73
10
 74
9
 0
VERTEX
 8
SUPPORTO_MNIGLIA_1
 10
0
 20
0
 30
0
 70
128
 71
330
 72
331
 73
11
 74
10
 0
VERTEX
 8
SUPPORTO_MNIGLIA_1
 10
0
 20
0
 30
0
 70
128
 71
331
 72
332
 73
334
 74
11
 0
VERTEX
 8
SUPPORTO_MNIGLIA_1
 10
0
 20
0
 30
0
 70
128
 71
437
 72
269
 73
274
 74
439
 0
VERTEX
 8
SUPPORTO_MNIGLIA_1
 10
0
 20
0
 30
0
 70
128
 71
226
 72
420
 73
422
 74
231
 0
VERTEX
 8
SUPPORTO_MNIGLIA_1
 10
0
 20
0
 30
0
 70
128
 71
333
 72
9
 73
14
 74
335
 0
VERTEX
 8
SUPPORTO_MNIGLIA_1
 10
0
 20
0
 30
0
 70
128
 71
9
 72
10
 73
15
 74
14
 0
VERTEX
 8
SUPPORTO_MNIGLIA_1
 10
0
 20
0
 30
0
 70
128
 71
10
 72
11
 73
16
 74
15
 0
VERTEX
 8
SUPPORTO_MNIGLIA_1
 10
0
 20
0
 30
0
 70
128
 71
11
 72
334
 73
336
 74
16
 0
VERTEX
 8
SUPPORTO_MNIGLIA_1
 10
0
 20
0
 30
0
 70
128
 71
321
 72
458
 73
327
 74
326
 0
VERTEX
 8
SUPPORTO_MNIGLIA_1
 10
0
 20
0
 30
0
 70
128
 71
274
 72
275
 73
280
 74
279
 0
VERTEX
 8
SUPPORTO_MNIGLIA_1
 10
0
 20
0
 30
0
 70
128
 71
335
 72
14
 73
19
 74
337
 0
VERTEX
 8
SUPPORTO_MNIGLIA_1
 10
0
 20
0
 30
0
 70
128
 71
14
 72
15
 73
20
 74
19
 0
VERTEX
 8
SUPPORTO_MNIGLIA_1
 10
0
 20
0
 30
0
 70
128
 71
15
 72
16
 73
21
 74
20
 0
VERTEX
 8
SUPPORTO_MNIGLIA_1
 10
0
 20
0
 30
0
 70
128
 71
16
 72
336
 73
338
 74
21
 0
VERTEX
 8
SUPPORTO_MNIGLIA_1
 10
0
 20
0
 30
0
 70
128
 71
320
 72
321
 73
326
 74
461
 0
VERTEX
 8
SUPPORTO_MNIGLIA_1
 10
0
 20
0
 30
0
 70
128
 71
266
 72
436
 73
438
 74
271
 0
VERTEX
 8
SUPPORTO_MNIGLIA_1
 10
0
 20
0
 30
0
 70
128
 71
337
 72
19
 73
24
 74
339
 0
VERTEX
 8
SUPPORTO_MNIGLIA_1
 10
0
 20
0
 30
0
 70
128
 71
19
 72
20
 73
25
 74
24
 0
VERTEX
 8
SUPPORTO_MNIGLIA_1
 10
0
 20
0
 30
0
 70
128
 71
20
 72
21
 73
26
 74
25
 0
VERTEX
 8
SUPPORTO_MNIGLIA_1
 10
0
 20
0
 30
0
 70
128
 71
21
 72
338
 73
340
 74
26
 0
VERTEX
 8
SUPPORTO_MNIGLIA_1
 10
0
 20
0
 30
0
 70
128
 71
319
 72
320
 73
461
 74
460
 0
VERTEX
 8
SUPPORTO_MNIGLIA_1
 10
0
 20
0
 30
0
 70
128
 71
265
 72
266
 73
271
 74
270
 0
VERTEX
 8
SUPPORTO_MNIGLIA_1
 10
0
 20
0
 30
0
 70
128
 71
339
 72
24
 73
29
 74
341
 0
VERTEX
 8
SUPPORTO_MNIGLIA_1
 10
0
 20
0
 30
0
 70
128
 71
24
 72
25
 73
30
 74
29
 0
VERTEX
 8
SUPPORTO_MNIGLIA_1
 10
0
 20
0
 30
0
 70
128
 71
25
 72
26
 73
31
 74
30
 0
VERTEX
 8
SUPPORTO_MNIGLIA_1
 10
0
 20
0
 30
0
 70
128
 71
26
 72
340
 73
342
 74
31
 0
VERTEX
 8
SUPPORTO_MNIGLIA_1
 10
0
 20
0
 30
0
 70
128
 71
457
 72
319
 73
460
 74
459
 0
VERTEX
 8
SUPPORTO_MNIGLIA_1
 10
0
 20
0
 30
0
 70
128
 71
264
 72
265
 73
270
 74
269
 0
VERTEX
 8
SUPPORTO_MNIGLIA_1
 10
0
 20
0
 30
0
 70
128
 71
341
 72
29
 73
34
 74
343
 0
VERTEX
 8
SUPPORTO_MNIGLIA_1
 10
0
 20
0
 30
0
 70
128
 71
29
 72
30
 73
35
 74
34
 0
VERTEX
 8
SUPPORTO_MNIGLIA_1
 10
0
 20
0
 30
0
 70
128
 71
30
 72
31
 73
36
 74
35
 0
VERTEX
 8
SUPPORTO_MNIGLIA_1
 10
0
 20
0
 30
0
 70
128
 71
31
 72
342
 73
344
 74
36
 0
VERTEX
 8
SUPPORTO_MNIGLIA_1
 10
0
 20
0
 30
0
 70
128
 71
225
 72
226
 73
231
 74
230
 0
VERTEX
 8
SUPPORTO_MNIGLIA_1
 10
0
 20
0
 30
0
 70
128
 71
435
 72
264
 73
269
 74
437
 0
VERTEX
 8
SUPPORTO_MNIGLIA_1
 10
0
 20
0
 30
0
 70
128
 71
343
 72
34
 73
39
 74
345
 0
VERTEX
 8
SUPPORTO_MNIGLIA_1
 10
0
 20
0
 30
0
 70
128
 71
34
 72
35
 73
40
 74
39
 0
VERTEX
 8
SUPPORTO_MNIGLIA_1
 10
0
 20
0
 30
0
 70
128
 71
35
 72
36
 73
41
 74
40
 0
VERTEX
 8
SUPPORTO_MNIGLIA_1
 10
0
 20
0
 30
0
 70
128
 71
36
 72
344
 73
346
 74
41
 0
VERTEX
 8
SUPPORTO_MNIGLIA_1
 10
0
 20
0
 30
0
 70
128
 71
224
 72
225
 73
230
 74
229
 0
VERTEX
 8
SUPPORTO_MNIGLIA_1
 10
0
 20
0
 30
0
 70
128
 71
419
 72
224
 73
229
 74
421
 0
VERTEX
 8
SUPPORTO_MNIGLIA_1
 10
0
 20
0
 30
0
 70
128
 71
345
 72
39
 73
44
 74
347
 0
VERTEX
 8
SUPPORTO_MNIGLIA_1
 10
0
 20
0
 30
0
 70
128
 71
39
 72
40
 73
45
 74
44
 0
VERTEX
 8
SUPPORTO_MNIGLIA_1
 10
0
 20
0
 30
0
 70
128
 71
40
 72
41
 73
46
 74
45
 0
VERTEX
 8
SUPPORTO_MNIGLIA_1
 10
0
 20
0
 30
0
 70
128
 71
41
 72
346
 73
348
 74
46
 0
VERTEX
 8
SUPPORTO_MNIGLIA_1
 10
0
 20
0
 30
0
 70
128
 71
316
 72
456
 73
458
 74
321
 0
VERTEX
 8
SUPPORTO_MNIGLIA_1
 10
0
 20
0
 30
0
 70
128
 71
275
 72
276
 73
281
 74
280
 0
VERTEX
 8
SUPPORTO_MNIGLIA_1
 10
0
 20
0
 30
0
 70
128
 71
347
 72
44
 73
49
 74
349
 0
VERTEX
 8
SUPPORTO_MNIGLIA_1
 10
0
 20
0
 30
0
 70
128
 71
44
 72
45
 73
50
 74
49
 0
VERTEX
 8
SUPPORTO_MNIGLIA_1
 10
0
 20
0
 30
0
 70
128
 71
45
 72
46
 73
51
 74
50
 0
VERTEX
 8
SUPPORTO_MNIGLIA_1
 10
0
 20
0
 30
0
 70
128
 71
46
 72
348
 73
350
 74
51
 0
VERTEX
 8
SUPPORTO_MNIGLIA_1
 10
0
 20
0
 30
0
 70
128
 71
315
 72
316
 73
321
 74
320
 0
VERTEX
 8
SUPPORTO_MNIGLIA_1
 10
0
 20
0
 30
0
 70
128
 71
261
 72
434
 73
436
 74
266
 0
VERTEX
 8
SUPPORTO_MNIGLIA_1
 10
0
 20
0
 30
0
 70
128
 71
349
 72
49
 73
54
 74
351
 0
VERTEX
 8
SUPPORTO_MNIGLIA_1
 10
0
 20
0
 30
0
 70
128
 71
49
 72
50
 73
55
 74
54
 0
VERTEX
 8
SUPPORTO_MNIGLIA_1
 10
0
 20
0
 30
0
 70
128
 71
50
 72
51
 73
56
 74
55
 0
VERTEX
 8
SUPPORTO_MNIGLIA_1
 10
0
 20
0
 30
0
 70
128
 71
51
 72
350
 73
352
 74
56
 0
VERTEX
 8
SUPPORTO_MNIGLIA_1
 10
0
 20
0
 30
0
 70
128
 71
314
 72
315
 73
320
 74
319
 0
VERTEX
 8
SUPPORTO_MNIGLIA_1
 10
0
 20
0
 30
0
 70
128
 71
260
 72
261
 73
266
 74
265
 0
VERTEX
 8
SUPPORTO_MNIGLIA_1
 10
0
 20
0
 30
0
 70
128
 71
351
 72
54
 73
59
 74
353
 0
VERTEX
 8
SUPPORTO_MNIGLIA_1
 10
0
 20
0
 30
0
 70
128
 71
54
 72
55
 73
60
 74
59
 0
VERTEX
 8
SUPPORTO_MNIGLIA_1
 10
0
 20
0
 30
0
 70
128
 71
55
 72
56
 73
61
 74
60
 0
VERTEX
 8
SUPPORTO_MNIGLIA_1
 10
0
 20
0
 30
0
 70
128
 71
56
 72
352
 73
354
 74
61
 0
VERTEX
 8
SUPPORTO_MNIGLIA_1
 10
0
 20
0
 30
0
 70
128
 71
455
 72
314
 73
319
 74
457
 0
VERTEX
 8
SUPPORTO_MNIGLIA_1
 10
0
 20
0
 30
0
 70
128
 71
259
 72
260
 73
265
 74
264
 0
VERTEX
 8
SUPPORTO_MNIGLIA_1
 10
0
 20
0
 30
0
 70
128
 71
353
 72
59
 73
64
 74
355
 0
VERTEX
 8
SUPPORTO_MNIGLIA_1
 10
0
 20
0
 30
0
 70
128
 71
59
 72
60
 73
65
 74
64
 0
VERTEX
 8
SUPPORTO_MNIGLIA_1
 10
0
 20
0
 30
0
 70
128
 71
60
 72
61
 73
66
 74
65
 0
VERTEX
 8
SUPPORTO_MNIGLIA_1
 10
0
 20
0
 30
0
 70
128
 71
61
 72
354
 73
356
 74
66
 0
VERTEX
 8
SUPPORTO_MNIGLIA_1
 10
0
 20
0
 30
0
 70
128
 71
281
 72
442
 73
444
 74
286
 0
VERTEX
 8
SUPPORTO_MNIGLIA_1
 10
0
 20
0
 30
0
 70
128
 71
433
 72
259
 73
264
 74
435
 0
VERTEX
 8
SUPPORTO_MNIGLIA_1
 10
0
 20
0
 30
0
 70
128
 71
355
 72
64
 73
69
 74
357
 0
VERTEX
 8
SUPPORTO_MNIGLIA_1
 10
0
 20
0
 30
0
 70
128
 71
64
 72
65
 73
70
 74
69
 0
VERTEX
 8
SUPPORTO_MNIGLIA_1
 10
0
 20
0
 30
0
 70
128
 71
65
 72
66
 73
71
 74
70
 0
VERTEX
 8
SUPPORTO_MNIGLIA_1
 10
0
 20
0
 30
0
 70
128
 71
66
 72
356
 73
358
 74
71
 0
VERTEX
 8
SUPPORTO_MNIGLIA_1
 10
0
 20
0
 30
0
 70
128
 71
311
 72
454
 73
456
 74
316
 0
VERTEX
 8
SUPPORTO_MNIGLIA_1
 10
0
 20
0
 30
0
 70
128
 71
221
 72
418
 73
420
 74
226
 0
VERTEX
 8
SUPPORTO_MNIGLIA_1
 10
0
 20
0
 30
0
 70
128
 71
357
 72
69
 73
74
 74
359
 0
VERTEX
 8
SUPPORTO_MNIGLIA_1
 10
0
 20
0
 30
0
 70
128
 71
69
 72
70
 73
75
 74
74
 0
VERTEX
 8
SUPPORTO_MNIGLIA_1
 10
0
 20
0
 30
0
 70
128
 71
70
 72
71
 73
76
 74
75
 0
VERTEX
 8
SUPPORTO_MNIGLIA_1
 10
0
 20
0
 30
0
 70
128
 71
71
 72
358
 73
360
 74
76
 0
VERTEX
 8
SUPPORTO_MNIGLIA_1
 10
0
 20
0
 30
0
 70
128
 71
310
 72
311
 73
316
 74
315
 0
VERTEX
 8
SUPPORTO_MNIGLIA_1
 10
0
 20
0
 30
0
 70
128
 71
276
 72
440
 73
442
 74
281
 0
VERTEX
 8
SUPPORTO_MNIGLIA_1
 10
0
 20
0
 30
0
 70
128
 71
359
 72
74
 73
79
 74
361
 0
VERTEX
 8
SUPPORTO_MNIGLIA_1
 10
0
 20
0
 30
0
 70
128
 71
74
 72
75
 73
80
 74
79
 0
VERTEX
 8
SUPPORTO_MNIGLIA_1
 10
0
 20
0
 30
0
 70
128
 71
75
 72
76
 73
81
 74
80
 0
VERTEX
 8
SUPPORTO_MNIGLIA_1
 10
0
 20
0
 30
0
 70
128
 71
76
 72
360
 73
362
 74
81
 0
VERTEX
 8
SUPPORTO_MNIGLIA_1
 10
0
 20
0
 30
0
 70
128
 71
309
 72
310
 73
315
 74
314
 0
VERTEX
 8
SUPPORTO_MNIGLIA_1
 10
0
 20
0
 30
0
 70
128
 71
256
 72
432
 73
434
 74
261
 0
VERTEX
 8
SUPPORTO_MNIGLIA_1
 10
0
 20
0
 30
0
 70
128
 71
361
 72
79
 73
84
 74
363
 0
VERTEX
 8
SUPPORTO_MNIGLIA_1
 10
0
 20
0
 30
0
 70
128
 71
79
 72
80
 73
85
 74
84
 0
VERTEX
 8
SUPPORTO_MNIGLIA_1
 10
0
 20
0
 30
0
 70
128
 71
80
 72
81
 73
86
 74
85
 0
VERTEX
 8
SUPPORTO_MNIGLIA_1
 10
0
 20
0
 30
0
 70
128
 71
81
 72
362
 73
364
 74
86
 0
VERTEX
 8
SUPPORTO_MNIGLIA_1
 10
0
 20
0
 30
0
 70
128
 71
453
 72
309
 73
314
 74
455
 0
VERTEX
 8
SUPPORTO_MNIGLIA_1
 10
0
 20
0
 30
0
 70
128
 71
255
 72
256
 73
261
 74
260
 0
VERTEX
 8
SUPPORTO_MNIGLIA_1
 10
0
 20
0
 30
0
 70
128
 71
363
 72
84
 73
89
 74
365
 0
VERTEX
 8
SUPPORTO_MNIGLIA_1
 10
0
 20
0
 30
0
 70
128
 71
84
 72
85
 73
90
 74
89
 0
VERTEX
 8
SUPPORTO_MNIGLIA_1
 10
0
 20
0
 30
0
 70
128
 71
85
 72
86
 73
91
 74
90
 0
VERTEX
 8
SUPPORTO_MNIGLIA_1
 10
0
 20
0
 30
0
 70
128
 71
86
 72
364
 73
366
 74
91
 0
VERTEX
 8
SUPPORTO_MNIGLIA_1
 10
0
 20
0
 30
0
 70
128
 71
220
 72
221
 73
226
 74
225
 0
VERTEX
 8
SUPPORTO_MNIGLIA_1
 10
0
 20
0
 30
0
 70
128
 71
254
 72
255
 73
260
 74
259
 0
VERTEX
 8
SUPPORTO_MNIGLIA_1
 10
0
 20
0
 30
0
 70
128
 71
365
 72
89
 73
94
 74
367
 0
VERTEX
 8
SUPPORTO_MNIGLIA_1
 10
0
 20
0
 30
0
 70
128
 71
89
 72
90
 73
95
 74
94
 0
VERTEX
 8
SUPPORTO_MNIGLIA_1
 10
0
 20
0
 30
0
 70
128
 71
90
 72
91
 73
96
 74
95
 0
VERTEX
 8
SUPPORTO_MNIGLIA_1
 10
0
 20
0
 30
0
 70
128
 71
91
 72
366
 73
368
 74
96
 0
VERTEX
 8
SUPPORTO_MNIGLIA_1
 10
0
 20
0
 30
0
 70
128
 71
306
 72
452
 73
454
 74
311
 0
VERTEX
 8
SUPPORTO_MNIGLIA_1
 10
0
 20
0
 30
0
 70
128
 71
431
 72
254
 73
259
 74
433
 0
VERTEX
 8
SUPPORTO_MNIGLIA_1
 10
0
 20
0
 30
0
 70
128
 71
367
 72
94
 73
99
 74
369
 0
VERTEX
 8
SUPPORTO_MNIGLIA_1
 10
0
 20
0
 30
0
 70
128
 71
94
 72
95
 73
100
 74
99
 0
VERTEX
 8
SUPPORTO_MNIGLIA_1
 10
0
 20
0
 30
0
 70
128
 71
95
 72
96
 73
101
 74
100
 0
VERTEX
 8
SUPPORTO_MNIGLIA_1
 10
0
 20
0
 30
0
 70
128
 71
96
 72
368
 73
370
 74
101
 0
VERTEX
 8
SUPPORTO_MNIGLIA_1
 10
0
 20
0
 30
0
 70
128
 71
305
 72
306
 73
311
 74
310
 0
VERTEX
 8
SUPPORTO_MNIGLIA_1
 10
0
 20
0
 30
0
 70
128
 71
219
 72
220
 73
225
 74
224
 0
VERTEX
 8
SUPPORTO_MNIGLIA_1
 10
0
 20
0
 30
0
 70
128
 71
369
 72
99
 73
104
 74
371
 0
VERTEX
 8
SUPPORTO_MNIGLIA_1
 10
0
 20
0
 30
0
 70
128
 71
99
 72
100
 73
105
 74
104
 0
VERTEX
 8
SUPPORTO_MNIGLIA_1
 10
0
 20
0
 30
0
 70
128
 71
100
 72
101
 73
106
 74
105
 0
VERTEX
 8
SUPPORTO_MNIGLIA_1
 10
0
 20
0
 30
0
 70
128
 71
101
 72
370
 73
372
 74
106
 0
VERTEX
 8
SUPPORTO_MNIGLIA_1
 10
0
 20
0
 30
0
 70
128
 71
304
 72
305
 73
310
 74
309
 0
VERTEX
 8
SUPPORTO_MNIGLIA_1
 10
0
 20
0
 30
0
 70
128
 71
251
 72
430
 73
432
 74
256
 0
VERTEX
 8
SUPPORTO_MNIGLIA_1
 10
0
 20
0
 30
0
 70
128
 71
371
 72
104
 73
109
 74
373
 0
VERTEX
 8
SUPPORTO_MNIGLIA_1
 10
0
 20
0
 30
0
 70
128
 71
104
 72
105
 73
110
 74
109
 0
VERTEX
 8
SUPPORTO_MNIGLIA_1
 10
0
 20
0
 30
0
 70
128
 71
105
 72
106
 73
111
 74
110
 0
VERTEX
 8
SUPPORTO_MNIGLIA_1
 10
0
 20
0
 30
0
 70
128
 71
106
 72
372
 73
374
 74
111
 0
VERTEX
 8
SUPPORTO_MNIGLIA_1
 10
0
 20
0
 30
0
 70
128
 71
451
 72
304
 73
309
 74
453
 0
VERTEX
 8
SUPPORTO_MNIGLIA_1
 10
0
 20
0
 30
0
 70
128
 71
250
 72
251
 73
256
 74
255
 0
VERTEX
 8
SUPPORTO_MNIGLIA_1
 10
0
 20
0
 30
0
 70
128
 71
373
 72
109
 73
114
 74
375
 0
VERTEX
 8
SUPPORTO_MNIGLIA_1
 10
0
 20
0
 30
0
 70
128
 71
109
 72
110
 73
115
 74
114
 0
VERTEX
 8
SUPPORTO_MNIGLIA_1
 10
0
 20
0
 30
0
 70
128
 71
110
 72
111
 73
116
 74
115
 0
VERTEX
 8
SUPPORTO_MNIGLIA_1
 10
0
 20
0
 30
0
 70
128
 71
111
 72
374
 73
376
 74
116
 0
VERTEX
 8
SUPPORTO_MNIGLIA_1
 10
0
 20
0
 30
0
 70
128
 71
417
 72
219
 73
224
 74
419
 0
VERTEX
 8
SUPPORTO_MNIGLIA_1
 10
0
 20
0
 30
0
 70
128
 71
249
 72
250
 73
255
 74
254
 0
VERTEX
 8
SUPPORTO_MNIGLIA_1
 10
0
 20
0
 30
0
 70
128
 71
375
 72
114
 73
119
 74
377
 0
VERTEX
 8
SUPPORTO_MNIGLIA_1
 10
0
 20
0
 30
0
 70
128
 71
114
 72
115
 73
120
 74
119
 0
VERTEX
 8
SUPPORTO_MNIGLIA_1
 10
0
 20
0
 30
0
 70
128
 71
115
 72
116
 73
121
 74
120
 0
VERTEX
 8
SUPPORTO_MNIGLIA_1
 10
0
 20
0
 30
0
 70
128
 71
116
 72
376
 73
378
 74
121
 0
VERTEX
 8
SUPPORTO_MNIGLIA_1
 10
0
 20
0
 30
0
 70
128
 71
301
 72
450
 73
452
 74
306
 0
VERTEX
 8
SUPPORTO_MNIGLIA_1
 10
0
 20
0
 30
0
 70
128
 71
429
 72
249
 73
254
 74
431
 0
VERTEX
 8
SUPPORTO_MNIGLIA_1
 10
0
 20
0
 30
0
 70
128
 71
377
 72
119
 73
124
 74
379
 0
VERTEX
 8
SUPPORTO_MNIGLIA_1
 10
0
 20
0
 30
0
 70
128
 71
119
 72
120
 73
125
 74
124
 0
VERTEX
 8
SUPPORTO_MNIGLIA_1
 10
0
 20
0
 30
0
 70
128
 71
120
 72
121
 73
126
 74
125
 0
VERTEX
 8
SUPPORTO_MNIGLIA_1
 10
0
 20
0
 30
0
 70
128
 71
121
 72
378
 73
380
 74
126
 0
VERTEX
 8
SUPPORTO_MNIGLIA_1
 10
0
 20
0
 30
0
 70
128
 71
300
 72
301
 73
306
 74
305
 0
VERTEX
 8
SUPPORTO_MNIGLIA_1
 10
0
 20
0
 30
0
 70
128
 71
441
 72
279
 73
284
 74
443
 0
VERTEX
 8
SUPPORTO_MNIGLIA_1
 10
0
 20
0
 30
0
 70
128
 71
379
 72
124
 73
129
 74
381
 0
VERTEX
 8
SUPPORTO_MNIGLIA_1
 10
0
 20
0
 30
0
 70
128
 71
124
 72
125
 73
130
 74
129
 0
VERTEX
 8
SUPPORTO_MNIGLIA_1
 10
0
 20
0
 30
0
 70
128
 71
125
 72
126
 73
131
 74
130
 0
VERTEX
 8
SUPPORTO_MNIGLIA_1
 10
0
 20
0
 30
0
 70
128
 71
126
 72
380
 73
382
 74
131
 0
VERTEX
 8
SUPPORTO_MNIGLIA_1
 10
0
 20
0
 30
0
 70
128
 71
299
 72
300
 73
305
 74
304
 0
VERTEX
 8
SUPPORTO_MNIGLIA_1
 10
0
 20
0
 30
0
 70
128
 71
246
 72
428
 73
430
 74
251
 0
VERTEX
 8
SUPPORTO_MNIGLIA_1
 10
0
 20
0
 30
0
 70
128
 71
381
 72
129
 73
134
 74
383
 0
VERTEX
 8
SUPPORTO_MNIGLIA_1
 10
0
 20
0
 30
0
 70
128
 71
129
 72
130
 73
135
 74
134
 0
VERTEX
 8
SUPPORTO_MNIGLIA_1
 10
0
 20
0
 30
0
 70
128
 71
130
 72
131
 73
136
 74
135
 0
VERTEX
 8
SUPPORTO_MNIGLIA_1
 10
0
 20
0
 30
0
 70
128
 71
131
 72
382
 73
384
 74
136
 0
VERTEX
 8
SUPPORTO_MNIGLIA_1
 10
0
 20
0
 30
0
 70
128
 71
449
 72
299
 73
304
 74
451
 0
VERTEX
 8
SUPPORTO_MNIGLIA_1
 10
0
 20
0
 30
0
 70
128
 71
245
 72
246
 73
251
 74
250
 0
VERTEX
 8
SUPPORTO_MNIGLIA_1
 10
0
 20
0
 30
0
 70
128
 71
383
 72
134
 73
139
 74
385
 0
VERTEX
 8
SUPPORTO_MNIGLIA_1
 10
0
 20
0
 30
0
 70
128
 71
134
 72
135
 73
140
 74
139
 0
VERTEX
 8
SUPPORTO_MNIGLIA_1
 10
0
 20
0
 30
0
 70
128
 71
135
 72
136
 73
141
 74
140
 0
VERTEX
 8
SUPPORTO_MNIGLIA_1
 10
0
 20
0
 30
0
 70
128
 71
136
 72
384
 73
386
 74
141
 0
VERTEX
 8
SUPPORTO_MNIGLIA_1
 10
0
 20
0
 30
0
 70
128
 71
439
 72
274
 73
279
 74
441
 0
VERTEX
 8
SUPPORTO_MNIGLIA_1
 10
0
 20
0
 30
0
 70
128
 71
244
 72
245
 73
250
 74
249
 0
VERTEX
 8
SUPPORTO_MNIGLIA_1
 10
0
 20
0
 30
0
 70
128
 71
385
 72
139
 73
144
 74
387
 0
VERTEX
 8
SUPPORTO_MNIGLIA_1
 10
0
 20
0
 30
0
 70
128
 71
139
 72
140
 73
145
 74
144
 0
VERTEX
 8
SUPPORTO_MNIGLIA_1
 10
0
 20
0
 30
0
 70
128
 71
140
 72
141
 73
146
 74
145
 0
VERTEX
 8
SUPPORTO_MNIGLIA_1
 10
0
 20
0
 30
0
 70
128
 71
141
 72
386
 73
388
 74
146
 0
VERTEX
 8
SUPPORTO_MNIGLIA_1
 10
0
 20
0
 30
0
 70
128
 71
271
 72
438
 73
440
 74
276
 0
VERTEX
 8
SUPPORTO_MNIGLIA_1
 10
0
 20
0
 30
0
 70
128
 71
427
 72
244
 73
249
 74
429
 0
VERTEX
 8
SUPPORTO_MNIGLIA_1
 10
0
 20
0
 30
0
 70
128
 71
387
 72
144
 73
149
 74
389
 0
VERTEX
 8
SUPPORTO_MNIGLIA_1
 10
0
 20
0
 30
0
 70
128
 71
144
 72
145
 73
150
 74
149
 0
VERTEX
 8
SUPPORTO_MNIGLIA_1
 10
0
 20
0
 30
0
 70
128
 71
145
 72
146
 73
151
 74
150
 0
VERTEX
 8
SUPPORTO_MNIGLIA_1
 10
0
 20
0
 30
0
 70
128
 71
146
 72
388
 73
390
 74
151
 0
VERTEX
 8
SUPPORTO_MNIGLIA_1
 10
0
 20
0
 30
0
 70
128
 71
421
 72
229
 73
234
 74
423
 0
VERTEX
 8
SUPPORTO_MNIGLIA_1
 10
0
 20
0
 30
0
 70
128
 71
270
 72
271
 73
276
 74
275
 0
VERTEX
 8
SUPPORTO_MNIGLIA_1
 10
0
 20
0
 30
0
 70
128
 71
389
 72
149
 73
154
 74
391
 0
VERTEX
 8
SUPPORTO_MNIGLIA_1
 10
0
 20
0
 30
0
 70
128
 71
149
 72
150
 73
155
 74
154
 0
VERTEX
 8
SUPPORTO_MNIGLIA_1
 10
0
 20
0
 30
0
 70
128
 71
150
 72
151
 73
156
 74
155
 0
VERTEX
 8
SUPPORTO_MNIGLIA_1
 10
0
 20
0
 30
0
 70
128
 71
151
 72
390
 73
392
 74
156
 0
VERTEX
 8
SUPPORTO_MNIGLIA_1
 10
0
 20
0
 30
0
 70
128
 71
296
 72
448
 73
450
 74
301
 0
VERTEX
 8
SUPPORTO_MNIGLIA_1
 10
0
 20
0
 30
0
 70
128
 71
241
 72
426
 73
428
 74
246
 0
VERTEX
 8
SUPPORTO_MNIGLIA_1
 10
0
 20
0
 30
0
 70
128
 71
391
 72
154
 73
159
 74
393
 0
VERTEX
 8
SUPPORTO_MNIGLIA_1
 10
0
 20
0
 30
0
 70
128
 71
154
 72
155
 73
160
 74
159
 0
VERTEX
 8
SUPPORTO_MNIGLIA_1
 10
0
 20
0
 30
0
 70
128
 71
155
 72
156
 73
161
 74
160
 0
VERTEX
 8
SUPPORTO_MNIGLIA_1
 10
0
 20
0
 30
0
 70
128
 71
156
 72
392
 73
394
 74
161
 0
VERTEX
 8
SUPPORTO_MNIGLIA_1
 10
0
 20
0
 30
0
 70
128
 71
295
 72
296
 73
301
 74
300
 0
VERTEX
 8
SUPPORTO_MNIGLIA_1
 10
0
 20
0
 30
0
 70
128
 71
240
 72
241
 73
246
 74
245
 0
VERTEX
 8
SUPPORTO_MNIGLIA_1
 10
0
 20
0
 30
0
 70
128
 71
393
 72
159
 73
164
 74
395
 0
VERTEX
 8
SUPPORTO_MNIGLIA_1
 10
0
 20
0
 30
0
 70
128
 71
159
 72
160
 73
165
 74
164
 0
VERTEX
 8
SUPPORTO_MNIGLIA_1
 10
0
 20
0
 30
0
 70
128
 71
160
 72
161
 73
166
 74
165
 0
VERTEX
 8
SUPPORTO_MNIGLIA_1
 10
0
 20
0
 30
0
 70
128
 71
161
 72
394
 73
396
 74
166
 0
VERTEX
 8
SUPPORTO_MNIGLIA_1
 10
0
 20
0
 30
0
 70
128
 71
294
 72
295
 73
300
 74
299
 0
VERTEX
 8
SUPPORTO_MNIGLIA_1
 10
0
 20
0
 30
0
 70
128
 71
239
 72
240
 73
245
 74
244
 0
VERTEX
 8
SUPPORTO_MNIGLIA_1
 10
0
 20
0
 30
0
 70
128
 71
395
 72
164
 73
169
 74
397
 0
VERTEX
 8
SUPPORTO_MNIGLIA_1
 10
0
 20
0
 30
0
 70
128
 71
164
 72
165
 73
170
 74
169
 0
VERTEX
 8
SUPPORTO_MNIGLIA_1
 10
0
 20
0
 30
0
 70
128
 71
165
 72
166
 73
171
 74
170
 0
VERTEX
 8
SUPPORTO_MNIGLIA_1
 10
0
 20
0
 30
0
 70
128
 71
166
 72
396
 73
398
 74
171
 0
VERTEX
 8
SUPPORTO_MNIGLIA_1
 10
0
 20
0
 30
0
 70
128
 71
447
 72
294
 73
299
 74
449
 0
VERTEX
 8
SUPPORTO_MNIGLIA_1
 10
0
 20
0
 30
0
 70
128
 71
425
 72
239
 73
244
 74
427
 0
VERTEX
 8
SUPPORTO_MNIGLIA_1
 10
0
 20
0
 30
0
 70
128
 71
397
 72
169
 73
174
 74
399
 0
VERTEX
 8
SUPPORTO_MNIGLIA_1
 10
0
 20
0
 30
0
 70
128
 71
169
 72
170
 73
175
 74
174
 0
VERTEX
 8
SUPPORTO_MNIGLIA_1
 10
0
 20
0
 30
0
 70
128
 71
170
 72
171
 73
176
 74
175
 0
VERTEX
 8
SUPPORTO_MNIGLIA_1
 10
0
 20
0
 30
0
 70
128
 71
171
 72
398
 73
400
 74
176
 0
VERTEX
 8
SUPPORTO_MNIGLIA_1
 10
0
 20
0
 30
0
 70
128
 71
443
 72
284
 73
289
 74
445
 0
VERTEX
 8
SUPPORTO_MNIGLIA_1
 10
0
 20
0
 30
0
 70
128
 71
279
 72
280
 73
285
 74
284
 0
VERTEX
 8
SUPPORTO_MNIGLIA_1
 10
0
 20
0
 30
0
 70
128
 71
399
 72
174
 73
179
 74
401
 0
VERTEX
 8
SUPPORTO_MNIGLIA_1
 10
0
 20
0
 30
0
 70
128
 71
174
 72
175
 73
180
 74
179
 0
VERTEX
 8
SUPPORTO_MNIGLIA_1
 10
0
 20
0
 30
0
 70
128
 71
175
 72
176
 73
181
 74
180
 0
VERTEX
 8
SUPPORTO_MNIGLIA_1
 10
0
 20
0
 30
0
 70
128
 71
176
 72
400
 73
402
 74
181
 0
VERTEX
 8
SUPPORTO_MNIGLIA_1
 10
0
 20
0
 30
0
 70
128
 71
291
 72
446
 73
448
 74
296
 0
VERTEX
 8
SUPPORTO_MNIGLIA_1
 10
0
 20
0
 30
0
 70
128
 71
236
 72
424
 73
426
 74
241
 0
VERTEX
 8
SUPPORTO_MNIGLIA_1
 10
0
 20
0
 30
0
 70
128
 71
401
 72
179
 73
184
 74
403
 0
VERTEX
 8
SUPPORTO_MNIGLIA_1
 10
0
 20
0
 30
0
 70
128
 71
179
 72
180
 73
185
 74
184
 0
VERTEX
 8
SUPPORTO_MNIGLIA_1
 10
0
 20
0
 30
0
 70
128
 71
180
 72
181
 73
186
 74
185
 0
VERTEX
 8
SUPPORTO_MNIGLIA_1
 10
0
 20
0
 30
0
 70
128
 71
181
 72
402
 73
404
 74
186
 0
VERTEX
 8
SUPPORTO_MNIGLIA_1
 10
0
 20
0
 30
0
 70
128
 71
290
 72
291
 73
296
 74
295
 0
VERTEX
 8
SUPPORTO_MNIGLIA_1
 10
0
 20
0
 30
0
 70
128
 71
235
 72
236
 73
241
 74
240
 0
VERTEX
 8
SUPPORTO_MNIGLIA_1
 10
0
 20
0
 30
0
 70
128
 71
403
 72
184
 73
189
 74
405
 0
VERTEX
 8
SUPPORTO_MNIGLIA_1
 10
0
 20
0
 30
0
 70
128
 71
184
 72
185
 73
190
 74
189
 0
VERTEX
 8
SUPPORTO_MNIGLIA_1
 10
0
 20
0
 30
0
 70
128
 71
185
 72
186
 73
191
 74
190
 0
VERTEX
 8
SUPPORTO_MNIGLIA_1
 10
0
 20
0
 30
0
 70
128
 71
186
 72
404
 73
406
 74
191
 0
VERTEX
 8
SUPPORTO_MNIGLIA_1
 10
0
 20
0
 30
0
 70
128
 71
289
 72
290
 73
295
 74
294
 0
VERTEX
 8
SUPPORTO_MNIGLIA_1
 10
0
 20
0
 30
0
 70
128
 71
234
 72
235
 73
240
 74
239
 0
VERTEX
 8
SUPPORTO_MNIGLIA_1
 10
0
 20
0
 30
0
 70
128
 71
405
 72
189
 73
194
 74
407
 0
VERTEX
 8
SUPPORTO_MNIGLIA_1
 10
0
 20
0
 30
0
 70
128
 71
189
 72
190
 73
195
 74
194
 0
VERTEX
 8
SUPPORTO_MNIGLIA_1
 10
0
 20
0
 30
0
 70
128
 71
190
 72
191
 73
196
 74
195
 0
VERTEX
 8
SUPPORTO_MNIGLIA_1
 10
0
 20
0
 30
0
 70
128
 71
191
 72
406
 73
408
 74
196
 0
VERTEX
 8
SUPPORTO_MNIGLIA_1
 10
0
 20
0
 30
0
 70
128
 71
445
 72
289
 73
294
 74
447
 0
VERTEX
 8
SUPPORTO_MNIGLIA_1
 10
0
 20
0
 30
0
 70
128
 71
423
 72
234
 73
239
 74
425
 0
VERTEX
 8
SUPPORTO_MNIGLIA_1
 10
0
 20
0
 30
0
 70
128
 71
407
 72
194
 73
199
 74
409
 0
VERTEX
 8
SUPPORTO_MNIGLIA_1
 10
0
 20
0
 30
0
 70
128
 71
194
 72
195
 73
200
 74
199
 0
VERTEX
 8
SUPPORTO_MNIGLIA_1
 10
0
 20
0
 30
0
 70
128
 71
195
 72
196
 73
201
 74
200
 0
VERTEX
 8
SUPPORTO_MNIGLIA_1
 10
0
 20
0
 30
0
 70
128
 71
196
 72
408
 73
410
 74
201
 0
VERTEX
 8
SUPPORTO_MNIGLIA_1
 10
0
 20
0
 30
0
 70
128
 71
216
 72
416
 73
418
 74
221
 0
VERTEX
 8
SUPPORTO_MNIGLIA_1
 10
0
 20
0
 30
0
 70
128
 71
280
 72
281
 73
286
 74
285
 0
VERTEX
 8
SUPPORTO_MNIGLIA_1
 10
0
 20
0
 30
0
 70
128
 71
409
 72
199
 73
204
 74
411
 0
VERTEX
 8
SUPPORTO_MNIGLIA_1
 10
0
 20
0
 30
0
 70
128
 71
199
 72
200
 73
205
 74
204
 0
VERTEX
 8
SUPPORTO_MNIGLIA_1
 10
0
 20
0
 30
0
 70
128
 71
200
 72
201
 73
206
 74
205
 0
VERTEX
 8
SUPPORTO_MNIGLIA_1
 10
0
 20
0
 30
0
 70
128
 71
201
 72
410
 73
412
 74
206
 0
VERTEX
 8
SUPPORTO_MNIGLIA_1
 10
0
 20
0
 30
0
 70
128
 71
286
 72
444
 73
446
 74
291
 0
VERTEX
 8
SUPPORTO_MNIGLIA_1
 10
0
 20
0
 30
0
 70
128
 71
231
 72
422
 73
424
 74
236
 0
VERTEX
 8
SUPPORTO_MNIGLIA_1
 10
0
 20
0
 30
0
 70
128
 71
411
 72
204
 73
209
 74
413
 0
VERTEX
 8
SUPPORTO_MNIGLIA_1
 10
0
 20
0
 30
0
 70
128
 71
204
 72
205
 73
210
 74
209
 0
VERTEX
 8
SUPPORTO_MNIGLIA_1
 10
0
 20
0
 30
0
 70
128
 71
205
 72
206
 73
211
 74
210
 0
VERTEX
 8
SUPPORTO_MNIGLIA_1
 10
0
 20
0
 30
0
 70
128
 71
206
 72
412
 73
414
 74
211
 0
VERTEX
 8
SUPPORTO_MNIGLIA_1
 10
0
 20
0
 30
0
 70
128
 71
285
 72
286
 73
291
 74
290
 0
VERTEX
 8
SUPPORTO_MNIGLIA_1
 10
0
 20
0
 30
0
 70
128
 71
230
 72
231
 73
236
 74
235
 0
VERTEX
 8
SUPPORTO_MNIGLIA_1
 10
0
 20
0
 30
0
 70
128
 71
413
 72
209
 73
214
 74
415
 0
VERTEX
 8
SUPPORTO_MNIGLIA_1
 10
0
 20
0
 30
0
 70
128
 71
209
 72
210
 73
215
 74
214
 0
VERTEX
 8
SUPPORTO_MNIGLIA_1
 10
0
 20
0
 30
0
 70
128
 71
210
 72
211
 73
216
 74
215
 0
VERTEX
 8
SUPPORTO_MNIGLIA_1
 10
0
 20
0
 30
0
 70
128
 71
211
 72
414
 73
416
 74
216
 0
VERTEX
 8
SUPPORTO_MNIGLIA_1
 10
0
 20
0
 30
0
 70
128
 71
284
 72
285
 73
290
 74
289
 0
VERTEX
 8
SUPPORTO_MNIGLIA_1
 10
0
 20
0
 30
0
 70
128
 71
229
 72
230
 73
235
 74
234
 0
VERTEX
 8
SUPPORTO_MNIGLIA_1
 10
0
 20
0
 30
0
 70
128
 71
415
 72
214
 73
219
 74
417
 0
VERTEX
 8
SUPPORTO_MNIGLIA_1
 10
0
 20
0
 30
0
 70
128
 71
214
 72
215
 73
220
 74
219
 0
VERTEX
 8
SUPPORTO_MNIGLIA_1
 10
0
 20
0
 30
0
 70
128
 71
215
 72
216
 73
221
 74
220
 0
VERTEX
 8
SUPPORTO_MNIGLIA_1
 10
0
 20
0
 30
0
 70
128
 71
328
 72
3
 73
4
 74
329
 0
VERTEX
 8
SUPPORTO_MNIGLIA_1
 10
0
 20
0
 30
0
 70
128
 71
333
 72
8
 73
3
 74
328
 0
VERTEX
 8
SUPPORTO_MNIGLIA_1
 10
0
 20
0
 30
0
 70
128
 71
329
 72
4
 73
5
 74
330
 0
VERTEX
 8
SUPPORTO_MNIGLIA_1
 10
0
 20
0
 30
0
 70
128
 71
330
 72
5
 73
6
 74
331
 0
VERTEX
 8
SUPPORTO_MNIGLIA_1
 10
0
 20
0
 30
0
 70
128
 71
331
 72
6
 73
7
 74
332
 0
VERTEX
 8
SUPPORTO_MNIGLIA_1
 10
0
 20
0
 30
0
 70
128
 71
332
 72
7
 73
12
 74
334
 0
VERTEX
 8
SUPPORTO_MNIGLIA_1
 10
0
 20
0
 30
0
 70
128
 71
439
 72
273
 73
268
 74
437
 0
VERTEX
 8
SUPPORTO_MNIGLIA_1
 10
0
 20
0
 30
0
 70
128
 71
420
 72
227
 73
232
 74
422
 0
VERTEX
 8
SUPPORTO_MNIGLIA_1
 10
0
 20
0
 30
0
 70
128
 71
335
 72
13
 73
8
 74
333
 0
VERTEX
 8
SUPPORTO_MNIGLIA_1
 10
0
 20
0
 30
0
 70
128
 71
334
 72
12
 73
17
 74
336
 0
VERTEX
 8
SUPPORTO_MNIGLIA_1
 10
0
 20
0
 30
0
 70
128
 71
458
 72
322
 73
2
 74
327
 0
VERTEX
 8
SUPPORTO_MNIGLIA_1
 10
0
 20
0
 30
0
 70
128
 71
327
 72
2
 73
1
 74
326
 0
VERTEX
 8
SUPPORTO_MNIGLIA_1
 10
0
 20
0
 30
0
 70
128
 71
337
 72
18
 73
13
 74
335
 0
VERTEX
 8
SUPPORTO_MNIGLIA_1
 10
0
 20
0
 30
0
 70
128
 71
336
 72
17
 73
22
 74
338
 0
VERTEX
 8
SUPPORTO_MNIGLIA_1
 10
0
 20
0
 30
0
 70
128
 71
326
 72
1
 73
325
 74
461
 0
VERTEX
 8
SUPPORTO_MNIGLIA_1
 10
0
 20
0
 30
0
 70
128
 71
436
 72
267
 73
272
 74
438
 0
VERTEX
 8
SUPPORTO_MNIGLIA_1
 10
0
 20
0
 30
0
 70
128
 71
339
 72
23
 73
18
 74
337
 0
VERTEX
 8
SUPPORTO_MNIGLIA_1
 10
0
 20
0
 30
0
 70
128
 71
338
 72
22
 73
27
 74
340
 0
VERTEX
 8
SUPPORTO_MNIGLIA_1
 10
0
 20
0
 30
0
 70
128
 71
461
 72
325
 73
324
 74
460
 0
VERTEX
 8
SUPPORTO_MNIGLIA_1
 10
0
 20
0
 30
0
 70
128
 71
341
 72
28
 73
23
 74
339
 0
VERTEX
 8
SUPPORTO_MNIGLIA_1
 10
0
 20
0
 30
0
 70
128
 71
340
 72
27
 73
32
 74
342
 0
VERTEX
 8
SUPPORTO_MNIGLIA_1
 10
0
 20
0
 30
0
 70
128
 71
460
 72
324
 73
323
 74
459
 0
VERTEX
 8
SUPPORTO_MNIGLIA_1
 10
0
 20
0
 30
0
 70
128
 71
459
 72
323
 73
318
 74
457
 0
VERTEX
 8
SUPPORTO_MNIGLIA_1
 10
0
 20
0
 30
0
 70
128
 71
343
 72
33
 73
28
 74
341
 0
VERTEX
 8
SUPPORTO_MNIGLIA_1
 10
0
 20
0
 30
0
 70
128
 71
342
 72
32
 73
37
 74
344
 0
VERTEX
 8
SUPPORTO_MNIGLIA_1
 10
0
 20
0
 30
0
 70
128
 71
437
 72
268
 73
263
 74
435
 0
VERTEX
 8
SUPPORTO_MNIGLIA_1
 10
0
 20
0
 30
0
 70
128
 71
345
 72
38
 73
33
 74
343
 0
VERTEX
 8
SUPPORTO_MNIGLIA_1
 10
0
 20
0
 30
0
 70
128
 71
344
 72
37
 73
42
 74
346
 0
VERTEX
 8
SUPPORTO_MNIGLIA_1
 10
0
 20
0
 30
0
 70
128
 71
421
 72
228
 73
223
 74
419
 0
VERTEX
 8
SUPPORTO_MNIGLIA_1
 10
0
 20
0
 30
0
 70
128
 71
347
 72
43
 73
38
 74
345
 0
VERTEX
 8
SUPPORTO_MNIGLIA_1
 10
0
 20
0
 30
0
 70
128
 71
346
 72
42
 73
47
 74
348
 0
VERTEX
 8
SUPPORTO_MNIGLIA_1
 10
0
 20
0
 30
0
 70
128
 71
456
 72
317
 73
322
 74
458
 0
VERTEX
 8
SUPPORTO_MNIGLIA_1
 10
0
 20
0
 30
0
 70
128
 71
349
 72
48
 73
43
 74
347
 0
VERTEX
 8
SUPPORTO_MNIGLIA_1
 10
0
 20
0
 30
0
 70
128
 71
348
 72
47
 73
52
 74
350
 0
VERTEX
 8
SUPPORTO_MNIGLIA_1
 10
0
 20
0
 30
0
 70
128
 71
434
 72
262
 73
267
 74
436
 0
VERTEX
 8
SUPPORTO_MNIGLIA_1
 10
0
 20
0
 30
0
 70
128
 71
351
 72
53
 73
48
 74
349
 0
VERTEX
 8
SUPPORTO_MNIGLIA_1
 10
0
 20
0
 30
0
 70
128
 71
350
 72
52
 73
57
 74
352
 0
VERTEX
 8
SUPPORTO_MNIGLIA_1
 10
0
 20
0
 30
0
 70
128
 71
353
 72
58
 73
53
 74
351
 0
VERTEX
 8
SUPPORTO_MNIGLIA_1
 10
0
 20
0
 30
0
 70
128
 71
352
 72
57
 73
62
 74
354
 0
VERTEX
 8
SUPPORTO_MNIGLIA_1
 10
0
 20
0
 30
0
 70
128
 71
457
 72
318
 73
313
 74
455
 0
VERTEX
 8
SUPPORTO_MNIGLIA_1
 10
0
 20
0
 30
0
 70
128
 71
355
 72
63
 73
58
 74
353
 0
VERTEX
 8
SUPPORTO_MNIGLIA_1
 10
0
 20
0
 30
0
 70
128
 71
354
 72
62
 73
67
 74
356
 0
VERTEX
 8
SUPPORTO_MNIGLIA_1
 10
0
 20
0
 30
0
 70
128
 71
442
 72
282
 73
287
 74
444
 0
VERTEX
 8
SUPPORTO_MNIGLIA_1
 10
0
 20
0
 30
0
 70
128
 71
435
 72
263
 73
258
 74
433
 0
VERTEX
 8
SUPPORTO_MNIGLIA_1
 10
0
 20
0
 30
0
 70
128
 71
357
 72
68
 73
63
 74
355
 0
VERTEX
 8
SUPPORTO_MNIGLIA_1
 10
0
 20
0
 30
0
 70
128
 71
356
 72
67
 73
72
 74
358
 0
VERTEX
 8
SUPPORTO_MNIGLIA_1
 10
0
 20
0
 30
0
 70
128
 71
454
 72
312
 73
317
 74
456
 0
VERTEX
 8
SUPPORTO_MNIGLIA_1
 10
0
 20
0
 30
0
 70
128
 71
418
 72
222
 73
227
 74
420
 0
VERTEX
 8
SUPPORTO_MNIGLIA_1
 10
0
 20
0
 30
0
 70
128
 71
359
 72
73
 73
68
 74
357
 0
VERTEX
 8
SUPPORTO_MNIGLIA_1
 10
0
 20
0
 30
0
 70
128
 71
358
 72
72
 73
77
 74
360
 0
VERTEX
 8
SUPPORTO_MNIGLIA_1
 10
0
 20
0
 30
0
 70
128
 71
440
 72
277
 73
282
 74
442
 0
VERTEX
 8
SUPPORTO_MNIGLIA_1
 10
0
 20
0
 30
0
 70
128
 71
361
 72
78
 73
73
 74
359
 0
VERTEX
 8
SUPPORTO_MNIGLIA_1
 10
0
 20
0
 30
0
 70
128
 71
360
 72
77
 73
82
 74
362
 0
VERTEX
 8
SUPPORTO_MNIGLIA_1
 10
0
 20
0
 30
0
 70
128
 71
432
 72
257
 73
262
 74
434
 0
VERTEX
 8
SUPPORTO_MNIGLIA_1
 10
0
 20
0
 30
0
 70
128
 71
363
 72
83
 73
78
 74
361
 0
VERTEX
 8
SUPPORTO_MNIGLIA_1
 10
0
 20
0
 30
0
 70
128
 71
362
 72
82
 73
87
 74
364
 0
VERTEX
 8
SUPPORTO_MNIGLIA_1
 10
0
 20
0
 30
0
 70
128
 71
455
 72
313
 73
308
 74
453
 0
VERTEX
 8
SUPPORTO_MNIGLIA_1
 10
0
 20
0
 30
0
 70
128
 71
365
 72
88
 73
83
 74
363
 0
VERTEX
 8
SUPPORTO_MNIGLIA_1
 10
0
 20
0
 30
0
 70
128
 71
364
 72
87
 73
92
 74
366
 0
VERTEX
 8
SUPPORTO_MNIGLIA_1
 10
0
 20
0
 30
0
 70
128
 71
367
 72
93
 73
88
 74
365
 0
VERTEX
 8
SUPPORTO_MNIGLIA_1
 10
0
 20
0
 30
0
 70
128
 71
366
 72
92
 73
97
 74
368
 0
VERTEX
 8
SUPPORTO_MNIGLIA_1
 10
0
 20
0
 30
0
 70
128
 71
452
 72
307
 73
312
 74
454
 0
VERTEX
 8
SUPPORTO_MNIGLIA_1
 10
0
 20
0
 30
0
 70
128
 71
433
 72
258
 73
253
 74
431
 0
VERTEX
 8
SUPPORTO_MNIGLIA_1
 10
0
 20
0
 30
0
 70
128
 71
369
 72
98
 73
93
 74
367
 0
VERTEX
 8
SUPPORTO_MNIGLIA_1
 10
0
 20
0
 30
0
 70
128
 71
368
 72
97
 73
102
 74
370
 0
VERTEX
 8
SUPPORTO_MNIGLIA_1
 10
0
 20
0
 30
0
 70
128
 71
371
 72
103
 73
98
 74
369
 0
VERTEX
 8
SUPPORTO_MNIGLIA_1
 10
0
 20
0
 30
0
 70
128
 71
370
 72
102
 73
107
 74
372
 0
VERTEX
 8
SUPPORTO_MNIGLIA_1
 10
0
 20
0
 30
0
 70
128
 71
430
 72
252
 73
257
 74
432
 0
VERTEX
 8
SUPPORTO_MNIGLIA_1
 10
0
 20
0
 30
0
 70
128
 71
373
 72
108
 73
103
 74
371
 0
VERTEX
 8
SUPPORTO_MNIGLIA_1
 10
0
 20
0
 30
0
 70
128
 71
372
 72
107
 73
112
 74
374
 0
VERTEX
 8
SUPPORTO_MNIGLIA_1
 10
0
 20
0
 30
0
 70
128
 71
453
 72
308
 73
303
 74
451
 0
VERTEX
 8
SUPPORTO_MNIGLIA_1
 10
0
 20
0
 30
0
 70
128
 71
375
 72
113
 73
108
 74
373
 0
VERTEX
 8
SUPPORTO_MNIGLIA_1
 10
0
 20
0
 30
0
 70
128
 71
374
 72
112
 73
117
 74
376
 0
VERTEX
 8
SUPPORTO_MNIGLIA_1
 10
0
 20
0
 30
0
 70
128
 71
419
 72
223
 73
218
 74
417
 0
VERTEX
 8
SUPPORTO_MNIGLIA_1
 10
0
 20
0
 30
0
 70
128
 71
377
 72
118
 73
113
 74
375
 0
VERTEX
 8
SUPPORTO_MNIGLIA_1
 10
0
 20
0
 30
0
 70
128
 71
376
 72
117
 73
122
 74
378
 0
VERTEX
 8
SUPPORTO_MNIGLIA_1
 10
0
 20
0
 30
0
 70
128
 71
450
 72
302
 73
307
 74
452
 0
VERTEX
 8
SUPPORTO_MNIGLIA_1
 10
0
 20
0
 30
0
 70
128
 71
431
 72
253
 73
248
 74
429
 0
VERTEX
 8
SUPPORTO_MNIGLIA_1
 10
0
 20
0
 30
0
 70
128
 71
379
 72
123
 73
118
 74
377
 0
VERTEX
 8
SUPPORTO_MNIGLIA_1
 10
0
 20
0
 30
0
 70
128
 71
378
 72
122
 73
127
 74
380
 0
VERTEX
 8
SUPPORTO_MNIGLIA_1
 10
0
 20
0
 30
0
 70
128
 71
443
 72
283
 73
278
 74
441
 0
VERTEX
 8
SUPPORTO_MNIGLIA_1
 10
0
 20
0
 30
0
 70
128
 71
381
 72
128
 73
123
 74
379
 0
VERTEX
 8
SUPPORTO_MNIGLIA_1
 10
0
 20
0
 30
0
 70
128
 71
380
 72
127
 73
132
 74
382
 0
VERTEX
 8
SUPPORTO_MNIGLIA_1
 10
0
 20
0
 30
0
 70
128
 71
428
 72
247
 73
252
 74
430
 0
VERTEX
 8
SUPPORTO_MNIGLIA_1
 10
0
 20
0
 30
0
 70
128
 71
383
 72
133
 73
128
 74
381
 0
VERTEX
 8
SUPPORTO_MNIGLIA_1
 10
0
 20
0
 30
0
 70
128
 71
382
 72
132
 73
137
 74
384
 0
VERTEX
 8
SUPPORTO_MNIGLIA_1
 10
0
 20
0
 30
0
 70
128
 71
451
 72
303
 73
298
 74
449
 0
VERTEX
 8
SUPPORTO_MNIGLIA_1
 10
0
 20
0
 30
0
 70
128
 71
385
 72
138
 73
133
 74
383
 0
VERTEX
 8
SUPPORTO_MNIGLIA_1
 10
0
 20
0
 30
0
 70
128
 71
384
 72
137
 73
142
 74
386
 0
VERTEX
 8
SUPPORTO_MNIGLIA_1
 10
0
 20
0
 30
0
 70
128
 71
441
 72
278
 73
273
 74
439
 0
VERTEX
 8
SUPPORTO_MNIGLIA_1
 10
0
 20
0
 30
0
 70
128
 71
387
 72
143
 73
138
 74
385
 0
VERTEX
 8
SUPPORTO_MNIGLIA_1
 10
0
 20
0
 30
0
 70
128
 71
386
 72
142
 73
147
 74
388
 0
VERTEX
 8
SUPPORTO_MNIGLIA_1
 10
0
 20
0
 30
0
 70
128
 71
438
 72
272
 73
277
 74
440
 0
VERTEX
 8
SUPPORTO_MNIGLIA_1
 10
0
 20
0
 30
0
 70
128
 71
429
 72
248
 73
243
 74
427
 0
VERTEX
 8
SUPPORTO_MNIGLIA_1
 10
0
 20
0
 30
0
 70
128
 71
389
 72
148
 73
143
 74
387
 0
VERTEX
 8
SUPPORTO_MNIGLIA_1
 10
0
 20
0
 30
0
 70
128
 71
388
 72
147
 73
152
 74
390
 0
VERTEX
 8
SUPPORTO_MNIGLIA_1
 10
0
 20
0
 30
0
 70
128
 71
423
 72
233
 73
228
 74
421
 0
VERTEX
 8
SUPPORTO_MNIGLIA_1
 10
0
 20
0
 30
0
 70
128
 71
391
 72
153
 73
148
 74
389
 0
VERTEX
 8
SUPPORTO_MNIGLIA_1
 10
0
 20
0
 30
0
 70
128
 71
390
 72
152
 73
157
 74
392
 0
VERTEX
 8
SUPPORTO_MNIGLIA_1
 10
0
 20
0
 30
0
 70
128
 71
448
 72
297
 73
302
 74
450
 0
VERTEX
 8
SUPPORTO_MNIGLIA_1
 10
0
 20
0
 30
0
 70
128
 71
426
 72
242
 73
247
 74
428
 0
VERTEX
 8
SUPPORTO_MNIGLIA_1
 10
0
 20
0
 30
0
 70
128
 71
393
 72
158
 73
153
 74
391
 0
VERTEX
 8
SUPPORTO_MNIGLIA_1
 10
0
 20
0
 30
0
 70
128
 71
392
 72
157
 73
162
 74
394
 0
VERTEX
 8
SUPPORTO_MNIGLIA_1
 10
0
 20
0
 30
0
 70
128
 71
395
 72
163
 73
158
 74
393
 0
VERTEX
 8
SUPPORTO_MNIGLIA_1
 10
0
 20
0
 30
0
 70
128
 71
394
 72
162
 73
167
 74
396
 0
VERTEX
 8
SUPPORTO_MNIGLIA_1
 10
0
 20
0
 30
0
 70
128
 71
397
 72
168
 73
163
 74
395
 0
VERTEX
 8
SUPPORTO_MNIGLIA_1
 10
0
 20
0
 30
0
 70
128
 71
396
 72
167
 73
172
 74
398
 0
VERTEX
 8
SUPPORTO_MNIGLIA_1
 10
0
 20
0
 30
0
 70
128
 71
449
 72
298
 73
293
 74
447
 0
VERTEX
 8
SUPPORTO_MNIGLIA_1
 10
0
 20
0
 30
0
 70
128
 71
427
 72
243
 73
238
 74
425
 0
VERTEX
 8
SUPPORTO_MNIGLIA_1
 10
0
 20
0
 30
0
 70
128
 71
399
 72
173
 73
168
 74
397
 0
VERTEX
 8
SUPPORTO_MNIGLIA_1
 10
0
 20
0
 30
0
 70
128
 71
398
 72
172
 73
177
 74
400
 0
VERTEX
 8
SUPPORTO_MNIGLIA_1
 10
0
 20
0
 30
0
 70
128
 71
445
 72
288
 73
283
 74
443
 0
VERTEX
 8
SUPPORTO_MNIGLIA_1
 10
0
 20
0
 30
0
 70
128
 71
401
 72
178
 73
173
 74
399
 0
VERTEX
 8
SUPPORTO_MNIGLIA_1
 10
0
 20
0
 30
0
 70
128
 71
400
 72
177
 73
182
 74
402
 0
VERTEX
 8
SUPPORTO_MNIGLIA_1
 10
0
 20
0
 30
0
 70
128
 71
446
 72
292
 73
297
 74
448
 0
VERTEX
 8
SUPPORTO_MNIGLIA_1
 10
0
 20
0
 30
0
 70
128
 71
424
 72
237
 73
242
 74
426
 0
VERTEX
 8
SUPPORTO_MNIGLIA_1
 10
0
 20
0
 30
0
 70
128
 71
403
 72
183
 73
178
 74
401
 0
VERTEX
 8
SUPPORTO_MNIGLIA_1
 10
0
 20
0
 30
0
 70
128
 71
402
 72
182
 73
187
 74
404
 0
VERTEX
 8
SUPPORTO_MNIGLIA_1
 10
0
 20
0
 30
0
 70
128
 71
405
 72
188
 73
183
 74
403
 0
VERTEX
 8
SUPPORTO_MNIGLIA_1
 10
0
 20
0
 30
0
 70
128
 71
404
 72
187
 73
192
 74
406
 0
VERTEX
 8
SUPPORTO_MNIGLIA_1
 10
0
 20
0
 30
0
 70
128
 71
407
 72
193
 73
188
 74
405
 0
VERTEX
 8
SUPPORTO_MNIGLIA_1
 10
0
 20
0
 30
0
 70
128
 71
406
 72
192
 73
197
 74
408
 0
VERTEX
 8
SUPPORTO_MNIGLIA_1
 10
0
 20
0
 30
0
 70
128
 71
447
 72
293
 73
288
 74
445
 0
VERTEX
 8
SUPPORTO_MNIGLIA_1
 10
0
 20
0
 30
0
 70
128
 71
425
 72
238
 73
233
 74
423
 0
VERTEX
 8
SUPPORTO_MNIGLIA_1
 10
0
 20
0
 30
0
 70
128
 71
409
 72
198
 73
193
 74
407
 0
VERTEX
 8
SUPPORTO_MNIGLIA_1
 10
0
 20
0
 30
0
 70
128
 71
408
 72
197
 73
202
 74
410
 0
VERTEX
 8
SUPPORTO_MNIGLIA_1
 10
0
 20
0
 30
0
 70
128
 71
416
 72
217
 73
222
 74
418
 0
VERTEX
 8
SUPPORTO_MNIGLIA_1
 10
0
 20
0
 30
0
 70
128
 71
411
 72
203
 73
198
 74
409
 0
VERTEX
 8
SUPPORTO_MNIGLIA_1
 10
0
 20
0
 30
0
 70
128
 71
410
 72
202
 73
207
 74
412
 0
VERTEX
 8
SUPPORTO_MNIGLIA_1
 10
0
 20
0
 30
0
 70
128
 71
444
 72
287
 73
292
 74
446
 0
VERTEX
 8
SUPPORTO_MNIGLIA_1
 10
0
 20
0
 30
0
 70
128
 71
422
 72
232
 73
237
 74
424
 0
VERTEX
 8
SUPPORTO_MNIGLIA_1
 10
0
 20
0
 30
0
 70
128
 71
413
 72
208
 73
203
 74
411
 0
VERTEX
 8
SUPPORTO_MNIGLIA_1
 10
0
 20
0
 30
0
 70
128
 71
412
 72
207
 73
212
 74
414
 0
VERTEX
 8
SUPPORTO_MNIGLIA_1
 10
0
 20
0
 30
0
 70
128
 71
415
 72
213
 73
208
 74
413
 0
VERTEX
 8
SUPPORTO_MNIGLIA_1
 10
0
 20
0
 30
0
 70
128
 71
414
 72
212
 73
217
 74
416
 0
VERTEX
 8
SUPPORTO_MNIGLIA_1
 10
0
 20
0
 30
0
 70
128
 71
417
 72
218
 73
213
 74
415
 0
VERTEX
 8
SUPPORTO_MNIGLIA_1
 10
0
 20
0
 30
0
 70
128
 71
2
 72
322
 73
318
 74
323
 0
VERTEX
 8
SUPPORTO_MNIGLIA_1
 10
0
 20
0
 30
0
 70
128
 71
313
 72
318
 73
322
 74
317
 0
VERTEX
 8
SUPPORTO_MNIGLIA_1
 10
0
 20
0
 30
0
 70
128
 71
317
 72
312
 73
308
 74
313
 0
VERTEX
 8
SUPPORTO_MNIGLIA_1
 10
0
 20
0
 30
0
 70
128
 71
303
 72
308
 73
312
 74
307
 0
VERTEX
 8
SUPPORTO_MNIGLIA_1
 10
0
 20
0
 30
0
 70
128
 71
307
 72
302
 73
298
 74
303
 0
VERTEX
 8
SUPPORTO_MNIGLIA_1
 10
0
 20
0
 30
0
 70
128
 71
302
 72
297
 73
293
 74
298
 0
VERTEX
 8
SUPPORTO_MNIGLIA_1
 10
0
 20
0
 30
0
 70
128
 71
288
 72
293
 73
297
 74
292
 0
VERTEX
 8
SUPPORTO_MNIGLIA_1
 10
0
 20
0
 30
0
 70
128
 71
292
 72
287
 73
283
 74
288
 0
VERTEX
 8
SUPPORTO_MNIGLIA_1
 10
0
 20
0
 30
0
 70
128
 71
278
 72
283
 73
287
 74
282
 0
VERTEX
 8
SUPPORTO_MNIGLIA_1
 10
0
 20
0
 30
0
 70
128
 71
282
 72
277
 73
273
 74
278
 0
VERTEX
 8
SUPPORTO_MNIGLIA_1
 10
0
 20
0
 30
0
 70
128
 71
268
 72
273
 73
277
 74
272
 0
VERTEX
 8
SUPPORTO_MNIGLIA_1
 10
0
 20
0
 30
0
 70
128
 71
272
 72
267
 73
263
 74
268
 0
VERTEX
 8
SUPPORTO_MNIGLIA_1
 10
0
 20
0
 30
0
 70
128
 71
258
 72
263
 73
267
 74
262
 0
VERTEX
 8
SUPPORTO_MNIGLIA_1
 10
0
 20
0
 30
0
 70
128
 71
262
 72
257
 73
253
 74
258
 0
VERTEX
 8
SUPPORTO_MNIGLIA_1
 10
0
 20
0
 30
0
 70
128
 71
248
 72
253
 73
257
 74
252
 0
VERTEX
 8
SUPPORTO_MNIGLIA_1
 10
0
 20
0
 30
0
 70
128
 71
252
 72
247
 73
243
 74
248
 0
VERTEX
 8
SUPPORTO_MNIGLIA_1
 10
0
 20
0
 30
0
 70
128
 71
238
 72
243
 73
247
 74
242
 0
VERTEX
 8
SUPPORTO_MNIGLIA_1
 10
0
 20
0
 30
0
 70
128
 71
242
 72
237
 73
233
 74
238
 0
VERTEX
 8
SUPPORTO_MNIGLIA_1
 10
0
 20
0
 30
0
 70
128
 71
228
 72
233
 73
237
 74
232
 0
VERTEX
 8
SUPPORTO_MNIGLIA_1
 10
0
 20
0
 30
0
 70
128
 71
232
 72
227
 73
223
 74
228
 0
VERTEX
 8
SUPPORTO_MNIGLIA_1
 10
0
 20
0
 30
0
 70
128
 71
218
 72
223
 73
227
 74
222
 0
VERTEX
 8
SUPPORTO_MNIGLIA_1
 10
0
 20
0
 30
0
 70
128
 71
222
 72
217
 73
213
 74
218
 0
VERTEX
 8
SUPPORTO_MNIGLIA_1
 10
0
 20
0
 30
0
 70
128
 71
208
 72
213
 73
217
 74
212
 0
VERTEX
 8
SUPPORTO_MNIGLIA_1
 10
0
 20
0
 30
0
 70
128
 71
212
 72
207
 73
203
 74
208
 0
VERTEX
 8
SUPPORTO_MNIGLIA_1
 10
0
 20
0
 30
0
 70
128
 71
198
 72
203
 73
207
 74
202
 0
VERTEX
 8
SUPPORTO_MNIGLIA_1
 10
0
 20
0
 30
0
 70
128
 71
202
 72
197
 73
193
 74
198
 0
VERTEX
 8
SUPPORTO_MNIGLIA_1
 10
0
 20
0
 30
0
 70
128
 71
188
 72
193
 73
197
 74
192
 0
VERTEX
 8
SUPPORTO_MNIGLIA_1
 10
0
 20
0
 30
0
 70
128
 71
192
 72
187
 73
183
 74
188
 0
VERTEX
 8
SUPPORTO_MNIGLIA_1
 10
0
 20
0
 30
0
 70
128
 71
178
 72
183
 73
187
 74
182
 0
VERTEX
 8
SUPPORTO_MNIGLIA_1
 10
0
 20
0
 30
0
 70
128
 71
182
 72
177
 73
173
 74
178
 0
VERTEX
 8
SUPPORTO_MNIGLIA_1
 10
0
 20
0
 30
0
 70
128
 71
168
 72
173
 73
177
 74
172
 0
VERTEX
 8
SUPPORTO_MNIGLIA_1
 10
0
 20
0
 30
0
 70
128
 71
172
 72
167
 73
163
 74
168
 0
VERTEX
 8
SUPPORTO_MNIGLIA_1
 10
0
 20
0
 30
0
 70
128
 71
158
 72
163
 73
167
 74
162
 0
VERTEX
 8
SUPPORTO_MNIGLIA_1
 10
0
 20
0
 30
0
 70
128
 71
162
 72
157
 73
153
 74
158
 0
VERTEX
 8
SUPPORTO_MNIGLIA_1
 10
0
 20
0
 30
0
 70
128
 71
148
 72
153
 73
157
 74
152
 0
VERTEX
 8
SUPPORTO_MNIGLIA_1
 10
0
 20
0
 30
0
 70
128
 71
152
 72
147
 73
143
 74
148
 0
VERTEX
 8
SUPPORTO_MNIGLIA_1
 10
0
 20
0
 30
0
 70
128
 71
138
 72
143
 73
147
 74
142
 0
VERTEX
 8
SUPPORTO_MNIGLIA_1
 10
0
 20
0
 30
0
 70
128
 71
142
 72
137
 73
133
 74
138
 0
VERTEX
 8
SUPPORTO_MNIGLIA_1
 10
0
 20
0
 30
0
 70
128
 71
128
 72
133
 73
137
 74
132
 0
VERTEX
 8
SUPPORTO_MNIGLIA_1
 10
0
 20
0
 30
0
 70
128
 71
132
 72
127
 73
123
 74
128
 0
VERTEX
 8
SUPPORTO_MNIGLIA_1
 10
0
 20
0
 30
0
 70
128
 71
118
 72
123
 73
127
 74
122
 0
VERTEX
 8
SUPPORTO_MNIGLIA_1
 10
0
 20
0
 30
0
 70
128
 71
117
 72
122
 73
117
 74
122
 0
VERTEX
 8
SUPPORTO_MNIGLIA_1
 10
0
 20
0
 30
0
 70
128
 71
117
 72
122
 73
117
 74
122
 0
VERTEX
 8
SUPPORTO_MNIGLIA_1
 10
0
 20
0
 30
0
 70
128
 71
122
 72
117
 73
113
 74
118
 0
VERTEX
 8
SUPPORTO_MNIGLIA_1
 10
0
 20
0
 30
0
 70
128
 71
108
 72
113
 73
117
 74
112
 0
VERTEX
 8
SUPPORTO_MNIGLIA_1
 10
0
 20
0
 30
0
 70
128
 71
112
 72
107
 73
103
 74
108
 0
VERTEX
 8
SUPPORTO_MNIGLIA_1
 10
0
 20
0
 30
0
 70
128
 71
98
 72
103
 73
107
 74
102
 0
VERTEX
 8
SUPPORTO_MNIGLIA_1
 10
0
 20
0
 30
0
 70
128
 71
102
 72
97
 73
93
 74
98
 0
VERTEX
 8
SUPPORTO_MNIGLIA_1
 10
0
 20
0
 30
0
 70
128
 71
88
 72
93
 73
97
 74
92
 0
VERTEX
 8
SUPPORTO_MNIGLIA_1
 10
0
 20
0
 30
0
 70
128
 71
92
 72
87
 73
83
 74
88
 0
VERTEX
 8
SUPPORTO_MNIGLIA_1
 10
0
 20
0
 30
0
 70
128
 71
78
 72
83
 73
87
 74
82
 0
VERTEX
 8
SUPPORTO_MNIGLIA_1
 10
0
 20
0
 30
0
 70
128
 71
82
 72
77
 73
73
 74
78
 0
VERTEX
 8
SUPPORTO_MNIGLIA_1
 10
0
 20
0
 30
0
 70
128
 71
68
 72
73
 73
77
 74
72
 0
VERTEX
 8
SUPPORTO_MNIGLIA_1
 10
0
 20
0
 30
0
 70
128
 71
72
 72
67
 73
63
 74
68
 0
VERTEX
 8
SUPPORTO_MNIGLIA_1
 10
0
 20
0
 30
0
 70
128
 71
67
 72
62
 73
58
 74
63
 0
VERTEX
 8
SUPPORTO_MNIGLIA_1
 10
0
 20
0
 30
0
 70
128
 71
53
 72
58
 73
62
 74
57
 0
VERTEX
 8
SUPPORTO_MNIGLIA_1
 10
0
 20
0
 30
0
 70
128
 71
48
 72
53
 73
57
 74
52
 0
VERTEX
 8
SUPPORTO_MNIGLIA_1
 10
0
 20
0
 30
0
 70
128
 71
52
 72
47
 73
43
 74
48
 0
VERTEX
 8
SUPPORTO_MNIGLIA_1
 10
0
 20
0
 30
0
 70
128
 71
38
 72
43
 73
47
 74
42
 0
VERTEX
 8
SUPPORTO_MNIGLIA_1
 10
0
 20
0
 30
0
 70
128
 71
42
 72
37
 73
33
 74
38
 0
VERTEX
 8
SUPPORTO_MNIGLIA_1
 10
0
 20
0
 30
0
 70
128
 71
28
 72
33
 73
37
 74
32
 0
VERTEX
 8
SUPPORTO_MNIGLIA_1
 10
0
 20
0
 30
0
 70
128
 71
32
 72
27
 73
23
 74
28
 0
VERTEX
 8
SUPPORTO_MNIGLIA_1
 10
0
 20
0
 30
0
 70
128
 71
18
 72
23
 73
27
 74
22
 0
VERTEX
 8
SUPPORTO_MNIGLIA_1
 10
0
 20
0
 30
0
 70
128
 71
22
 72
17
 73
13
 74
18
 0
VERTEX
 8
SUPPORTO_MNIGLIA_1
 10
0
 20
0
 30
0
 70
128
 71
8
 72
13
 73
17
 74
12
 0
VERTEX
 8
SUPPORTO_MNIGLIA_1
 10
0
 20
0
 30
0
 70
128
 71
12
 72
7
 73
3
 74
8
 0
SEQEND
 0
POLYLINE
 8
CILINDRO
 66
1
 10
0.0
 20
0.0
 30
0.0
 70
64
 71
322
 72
384
 0
VERTEX
 8
CILINDRO
 10
-26.2279
 20
-5.8371
 30
2.5024
 70
192
 0
VERTEX
 8
CILINDRO
 10
26.1721
 20
-5.8371
 30
2.5024
 70
192
 0
VERTEX
 8
CILINDRO
 10
-26.2279
 20
-5.8371
 30
1.5024
 70
192
 0
VERTEX
 8
CILINDRO
 10
-13.1279
 20
-5.8371
 30
1.5024
 70
192
 0
VERTEX
 8
CILINDRO
 10
-0.0279
 20
-5.8371
 30
1.5024
 70
192
 0
VERTEX
 8
CILINDRO
 10
13.0721
 20
-5.8371
 30
1.5024
 70
192
 0
VERTEX
 8
CILINDRO
 10
26.1721
 20
-5.8371
 30
1.5024
 70
192
 0
VERTEX
 8
CILINDRO
 10
-26.2279
 20
-5.739
 30
1.5072
 70
192
 0
VERTEX
 8
CILINDRO
 10
-13.1279
 20
-5.739
 30
1.5072
 70
192
 0
VERTEX
 8
CILINDRO
 10
-0.0279
 20
-5.739
 30
1.5072
 70
192
 0
VERTEX
 8
CILINDRO
 10
13.0721
 20
-5.739
 30
1.5072
 70
192
 0
VERTEX
 8
CILINDRO
 10
26.1721
 20
-5.739
 30
1.5072
 70
192
 0
VERTEX
 8
CILINDRO
 10
-26.2279
 20
-5.642
 30
1.5216
 70
192
 0
VERTEX
 8
CILINDRO
 10
-13.1279
 20
-5.642
 30
1.5216
 70
192
 0
VERTEX
 8
CILINDRO
 10
-0.0279
 20
-5.642
 30
1.5216
 70
192
 0
VERTEX
 8
CILINDRO
 10
13.0721
 20
-5.642
 30
1.5216
 70
192
 0
VERTEX
 8
CILINDRO
 10
26.1721
 20
-5.642
 30
1.5216
 70
192
 0
VERTEX
 8
CILINDRO
 10
-26.2279
 20
-5.5468
 30
1.5455
 70
192
 0
VERTEX
 8
CILINDRO
 10
-13.1279
 20
-5.5468
 30
1.5455
 70
192
 0
VERTEX
 8
CILINDRO
 10
-0.0279
 20
-5.5468
 30
1.5455
 70
192
 0
VERTEX
 8
CILINDRO
 10
13.0721
 20
-5.5468
 30
1.5455
 70
192
 0
VERTEX
 8
CILINDRO
 10
26.1721
 20
-5.5468
 30
1.5455
 70
192
 0
VERTEX
 8
CILINDRO
 10
-26.2279
 20
-5.4544
 30
1.5785
 70
192
 0
VERTEX
 8
CILINDRO
 10
-13.1279
 20
-5.4544
 30
1.5785
 70
192
 0
VERTEX
 8
CILINDRO
 10
-0.0279
 20
-5.4544
 30
1.5785
 70
192
 0
VERTEX
 8
CILINDRO
 10
13.0721
 20
-5.4544
 30
1.5785
 70
192
 0
VERTEX
 8
CILINDRO
 10
26.1721
 20
-5.4544
 30
1.5785
 70
192
 0
VERTEX
 8
CILINDRO
 10
-26.2279
 20
-5.3657
 30
1.6205
 70
192
 0
VERTEX
 8
CILINDRO
 10
-13.1279
 20
-5.3657
 30
1.6205
 70
192
 0
VERTEX
 8
CILINDRO
 10
-0.0279
 20
-5.3657
 30
1.6205
 70
192
 0
VERTEX
 8
CILINDRO
 10
13.0721
 20
-5.3657
 30
1.6205
 70
192
 0
VERTEX
 8
CILINDRO
 10
26.1721
 20
-5.3657
 30
1.6205
 70
192
 0
VERTEX
 8
CILINDRO
 10
-26.2279
 20
-5.2815
 30
1.6709
 70
192
 0
VERTEX
 8
CILINDRO
 10
-13.1279
 20
-5.2815
 30
1.6709
 70
192
 0
VERTEX
 8
CILINDRO
 10
-0.0279
 20
-5.2815
 30
1.6709
 70
192
 0
VERTEX
 8
CILINDRO
 10
13.0721
 20
-5.2815
 30
1.6709
 70
192
 0
VERTEX
 8
CILINDRO
 10
26.1721
 20
-5.2815
 30
1.6709
 70
192
 0
VERTEX
 8
CILINDRO
 10
-26.2279
 20
-5.2027
 30
1.7294
 70
192
 0
VERTEX
 8
CILINDRO
 10
-13.1279
 20
-5.2027
 30
1.7294
 70
192
 0
VERTEX
 8
CILINDRO
 10
-0.0279
 20
-5.2027
 30
1.7294
 70
192
 0
VERTEX
 8
CILINDRO
 10
13.0721
 20
-5.2027
 30
1.7294
 70
192
 0
VERTEX
 8
CILINDRO
 10
26.1721
 20
-5.2027
 30
1.7294
 70
192
 0
VERTEX
 8
CILINDRO
 10
-26.2279
 20
-5.1299
 30
1.7953
 70
192
 0
VERTEX
 8
CILINDRO
 10
-13.1279
 20
-5.1299
 30
1.7953
 70
192
 0
VERTEX
 8
CILINDRO
 10
-0.0279
 20
-5.1299
 30
1.7953
 70
192
 0
VERTEX
 8
CILINDRO
 10
13.0721
 20
-5.1299
 30
1.7953
 70
192
 0
VERTEX
 8
CILINDRO
 10
26.1721
 20
-5.1299
 30
1.7953
 70
192
 0
VERTEX
 8
CILINDRO
 10
-26.2279
 20
-5.064
 30
1.868
 70
192
 0
VERTEX
 8
CILINDRO
 10
-13.1279
 20
-5.064
 30
1.868
 70
192
 0
VERTEX
 8
CILINDRO
 10
-0.0279
 20
-5.064
 30
1.868
 70
192
 0
VERTEX
 8
CILINDRO
 10
13.0721
 20
-5.064
 30
1.868
 70
192
 0
VERTEX
 8
CILINDRO
 10
26.1721
 20
-5.064
 30
1.868
 70
192
 0
VERTEX
 8
CILINDRO
 10
-26.2279
 20
-5.0056
 30
1.9468
 70
192
 0
VERTEX
 8
CILINDRO
 10
-13.1279
 20
-5.0056
 30
1.9468
 70
192
 0
VERTEX
 8
CILINDRO
 10
-0.0279
 20
-5.0056
 30
1.9468
 70
192
 0
VERTEX
 8
CILINDRO
 10
13.0721
 20
-5.0056
 30
1.9468
 70
192
 0
VERTEX
 8
CILINDRO
 10
26.1721
 20
-5.0056
 30
1.9468
 70
192
 0
VERTEX
 8
CILINDRO
 10
-26.2279
 20
-4.9551
 30
2.031
 70
192
 0
VERTEX
 8
CILINDRO
 10
-13.1279
 20
-4.9551
 30
2.031
 70
192
 0
VERTEX
 8
CILINDRO
 10
-0.0279
 20
-4.9551
 30
2.031
 70
192
 0
VERTEX
 8
CILINDRO
 10
13.0721
 20
-4.9551
 30
2.031
 70
192
 0
VERTEX
 8
CILINDRO
 10
26.1721
 20
-4.9551
 30
2.031
 70
192
 0
VERTEX
 8
CILINDRO
 10
-26.2279
 20
-4.9132
 30
2.1197
 70
192
 0
VERTEX
 8
CILINDRO
 10
-13.1279
 20
-4.9132
 30
2.1197
 70
192
 0
VERTEX
 8
CILINDRO
 10
-0.0279
 20
-4.9132
 30
2.1197
 70
192
 0
VERTEX
 8
CILINDRO
 10
13.0721
 20
-4.9132
 30
2.1197
 70
192
 0
VERTEX
 8
CILINDRO
 10
26.1721
 20
-4.9132
 30
2.1197
 70
192
 0
VERTEX
 8
CILINDRO
 10
-26.2279
 20
-4.8801
 30
2.2121
 70
192
 0
VERTEX
 8
CILINDRO
 10
-13.1279
 20
-4.8801
 30
2.2121
 70
192
 0
VERTEX
 8
CILINDRO
 10
-0.0279
 20
-4.8801
 30
2.2121
 70
192
 0
VERTEX
 8
CILINDRO
 10
13.0721
 20
-4.8801
 30
2.2121
 70
192
 0
VERTEX
 8
CILINDRO
 10
26.1721
 20
-4.8801
 30
2.2121
 70
192
 0
VERTEX
 8
CILINDRO
 10
-26.2279
 20
-4.8563
 30
2.3073
 70
192
 0
VERTEX
 8
CILINDRO
 10
-13.1279
 20
-4.8563
 30
2.3073
 70
192
 0
VERTEX
 8
CILINDRO
 10
-0.0279
 20
-4.8563
 30
2.3073
 70
192
 0
VERTEX
 8
CILINDRO
 10
13.0721
 20
-4.8563
 30
2.3073
 70
192
 0
VERTEX
 8
CILINDRO
 10
26.1721
 20
-4.8563
 30
2.3073
 70
192
 0
VERTEX
 8
CILINDRO
 10
-26.2279
 20
-4.8419
 30
2.4044
 70
192
 0
VERTEX
 8
CILINDRO
 10
-13.1279
 20
-4.8419
 30
2.4044
 70
192
 0
VERTEX
 8
CILINDRO
 10
-0.0279
 20
-4.8419
 30
2.4044
 70
192
 0
VERTEX
 8
CILINDRO
 10
13.0721
 20
-4.8419
 30
2.4044
 70
192
 0
VERTEX
 8
CILINDRO
 10
26.1721
 20
-4.8419
 30
2.4044
 70
192
 0
VERTEX
 8
CILINDRO
 10
-26.2279
 20
-4.8371
 30
2.5024
 70
192
 0
VERTEX
 8
CILINDRO
 10
-13.1279
 20
-4.8371
 30
2.5024
 70
192
 0
VERTEX
 8
CILINDRO
 10
-0.0279
 20
-4.8371
 30
2.5024
 70
192
 0
VERTEX
 8
CILINDRO
 10
13.0721
 20
-4.8371
 30
2.5024
 70
192
 0
VERTEX
 8
CILINDRO
 10
26.1721
 20
-4.8371
 30
2.5024
 70
192
 0
VERTEX
 8
CILINDRO
 10
-26.2279
 20
-4.8419
 30
2.6004
 70
192
 0
VERTEX
 8
CILINDRO
 10
-13.1279
 20
-4.8419
 30
2.6004
 70
192
 0
VERTEX
 8
CILINDRO
 10
-0.0279
 20
-4.8419
 30
2.6004
 70
192
 0
VERTEX
 8
CILINDRO
 10
13.0721
 20
-4.8419
 30
2.6004
 70
192
 0
VERTEX
 8
CILINDRO
 10
26.1721
 20
-4.8419
 30
2.6004
 70
192
 0
VERTEX
 8
CILINDRO
 10
-26.2279
 20
-4.8563
 30
2.6975
 70
192
 0
VERTEX
 8
CILINDRO
 10
-13.1279
 20
-4.8563
 30
2.6975
 70
192
 0
VERTEX
 8
CILINDRO
 10
-0.0279
 20
-4.8563
 30
2.6975
 70
192
 0
VERTEX
 8
CILINDRO
 10
13.0721
 20
-4.8563
 30
2.6975
 70
192
 0
VERTEX
 8
CILINDRO
 10
26.1721
 20
-4.8563
 30
2.6975
 70
192
 0
VERTEX
 8
CILINDRO
 10
-26.2279
 20
-4.8801
 30
2.7927
 70
192
 0
VERTEX
 8
CILINDRO
 10
-13.1279
 20
-4.8801
 30
2.7927
 70
192
 0
VERTEX
 8
CILINDRO
 10
-0.0279
 20
-4.8801
 30
2.7927
 70
192
 0
VERTEX
 8
CILINDRO
 10
13.0721
 20
-4.8801
 30
2.7927
 70
192
 0
VERTEX
 8
CILINDRO
 10
26.1721
 20
-4.8801
 30
2.7927
 70
192
 0
VERTEX
 8
CILINDRO
 10
-26.2279
 20
-4.9132
 30
2.8851
 70
192
 0
VERTEX
 8
CILINDRO
 10
-13.1279
 20
-4.9132
 30
2.8851
 70
192
 0
VERTEX
 8
CILINDRO
 10
-0.0279
 20
-4.9132
 30
2.8851
 70
192
 0
VERTEX
 8
CILINDRO
 10
13.0721
 20
-4.9132
 30
2.8851
 70
192
 0
VERTEX
 8
CILINDRO
 10
26.1721
 20
-4.9132
 30
2.8851
 70
192
 0
VERTEX
 8
CILINDRO
 10
-26.2279
 20
-4.9551
 30
2.9738
 70
192
 0
VERTEX
 8
CILINDRO
 10
-13.1279
 20
-4.9551
 30
2.9738
 70
192
 0
VERTEX
 8
CILINDRO
 10
-0.0279
 20
-4.9551
 30
2.9738
 70
192
 0
VERTEX
 8
CILINDRO
 10
13.0721
 20
-4.9551
 30
2.9738
 70
192
 0
VERTEX
 8
CILINDRO
 10
26.1721
 20
-4.9551
 30
2.9738
 70
192
 0
VERTEX
 8
CILINDRO
 10
-26.2279
 20
-5.0056
 30
3.058
 70
192
 0
VERTEX
 8
CILINDRO
 10
-13.1279
 20
-5.0056
 30
3.058
 70
192
 0
VERTEX
 8
CILINDRO
 10
-0.0279
 20
-5.0056
 30
3.058
 70
192
 0
VERTEX
 8
CILINDRO
 10
13.0721
 20
-5.0056
 30
3.058
 70
192
 0
VERTEX
 8
CILINDRO
 10
26.1721
 20
-5.0056
 30
3.058
 70
192
 0
VERTEX
 8
CILINDRO
 10
-26.2279
 20
-5.064
 30
3.1368
 70
192
 0
VERTEX
 8
CILINDRO
 10
-13.1279
 20
-5.064
 30
3.1368
 70
192
 0
VERTEX
 8
CILINDRO
 10
-0.0279
 20
-5.064
 30
3.1368
 70
192
 0
VERTEX
 8
CILINDRO
 10
13.0721
 20
-5.064
 30
3.1368
 70
192
 0
VERTEX
 8
CILINDRO
 10
26.1721
 20
-5.064
 30
3.1368
 70
192
 0
VERTEX
 8
CILINDRO
 10
-26.2279
 20
-5.1299
 30
3.2095
 70
192
 0
VERTEX
 8
CILINDRO
 10
-13.1279
 20
-5.1299
 30
3.2095
 70
192
 0
VERTEX
 8
CILINDRO
 10
-0.0279
 20
-5.1299
 30
3.2095
 70
192
 0
VERTEX
 8
CILINDRO
 10
13.0721
 20
-5.1299
 30
3.2095
 70
192
 0
VERTEX
 8
CILINDRO
 10
26.1721
 20
-5.1299
 30
3.2095
 70
192
 0
VERTEX
 8
CILINDRO
 10
-26.2279
 20
-5.2027
 30
3.2754
 70
192
 0
VERTEX
 8
CILINDRO
 10
-13.1279
 20
-5.2027
 30
3.2754
 70
192
 0
VERTEX
 8
CILINDRO
 10
-0.0279
 20
-5.2027
 30
3.2754
 70
192
 0
VERTEX
 8
CILINDRO
 10
13.0721
 20
-5.2027
 30
3.2754
 70
192
 0
VERTEX
 8
CILINDRO
 10
26.1721
 20
-5.2027
 30
3.2754
 70
192
 0
VERTEX
 8
CILINDRO
 10
-26.2279
 20
-5.2815
 30
3.3339
 70
192
 0
VERTEX
 8
CILINDRO
 10
-13.1279
 20
-5.2815
 30
3.3339
 70
192
 0
VERTEX
 8
CILINDRO
 10
-0.0279
 20
-5.2815
 30
3.3339
 70
192
 0
VERTEX
 8
CILINDRO
 10
13.0721
 20
-5.2815
 30
3.3339
 70
192
 0
VERTEX
 8
CILINDRO
 10
26.1721
 20
-5.2815
 30
3.3339
 70
192
 0
VERTEX
 8
CILINDRO
 10
-26.2279
 20
-5.3657
 30
3.3843
 70
192
 0
VERTEX
 8
CILINDRO
 10
-13.1279
 20
-5.3657
 30
3.3843
 70
192
 0
VERTEX
 8
CILINDRO
 10
-0.0279
 20
-5.3657
 30
3.3843
 70
192
 0
VERTEX
 8
CILINDRO
 10
13.0721
 20
-5.3657
 30
3.3843
 70
192
 0
VERTEX
 8
CILINDRO
 10
26.1721
 20
-5.3657
 30
3.3843
 70
192
 0
VERTEX
 8
CILINDRO
 10
-26.2279
 20
-5.4544
 30
3.4263
 70
192
 0
VERTEX
 8
CILINDRO
 10
-13.1279
 20
-5.4544
 30
3.4263
 70
192
 0
VERTEX
 8
CILINDRO
 10
-0.0279
 20
-5.4544
 30
3.4263
 70
192
 0
VERTEX
 8
CILINDRO
 10
13.0721
 20
-5.4544
 30
3.4263
 70
192
 0
VERTEX
 8
CILINDRO
 10
26.1721
 20
-5.4544
 30
3.4263
 70
192
 0
VERTEX
 8
CILINDRO
 10
-26.2279
 20
-5.5468
 30
3.4593
 70
192
 0
VERTEX
 8
CILINDRO
 10
-13.1279
 20
-5.5468
 30
3.4593
 70
192
 0
VERTEX
 8
CILINDRO
 10
-0.0279
 20
-5.5468
 30
3.4593
 70
192
 0
VERTEX
 8
CILINDRO
 10
13.0721
 20
-5.5468
 30
3.4593
 70
192
 0
VERTEX
 8
CILINDRO
 10
26.1721
 20
-5.5468
 30
3.4593
 70
192
 0
VERTEX
 8
CILINDRO
 10
-26.2279
 20
-5.642
 30
3.4832
 70
192
 0
VERTEX
 8
CILINDRO
 10
-13.1279
 20
-5.642
 30
3.4832
 70
192
 0
VERTEX
 8
CILINDRO
 10
-0.0279
 20
-5.642
 30
3.4832
 70
192
 0
VERTEX
 8
CILINDRO
 10
13.0721
 20
-5.642
 30
3.4832
 70
192
 0
VERTEX
 8
CILINDRO
 10
26.1721
 20
-5.642
 30
3.4832
 70
192
 0
VERTEX
 8
CILINDRO
 10
-26.2279
 20
-5.739
 30
3.4976
 70
192
 0
VERTEX
 8
CILINDRO
 10
-13.1279
 20
-5.739
 30
3.4976
 70
192
 0
VERTEX
 8
CILINDRO
 10
-0.0279
 20
-5.739
 30
3.4976
 70
192
 0
VERTEX
 8
CILINDRO
 10
13.0721
 20
-5.739
 30
3.4976
 70
192
 0
VERTEX
 8
CILINDRO
 10
26.1721
 20
-5.739
 30
3.4976
 70
192
 0
VERTEX
 8
CILINDRO
 10
-26.2279
 20
-5.8371
 30
3.5024
 70
192
 0
VERTEX
 8
CILINDRO
 10
-13.1279
 20
-5.8371
 30
3.5024
 70
192
 0
VERTEX
 8
CILINDRO
 10
-0.0279
 20
-5.8371
 30
3.5024
 70
192
 0
VERTEX
 8
CILINDRO
 10
13.0721
 20
-5.8371
 30
3.5024
 70
192
 0
VERTEX
 8
CILINDRO
 10
26.1721
 20
-5.8371
 30
3.5024
 70
192
 0
VERTEX
 8
CILINDRO
 10
-26.2279
 20
-5.9351
 30
3.4976
 70
192
 0
VERTEX
 8
CILINDRO
 10
-13.1279
 20
-5.9351
 30
3.4976
 70
192
 0
VERTEX
 8
CILINDRO
 10
-0.0279
 20
-5.9351
 30
3.4976
 70
192
 0
VERTEX
 8
CILINDRO
 10
13.0721
 20
-5.9351
 30
3.4976
 70
192
 0
VERTEX
 8
CILINDRO
 10
26.1721
 20
-5.9351
 30
3.4976
 70
192
 0
VERTEX
 8
CILINDRO
 10
-26.2279
 20
-6.0321
 30
3.4832
 70
192
 0
VERTEX
 8
CILINDRO
 10
-13.1279
 20
-6.0321
 30
3.4832
 70
192
 0
VERTEX
 8
CILINDRO
 10
-0.0279
 20
-6.0321
 30
3.4832
 70
192
 0
VERTEX
 8
CILINDRO
 10
13.0721
 20
-6.0321
 30
3.4832
 70
192
 0
VERTEX
 8
CILINDRO
 10
26.1721
 20
-6.0321
 30
3.4832
 70
192
 0
VERTEX
 8
CILINDRO
 10
-26.2279
 20
-6.1273
 30
3.4593
 70
192
 0
VERTEX
 8
CILINDRO
 10
-13.1279
 20
-6.1273
 30
3.4593
 70
192
 0
VERTEX
 8
CILINDRO
 10
-0.0279
 20
-6.1273
 30
3.4593
 70
192
 0
VERTEX
 8
CILINDRO
 10
13.0721
 20
-6.1273
 30
3.4593
 70
192
 0
VERTEX
 8
CILINDRO
 10
26.1721
 20
-6.1273
 30
3.4593
 70
192
 0
VERTEX
 8
CILINDRO
 10
-26.2279
 20
-6.2197
 30
3.4263
 70
192
 0
VERTEX
 8
CILINDRO
 10
-13.1279
 20
-6.2197
 30
3.4263
 70
192
 0
VERTEX
 8
CILINDRO
 10
-0.0279
 20
-6.2197
 30
3.4263
 70
192
 0
VERTEX
 8
CILINDRO
 10
13.0721
 20
-6.2197
 30
3.4263
 70
192
 0
VERTEX
 8
CILINDRO
 10
26.1721
 20
-6.2197
 30
3.4263
 70
192
 0
VERTEX
 8
CILINDRO
 10
-26.2279
 20
-6.3084
 30
3.3843
 70
192
 0
VERTEX
 8
CILINDRO
 10
-13.1279
 20
-6.3084
 30
3.3843
 70
192
 0
VERTEX
 8
CILINDRO
 10
-0.0279
 20
-6.3084
 30
3.3843
 70
192
 0
VERTEX
 8
CILINDRO
 10
13.0721
 20
-6.3084
 30
3.3843
 70
192
 0
VERTEX
 8
CILINDRO
 10
26.1721
 20
-6.3084
 30
3.3843
 70
192
 0
VERTEX
 8
CILINDRO
 10
-26.2279
 20
-6.3926
 30
3.3339
 70
192
 0
VERTEX
 8
CILINDRO
 10
-13.1279
 20
-6.3926
 30
3.3339
 70
192
 0
VERTEX
 8
CILINDRO
 10
-0.0279
 20
-6.3926
 30
3.3339
 70
192
 0
VERTEX
 8
CILINDRO
 10
13.0721
 20
-6.3926
 30
3.3339
 70
192
 0
VERTEX
 8
CILINDRO
 10
26.1721
 20
-6.3926
 30
3.3339
 70
192
 0
VERTEX
 8
CILINDRO
 10
-26.2279
 20
-6.4714
 30
3.2754
 70
192
 0
VERTEX
 8
CILINDRO
 10
-13.1279
 20
-6.4714
 30
3.2754
 70
192
 0
VERTEX
 8
CILINDRO
 10
-0.0279
 20
-6.4714
 30
3.2754
 70
192
 0
VERTEX
 8
CILINDRO
 10
13.0721
 20
-6.4714
 30
3.2754
 70
192
 0
VERTEX
 8
CILINDRO
 10
26.1721
 20
-6.4714
 30
3.2754
 70
192
 0
VERTEX
 8
CILINDRO
 10
-26.2279
 20
-6.5442
 30
3.2095
 70
192
 0
VERTEX
 8
CILINDRO
 10
-13.1279
 20
-6.5442
 30
3.2095
 70
192
 0
VERTEX
 8
CILINDRO
 10
-0.0279
 20
-6.5442
 30
3.2095
 70
192
 0
VERTEX
 8
CILINDRO
 10
13.0721
 20
-6.5442
 30
3.2095
 70
192
 0
VERTEX
 8
CILINDRO
 10
26.1721
 20
-6.5442
 30
3.2095
 70
192
 0
VERTEX
 8
CILINDRO
 10
-26.2279
 20
-6.6101
 30
3.1368
 70
192
 0
VERTEX
 8
CILINDRO
 10
-13.1279
 20
-6.6101
 30
3.1368
 70
192
 0
VERTEX
 8
CILINDRO
 10
-0.0279
 20
-6.6101
 30
3.1368
 70
192
 0
VERTEX
 8
CILINDRO
 10
13.0721
 20
-6.6101
 30
3.1368
 70
192
 0
VERTEX
 8
CILINDRO
 10
26.1721
 20
-6.6101
 30
3.1368
 70
192
 0
VERTEX
 8
CILINDRO
 10
-26.2279
 20
-6.6685
 30
3.058
 70
192
 0
VERTEX
 8
CILINDRO
 10
-13.1279
 20
-6.6685
 30
3.058
 70
192
 0
VERTEX
 8
CILINDRO
 10
-0.0279
 20
-6.6685
 30
3.058
 70
192
 0
VERTEX
 8
CILINDRO
 10
13.0721
 20
-6.6685
 30
3.058
 70
192
 0
VERTEX
 8
CILINDRO
 10
26.1721
 20
-6.6685
 30
3.058
 70
192
 0
VERTEX
 8
CILINDRO
 10
-26.2279
 20
-6.719
 30
2.9738
 70
192
 0
VERTEX
 8
CILINDRO
 10
-13.1279
 20
-6.719
 30
2.9738
 70
192
 0
VERTEX
 8
CILINDRO
 10
-0.0279
 20
-6.719
 30
2.9738
 70
192
 0
VERTEX
 8
CILINDRO
 10
13.0721
 20
-6.719
 30
2.9738
 70
192
 0
VERTEX
 8
CILINDRO
 10
26.1721
 20
-6.719
 30
2.9738
 70
192
 0
VERTEX
 8
CILINDRO
 10
-26.2279
 20
-6.7609
 30
2.8851
 70
192
 0
VERTEX
 8
CILINDRO
 10
-13.1279
 20
-6.7609
 30
2.8851
 70
192
 0
VERTEX
 8
CILINDRO
 10
-0.0279
 20
-6.7609
 30
2.8851
 70
192
 0
VERTEX
 8
CILINDRO
 10
13.0721
 20
-6.7609
 30
2.8851
 70
192
 0
VERTEX
 8
CILINDRO
 10
26.1721
 20
-6.7609
 30
2.8851
 70
192
 0
VERTEX
 8
CILINDRO
 10
-26.2279
 20
-6.794
 30
2.7927
 70
192
 0
VERTEX
 8
CILINDRO
 10
-13.1279
 20
-6.794
 30
2.7927
 70
192
 0
VERTEX
 8
CILINDRO
 10
-0.0279
 20
-6.794
 30
2.7927
 70
192
 0
VERTEX
 8
CILINDRO
 10
13.0721
 20
-6.794
 30
2.7927
 70
192
 0
VERTEX
 8
CILINDRO
 10
26.1721
 20
-6.794
 30
2.7927
 70
192
 0
VERTEX
 8
CILINDRO
 10
-26.2279
 20
-6.8178
 30
2.6975
 70
192
 0
VERTEX
 8
CILINDRO
 10
-13.1279
 20
-6.8178
 30
2.6975
 70
192
 0
VERTEX
 8
CILINDRO
 10
-0.0279
 20
-6.8178
 30
2.6975
 70
192
 0
VERTEX
 8
CILINDRO
 10
13.0721
 20
-6.8178
 30
2.6975
 70
192
 0
VERTEX
 8
CILINDRO
 10
26.1721
 20
-6.8178
 30
2.6975
 70
192
 0
VERTEX
 8
CILINDRO
 10
-26.2279
 20
-6.8322
 30
2.6004
 70
192
 0
VERTEX
 8
CILINDRO
 10
-13.1279
 20
-6.8322
 30
2.6004
 70
192
 0
VERTEX
 8
CILINDRO
 10
-0.0279
 20
-6.8322
 30
2.6004
 70
192
 0
VERTEX
 8
CILINDRO
 10
13.0721
 20
-6.8322
 30
2.6004
 70
192
 0
VERTEX
 8
CILINDRO
 10
26.1721
 20
-6.8322
 30
2.6004
 70
192
 0
VERTEX
 8
CILINDRO
 10
-26.2279
 20
-6.8371
 30
2.5024
 70
192
 0
VERTEX
 8
CILINDRO
 10
-13.1279
 20
-6.8371
 30
2.5024
 70
192
 0
VERTEX
 8
CILINDRO
 10
-0.0279
 20
-6.8371
 30
2.5024
 70
192
 0
VERTEX
 8
CILINDRO
 10
13.0721
 20
-6.8371
 30
2.5024
 70
192
 0
VERTEX
 8
CILINDRO
 10
26.1721
 20
-6.8371
 30
2.5024
 70
192
 0
VERTEX
 8
CILINDRO
 10
-26.2279
 20
-6.8322
 30
2.4044
 70
192
 0
VERTEX
 8
CILINDRO
 10
-13.1279
 20
-6.8322
 30
2.4044
 70
192
 0
VERTEX
 8
CILINDRO
 10
-0.0279
 20
-6.8322
 30
2.4044
 70
192
 0
VERTEX
 8
CILINDRO
 10
13.0721
 20
-6.8322
 30
2.4044
 70
192
 0
VERTEX
 8
CILINDRO
 10
26.1721
 20
-6.8322
 30
2.4044
 70
192
 0
VERTEX
 8
CILINDRO
 10
-26.2279
 20
-6.8178
 30
2.3073
 70
192
 0
VERTEX
 8
CILINDRO
 10
-13.1279
 20
-6.8178
 30
2.3073
 70
192
 0
VERTEX
 8
CILINDRO
 10
-0.0279
 20
-6.8178
 30
2.3073
 70
192
 0
VERTEX
 8
CILINDRO
 10
13.0721
 20
-6.8178
 30
2.3073
 70
192
 0
VERTEX
 8
CILINDRO
 10
26.1721
 20
-6.8178
 30
2.3073
 70
192
 0
VERTEX
 8
CILINDRO
 10
-26.2279
 20
-6.794
 30
2.2121
 70
192
 0
VERTEX
 8
CILINDRO
 10
-13.1279
 20
-6.794
 30
2.2121
 70
192
 0
VERTEX
 8
CILINDRO
 10
-0.0279
 20
-6.794
 30
2.2121
 70
192
 0
VERTEX
 8
CILINDRO
 10
13.0721
 20
-6.794
 30
2.2121
 70
192
 0
VERTEX
 8
CILINDRO
 10
26.1721
 20
-6.794
 30
2.2121
 70
192
 0
VERTEX
 8
CILINDRO
 10
-26.2279
 20
-6.7609
 30
2.1197
 70
192
 0
VERTEX
 8
CILINDRO
 10
-13.1279
 20
-6.7609
 30
2.1197
 70
192
 0
VERTEX
 8
CILINDRO
 10
-0.0279
 20
-6.7609
 30
2.1197
 70
192
 0
VERTEX
 8
CILINDRO
 10
13.0721
 20
-6.7609
 30
2.1197
 70
192
 0
VERTEX
 8
CILINDRO
 10
26.1721
 20
-6.7609
 30
2.1197
 70
192
 0
VERTEX
 8
CILINDRO
 10
-26.2279
 20
-6.719
 30
2.031
 70
192
 0
VERTEX
 8
CILINDRO
 10
-13.1279
 20
-6.719
 30
2.031
 70
192
 0
VERTEX
 8
CILINDRO
 10
-0.0279
 20
-6.719
 30
2.031
 70
192
 0
VERTEX
 8
CILINDRO
 10
13.0721
 20
-6.719
 30
2.031
 70
192
 0
VERTEX
 8
CILINDRO
 10
26.1721
 20
-6.719
 30
2.031
 70
192
 0
VERTEX
 8
CILINDRO
 10
-26.2279
 20
-6.6685
 30
1.9468
 70
192
 0
VERTEX
 8
CILINDRO
 10
-13.1279
 20
-6.6685
 30
1.9468
 70
192
 0
VERTEX
 8
CILINDRO
 10
-0.0279
 20
-6.6685
 30
1.9468
 70
192
 0
VERTEX
 8
CILINDRO
 10
13.0721
 20
-6.6685
 30
1.9468
 70
192
 0
VERTEX
 8
CILINDRO
 10
26.1721
 20
-6.6685
 30
1.9468
 70
192
 0
VERTEX
 8
CILINDRO
 10
-26.2279
 20
-6.6101
 30
1.868
 70
192
 0
VERTEX
 8
CILINDRO
 10
-13.1279
 20
-6.6101
 30
1.868
 70
192
 0
VERTEX
 8
CILINDRO
 10
-0.0279
 20
-6.6101
 30
1.868
 70
192
 0
VERTEX
 8
CILINDRO
 10
13.0721
 20
-6.6101
 30
1.868
 70
192
 0
VERTEX
 8
CILINDRO
 10
26.1721
 20
-6.6101
 30
1.868
 70
192
 0
VERTEX
 8
CILINDRO
 10
-26.2279
 20
-6.5442
 30
1.7953
 70
192
 0
VERTEX
 8
CILINDRO
 10
-13.1279
 20
-6.5442
 30
1.7953
 70
192
 0
VERTEX
 8
CILINDRO
 10
-0.0279
 20
-6.5442
 30
1.7953
 70
192
 0
VERTEX
 8
CILINDRO
 10
13.0721
 20
-6.5442
 30
1.7953
 70
192
 0
VERTEX
 8
CILINDRO
 10
26.1721
 20
-6.5442
 30
1.7953
 70
192
 0
VERTEX
 8
CILINDRO
 10
-26.2279
 20
-6.4714
 30
1.7294
 70
192
 0
VERTEX
 8
CILINDRO
 10
-13.1279
 20
-6.4714
 30
1.7294
 70
192
 0
VERTEX
 8
CILINDRO
 10
-0.0279
 20
-6.4714
 30
1.7294
 70
192
 0
VERTEX
 8
CILINDRO
 10
13.0721
 20
-6.4714
 30
1.7294
 70
192
 0
VERTEX
 8
CILINDRO
 10
26.1721
 20
-6.4714
 30
1.7294
 70
192
 0
VERTEX
 8
CILINDRO
 10
-26.2279
 20
-6.3926
 30
1.6709
 70
192
 0
VERTEX
 8
CILINDRO
 10
-13.1279
 20
-6.3926
 30
1.6709
 70
192
 0
VERTEX
 8
CILINDRO
 10
-0.0279
 20
-6.3926
 30
1.6709
 70
192
 0
VERTEX
 8
CILINDRO
 10
13.0721
 20
-6.3926
 30
1.6709
 70
192
 0
VERTEX
 8
CILINDRO
 10
26.1721
 20
-6.3926
 30
1.6709
 70
192
 0
VERTEX
 8
CILINDRO
 10
-26.2279
 20
-6.3084
 30
1.6205
 70
192
 0
VERTEX
 8
CILINDRO
 10
-13.1279
 20
-6.3084
 30
1.6205
 70
192
 0
VERTEX
 8
CILINDRO
 10
-0.0279
 20
-6.3084
 30
1.6205
 70
192
 0
VERTEX
 8
CILINDRO
 10
13.0721
 20
-6.3084
 30
1.6205
 70
192
 0
VERTEX
 8
CILINDRO
 10
26.1721
 20
-6.3084
 30
1.6205
 70
192
 0
VERTEX
 8
CILINDRO
 10
-26.2279
 20
-6.2197
 30
1.5785
 70
192
 0
VERTEX
 8
CILINDRO
 10
-13.1279
 20
-6.2197
 30
1.5785
 70
192
 0
VERTEX
 8
CILINDRO
 10
-0.0279
 20
-6.2197
 30
1.5785
 70
192
 0
VERTEX
 8
CILINDRO
 10
13.0721
 20
-6.2197
 30
1.5785
 70
192
 0
VERTEX
 8
CILINDRO
 10
26.1721
 20
-6.2197
 30
1.5785
 70
192
 0
VERTEX
 8
CILINDRO
 10
-26.2279
 20
-6.1273
 30
1.5455
 70
192
 0
VERTEX
 8
CILINDRO
 10
-13.1279
 20
-6.1273
 30
1.5455
 70
192
 0
VERTEX
 8
CILINDRO
 10
-0.0279
 20
-6.1273
 30
1.5455
 70
192
 0
VERTEX
 8
CILINDRO
 10
13.0721
 20
-6.1273
 30
1.5455
 70
192
 0
VERTEX
 8
CILINDRO
 10
26.1721
 20
-6.1273
 30
1.5455
 70
192
 0
VERTEX
 8
CILINDRO
 10
-26.2279
 20
-6.0321
 30
1.5216
 70
192
 0
VERTEX
 8
CILINDRO
 10
-13.1279
 20
-6.0321
 30
1.5216
 70
192
 0
VERTEX
 8
CILINDRO
 10
-0.0279
 20
-6.0321
 30
1.5216
 70
192
 0
VERTEX
 8
CILINDRO
 10
13.0721
 20
-6.0321
 30
1.5216
 70
192
 0
VERTEX
 8
CILINDRO
 10
26.1721
 20
-6.0321
 30
1.5216
 70
192
 0
VERTEX
 8
CILINDRO
 10
-26.2279
 20
-5.9351
 30
1.5072
 70
192
 0
VERTEX
 8
CILINDRO
 10
-13.1279
 20
-5.9351
 30
1.5072
 70
192
 0
VERTEX
 8
CILINDRO
 10
-0.0279
 20
-5.9351
 30
1.5072
 70
192
 0
VERTEX
 8
CILINDRO
 10
13.0721
 20
-5.9351
 30
1.5072
 70
192
 0
VERTEX
 8
CILINDRO
 10
26.1721
 20
-5.9351
 30
1.5072
 70
192
 0
VERTEX
 8
CILINDRO
 10
0
 20
0
 30
0
 70
128
 71
1
 72
3
 73
8
 74
8
 0
VERTEX
 8
CILINDRO
 10
0
 20
0
 30
0
 70
128
 71
3
 72
4
 73
9
 74
8
 0
VERTEX
 8
CILINDRO
 10
0
 20
0
 30
0
 70
128
 71
4
 72
5
 73
10
 74
9
 0
VERTEX
 8
CILINDRO
 10
0
 20
0
 30
0
 70
128
 71
5
 72
6
 73
11
 74
10
 0
VERTEX
 8
CILINDRO
 10
0
 20
0
 30
0
 70
128
 71
6
 72
7
 73
12
 74
11
 0
VERTEX
 8
CILINDRO
 10
0
 20
0
 30
0
 70
128
 71
7
 72
2
 73
12
 74
12
 0
VERTEX
 8
CILINDRO
 10
0
 20
0
 30
0
 70
128
 71
1
 72
8
 73
13
 74
13
 0
VERTEX
 8
CILINDRO
 10
0
 20
0
 30
0
 70
128
 71
8
 72
9
 73
14
 74
13
 0
VERTEX
 8
CILINDRO
 10
0
 20
0
 30
0
 70
128
 71
9
 72
10
 73
15
 74
14
 0
VERTEX
 8
CILINDRO
 10
0
 20
0
 30
0
 70
128
 71
10
 72
11
 73
16
 74
15
 0
VERTEX
 8
CILINDRO
 10
0
 20
0
 30
0
 70
128
 71
11
 72
12
 73
17
 74
16
 0
VERTEX
 8
CILINDRO
 10
0
 20
0
 30
0
 70
128
 71
12
 72
2
 73
17
 74
17
 0
VERTEX
 8
CILINDRO
 10
0
 20
0
 30
0
 70
128
 71
1
 72
13
 73
18
 74
18
 0
VERTEX
 8
CILINDRO
 10
0
 20
0
 30
0
 70
128
 71
13
 72
14
 73
19
 74
18
 0
VERTEX
 8
CILINDRO
 10
0
 20
0
 30
0
 70
128
 71
14
 72
15
 73
20
 74
19
 0
VERTEX
 8
CILINDRO
 10
0
 20
0
 30
0
 70
128
 71
15
 72
16
 73
21
 74
20
 0
VERTEX
 8
CILINDRO
 10
0
 20
0
 30
0
 70
128
 71
16
 72
17
 73
22
 74
21
 0
VERTEX
 8
CILINDRO
 10
0
 20
0
 30
0
 70
128
 71
17
 72
2
 73
22
 74
22
 0
VERTEX
 8
CILINDRO
 10
0
 20
0
 30
0
 70
128
 71
1
 72
18
 73
23
 74
23
 0
VERTEX
 8
CILINDRO
 10
0
 20
0
 30
0
 70
128
 71
18
 72
19
 73
24
 74
23
 0
VERTEX
 8
CILINDRO
 10
0
 20
0
 30
0
 70
128
 71
19
 72
20
 73
25
 74
24
 0
VERTEX
 8
CILINDRO
 10
0
 20
0
 30
0
 70
128
 71
20
 72
21
 73
26
 74
25
 0
VERTEX
 8
CILINDRO
 10
0
 20
0
 30
0
 70
128
 71
21
 72
22
 73
27
 74
26
 0
VERTEX
 8
CILINDRO
 10
0
 20
0
 30
0
 70
128
 71
22
 72
2
 73
27
 74
27
 0
VERTEX
 8
CILINDRO
 10
0
 20
0
 30
0
 70
128
 71
1
 72
23
 73
28
 74
28
 0
VERTEX
 8
CILINDRO
 10
0
 20
0
 30
0
 70
128
 71
23
 72
24
 73
29
 74
28
 0
VERTEX
 8
CILINDRO
 10
0
 20
0
 30
0
 70
128
 71
24
 72
25
 73
30
 74
29
 0
VERTEX
 8
CILINDRO
 10
0
 20
0
 30
0
 70
128
 71
25
 72
26
 73
31
 74
30
 0
VERTEX
 8
CILINDRO
 10
0
 20
0
 30
0
 70
128
 71
26
 72
27
 73
32
 74
31
 0
VERTEX
 8
CILINDRO
 10
0
 20
0
 30
0
 70
128
 71
27
 72
2
 73
32
 74
32
 0
VERTEX
 8
CILINDRO
 10
0
 20
0
 30
0
 70
128
 71
1
 72
28
 73
33
 74
33
 0
VERTEX
 8
CILINDRO
 10
0
 20
0
 30
0
 70
128
 71
28
 72
29
 73
34
 74
33
 0
VERTEX
 8
CILINDRO
 10
0
 20
0
 30
0
 70
128
 71
29
 72
30
 73
35
 74
34
 0
VERTEX
 8
CILINDRO
 10
0
 20
0
 30
0
 70
128
 71
30
 72
31
 73
36
 74
35
 0
VERTEX
 8
CILINDRO
 10
0
 20
0
 30
0
 70
128
 71
31
 72
32
 73
37
 74
36
 0
VERTEX
 8
CILINDRO
 10
0
 20
0
 30
0
 70
128
 71
32
 72
2
 73
37
 74
37
 0
VERTEX
 8
CILINDRO
 10
0
 20
0
 30
0
 70
128
 71
1
 72
33
 73
38
 74
38
 0
VERTEX
 8
CILINDRO
 10
0
 20
0
 30
0
 70
128
 71
33
 72
34
 73
39
 74
38
 0
VERTEX
 8
CILINDRO
 10
0
 20
0
 30
0
 70
128
 71
34
 72
35
 73
40
 74
39
 0
VERTEX
 8
CILINDRO
 10
0
 20
0
 30
0
 70
128
 71
35
 72
36
 73
41
 74
40
 0
VERTEX
 8
CILINDRO
 10
0
 20
0
 30
0
 70
128
 71
36
 72
37
 73
42
 74
41
 0
VERTEX
 8
CILINDRO
 10
0
 20
0
 30
0
 70
128
 71
37
 72
2
 73
42
 74
42
 0
VERTEX
 8
CILINDRO
 10
0
 20
0
 30
0
 70
128
 71
1
 72
38
 73
43
 74
43
 0
VERTEX
 8
CILINDRO
 10
0
 20
0
 30
0
 70
128
 71
38
 72
39
 73
44
 74
43
 0
VERTEX
 8
CILINDRO
 10
0
 20
0
 30
0
 70
128
 71
39
 72
40
 73
45
 74
44
 0
VERTEX
 8
CILINDRO
 10
0
 20
0
 30
0
 70
128
 71
40
 72
41
 73
46
 74
45
 0
VERTEX
 8
CILINDRO
 10
0
 20
0
 30
0
 70
128
 71
41
 72
42
 73
47
 74
46
 0
VERTEX
 8
CILINDRO
 10
0
 20
0
 30
0
 70
128
 71
42
 72
2
 73
47
 74
47
 0
VERTEX
 8
CILINDRO
 10
0
 20
0
 30
0
 70
128
 71
1
 72
43
 73
48
 74
48
 0
VERTEX
 8
CILINDRO
 10
0
 20
0
 30
0
 70
128
 71
43
 72
44
 73
49
 74
48
 0
VERTEX
 8
CILINDRO
 10
0
 20
0
 30
0
 70
128
 71
44
 72
45
 73
50
 74
49
 0
VERTEX
 8
CILINDRO
 10
0
 20
0
 30
0
 70
128
 71
45
 72
46
 73
51
 74
50
 0
VERTEX
 8
CILINDRO
 10
0
 20
0
 30
0
 70
128
 71
46
 72
47
 73
52
 74
51
 0
VERTEX
 8
CILINDRO
 10
0
 20
0
 30
0
 70
128
 71
47
 72
2
 73
52
 74
52
 0
VERTEX
 8
CILINDRO
 10
0
 20
0
 30
0
 70
128
 71
1
 72
48
 73
53
 74
53
 0
VERTEX
 8
CILINDRO
 10
0
 20
0
 30
0
 70
128
 71
48
 72
49
 73
54
 74
53
 0
VERTEX
 8
CILINDRO
 10
0
 20
0
 30
0
 70
128
 71
49
 72
50
 73
55
 74
54
 0
VERTEX
 8
CILINDRO
 10
0
 20
0
 30
0
 70
128
 71
50
 72
51
 73
56
 74
55
 0
VERTEX
 8
CILINDRO
 10
0
 20
0
 30
0
 70
128
 71
51
 72
52
 73
57
 74
56
 0
VERTEX
 8
CILINDRO
 10
0
 20
0
 30
0
 70
128
 71
52
 72
2
 73
57
 74
57
 0
VERTEX
 8
CILINDRO
 10
0
 20
0
 30
0
 70
128
 71
1
 72
53
 73
58
 74
58
 0
VERTEX
 8
CILINDRO
 10
0
 20
0
 30
0
 70
128
 71
53
 72
54
 73
59
 74
58
 0
VERTEX
 8
CILINDRO
 10
0
 20
0
 30
0
 70
128
 71
54
 72
55
 73
60
 74
59
 0
VERTEX
 8
CILINDRO
 10
0
 20
0
 30
0
 70
128
 71
55
 72
56
 73
61
 74
60
 0
VERTEX
 8
CILINDRO
 10
0
 20
0
 30
0
 70
128
 71
56
 72
57
 73
62
 74
61
 0
VERTEX
 8
CILINDRO
 10
0
 20
0
 30
0
 70
128
 71
57
 72
2
 73
62
 74
62
 0
VERTEX
 8
CILINDRO
 10
0
 20
0
 30
0
 70
128
 71
1
 72
58
 73
63
 74
63
 0
VERTEX
 8
CILINDRO
 10
0
 20
0
 30
0
 70
128
 71
58
 72
59
 73
64
 74
63
 0
VERTEX
 8
CILINDRO
 10
0
 20
0
 30
0
 70
128
 71
59
 72
60
 73
65
 74
64
 0
VERTEX
 8
CILINDRO
 10
0
 20
0
 30
0
 70
128
 71
60
 72
61
 73
66
 74
65
 0
VERTEX
 8
CILINDRO
 10
0
 20
0
 30
0
 70
128
 71
61
 72
62
 73
67
 74
66
 0
VERTEX
 8
CILINDRO
 10
0
 20
0
 30
0
 70
128
 71
62
 72
2
 73
67
 74
67
 0
VERTEX
 8
CILINDRO
 10
0
 20
0
 30
0
 70
128
 71
1
 72
63
 73
68
 74
68
 0
VERTEX
 8
CILINDRO
 10
0
 20
0
 30
0
 70
128
 71
63
 72
64
 73
69
 74
68
 0
VERTEX
 8
CILINDRO
 10
0
 20
0
 30
0
 70
128
 71
64
 72
65
 73
70
 74
69
 0
VERTEX
 8
CILINDRO
 10
0
 20
0
 30
0
 70
128
 71
65
 72
66
 73
71
 74
70
 0
VERTEX
 8
CILINDRO
 10
0
 20
0
 30
0
 70
128
 71
66
 72
67
 73
72
 74
71
 0
VERTEX
 8
CILINDRO
 10
0
 20
0
 30
0
 70
128
 71
67
 72
2
 73
72
 74
72
 0
VERTEX
 8
CILINDRO
 10
0
 20
0
 30
0
 70
128
 71
1
 72
68
 73
73
 74
73
 0
VERTEX
 8
CILINDRO
 10
0
 20
0
 30
0
 70
128
 71
68
 72
69
 73
74
 74
73
 0
VERTEX
 8
CILINDRO
 10
0
 20
0
 30
0
 70
128
 71
69
 72
70
 73
75
 74
74
 0
VERTEX
 8
CILINDRO
 10
0
 20
0
 30
0
 70
128
 71
70
 72
71
 73
76
 74
75
 0
VERTEX
 8
CILINDRO
 10
0
 20
0
 30
0
 70
128
 71
71
 72
72
 73
77
 74
76
 0
VERTEX
 8
CILINDRO
 10
0
 20
0
 30
0
 70
128
 71
72
 72
2
 73
77
 74
77
 0
VERTEX
 8
CILINDRO
 10
0
 20
0
 30
0
 70
128
 71
1
 72
73
 73
78
 74
78
 0
VERTEX
 8
CILINDRO
 10
0
 20
0
 30
0
 70
128
 71
73
 72
74
 73
79
 74
78
 0
VERTEX
 8
CILINDRO
 10
0
 20
0
 30
0
 70
128
 71
74
 72
75
 73
80
 74
79
 0
VERTEX
 8
CILINDRO
 10
0
 20
0
 30
0
 70
128
 71
75
 72
76
 73
81
 74
80
 0
VERTEX
 8
CILINDRO
 10
0
 20
0
 30
0
 70
128
 71
76
 72
77
 73
82
 74
81
 0
VERTEX
 8
CILINDRO
 10
0
 20
0
 30
0
 70
128
 71
77
 72
2
 73
82
 74
82
 0
VERTEX
 8
CILINDRO
 10
0
 20
0
 30
0
 70
128
 71
1
 72
78
 73
83
 74
83
 0
VERTEX
 8
CILINDRO
 10
0
 20
0
 30
0
 70
128
 71
78
 72
79
 73
84
 74
83
 0
VERTEX
 8
CILINDRO
 10
0
 20
0
 30
0
 70
128
 71
79
 72
80
 73
85
 74
84
 0
VERTEX
 8
CILINDRO
 10
0
 20
0
 30
0
 70
128
 71
80
 72
81
 73
86
 74
85
 0
VERTEX
 8
CILINDRO
 10
0
 20
0
 30
0
 70
128
 71
81
 72
82
 73
87
 74
86
 0
VERTEX
 8
CILINDRO
 10
0
 20
0
 30
0
 70
128
 71
82
 72
2
 73
87
 74
87
 0
VERTEX
 8
CILINDRO
 10
0
 20
0
 30
0
 70
128
 71
1
 72
83
 73
88
 74
88
 0
VERTEX
 8
CILINDRO
 10
0
 20
0
 30
0
 70
128
 71
83
 72
84
 73
89
 74
88
 0
VERTEX
 8
CILINDRO
 10
0
 20
0
 30
0
 70
128
 71
84
 72
85
 73
90
 74
89
 0
VERTEX
 8
CILINDRO
 10
0
 20
0
 30
0
 70
128
 71
85
 72
86
 73
91
 74
90
 0
VERTEX
 8
CILINDRO
 10
0
 20
0
 30
0
 70
128
 71
86
 72
87
 73
92
 74
91
 0
VERTEX
 8
CILINDRO
 10
0
 20
0
 30
0
 70
128
 71
87
 72
2
 73
92
 74
92
 0
VERTEX
 8
CILINDRO
 10
0
 20
0
 30
0
 70
128
 71
1
 72
88
 73
93
 74
93
 0
VERTEX
 8
CILINDRO
 10
0
 20
0
 30
0
 70
128
 71
88
 72
89
 73
94
 74
93
 0
VERTEX
 8
CILINDRO
 10
0
 20
0
 30
0
 70
128
 71
89
 72
90
 73
95
 74
94
 0
VERTEX
 8
CILINDRO
 10
0
 20
0
 30
0
 70
128
 71
90
 72
91
 73
96
 74
95
 0
VERTEX
 8
CILINDRO
 10
0
 20
0
 30
0
 70
128
 71
91
 72
92
 73
97
 74
96
 0
VERTEX
 8
CILINDRO
 10
0
 20
0
 30
0
 70
128
 71
92
 72
2
 73
97
 74
97
 0
VERTEX
 8
CILINDRO
 10
0
 20
0
 30
0
 70
128
 71
1
 72
93
 73
98
 74
98
 0
VERTEX
 8
CILINDRO
 10
0
 20
0
 30
0
 70
128
 71
93
 72
94
 73
99
 74
98
 0
VERTEX
 8
CILINDRO
 10
0
 20
0
 30
0
 70
128
 71
94
 72
95
 73
100
 74
99
 0
VERTEX
 8
CILINDRO
 10
0
 20
0
 30
0
 70
128
 71
95
 72
96
 73
101
 74
100
 0
VERTEX
 8
CILINDRO
 10
0
 20
0
 30
0
 70
128
 71
96
 72
97
 73
102
 74
101
 0
VERTEX
 8
CILINDRO
 10
0
 20
0
 30
0
 70
128
 71
97
 72
2
 73
102
 74
102
 0
VERTEX
 8
CILINDRO
 10
0
 20
0
 30
0
 70
128
 71
1
 72
98
 73
103
 74
103
 0
VERTEX
 8
CILINDRO
 10
0
 20
0
 30
0
 70
128
 71
98
 72
99
 73
104
 74
103
 0
VERTEX
 8
CILINDRO
 10
0
 20
0
 30
0
 70
128
 71
99
 72
100
 73
105
 74
104
 0
VERTEX
 8
CILINDRO
 10
0
 20
0
 30
0
 70
128
 71
100
 72
101
 73
106
 74
105
 0
VERTEX
 8
CILINDRO
 10
0
 20
0
 30
0
 70
128
 71
101
 72
102
 73
107
 74
106
 0
VERTEX
 8
CILINDRO
 10
0
 20
0
 30
0
 70
128
 71
102
 72
2
 73
107
 74
107
 0
VERTEX
 8
CILINDRO
 10
0
 20
0
 30
0
 70
128
 71
1
 72
103
 73
108
 74
108
 0
VERTEX
 8
CILINDRO
 10
0
 20
0
 30
0
 70
128
 71
103
 72
104
 73
109
 74
108
 0
VERTEX
 8
CILINDRO
 10
0
 20
0
 30
0
 70
128
 71
104
 72
105
 73
110
 74
109
 0
VERTEX
 8
CILINDRO
 10
0
 20
0
 30
0
 70
128
 71
105
 72
106
 73
111
 74
110
 0
VERTEX
 8
CILINDRO
 10
0
 20
0
 30
0
 70
128
 71
106
 72
107
 73
112
 74
111
 0
VERTEX
 8
CILINDRO
 10
0
 20
0
 30
0
 70
128
 71
107
 72
2
 73
112
 74
112
 0
VERTEX
 8
CILINDRO
 10
0
 20
0
 30
0
 70
128
 71
1
 72
108
 73
113
 74
113
 0
VERTEX
 8
CILINDRO
 10
0
 20
0
 30
0
 70
128
 71
108
 72
109
 73
114
 74
113
 0
VERTEX
 8
CILINDRO
 10
0
 20
0
 30
0
 70
128
 71
109
 72
110
 73
115
 74
114
 0
VERTEX
 8
CILINDRO
 10
0
 20
0
 30
0
 70
128
 71
110
 72
111
 73
116
 74
115
 0
VERTEX
 8
CILINDRO
 10
0
 20
0
 30
0
 70
128
 71
111
 72
112
 73
117
 74
116
 0
VERTEX
 8
CILINDRO
 10
0
 20
0
 30
0
 70
128
 71
112
 72
2
 73
117
 74
117
 0
VERTEX
 8
CILINDRO
 10
0
 20
0
 30
0
 70
128
 71
1
 72
113
 73
118
 74
118
 0
VERTEX
 8
CILINDRO
 10
0
 20
0
 30
0
 70
128
 71
113
 72
114
 73
119
 74
118
 0
VERTEX
 8
CILINDRO
 10
0
 20
0
 30
0
 70
128
 71
114
 72
115
 73
120
 74
119
 0
VERTEX
 8
CILINDRO
 10
0
 20
0
 30
0
 70
128
 71
115
 72
116
 73
121
 74
120
 0
VERTEX
 8
CILINDRO
 10
0
 20
0
 30
0
 70
128
 71
116
 72
117
 73
122
 74
121
 0
VERTEX
 8
CILINDRO
 10
0
 20
0
 30
0
 70
128
 71
117
 72
2
 73
122
 74
122
 0
VERTEX
 8
CILINDRO
 10
0
 20
0
 30
0
 70
128
 71
1
 72
118
 73
123
 74
123
 0
VERTEX
 8
CILINDRO
 10
0
 20
0
 30
0
 70
128
 71
118
 72
119
 73
124
 74
123
 0
VERTEX
 8
CILINDRO
 10
0
 20
0
 30
0
 70
128
 71
119
 72
120
 73
125
 74
124
 0
VERTEX
 8
CILINDRO
 10
0
 20
0
 30
0
 70
128
 71
120
 72
121
 73
126
 74
125
 0
VERTEX
 8
CILINDRO
 10
0
 20
0
 30
0
 70
128
 71
121
 72
122
 73
127
 74
126
 0
VERTEX
 8
CILINDRO
 10
0
 20
0
 30
0
 70
128
 71
122
 72
2
 73
127
 74
127
 0
VERTEX
 8
CILINDRO
 10
0
 20
0
 30
0
 70
128
 71
1
 72
123
 73
128
 74
128
 0
VERTEX
 8
CILINDRO
 10
0
 20
0
 30
0
 70
128
 71
123
 72
124
 73
129
 74
128
 0
VERTEX
 8
CILINDRO
 10
0
 20
0
 30
0
 70
128
 71
124
 72
125
 73
130
 74
129
 0
VERTEX
 8
CILINDRO
 10
0
 20
0
 30
0
 70
128
 71
125
 72
126
 73
131
 74
130
 0
VERTEX
 8
CILINDRO
 10
0
 20
0
 30
0
 70
128
 71
126
 72
127
 73
132
 74
131
 0
VERTEX
 8
CILINDRO
 10
0
 20
0
 30
0
 70
128
 71
127
 72
2
 73
132
 74
132
 0
VERTEX
 8
CILINDRO
 10
0
 20
0
 30
0
 70
128
 71
1
 72
128
 73
133
 74
133
 0
VERTEX
 8
CILINDRO
 10
0
 20
0
 30
0
 70
128
 71
128
 72
129
 73
134
 74
133
 0
VERTEX
 8
CILINDRO
 10
0
 20
0
 30
0
 70
128
 71
129
 72
130
 73
135
 74
134
 0
VERTEX
 8
CILINDRO
 10
0
 20
0
 30
0
 70
128
 71
130
 72
131
 73
136
 74
135
 0
VERTEX
 8
CILINDRO
 10
0
 20
0
 30
0
 70
128
 71
131
 72
132
 73
137
 74
136
 0
VERTEX
 8
CILINDRO
 10
0
 20
0
 30
0
 70
128
 71
132
 72
2
 73
137
 74
137
 0
VERTEX
 8
CILINDRO
 10
0
 20
0
 30
0
 70
128
 71
1
 72
133
 73
138
 74
138
 0
VERTEX
 8
CILINDRO
 10
0
 20
0
 30
0
 70
128
 71
133
 72
134
 73
139
 74
138
 0
VERTEX
 8
CILINDRO
 10
0
 20
0
 30
0
 70
128
 71
134
 72
135
 73
140
 74
139
 0
VERTEX
 8
CILINDRO
 10
0
 20
0
 30
0
 70
128
 71
135
 72
136
 73
141
 74
140
 0
VERTEX
 8
CILINDRO
 10
0
 20
0
 30
0
 70
128
 71
136
 72
137
 73
142
 74
141
 0
VERTEX
 8
CILINDRO
 10
0
 20
0
 30
0
 70
128
 71
137
 72
2
 73
142
 74
142
 0
VERTEX
 8
CILINDRO
 10
0
 20
0
 30
0
 70
128
 71
1
 72
138
 73
143
 74
143
 0
VERTEX
 8
CILINDRO
 10
0
 20
0
 30
0
 70
128
 71
138
 72
139
 73
144
 74
143
 0
VERTEX
 8
CILINDRO
 10
0
 20
0
 30
0
 70
128
 71
139
 72
140
 73
145
 74
144
 0
VERTEX
 8
CILINDRO
 10
0
 20
0
 30
0
 70
128
 71
140
 72
141
 73
146
 74
145
 0
VERTEX
 8
CILINDRO
 10
0
 20
0
 30
0
 70
128
 71
141
 72
142
 73
147
 74
146
 0
VERTEX
 8
CILINDRO
 10
0
 20
0
 30
0
 70
128
 71
142
 72
2
 73
147
 74
147
 0
VERTEX
 8
CILINDRO
 10
0
 20
0
 30
0
 70
128
 71
1
 72
143
 73
148
 74
148
 0
VERTEX
 8
CILINDRO
 10
0
 20
0
 30
0
 70
128
 71
143
 72
144
 73
149
 74
148
 0
VERTEX
 8
CILINDRO
 10
0
 20
0
 30
0
 70
128
 71
144
 72
145
 73
150
 74
149
 0
VERTEX
 8
CILINDRO
 10
0
 20
0
 30
0
 70
128
 71
145
 72
146
 73
151
 74
150
 0
VERTEX
 8
CILINDRO
 10
0
 20
0
 30
0
 70
128
 71
146
 72
147
 73
152
 74
151
 0
VERTEX
 8
CILINDRO
 10
0
 20
0
 30
0
 70
128
 71
147
 72
2
 73
152
 74
152
 0
VERTEX
 8
CILINDRO
 10
0
 20
0
 30
0
 70
128
 71
1
 72
148
 73
153
 74
153
 0
VERTEX
 8
CILINDRO
 10
0
 20
0
 30
0
 70
128
 71
148
 72
149
 73
154
 74
153
 0
VERTEX
 8
CILINDRO
 10
0
 20
0
 30
0
 70
128
 71
149
 72
150
 73
155
 74
154
 0
VERTEX
 8
CILINDRO
 10
0
 20
0
 30
0
 70
128
 71
150
 72
151
 73
156
 74
155
 0
VERTEX
 8
CILINDRO
 10
0
 20
0
 30
0
 70
128
 71
151
 72
152
 73
157
 74
156
 0
VERTEX
 8
CILINDRO
 10
0
 20
0
 30
0
 70
128
 71
152
 72
2
 73
157
 74
157
 0
VERTEX
 8
CILINDRO
 10
0
 20
0
 30
0
 70
128
 71
1
 72
153
 73
158
 74
158
 0
VERTEX
 8
CILINDRO
 10
0
 20
0
 30
0
 70
128
 71
153
 72
154
 73
159
 74
158
 0
VERTEX
 8
CILINDRO
 10
0
 20
0
 30
0
 70
128
 71
154
 72
155
 73
160
 74
159
 0
VERTEX
 8
CILINDRO
 10
0
 20
0
 30
0
 70
128
 71
155
 72
156
 73
161
 74
160
 0
VERTEX
 8
CILINDRO
 10
0
 20
0
 30
0
 70
128
 71
156
 72
157
 73
162
 74
161
 0
VERTEX
 8
CILINDRO
 10
0
 20
0
 30
0
 70
128
 71
157
 72
2
 73
162
 74
162
 0
VERTEX
 8
CILINDRO
 10
0
 20
0
 30
0
 70
128
 71
1
 72
158
 73
163
 74
163
 0
VERTEX
 8
CILINDRO
 10
0
 20
0
 30
0
 70
128
 71
158
 72
159
 73
164
 74
163
 0
VERTEX
 8
CILINDRO
 10
0
 20
0
 30
0
 70
128
 71
159
 72
160
 73
165
 74
164
 0
VERTEX
 8
CILINDRO
 10
0
 20
0
 30
0
 70
128
 71
160
 72
161
 73
166
 74
165
 0
VERTEX
 8
CILINDRO
 10
0
 20
0
 30
0
 70
128
 71
161
 72
162
 73
167
 74
166
 0
VERTEX
 8
CILINDRO
 10
0
 20
0
 30
0
 70
128
 71
162
 72
2
 73
167
 74
167
 0
VERTEX
 8
CILINDRO
 10
0
 20
0
 30
0
 70
128
 71
1
 72
163
 73
168
 74
168
 0
VERTEX
 8
CILINDRO
 10
0
 20
0
 30
0
 70
128
 71
163
 72
164
 73
169
 74
168
 0
VERTEX
 8
CILINDRO
 10
0
 20
0
 30
0
 70
128
 71
164
 72
165
 73
170
 74
169
 0
VERTEX
 8
CILINDRO
 10
0
 20
0
 30
0
 70
128
 71
165
 72
166
 73
171
 74
170
 0
VERTEX
 8
CILINDRO
 10
0
 20
0
 30
0
 70
128
 71
166
 72
167
 73
172
 74
171
 0
VERTEX
 8
CILINDRO
 10
0
 20
0
 30
0
 70
128
 71
167
 72
2
 73
172
 74
172
 0
VERTEX
 8
CILINDRO
 10
0
 20
0
 30
0
 70
128
 71
1
 72
168
 73
173
 74
173
 0
VERTEX
 8
CILINDRO
 10
0
 20
0
 30
0
 70
128
 71
168
 72
169
 73
174
 74
173
 0
VERTEX
 8
CILINDRO
 10
0
 20
0
 30
0
 70
128
 71
169
 72
170
 73
175
 74
174
 0
VERTEX
 8
CILINDRO
 10
0
 20
0
 30
0
 70
128
 71
170
 72
171
 73
176
 74
175
 0
VERTEX
 8
CILINDRO
 10
0
 20
0
 30
0
 70
128
 71
171
 72
172
 73
177
 74
176
 0
VERTEX
 8
CILINDRO
 10
0
 20
0
 30
0
 70
128
 71
172
 72
2
 73
177
 74
177
 0
VERTEX
 8
CILINDRO
 10
0
 20
0
 30
0
 70
128
 71
1
 72
173
 73
178
 74
178
 0
VERTEX
 8
CILINDRO
 10
0
 20
0
 30
0
 70
128
 71
173
 72
174
 73
179
 74
178
 0
VERTEX
 8
CILINDRO
 10
0
 20
0
 30
0
 70
128
 71
174
 72
175
 73
180
 74
179
 0
VERTEX
 8
CILINDRO
 10
0
 20
0
 30
0
 70
128
 71
175
 72
176
 73
181
 74
180
 0
VERTEX
 8
CILINDRO
 10
0
 20
0
 30
0
 70
128
 71
176
 72
177
 73
182
 74
181
 0
VERTEX
 8
CILINDRO
 10
0
 20
0
 30
0
 70
128
 71
177
 72
2
 73
182
 74
182
 0
VERTEX
 8
CILINDRO
 10
0
 20
0
 30
0
 70
128
 71
1
 72
178
 73
183
 74
183
 0
VERTEX
 8
CILINDRO
 10
0
 20
0
 30
0
 70
128
 71
178
 72
179
 73
184
 74
183
 0
VERTEX
 8
CILINDRO
 10
0
 20
0
 30
0
 70
128
 71
179
 72
180
 73
185
 74
184
 0
VERTEX
 8
CILINDRO
 10
0
 20
0
 30
0
 70
128
 71
180
 72
181
 73
186
 74
185
 0
VERTEX
 8
CILINDRO
 10
0
 20
0
 30
0
 70
128
 71
181
 72
182
 73
187
 74
186
 0
VERTEX
 8
CILINDRO
 10
0
 20
0
 30
0
 70
128
 71
182
 72
2
 73
187
 74
187
 0
VERTEX
 8
CILINDRO
 10
0
 20
0
 30
0
 70
128
 71
1
 72
183
 73
188
 74
188
 0
VERTEX
 8
CILINDRO
 10
0
 20
0
 30
0
 70
128
 71
183
 72
184
 73
189
 74
188
 0
VERTEX
 8
CILINDRO
 10
0
 20
0
 30
0
 70
128
 71
184
 72
185
 73
190
 74
189
 0
VERTEX
 8
CILINDRO
 10
0
 20
0
 30
0
 70
128
 71
185
 72
186
 73
191
 74
190
 0
VERTEX
 8
CILINDRO
 10
0
 20
0
 30
0
 70
128
 71
186
 72
187
 73
192
 74
191
 0
VERTEX
 8
CILINDRO
 10
0
 20
0
 30
0
 70
128
 71
187
 72
2
 73
192
 74
192
 0
VERTEX
 8
CILINDRO
 10
0
 20
0
 30
0
 70
128
 71
1
 72
188
 73
193
 74
193
 0
VERTEX
 8
CILINDRO
 10
0
 20
0
 30
0
 70
128
 71
188
 72
189
 73
194
 74
193
 0
VERTEX
 8
CILINDRO
 10
0
 20
0
 30
0
 70
128
 71
189
 72
190
 73
195
 74
194
 0
VERTEX
 8
CILINDRO
 10
0
 20
0
 30
0
 70
128
 71
190
 72
191
 73
196
 74
195
 0
VERTEX
 8
CILINDRO
 10
0
 20
0
 30
0
 70
128
 71
191
 72
192
 73
197
 74
196
 0
VERTEX
 8
CILINDRO
 10
0
 20
0
 30
0
 70
128
 71
192
 72
2
 73
197
 74
197
 0
VERTEX
 8
CILINDRO
 10
0
 20
0
 30
0
 70
128
 71
1
 72
193
 73
198
 74
198
 0
VERTEX
 8
CILINDRO
 10
0
 20
0
 30
0
 70
128
 71
193
 72
194
 73
199
 74
198
 0
VERTEX
 8
CILINDRO
 10
0
 20
0
 30
0
 70
128
 71
194
 72
195
 73
200
 74
199
 0
VERTEX
 8
CILINDRO
 10
0
 20
0
 30
0
 70
128
 71
195
 72
196
 73
201
 74
200
 0
VERTEX
 8
CILINDRO
 10
0
 20
0
 30
0
 70
128
 71
196
 72
197
 73
202
 74
201
 0
VERTEX
 8
CILINDRO
 10
0
 20
0
 30
0
 70
128
 71
197
 72
2
 73
202
 74
202
 0
VERTEX
 8
CILINDRO
 10
0
 20
0
 30
0
 70
128
 71
1
 72
198
 73
203
 74
203
 0
VERTEX
 8
CILINDRO
 10
0
 20
0
 30
0
 70
128
 71
198
 72
199
 73
204
 74
203
 0
VERTEX
 8
CILINDRO
 10
0
 20
0
 30
0
 70
128
 71
199
 72
200
 73
205
 74
204
 0
VERTEX
 8
CILINDRO
 10
0
 20
0
 30
0
 70
128
 71
200
 72
201
 73
206
 74
205
 0
VERTEX
 8
CILINDRO
 10
0
 20
0
 30
0
 70
128
 71
201
 72
202
 73
207
 74
206
 0
VERTEX
 8
CILINDRO
 10
0
 20
0
 30
0
 70
128
 71
202
 72
2
 73
207
 74
207
 0
VERTEX
 8
CILINDRO
 10
0
 20
0
 30
0
 70
128
 71
1
 72
203
 73
208
 74
208
 0
VERTEX
 8
CILINDRO
 10
0
 20
0
 30
0
 70
128
 71
203
 72
204
 73
209
 74
208
 0
VERTEX
 8
CILINDRO
 10
0
 20
0
 30
0
 70
128
 71
204
 72
205
 73
210
 74
209
 0
VERTEX
 8
CILINDRO
 10
0
 20
0
 30
0
 70
128
 71
205
 72
206
 73
211
 74
210
 0
VERTEX
 8
CILINDRO
 10
0
 20
0
 30
0
 70
128
 71
206
 72
207
 73
212
 74
211
 0
VERTEX
 8
CILINDRO
 10
0
 20
0
 30
0
 70
128
 71
207
 72
2
 73
212
 74
212
 0
VERTEX
 8
CILINDRO
 10
0
 20
0
 30
0
 70
128
 71
1
 72
208
 73
213
 74
213
 0
VERTEX
 8
CILINDRO
 10
0
 20
0
 30
0
 70
128
 71
208
 72
209
 73
214
 74
213
 0
VERTEX
 8
CILINDRO
 10
0
 20
0
 30
0
 70
128
 71
209
 72
210
 73
215
 74
214
 0
VERTEX
 8
CILINDRO
 10
0
 20
0
 30
0
 70
128
 71
210
 72
211
 73
216
 74
215
 0
VERTEX
 8
CILINDRO
 10
0
 20
0
 30
0
 70
128
 71
211
 72
212
 73
217
 74
216
 0
VERTEX
 8
CILINDRO
 10
0
 20
0
 30
0
 70
128
 71
212
 72
2
 73
217
 74
217
 0
VERTEX
 8
CILINDRO
 10
0
 20
0
 30
0
 70
128
 71
1
 72
213
 73
218
 74
218
 0
VERTEX
 8
CILINDRO
 10
0
 20
0
 30
0
 70
128
 71
213
 72
214
 73
219
 74
218
 0
VERTEX
 8
CILINDRO
 10
0
 20
0
 30
0
 70
128
 71
214
 72
215
 73
220
 74
219
 0
VERTEX
 8
CILINDRO
 10
0
 20
0
 30
0
 70
128
 71
215
 72
216
 73
221
 74
220
 0
VERTEX
 8
CILINDRO
 10
0
 20
0
 30
0
 70
128
 71
216
 72
217
 73
222
 74
221
 0
VERTEX
 8
CILINDRO
 10
0
 20
0
 30
0
 70
128
 71
217
 72
2
 73
222
 74
222
 0
VERTEX
 8
CILINDRO
 10
0
 20
0
 30
0
 70
128
 71
1
 72
218
 73
223
 74
223
 0
VERTEX
 8
CILINDRO
 10
0
 20
0
 30
0
 70
128
 71
218
 72
219
 73
224
 74
223
 0
VERTEX
 8
CILINDRO
 10
0
 20
0
 30
0
 70
128
 71
219
 72
220
 73
225
 74
224
 0
VERTEX
 8
CILINDRO
 10
0
 20
0
 30
0
 70
128
 71
220
 72
221
 73
226
 74
225
 0
VERTEX
 8
CILINDRO
 10
0
 20
0
 30
0
 70
128
 71
221
 72
222
 73
227
 74
226
 0
VERTEX
 8
CILINDRO
 10
0
 20
0
 30
0
 70
128
 71
222
 72
2
 73
227
 74
227
 0
VERTEX
 8
CILINDRO
 10
0
 20
0
 30
0
 70
128
 71
1
 72
223
 73
228
 74
228
 0
VERTEX
 8
CILINDRO
 10
0
 20
0
 30
0
 70
128
 71
223
 72
224
 73
229
 74
228
 0
VERTEX
 8
CILINDRO
 10
0
 20
0
 30
0
 70
128
 71
224
 72
225
 73
230
 74
229
 0
VERTEX
 8
CILINDRO
 10
0
 20
0
 30
0
 70
128
 71
225
 72
226
 73
231
 74
230
 0
VERTEX
 8
CILINDRO
 10
0
 20
0
 30
0
 70
128
 71
226
 72
227
 73
232
 74
231
 0
VERTEX
 8
CILINDRO
 10
0
 20
0
 30
0
 70
128
 71
227
 72
2
 73
232
 74
232
 0
VERTEX
 8
CILINDRO
 10
0
 20
0
 30
0
 70
128
 71
1
 72
228
 73
233
 74
233
 0
VERTEX
 8
CILINDRO
 10
0
 20
0
 30
0
 70
128
 71
228
 72
229
 73
234
 74
233
 0
VERTEX
 8
CILINDRO
 10
0
 20
0
 30
0
 70
128
 71
229
 72
230
 73
235
 74
234
 0
VERTEX
 8
CILINDRO
 10
0
 20
0
 30
0
 70
128
 71
230
 72
231
 73
236
 74
235
 0
VERTEX
 8
CILINDRO
 10
0
 20
0
 30
0
 70
128
 71
231
 72
232
 73
237
 74
236
 0
VERTEX
 8
CILINDRO
 10
0
 20
0
 30
0
 70
128
 71
232
 72
2
 73
237
 74
237
 0
VERTEX
 8
CILINDRO
 10
0
 20
0
 30
0
 70
128
 71
1
 72
233
 73
238
 74
238
 0
VERTEX
 8
CILINDRO
 10
0
 20
0
 30
0
 70
128
 71
233
 72
234
 73
239
 74
238
 0
VERTEX
 8
CILINDRO
 10
0
 20
0
 30
0
 70
128
 71
234
 72
235
 73
240
 74
239
 0
VERTEX
 8
CILINDRO
 10
0
 20
0
 30
0
 70
128
 71
235
 72
236
 73
241
 74
240
 0
VERTEX
 8
CILINDRO
 10
0
 20
0
 30
0
 70
128
 71
236
 72
237
 73
242
 74
241
 0
VERTEX
 8
CILINDRO
 10
0
 20
0
 30
0
 70
128
 71
237
 72
2
 73
242
 74
242
 0
VERTEX
 8
CILINDRO
 10
0
 20
0
 30
0
 70
128
 71
1
 72
238
 73
243
 74
243
 0
VERTEX
 8
CILINDRO
 10
0
 20
0
 30
0
 70
128
 71
238
 72
239
 73
244
 74
243
 0
VERTEX
 8
CILINDRO
 10
0
 20
0
 30
0
 70
128
 71
239
 72
240
 73
245
 74
244
 0
VERTEX
 8
CILINDRO
 10
0
 20
0
 30
0
 70
128
 71
240
 72
241
 73
246
 74
245
 0
VERTEX
 8
CILINDRO
 10
0
 20
0
 30
0
 70
128
 71
241
 72
242
 73
247
 74
246
 0
VERTEX
 8
CILINDRO
 10
0
 20
0
 30
0
 70
128
 71
242
 72
2
 73
247
 74
247
 0
VERTEX
 8
CILINDRO
 10
0
 20
0
 30
0
 70
128
 71
1
 72
243
 73
248
 74
248
 0
VERTEX
 8
CILINDRO
 10
0
 20
0
 30
0
 70
128
 71
243
 72
244
 73
249
 74
248
 0
VERTEX
 8
CILINDRO
 10
0
 20
0
 30
0
 70
128
 71
244
 72
245
 73
250
 74
249
 0
VERTEX
 8
CILINDRO
 10
0
 20
0
 30
0
 70
128
 71
245
 72
246
 73
251
 74
250
 0
VERTEX
 8
CILINDRO
 10
0
 20
0
 30
0
 70
128
 71
246
 72
247
 73
252
 74
251
 0
VERTEX
 8
CILINDRO
 10
0
 20
0
 30
0
 70
128
 71
247
 72
2
 73
252
 74
252
 0
VERTEX
 8
CILINDRO
 10
0
 20
0
 30
0
 70
128
 71
1
 72
248
 73
253
 74
253
 0
VERTEX
 8
CILINDRO
 10
0
 20
0
 30
0
 70
128
 71
248
 72
249
 73
254
 74
253
 0
VERTEX
 8
CILINDRO
 10
0
 20
0
 30
0
 70
128
 71
249
 72
250
 73
255
 74
254
 0
VERTEX
 8
CILINDRO
 10
0
 20
0
 30
0
 70
128
 71
250
 72
251
 73
256
 74
255
 0
VERTEX
 8
CILINDRO
 10
0
 20
0
 30
0
 70
128
 71
251
 72
252
 73
257
 74
256
 0
VERTEX
 8
CILINDRO
 10
0
 20
0
 30
0
 70
128
 71
252
 72
2
 73
257
 74
257
 0
VERTEX
 8
CILINDRO
 10
0
 20
0
 30
0
 70
128
 71
1
 72
253
 73
258
 74
258
 0
VERTEX
 8
CILINDRO
 10
0
 20
0
 30
0
 70
128
 71
253
 72
254
 73
259
 74
258
 0
VERTEX
 8
CILINDRO
 10
0
 20
0
 30
0
 70
128
 71
254
 72
255
 73
260
 74
259
 0
VERTEX
 8
CILINDRO
 10
0
 20
0
 30
0
 70
128
 71
255
 72
256
 73
261
 74
260
 0
VERTEX
 8
CILINDRO
 10
0
 20
0
 30
0
 70
128
 71
256
 72
257
 73
262
 74
261
 0
VERTEX
 8
CILINDRO
 10
0
 20
0
 30
0
 70
128
 71
257
 72
2
 73
262
 74
262
 0
VERTEX
 8
CILINDRO
 10
0
 20
0
 30
0
 70
128
 71
1
 72
258
 73
263
 74
263
 0
VERTEX
 8
CILINDRO
 10
0
 20
0
 30
0
 70
128
 71
258
 72
259
 73
264
 74
263
 0
VERTEX
 8
CILINDRO
 10
0
 20
0
 30
0
 70
128
 71
259
 72
260
 73
265
 74
264
 0
VERTEX
 8
CILINDRO
 10
0
 20
0
 30
0
 70
128
 71
260
 72
261
 73
266
 74
265
 0
VERTEX
 8
CILINDRO
 10
0
 20
0
 30
0
 70
128
 71
261
 72
262
 73
267
 74
266
 0
VERTEX
 8
CILINDRO
 10
0
 20
0
 30
0
 70
128
 71
262
 72
2
 73
267
 74
267
 0
VERTEX
 8
CILINDRO
 10
0
 20
0
 30
0
 70
128
 71
1
 72
263
 73
268
 74
268
 0
VERTEX
 8
CILINDRO
 10
0
 20
0
 30
0
 70
128
 71
263
 72
264
 73
269
 74
268
 0
VERTEX
 8
CILINDRO
 10
0
 20
0
 30
0
 70
128
 71
264
 72
265
 73
270
 74
269
 0
VERTEX
 8
CILINDRO
 10
0
 20
0
 30
0
 70
128
 71
265
 72
266
 73
271
 74
270
 0
VERTEX
 8
CILINDRO
 10
0
 20
0
 30
0
 70
128
 71
266
 72
267
 73
272
 74
271
 0
VERTEX
 8
CILINDRO
 10
0
 20
0
 30
0
 70
128
 71
267
 72
2
 73
272
 74
272
 0
VERTEX
 8
CILINDRO
 10
0
 20
0
 30
0
 70
128
 71
1
 72
268
 73
273
 74
273
 0
VERTEX
 8
CILINDRO
 10
0
 20
0
 30
0
 70
128
 71
268
 72
269
 73
274
 74
273
 0
VERTEX
 8
CILINDRO
 10
0
 20
0
 30
0
 70
128
 71
269
 72
270
 73
275
 74
274
 0
VERTEX
 8
CILINDRO
 10
0
 20
0
 30
0
 70
128
 71
270
 72
271
 73
276
 74
275
 0
VERTEX
 8
CILINDRO
 10
0
 20
0
 30
0
 70
128
 71
271
 72
272
 73
277
 74
276
 0
VERTEX
 8
CILINDRO
 10
0
 20
0
 30
0
 70
128
 71
272
 72
2
 73
277
 74
277
 0
VERTEX
 8
CILINDRO
 10
0
 20
0
 30
0
 70
128
 71
1
 72
273
 73
278
 74
278
 0
VERTEX
 8
CILINDRO
 10
0
 20
0
 30
0
 70
128
 71
273
 72
274
 73
279
 74
278
 0
VERTEX
 8
CILINDRO
 10
0
 20
0
 30
0
 70
128
 71
274
 72
275
 73
280
 74
279
 0
VERTEX
 8
CILINDRO
 10
0
 20
0
 30
0
 70
128
 71
275
 72
276
 73
281
 74
280
 0
VERTEX
 8
CILINDRO
 10
0
 20
0
 30
0
 70
128
 71
276
 72
277
 73
282
 74
281
 0
VERTEX
 8
CILINDRO
 10
0
 20
0
 30
0
 70
128
 71
277
 72
2
 73
282
 74
282
 0
VERTEX
 8
CILINDRO
 10
0
 20
0
 30
0
 70
128
 71
1
 72
278
 73
283
 74
283
 0
VERTEX
 8
CILINDRO
 10
0
 20
0
 30
0
 70
128
 71
278
 72
279
 73
284
 74
283
 0
VERTEX
 8
CILINDRO
 10
0
 20
0
 30
0
 70
128
 71
279
 72
280
 73
285
 74
284
 0
VERTEX
 8
CILINDRO
 10
0
 20
0
 30
0
 70
128
 71
280
 72
281
 73
286
 74
285
 0
VERTEX
 8
CILINDRO
 10
0
 20
0
 30
0
 70
128
 71
281
 72
282
 73
287
 74
286
 0
VERTEX
 8
CILINDRO
 10
0
 20
0
 30
0
 70
128
 71
282
 72
2
 73
287
 74
287
 0
VERTEX
 8
CILINDRO
 10
0
 20
0
 30
0
 70
128
 71
1
 72
283
 73
288
 74
288
 0
VERTEX
 8
CILINDRO
 10
0
 20
0
 30
0
 70
128
 71
283
 72
284
 73
289
 74
288
 0
VERTEX
 8
CILINDRO
 10
0
 20
0
 30
0
 70
128
 71
284
 72
285
 73
290
 74
289
 0
VERTEX
 8
CILINDRO
 10
0
 20
0
 30
0
 70
128
 71
285
 72
286
 73
291
 74
290
 0
VERTEX
 8
CILINDRO
 10
0
 20
0
 30
0
 70
128
 71
286
 72
287
 73
292
 74
291
 0
VERTEX
 8
CILINDRO
 10
0
 20
0
 30
0
 70
128
 71
287
 72
2
 73
292
 74
292
 0
VERTEX
 8
CILINDRO
 10
0
 20
0
 30
0
 70
128
 71
1
 72
288
 73
293
 74
293
 0
VERTEX
 8
CILINDRO
 10
0
 20
0
 30
0
 70
128
 71
288
 72
289
 73
294
 74
293
 0
VERTEX
 8
CILINDRO
 10
0
 20
0
 30
0
 70
128
 71
289
 72
290
 73
295
 74
294
 0
VERTEX
 8
CILINDRO
 10
0
 20
0
 30
0
 70
128
 71
290
 72
291
 73
296
 74
295
 0
VERTEX
 8
CILINDRO
 10
0
 20
0
 30
0
 70
128
 71
291
 72
292
 73
297
 74
296
 0
VERTEX
 8
CILINDRO
 10
0
 20
0
 30
0
 70
128
 71
292
 72
2
 73
297
 74
297
 0
VERTEX
 8
CILINDRO
 10
0
 20
0
 30
0
 70
128
 71
1
 72
293
 73
298
 74
298
 0
VERTEX
 8
CILINDRO
 10
0
 20
0
 30
0
 70
128
 71
293
 72
294
 73
299
 74
298
 0
VERTEX
 8
CILINDRO
 10
0
 20
0
 30
0
 70
128
 71
294
 72
295
 73
300
 74
299
 0
VERTEX
 8
CILINDRO
 10
0
 20
0
 30
0
 70
128
 71
295
 72
296
 73
301
 74
300
 0
VERTEX
 8
CILINDRO
 10
0
 20
0
 30
0
 70
128
 71
296
 72
297
 73
302
 74
301
 0
VERTEX
 8
CILINDRO
 10
0
 20
0
 30
0
 70
128
 71
297
 72
2
 73
302
 74
302
 0
VERTEX
 8
CILINDRO
 10
0
 20
0
 30
0
 70
128
 71
1
 72
298
 73
303
 74
303
 0
VERTEX
 8
CILINDRO
 10
0
 20
0
 30
0
 70
128
 71
298
 72
299
 73
304
 74
303
 0
VERTEX
 8
CILINDRO
 10
0
 20
0
 30
0
 70
128
 71
299
 72
300
 73
305
 74
304
 0
VERTEX
 8
CILINDRO
 10
0
 20
0
 30
0
 70
128
 71
300
 72
301
 73
306
 74
305
 0
VERTEX
 8
CILINDRO
 10
0
 20
0
 30
0
 70
128
 71
301
 72
302
 73
307
 74
306
 0
VERTEX
 8
CILINDRO
 10
0
 20
0
 30
0
 70
128
 71
302
 72
2
 73
307
 74
307
 0
VERTEX
 8
CILINDRO
 10
0
 20
0
 30
0
 70
128
 71
1
 72
303
 73
308
 74
308
 0
VERTEX
 8
CILINDRO
 10
0
 20
0
 30
0
 70
128
 71
303
 72
304
 73
309
 74
308
 0
VERTEX
 8
CILINDRO
 10
0
 20
0
 30
0
 70
128
 71
304
 72
305
 73
310
 74
309
 0
VERTEX
 8
CILINDRO
 10
0
 20
0
 30
0
 70
128
 71
305
 72
306
 73
311
 74
310
 0
VERTEX
 8
CILINDRO
 10
0
 20
0
 30
0
 70
128
 71
306
 72
307
 73
312
 74
311
 0
VERTEX
 8
CILINDRO
 10
0
 20
0
 30
0
 70
128
 71
307
 72
2
 73
312
 74
312
 0
VERTEX
 8
CILINDRO
 10
0
 20
0
 30
0
 70
128
 71
1
 72
308
 73
313
 74
313
 0
VERTEX
 8
CILINDRO
 10
0
 20
0
 30
0
 70
128
 71
308
 72
309
 73
314
 74
313
 0
VERTEX
 8
CILINDRO
 10
0
 20
0
 30
0
 70
128
 71
309
 72
310
 73
315
 74
314
 0
VERTEX
 8
CILINDRO
 10
0
 20
0
 30
0
 70
128
 71
310
 72
311
 73
316
 74
315
 0
VERTEX
 8
CILINDRO
 10
0
 20
0
 30
0
 70
128
 71
311
 72
312
 73
317
 74
316
 0
VERTEX
 8
CILINDRO
 10
0
 20
0
 30
0
 70
128
 71
312
 72
2
 73
317
 74
317
 0
VERTEX
 8
CILINDRO
 10
0
 20
0
 30
0
 70
128
 71
1
 72
313
 73
318
 74
318
 0
VERTEX
 8
CILINDRO
 10
0
 20
0
 30
0
 70
128
 71
313
 72
314
 73
319
 74
318
 0
VERTEX
 8
CILINDRO
 10
0
 20
0
 30
0
 70
128
 71
314
 72
315
 73
320
 74
319
 0
VERTEX
 8
CILINDRO
 10
0
 20
0
 30
0
 70
128
 71
315
 72
316
 73
321
 74
320
 0
VERTEX
 8
CILINDRO
 10
0
 20
0
 30
0
 70
128
 71
316
 72
317
 73
322
 74
321
 0
VERTEX
 8
CILINDRO
 10
0
 20
0
 30
0
 70
128
 71
317
 72
2
 73
322
 74
322
 0
VERTEX
 8
CILINDRO
 10
0
 20
0
 30
0
 70
128
 71
1
 72
318
 73
3
 74
3
 0
VERTEX
 8
CILINDRO
 10
0
 20
0
 30
0
 70
128
 71
318
 72
319
 73
4
 74
3
 0
VERTEX
 8
CILINDRO
 10
0
 20
0
 30
0
 70
128
 71
319
 72
320
 73
5
 74
4
 0
VERTEX
 8
CILINDRO
 10
0
 20
0
 30
0
 70
128
 71
320
 72
321
 73
6
 74
5
 0
VERTEX
 8
CILINDRO
 10
0
 20
0
 30
0
 70
128
 71
321
 72
322
 73
7
 74
6
 0
VERTEX
 8
CILINDRO
 10
0
 20
0
 30
0
 70
128
 71
322
 72
2
 73
7
 74
7
 0
SEQEND
 0
POLYLINE
 8
ANTA
 66
1
 10
0.0
 20
0.0
 30
0.0
 70
64
 71
32
 72
32
 0
VERTEX
 8
ANTA
 10
-29.7423
 20
-2.195
 30
-26.5718
 70
192
 0
VERTEX
 8
ANTA
 10
-29.7423
 20
-2.195
 30
-18.5718
 70
192
 0
VERTEX
 8
ANTA
 10
-29.7423
 20
-2.195
 30
3.7062
 70
192
 0
VERTEX
 8
ANTA
 10
-29.7423
 20
-2.195
 30
5.7062
 70
192
 0
VERTEX
 8
ANTA
 10
-27.7423
 20
-2.195
 30
-26.5718
 70
192
 0
VERTEX
 8
ANTA
 10
-27.7423
 20
-2.195
 30
-18.5718
 70
192
 0
VERTEX
 8
ANTA
 10
-27.7423
 20
-2.195
 30
3.7062
 70
192
 0
VERTEX
 8
ANTA
 10
-27.7423
 20
-2.195
 30
5.7062
 70
192
 0
VERTEX
 8
ANTA
 10
27.7634
 20
-2.195
 30
-26.5718
 70
192
 0
VERTEX
 8
ANTA
 10
27.7634
 20
-2.195
 30
-18.5718
 70
192
 0
VERTEX
 8
ANTA
 10
27.7634
 20
-2.195
 30
3.7062
 70
192
 0
VERTEX
 8
ANTA
 10
27.7634
 20
-2.195
 30
5.7062
 70
192
 0
VERTEX
 8
ANTA
 10
29.7634
 20
-2.195
 30
-26.5718
 70
192
 0
VERTEX
 8
ANTA
 10
29.7634
 20
-2.195
 30
-18.5718
 70
192
 0
VERTEX
 8
ANTA
 10
29.7634
 20
-2.195
 30
3.7062
 70
192
 0
VERTEX
 8
ANTA
 10
29.7634
 20
-2.195
 30
5.7062
 70
192
 0
VERTEX
 8
ANTA
 10
29.7634
 20
-1.795
 30
-26.5718
 70
192
 0
VERTEX
 8
ANTA
 10
29.7634
 20
-1.795
 30
-18.5718
 70
192
 0
VERTEX
 8
ANTA
 10
29.7634
 20
-1.795
 30
3.7062
 70
192
 0
VERTEX
 8
ANTA
 10
29.7634
 20
-1.795
 30
5.7062
 70
192
 0
VERTEX
 8
ANTA
 10
27.7634
 20
-1.795
 30
-26.5718
 70
192
 0
VERTEX
 8
ANTA
 10
27.7634
 20
-1.795
 30
-18.5718
 70
192
 0
VERTEX
 8
ANTA
 10
27.7634
 20
-1.795
 30
3.7062
 70
192
 0
VERTEX
 8
ANTA
 10
27.7634
 20
-1.795
 30
5.7062
 70
192
 0
VERTEX
 8
ANTA
 10
-27.7423
 20
-1.795
 30
-26.5718
 70
192
 0
VERTEX
 8
ANTA
 10
-27.7423
 20
-1.795
 30
-18.5718
 70
192
 0
VERTEX
 8
ANTA
 10
-27.7423
 20
-1.795
 30
3.7062
 70
192
 0
VERTEX
 8
ANTA
 10
-27.7423
 20
-1.795
 30
5.7062
 70
192
 0
VERTEX
 8
ANTA
 10
-29.7423
 20
-1.795
 30
-26.5718
 70
192
 0
VERTEX
 8
ANTA
 10
-29.7423
 20
-1.795
 30
-18.5718
 70
192
 0
VERTEX
 8
ANTA
 10
-29.7423
 20
-1.795
 30
3.7062
 70
192
 0
VERTEX
 8
ANTA
 10
-29.7423
 20
-1.795
 30
5.7062
 70
192
 0
VERTEX
 8
ANTA
 10
0
 20
0
 30
0
 70
128
 71
1
 72
2
 73
6
 74
5
 0
VERTEX
 8
ANTA
 10
0
 20
0
 30
0
 70
128
 71
5
 72
6
 73
10
 74
9
 0
VERTEX
 8
ANTA
 10
0
 20
0
 30
0
 70
128
 71
9
 72
10
 73
14
 74
13
 0
VERTEX
 8
ANTA
 10
0
 20
0
 30
0
 70
128
 71
2
 72
3
 73
7
 74
6
 0
VERTEX
 8
ANTA
 10
0
 20
0
 30
0
 70
128
 71
21
 72
9
 73
13
 74
17
 0
VERTEX
 8
ANTA
 10
0
 20
0
 30
0
 70
128
 71
10
 72
11
 73
15
 74
14
 0
VERTEX
 8
ANTA
 10
0
 20
0
 30
0
 70
128
 71
3
 72
4
 73
8
 74
7
 0
VERTEX
 8
ANTA
 10
0
 20
0
 30
0
 70
128
 71
7
 72
8
 73
12
 74
11
 0
VERTEX
 8
ANTA
 10
0
 20
0
 30
0
 70
128
 71
11
 72
12
 73
16
 74
15
 0
VERTEX
 8
ANTA
 10
0
 20
0
 30
0
 70
128
 71
13
 72
14
 73
18
 74
17
 0
VERTEX
 8
ANTA
 10
0
 20
0
 30
0
 70
128
 71
14
 72
15
 73
19
 74
18
 0
VERTEX
 8
ANTA
 10
0
 20
0
 30
0
 70
128
 71
15
 72
16
 73
20
 74
19
 0
VERTEX
 8
ANTA
 10
0
 20
0
 30
0
 70
128
 71
17
 72
18
 73
22
 74
21
 0
VERTEX
 8
ANTA
 10
0
 20
0
 30
0
 70
128
 71
21
 72
22
 73
26
 74
25
 0
VERTEX
 8
ANTA
 10
0
 20
0
 30
0
 70
128
 71
25
 72
26
 73
30
 74
29
 0
VERTEX
 8
ANTA
 10
0
 20
0
 30
0
 70
128
 71
18
 72
19
 73
23
 74
22
 0
VERTEX
 8
ANTA
 10
0
 20
0
 30
0
 70
128
 71
25
 72
5
 73
9
 74
21
 0
VERTEX
 8
ANTA
 10
0
 20
0
 30
0
 70
128
 71
26
 72
27
 73
31
 74
30
 0
VERTEX
 8
ANTA
 10
0
 20
0
 30
0
 70
128
 71
19
 72
20
 73
24
 74
23
 0
VERTEX
 8
ANTA
 10
0
 20
0
 30
0
 70
128
 71
23
 72
24
 73
28
 74
27
 0
VERTEX
 8
ANTA
 10
0
 20
0
 30
0
 70
128
 71
27
 72
28
 73
32
 74
31
 0
VERTEX
 8
ANTA
 10
0
 20
0
 30
0
 70
128
 71
29
 72
30
 73
2
 74
1
 0
VERTEX
 8
ANTA
 10
0
 20
0
 30
0
 70
128
 71
30
 72
31
 73
3
 74
2
 0
VERTEX
 8
ANTA
 10
0
 20
0
 30
0
 70
128
 71
31
 72
32
 73
4
 74
3
 0
VERTEX
 8
ANTA
 10
0
 20
0
 30
0
 70
128
 71
4
 72
32
 73
28
 74
8
 0
VERTEX
 8
ANTA
 10
0
 20
0
 30
0
 70
128
 71
8
 72
28
 73
24
 74
12
 0
VERTEX
 8
ANTA
 10
0
 20
0
 30
0
 70
128
 71
12
 72
24
 73
20
 74
16
 0
VERTEX
 8
ANTA
 10
0
 20
0
 30
0
 70
128
 71
29
 72
1
 73
5
 74
25
 0
VERTEX
 8
ANTA
 10
0
 20
0
 30
0
 70
128
 71
27
 72
26
 73
6
 74
7
 0
VERTEX
 8
ANTA
 10
0
 20
0
 30
0
 70
128
 71
23
 72
27
 73
7
 74
11
 0
VERTEX
 8
ANTA
 10
0
 20
0
 30
0
 70
128
 71
22
 72
23
 73
11
 74
10
 0
VERTEX
 8
ANTA
 10
0
 20
0
 30
0
 70
128
 71
26
 72
22
 73
10
 74
6
 0
SEQEND
 0
POLYLINE
 8
VETRO_SERIGRAFATO
 66
1
 10
0.0
 20
0.0
 30
0.0
 70
64
 71
32
 72
32
 0
VERTEX
 8
VETRO_SERIGRAFATO
 10
-29.6278
 20
-2.0748
 30
-26.4758
 70
192
 0
VERTEX
 8
VETRO_SERIGRAFATO
 10
-29.6278
 20
-2.0748
 30
-18.1783
 70
192
 0
VERTEX
 8
VETRO_SERIGRAFATO
 10
-29.6278
 20
-2.0748
 30
-3.9783
 70
192
 0
VERTEX
 8
VETRO_SERIGRAFATO
 10
-29.6278
 20
-2.0748
 30
5.6042
 70
192
 0
VERTEX
 8
VETRO_SERIGRAFATO
 10
-18.5278
 20
-2.0748
 30
-26.4758
 70
192
 0
VERTEX
 8
VETRO_SERIGRAFATO
 10
-18.5278
 20
-2.0748
 30
-18.1783
 70
192
 0
VERTEX
 8
VETRO_SERIGRAFATO
 10
-18.5278
 20
-2.0748
 30
-3.9783
 70
192
 0
VERTEX
 8
VETRO_SERIGRAFATO
 10
-18.5278
 20
-2.0748
 30
5.6042
 70
192
 0
VERTEX
 8
VETRO_SERIGRAFATO
 10
18.4722
 20
-2.0749
 30
-26.4758
 70
192
 0
VERTEX
 8
VETRO_SERIGRAFATO
 10
18.4722
 20
-2.0749
 30
-18.1783
 70
192
 0
VERTEX
 8
VETRO_SERIGRAFATO
 10
18.4722
 20
-2.0749
 30
-3.9783
 70
192
 0
VERTEX
 8
VETRO_SERIGRAFATO
 10
18.4722
 20
-2.0749
 30
5.6042
 70
192
 0
VERTEX
 8
VETRO_SERIGRAFATO
 10
29.5722
 20
-2.0749
 30
-26.4758
 70
192
 0
VERTEX
 8
VETRO_SERIGRAFATO
 10
29.5722
 20
-2.0749
 30
-18.1783
 70
192
 0
VERTEX
 8
VETRO_SERIGRAFATO
 10
29.5722
 20
-2.0749
 30
-3.9783
 70
192
 0
VERTEX
 8
VETRO_SERIGRAFATO
 10
29.5722
 20
-2.0749
 30
5.6042
 70
192
 0
VERTEX
 8
VETRO_SERIGRAFATO
 10
29.5722
 20
-1.6749
 30
-26.4758
 70
192
 0
VERTEX
 8
VETRO_SERIGRAFATO
 10
29.5722
 20
-1.6749
 30
-18.1783
 70
192
 0
VERTEX
 8
VETRO_SERIGRAFATO
 10
29.5722
 20
-1.6749
 30
-3.9783
 70
192
 0
VERTEX
 8
VETRO_SERIGRAFATO
 10
29.5722
 20
-1.6749
 30
5.6042
 70
192
 0
VERTEX
 8
VETRO_SERIGRAFATO
 10
18.4722
 20
-1.6749
 30
-26.4758
 70
192
 0
VERTEX
 8
VETRO_SERIGRAFATO
 10
18.4722
 20
-1.6749
 30
-18.1783
 70
192
 0
VERTEX
 8
VETRO_SERIGRAFATO
 10
18.4722
 20
-1.6749
 30
-3.9783
 70
192
 0
VERTEX
 8
VETRO_SERIGRAFATO
 10
18.4722
 20
-1.6749
 30
5.6042
 70
192
 0
VERTEX
 8
VETRO_SERIGRAFATO
 10
-18.5278
 20
-1.6748
 30
-26.4758
 70
192
 0
VERTEX
 8
VETRO_SERIGRAFATO
 10
-18.5278
 20
-1.6748
 30
-18.1783
 70
192
 0
VERTEX
 8
VETRO_SERIGRAFATO
 10
-18.5278
 20
-1.6748
 30
-3.9783
 70
192
 0
VERTEX
 8
VETRO_SERIGRAFATO
 10
-18.5278
 20
-1.6748
 30
5.6042
 70
192
 0
VERTEX
 8
VETRO_SERIGRAFATO
 10
-29.6278
 20
-1.6748
 30
-26.4758
 70
192
 0
VERTEX
 8
VETRO_SERIGRAFATO
 10
-29.6278
 20
-1.6748
 30
-18.1783
 70
192
 0
VERTEX
 8
VETRO_SERIGRAFATO
 10
-29.6278
 20
-1.6748
 30
-3.9783
 70
192
 0
VERTEX
 8
VETRO_SERIGRAFATO
 10
-29.6278
 20
-1.6748
 30
5.6042
 70
192
 0
VERTEX
 8
VETRO_SERIGRAFATO
 10
0
 20
0
 30
0
 70
128
 71
1
 72
2
 73
6
 74
5
 0
VERTEX
 8
VETRO_SERIGRAFATO
 10
0
 20
0
 30
0
 70
128
 71
5
 72
6
 73
10
 74
9
 0
VERTEX
 8
VETRO_SERIGRAFATO
 10
0
 20
0
 30
0
 70
128
 71
9
 72
10
 73
14
 74
13
 0
VERTEX
 8
VETRO_SERIGRAFATO
 10
0
 20
0
 30
0
 70
128
 71
2
 72
3
 73
7
 74
6
 0
VERTEX
 8
VETRO_SERIGRAFATO
 10
0
 20
0
 30
0
 70
128
 71
21
 72
9
 73
13
 74
17
 0
VERTEX
 8
VETRO_SERIGRAFATO
 10
0
 20
0
 30
0
 70
128
 71
10
 72
11
 73
15
 74
14
 0
VERTEX
 8
VETRO_SERIGRAFATO
 10
0
 20
0
 30
0
 70
128
 71
3
 72
4
 73
8
 74
7
 0
VERTEX
 8
VETRO_SERIGRAFATO
 10
0
 20
0
 30
0
 70
128
 71
7
 72
8
 73
12
 74
11
 0
VERTEX
 8
VETRO_SERIGRAFATO
 10
0
 20
0
 30
0
 70
128
 71
11
 72
12
 73
16
 74
15
 0
VERTEX
 8
VETRO_SERIGRAFATO
 10
0
 20
0
 30
0
 70
128
 71
13
 72
14
 73
18
 74
17
 0
VERTEX
 8
VETRO_SERIGRAFATO
 10
0
 20
0
 30
0
 70
128
 71
14
 72
15
 73
19
 74
18
 0
VERTEX
 8
VETRO_SERIGRAFATO
 10
0
 20
0
 30
0
 70
128
 71
15
 72
16
 73
20
 74
19
 0
VERTEX
 8
VETRO_SERIGRAFATO
 10
0
 20
0
 30
0
 70
128
 71
17
 72
18
 73
22
 74
21
 0
VERTEX
 8
VETRO_SERIGRAFATO
 10
0
 20
0
 30
0
 70
128
 71
21
 72
22
 73
26
 74
25
 0
VERTEX
 8
VETRO_SERIGRAFATO
 10
0
 20
0
 30
0
 70
128
 71
25
 72
26
 73
30
 74
29
 0
VERTEX
 8
VETRO_SERIGRAFATO
 10
0
 20
0
 30
0
 70
128
 71
18
 72
19
 73
23
 74
22
 0
VERTEX
 8
VETRO_SERIGRAFATO
 10
0
 20
0
 30
0
 70
128
 71
25
 72
5
 73
9
 74
21
 0
VERTEX
 8
VETRO_SERIGRAFATO
 10
0
 20
0
 30
0
 70
128
 71
26
 72
27
 73
31
 74
30
 0
VERTEX
 8
VETRO_SERIGRAFATO
 10
0
 20
0
 30
0
 70
128
 71
19
 72
20
 73
24
 74
23
 0
VERTEX
 8
VETRO_SERIGRAFATO
 10
0
 20
0
 30
0
 70
128
 71
23
 72
24
 73
28
 74
27
 0
VERTEX
 8
VETRO_SERIGRAFATO
 10
0
 20
0
 30
0
 70
128
 71
27
 72
28
 73
32
 74
31
 0
VERTEX
 8
VETRO_SERIGRAFATO
 10
0
 20
0
 30
0
 70
128
 71
29
 72
30
 73
2
 74
1
 0
VERTEX
 8
VETRO_SERIGRAFATO
 10
0
 20
0
 30
0
 70
128
 71
30
 72
31
 73
3
 74
2
 0
VERTEX
 8
VETRO_SERIGRAFATO
 10
0
 20
0
 30
0
 70
128
 71
31
 72
32
 73
4
 74
3
 0
VERTEX
 8
VETRO_SERIGRAFATO
 10
0
 20
0
 30
0
 70
128
 71
4
 72
32
 73
28
 74
8
 0
VERTEX
 8
VETRO_SERIGRAFATO
 10
0
 20
0
 30
0
 70
128
 71
8
 72
28
 73
24
 74
12
 0
VERTEX
 8
VETRO_SERIGRAFATO
 10
0
 20
0
 30
0
 70
128
 71
12
 72
24
 73
20
 74
16
 0
VERTEX
 8
VETRO_SERIGRAFATO
 10
0
 20
0
 30
0
 70
128
 71
29
 72
1
 73
5
 74
25
 0
VERTEX
 8
VETRO_SERIGRAFATO
 10
0
 20
0
 30
0
 70
128
 71
27
 72
26
 73
6
 74
7
 0
VERTEX
 8
VETRO_SERIGRAFATO
 10
0
 20
0
 30
0
 70
128
 71
23
 72
27
 73
7
 74
11
 0
VERTEX
 8
VETRO_SERIGRAFATO
 10
0
 20
0
 30
0
 70
128
 71
22
 72
23
 73
11
 74
10
 0
VERTEX
 8
VETRO_SERIGRAFATO
 10
0
 20
0
 30
0
 70
128
 71
26
 72
22
 73
10
 74
6
 0
SEQEND
 0
POLYLINE
 8
VETRO_TRASP
 66
1
 10
0.0
 20
0.0
 30
0.0
 70
64
 71
8
 72
6
 0
VERTEX
 8
VETRO_TRASP
 10
18.4722
 20
-1.6749
 30
-3.9783
 70
192
 0
VERTEX
 8
VETRO_TRASP
 10
-18.5278
 20
-1.6748
 30
-3.9783
 70
192
 0
VERTEX
 8
VETRO_TRASP
 10
18.4722
 20
-2.0749
 30
-3.9783
 70
192
 0
VERTEX
 8
VETRO_TRASP
 10
18.4722
 20
-2.0749
 30
-18.1783
 70
192
 0
VERTEX
 8
VETRO_TRASP
 10
18.4722
 20
-1.6749
 30
-18.1783
 70
192
 0
VERTEX
 8
VETRO_TRASP
 10
-18.5278
 20
-2.0748
 30
-18.1783
 70
192
 0
VERTEX
 8
VETRO_TRASP
 10
-18.5278
 20
-2.0748
 30
-3.9783
 70
192
 0
VERTEX
 8
VETRO_TRASP
 10
-18.5278
 20
-1.6748
 30
-18.1783
 70
192
 0
VERTEX
 8
VETRO_TRASP
 10
0
 20
0
 30
0
 70
128
 71
6
 72
7
 73
3
 74
4
 0
VERTEX
 8
VETRO_TRASP
 10
0
 20
0
 30
0
 70
128
 71
5
 72
1
 73
2
 74
8
 0
VERTEX
 8
VETRO_TRASP
 10
0
 20
0
 30
0
 70
128
 71
3
 72
7
 73
2
 74
1
 0
VERTEX
 8
VETRO_TRASP
 10
0
 20
0
 30
0
 70
128
 71
7
 72
6
 73
8
 74
2
 0
VERTEX
 8
VETRO_TRASP
 10
0
 20
0
 30
0
 70
128
 71
6
 72
4
 73
5
 74
8
 0
VERTEX
 8
VETRO_TRASP
 10
0
 20
0
 30
0
 70
128
 71
4
 72
3
 73
1
 74
5
 0
SEQEND
 0
POLYLINE
 8
CUBO_2
 66
1
 10
0.0
 20
0.0
 30
0.0
 70
64
 71
12
 72
10
 0
VERTEX
 8
CUBO_2
 10
-26.9896
 20
0.3651
 30
-26.3396
 70
192
 0
VERTEX
 8
CUBO_2
 10
-26.9896
 20
0.3651
 30
16.1439
 70
192
 0
VERTEX
 8
CUBO_2
 10
27.0104
 20
0.3651
 30
-26.3396
 70
192
 0
VERTEX
 8
CUBO_2
 10
27.0104
 20
0.3651
 30
16.1439
 70
192
 0
VERTEX
 8
CUBO_2
 10
27.0104
 20
52.4814
 30
-26.3396
 70
192
 0
VERTEX
 8
CUBO_2
 10
27.0104
 20
39.8637
 30
16.1439
 70
192
 0
VERTEX
 8
CUBO_2
 10
-26.9896
 20
52.4814
 30
-26.3396
 70
192
 0
VERTEX
 8
CUBO_2
 10
-26.9896
 20
39.8637
 30
16.1439
 70
192
 0
VERTEX
 8
CUBO_2
 10
-26.9896
 20
0.3651
 30
8.3018
 70
192
 0
VERTEX
 8
CUBO_2
 10
27.0104
 20
0.3651
 30
8.3018
 70
192
 0
VERTEX
 8
CUBO_2
 10
27.0104
 20
52.4814
 30
8.3018
 70
192
 0
VERTEX
 8
CUBO_2
 10
-26.9896
 20
52.4814
 30
8.3018
 70
192
 0
VERTEX
 8
CUBO_2
 10
0
 20
0
 30
0
 70
128
 71
1
 72
9
 73
10
 74
3
 0
VERTEX
 8
CUBO_2
 10
0
 20
0
 30
0
 70
128
 71
3
 72
10
 73
11
 74
5
 0
VERTEX
 8
CUBO_2
 10
0
 20
0
 30
0
 70
128
 71
5
 72
11
 73
12
 74
7
 0
VERTEX
 8
CUBO_2
 10
0
 20
0
 30
0
 70
128
 71
7
 72
12
 73
9
 74
1
 0
VERTEX
 8
CUBO_2
 10
0
 20
0
 30
0
 70
128
 71
2
 72
8
 73
6
 74
4
 0
VERTEX
 8
CUBO_2
 10
0
 20
0
 30
0
 70
128
 71
7
 72
1
 73
3
 74
5
 0
VERTEX
 8
CUBO_2
 10
0
 20
0
 30
0
 70
128
 71
9
 72
2
 73
4
 74
10
 0
VERTEX
 8
CUBO_2
 10
0
 20
0
 30
0
 70
128
 71
10
 72
4
 73
6
 74
11
 0
VERTEX
 8
CUBO_2
 10
0
 20
0
 30
0
 70
128
 71
11
 72
6
 73
8
 74
12
 0
VERTEX
 8
CUBO_2
 10
0
 20
0
 30
0
 70
128
 71
12
 72
8
 73
2
 74
9
 0
SEQEND
 0
POLYLINE
 8
CUBO_1
 66
1
 10
0.0
 20
0.0
 30
0.0
 70
64
 71
8
 72
6
 0
VERTEX
 8
CUBO_1
 10
-29.5631
 20
-1.7073
 30
6.4412
 70
192
 0
VERTEX
 8
CUBO_1
 10
-29.5631
 20
-1.7073
 30
17.7297
 70
192
 0
VERTEX
 8
CUBO_1
 10
29.5839
 20
-1.7073
 30
6.4412
 70
192
 0
VERTEX
 8
CUBO_1
 10
29.5839
 20
-1.7073
 30
17.7297
 70
192
 0
VERTEX
 8
CUBO_1
 10
29.5839
 20
-0.0993
 30
6.4412
 70
192
 0
VERTEX
 8
CUBO_1
 10
29.5839
 20
-0.0993
 30
17.7297
 70
192
 0
VERTEX
 8
CUBO_1
 10
-29.5631
 20
-0.0993
 30
6.4412
 70
192
 0
VERTEX
 8
CUBO_1
 10
-29.5631
 20
-0.0993
 30
17.7297
 70
192
 0
VERTEX
 8
CUBO_1
 10
0
 20
0
 30
0
 70
128
 71
1
 72
2
 73
4
 74
3
 0
VERTEX
 8
CUBO_1
 10
0
 20
0
 30
0
 70
128
 71
3
 72
4
 73
6
 74
5
 0
VERTEX
 8
CUBO_1
 10
0
 20
0
 30
0
 70
128
 71
5
 72
6
 73
8
 74
7
 0
VERTEX
 8
CUBO_1
 10
0
 20
0
 30
0
 70
128
 71
7
 72
8
 73
2
 74
1
 0
VERTEX
 8
CUBO_1
 10
0
 20
0
 30
0
 70
128
 71
2
 72
8
 73
6
 74
4
 0
VERTEX
 8
CUBO_1
 10
0
 20
0
 30
0
 70
128
 71
7
 72
1
 73
3
 74
5
 0
SEQEND
 0
POLYLINE
 8
CUBO_3
 66
1
 10
0.0
 20
0.0
 30
0.0
 70
64
 71
8
 72
6
 0
VERTEX
 8
CUBO_3
 10
-29.4896
 20
-0.8706
 30
-26.768
 70
192
 0
VERTEX
 8
CUBO_3
 10
-29.4896
 20
-0.8706
 30
6.432
 70
192
 0
VERTEX
 8
CUBO_3
 10
29.5104
 20
-0.8706
 30
-26.768
 70
192
 0
VERTEX
 8
CUBO_3
 10
29.5104
 20
-0.8706
 30
6.432
 70
192
 0
VERTEX
 8
CUBO_3
 10
29.5104
 20
0.7374
 30
-26.768
 70
192
 0
VERTEX
 8
CUBO_3
 10
29.5104
 20
0.7374
 30
6.432
 70
192
 0
VERTEX
 8
CUBO_3
 10
-29.4896
 20
0.7374
 30
-26.768
 70
192
 0
VERTEX
 8
CUBO_3
 10
-29.4896
 20
0.7374
 30
6.432
 70
192
 0
VERTEX
 8
CUBO_3
 10
0
 20
0
 30
0
 70
128
 71
1
 72
2
 73
4
 74
3
 0
VERTEX
 8
CUBO_3
 10
0
 20
0
 30
0
 70
128
 71
3
 72
4
 73
6
 74
5
 0
VERTEX
 8
CUBO_3
 10
0
 20
0
 30
0
 70
128
 71
5
 72
6
 73
8
 74
7
 0
VERTEX
 8
CUBO_3
 10
0
 20
0
 30
0
 70
128
 71
7
 72
8
 73
2
 74
1
 0
VERTEX
 8
CUBO_3
 10
0
 20
0
 30
0
 70
128
 71
2
 72
8
 73
6
 74
4
 0
VERTEX
 8
CUBO_3
 10
0
 20
0
 30
0
 70
128
 71
7
 72
1
 73
3
 74
5
 0
SEQEND
 0
ENDSEC
 0
EOF
