 0
SECTION
 2
HEADER
 9
$ACADVER
 1
AC1009
 0
ENDSEC
 0
SECTION
 2
TABLES
 0
TABLE
 2
LTYPE
 70
1
 0
LTYPE
 2
CONTINUOUS
 70
64
 3
solid line
 72
65
 73
0
 40
0.0
 0
ENDTAB
 0
TABLE
 2
LAYER
 70
6
 0
LAYER
 2
0
 70
0
 62
7
 6
CONTINUOUS
 0
LAYER
 2
FCO_7515_TEM_X
 70
64
 62
7
 6
CONTINUOUS
 0
LAYER
 2
LOGO_FULGOR_MILANO
 70
64
 62
7
 6
CONTINUOUS
 0
LAYER
 2
FULGOR
 70
64
 62
39
 6
CONTINUOUS
 0
LAYER
 2
MILANO
 70
64
 62
39
 6
CONTINUOUS
 0
LAYER
 2
PANNELLO_FRONTALE
 70
64
 62
253
 6
CONTINUOUS
 0
LAYER
 2
PANNELLO_FRONTALE_1
 70
64
 62
39
 6
CONTINUOUS
 0
LAYER
 2
VETRO
 70
64
 62
37
 6
CONTINUOUS
 0
LAYER
 2
PANNELLO_DISPALY
 70
64
 62
253
 6
CONTINUOUS
 0
LAYER
 2
DISPALY
 70
64
 62
39
 6
CONTINUOUS
 0
LAYER
 2
DISPALY_1
 70
64
 62
37
 6
CONTINUOUS
 0
LAYER
 2
MANIGLIA
 70
64
 62
7
 6
CONTINUOUS
 0
LAYER
 2
CILINDRO
 70
64
 62
39
 6
CONTINUOUS
 0
LAYER
 2
MANIGLIA_1
 70
64
 62
253
 6
CONTINUOUS
 0
LAYER
 2
CUBO_1
 70
64
 62
253
 6
CONTINUOUS
 0
LAYER
 2
FORNO
 70
64
 62
253
 6
CONTINUOUS
 0
ENDTAB
 0
ENDSEC
 0
SECTION
 2
BLOCKS
 0
ENDSEC
 0
SECTION
 2
ENTITIES
 0
POLYLINE
 8
FULGOR
 66
1
 10
0.0
 20
0.0
 30
0.0
 70
64
 71
363
 72
183
 0
VERTEX
 8
FULGOR
 10
0.2189
 20
-0.0678
 30
109.0565
 70
192
 0
VERTEX
 8
FULGOR
 10
-2.5005
 20
-0.0678
 30
108.9538
 70
192
 0
VERTEX
 8
FULGOR
 10
1.3399
 20
-0.0678
 30
108.9799
 70
192
 0
VERTEX
 8
FULGOR
 10
-2.3458
 20
-0.0678
 30
109.2507
 70
192
 0
VERTEX
 8
FULGOR
 10
-2.3458
 20
-0.0678
 30
109.3441
 70
192
 0
VERTEX
 8
FULGOR
 10
-1.966
 20
-0.0678
 30
109.3441
 70
192
 0
VERTEX
 8
FULGOR
 10
-1.966
 20
-0.0678
 30
109.4549
 70
192
 0
VERTEX
 8
FULGOR
 10
-2.5005
 20
-0.0678
 30
109.4549
 70
192
 0
VERTEX
 8
FULGOR
 10
-1.8089
 20
-0.0678
 30
109.1716
 70
192
 0
VERTEX
 8
FULGOR
 10
-1.8076
 20
-0.0678
 30
109.1482
 70
192
 0
VERTEX
 8
FULGOR
 10
-1.8041
 20
-0.0678
 30
109.1266
 70
192
 0
VERTEX
 8
FULGOR
 10
-2.3458
 20
-0.0678
 30
108.9538
 70
192
 0
VERTEX
 8
FULGOR
 10
-2.3458
 20
-0.0678
 30
109.1615
 70
192
 0
VERTEX
 8
FULGOR
 10
-1.966
 20
-0.0678
 30
109.1615
 70
192
 0
VERTEX
 8
FULGOR
 10
-1.966
 20
-0.0678
 30
109.2507
 70
192
 0
VERTEX
 8
FULGOR
 10
-1.8089
 20
-0.0678
 30
109.4549
 70
192
 0
VERTEX
 8
FULGOR
 10
-1.7984
 20
-0.0678
 30
109.1066
 70
192
 0
VERTEX
 8
FULGOR
 10
-1.7906
 20
-0.0678
 30
109.0883
 70
192
 0
VERTEX
 8
FULGOR
 10
-1.781
 20
-0.0678
 30
109.0716
 70
192
 0
VERTEX
 8
FULGOR
 10
-1.7697
 20
-0.0678
 30
109.0564
 70
192
 0
VERTEX
 8
FULGOR
 10
-1.6322
 20
-0.0678
 30
108.9798
 70
192
 0
VERTEX
 8
FULGOR
 10
-1.5792
 20
-0.0678
 30
108.9689
 70
192
 0
VERTEX
 8
FULGOR
 10
-1.493
 20
-0.0678
 30
108.9597
 70
192
 0
VERTEX
 8
FULGOR
 10
-1.4036
 20
-0.0678
 30
108.9569
 70
192
 0
VERTEX
 8
FULGOR
 10
-1.3036
 20
-0.0678
 30
108.9605
 70
192
 0
VERTEX
 8
FULGOR
 10
-1.2282
 20
-0.0678
 30
108.9705
 70
192
 0
VERTEX
 8
FULGOR
 10
-1.7567
 20
-0.0678
 30
109.0426
 70
192
 0
VERTEX
 8
FULGOR
 10
-1.1353
 20
-0.0678
 30
108.9959
 70
192
 0
VERTEX
 8
FULGOR
 10
-1.7422
 20
-0.0678
 30
109.0301
 70
192
 0
VERTEX
 8
FULGOR
 10
-1.7264
 20
-0.0678
 30
109.019
 70
192
 0
VERTEX
 8
FULGOR
 10
-1.7005
 20
-0.0678
 30
109.0044
 70
192
 0
VERTEX
 8
FULGOR
 10
-1.6724
 20
-0.0678
 30
108.9924
 70
192
 0
VERTEX
 8
FULGOR
 10
-1.0325
 20
-0.0678
 30
109.0651
 70
192
 0
VERTEX
 8
FULGOR
 10
-1.1753
 20
-0.0678
 30
108.9826
 70
192
 0
VERTEX
 8
FULGOR
 10
-1.1072
 20
-0.0678
 30
109.0081
 70
192
 0
VERTEX
 8
FULGOR
 10
-1.0814
 20
-0.0678
 30
109.0224
 70
192
 0
VERTEX
 8
FULGOR
 10
-1.0583
 20
-0.0678
 30
109.0391
 70
192
 0
VERTEX
 8
FULGOR
 10
-1.0007
 20
-0.0678
 30
109.1414
 70
192
 0
VERTEX
 8
FULGOR
 10
-0.9995
 20
-0.0678
 30
109.162
 70
192
 0
VERTEX
 8
FULGOR
 10
-0.9992
 20
-0.0678
 30
109.4549
 70
192
 0
VERTEX
 8
FULGOR
 10
-1.0447
 20
-0.0678
 30
109.0516
 70
192
 0
VERTEX
 8
FULGOR
 10
-1.0221
 20
-0.0678
 30
109.0799
 70
192
 0
VERTEX
 8
FULGOR
 10
-1.154
 20
-0.0678
 30
109.1635
 70
192
 0
VERTEX
 8
FULGOR
 10
-1.1549
 20
-0.0678
 30
109.1565
 70
192
 0
VERTEX
 8
FULGOR
 10
-1.1565
 20
-0.0678
 30
109.1495
 70
192
 0
VERTEX
 8
FULGOR
 10
-1.1588
 20
-0.0678
 30
109.1426
 70
192
 0
VERTEX
 8
FULGOR
 10
-1.1618
 20
-0.0678
 30
109.1357
 70
192
 0
VERTEX
 8
FULGOR
 10
-1.1657
 20
-0.0678
 30
109.129
 70
192
 0
VERTEX
 8
FULGOR
 10
-1.1702
 20
-0.0678
 30
109.1224
 70
192
 0
VERTEX
 8
FULGOR
 10
-1.1786
 20
-0.0678
 30
109.1128
 70
192
 0
VERTEX
 8
FULGOR
 10
-1.1888
 20
-0.0678
 30
109.1037
 70
192
 0
VERTEX
 8
FULGOR
 10
-1.2009
 20
-0.0678
 30
109.0951
 70
192
 0
VERTEX
 8
FULGOR
 10
-1.215
 20
-0.0678
 30
109.0871
 70
192
 0
VERTEX
 8
FULGOR
 10
-1.0134
 20
-0.0678
 30
109.0959
 70
192
 0
VERTEX
 8
FULGOR
 10
-1.0068
 20
-0.0678
 30
109.1131
 70
192
 0
VERTEX
 8
FULGOR
 10
-1.0022
 20
-0.0678
 30
109.1317
 70
192
 0
VERTEX
 8
FULGOR
 10
-1.1538
 20
-0.0678
 30
109.4549
 70
192
 0
VERTEX
 8
FULGOR
 10
-1.1538
 20
-0.0678
 30
109.1706
 70
192
 0
VERTEX
 8
FULGOR
 10
-1.4917
 20
-0.0678
 30
109.0576
 70
192
 0
VERTEX
 8
FULGOR
 10
-1.2368
 20
-0.0678
 30
109.0774
 70
192
 0
VERTEX
 8
FULGOR
 10
-1.5649
 20
-0.0678
 30
109.0713
 70
192
 0
VERTEX
 8
FULGOR
 10
-1.5876
 20
-0.0678
 30
109.0794
 70
192
 0
VERTEX
 8
FULGOR
 10
-1.2624
 20
-0.0678
 30
109.0692
 70
192
 0
VERTEX
 8
FULGOR
 10
-1.2997
 20
-0.0678
 30
109.061
 70
192
 0
VERTEX
 8
FULGOR
 10
-1.3433
 20
-0.0678
 30
109.0557
 70
192
 0
VERTEX
 8
FULGOR
 10
-1.6319
 20
-0.0678
 30
109.1097
 70
192
 0
VERTEX
 8
FULGOR
 10
-1.6373
 20
-0.0678
 30
109.1165
 70
192
 0
VERTEX
 8
FULGOR
 10
-1.6419
 20
-0.0678
 30
109.1236
 70
192
 0
VERTEX
 8
FULGOR
 10
-1.6458
 20
-0.0678
 30
109.1311
 70
192
 0
VERTEX
 8
FULGOR
 10
-1.6489
 20
-0.0678
 30
109.139
 70
192
 0
VERTEX
 8
FULGOR
 10
-1.4041
 20
-0.0678
 30
109.0534
 70
192
 0
VERTEX
 8
FULGOR
 10
-1.6536
 20
-0.0678
 30
109.1604
 70
192
 0
VERTEX
 8
FULGOR
 10
-1.6543
 20
-0.0678
 30
109.1744
 70
192
 0
VERTEX
 8
FULGOR
 10
-1.6543
 20
-0.0678
 30
109.4549
 70
192
 0
VERTEX
 8
FULGOR
 10
-1.5385
 20
-0.0678
 30
109.0647
 70
192
 0
VERTEX
 8
FULGOR
 10
-1.6022
 20
-0.0678
 30
109.0866
 70
192
 0
VERTEX
 8
FULGOR
 10
-1.6149
 20
-0.0678
 30
109.0945
 70
192
 0
VERTEX
 8
FULGOR
 10
-1.6257
 20
-0.0678
 30
109.1034
 70
192
 0
VERTEX
 8
FULGOR
 10
-0.6879
 20
-0.0678
 30
109.0645
 70
192
 0
VERTEX
 8
FULGOR
 10
-0.6879
 20
-0.0678
 30
109.4549
 70
192
 0
VERTEX
 8
FULGOR
 10
0.5411
 20
-0.0678
 30
109.4088
 70
192
 0
VERTEX
 8
FULGOR
 10
-1.6513
 20
-0.0678
 30
109.1473
 70
192
 0
VERTEX
 8
FULGOR
 10
-0.8426
 20
-0.0678
 30
109.4549
 70
192
 0
VERTEX
 8
FULGOR
 10
0.2351
 20
-0.0678
 30
109.4545
 70
192
 0
VERTEX
 8
FULGOR
 10
-0.8426
 20
-0.0678
 30
108.9538
 70
192
 0
VERTEX
 8
FULGOR
 10
-0.3082
 20
-0.0678
 30
108.9538
 70
192
 0
VERTEX
 8
FULGOR
 10
-0.3082
 20
-0.0678
 30
109.0645
 70
192
 0
VERTEX
 8
FULGOR
 10
0.4537
 20
-0.0678
 30
109.4285
 70
192
 0
VERTEX
 8
FULGOR
 10
0.3612
 20
-0.0678
 30
109.4432
 70
192
 0
VERTEX
 8
FULGOR
 10
0.1647
 20
-0.0678
 30
109.4543
 70
192
 0
VERTEX
 8
FULGOR
 10
-0.1068
 20
-0.0678
 30
109.3785
 70
192
 0
VERTEX
 8
FULGOR
 10
-0.1331
 20
-0.0678
 30
109.3613
 70
192
 0
VERTEX
 8
FULGOR
 10
-0.1554
 20
-0.0678
 30
109.3435
 70
192
 0
VERTEX
 8
FULGOR
 10
-0.1743
 20
-0.0678
 30
109.3251
 70
192
 0
VERTEX
 8
FULGOR
 10
0.1009
 20
-0.0678
 30
109.4479
 70
192
 0
VERTEX
 8
FULGOR
 10
0.0442
 20
-0.0678
 30
109.437
 70
192
 0
VERTEX
 8
FULGOR
 10
-0.0115
 20
-0.0678
 30
109.421
 70
192
 0
VERTEX
 8
FULGOR
 10
-0.2167
 20
-0.0678
 30
109.2572
 70
192
 0
VERTEX
 8
FULGOR
 10
-0.2212
 20
-0.0678
 30
109.2428
 70
192
 0
VERTEX
 8
FULGOR
 10
-0.0617
 20
-0.0678
 30
109.4014
 70
192
 0
VERTEX
 8
FULGOR
 10
-0.0875
 20
-0.0678
 30
109.389
 70
192
 0
VERTEX
 8
FULGOR
 10
-0.189
 20
-0.0678
 30
109.3076
 70
192
 0
VERTEX
 8
FULGOR
 10
-0.2255
 20
-0.0678
 30
109.1841
 70
192
 0
VERTEX
 8
FULGOR
 10
-0.1997
 20
-0.0678
 30
109.2921
 70
192
 0
VERTEX
 8
FULGOR
 10
-0.209
 20
-0.0678
 30
109.2753
 70
192
 0
VERTEX
 8
FULGOR
 10
-0.2244
 20
-0.0678
 30
109.2276
 70
192
 0
VERTEX
 8
FULGOR
 10
-0.2257
 20
-0.0678
 30
109.2171
 70
192
 0
VERTEX
 8
FULGOR
 10
-0.2265
 20
-0.0678
 30
109.2007
 70
192
 0
VERTEX
 8
FULGOR
 10
-0.2226
 20
-0.0678
 30
109.1679
 70
192
 0
VERTEX
 8
FULGOR
 10
-0.1575
 20
-0.0678
 30
109.0677
 70
192
 0
VERTEX
 8
FULGOR
 10
-0.133
 20
-0.0678
 30
109.0479
 70
192
 0
VERTEX
 8
FULGOR
 10
-0.2179
 20
-0.0678
 30
109.1521
 70
192
 0
VERTEX
 8
FULGOR
 10
-0.065
 20
-0.0678
 30
109.008
 70
192
 0
VERTEX
 8
FULGOR
 10
-0.0279
 20
-0.0678
 30
108.9925
 70
192
 0
VERTEX
 8
FULGOR
 10
-0.2115
 20
-0.0678
 30
109.1368
 70
192
 0
VERTEX
 8
FULGOR
 10
-0.2034
 20
-0.0678
 30
109.1219
 70
192
 0
VERTEX
 8
FULGOR
 10
0.1471
 20
-0.0678
 30
108.9563
 70
192
 0
VERTEX
 8
FULGOR
 10
0.1955
 20
-0.0678
 30
108.954
 70
192
 0
VERTEX
 8
FULGOR
 10
0.2351
 20
-0.0678
 30
108.9542
 70
192
 0
VERTEX
 8
FULGOR
 10
0.2979
 20
-0.0678
 30
108.9579
 70
192
 0
VERTEX
 8
FULGOR
 10
-0.1905
 20
-0.0678
 30
109.1029
 70
192
 0
VERTEX
 8
FULGOR
 10
-0.1751
 20
-0.0678
 30
109.0848
 70
192
 0
VERTEX
 8
FULGOR
 10
-0.1004
 20
-0.0678
 30
109.0265
 70
192
 0
VERTEX
 8
FULGOR
 10
0.3633
 20
-0.0678
 30
109.214
 70
192
 0
VERTEX
 8
FULGOR
 10
0.0227
 20
-0.0678
 30
108.9767
 70
192
 0
VERTEX
 8
FULGOR
 10
0.0785
 20
-0.0678
 30
108.9647
 70
192
 0
VERTEX
 8
FULGOR
 10
0.3758
 20
-0.0678
 30
108.9681
 70
192
 0
VERTEX
 8
FULGOR
 10
0.5411
 20
-0.0678
 30
108.9999
 70
192
 0
VERTEX
 8
FULGOR
 10
0.1898
 20
-0.0678
 30
109.0568
 70
192
 0
VERTEX
 8
FULGOR
 10
0.1558
 20
-0.0678
 30
109.0595
 70
192
 0
VERTEX
 8
FULGOR
 10
0.5411
 20
-0.0678
 30
109.214
 70
192
 0
VERTEX
 8
FULGOR
 10
0.0922
 20
-0.0678
 30
109.0738
 70
192
 0
VERTEX
 8
FULGOR
 10
0.0692
 20
-0.0678
 30
109.0827
 70
192
 0
VERTEX
 8
FULGOR
 10
0.3633
 20
-0.0678
 30
109.0673
 70
192
 0
VERTEX
 8
FULGOR
 10
0.343
 20
-0.0678
 30
109.0635
 70
192
 0
VERTEX
 8
FULGOR
 10
0.0158
 20
-0.0678
 30
109.1166
 70
192
 0
VERTEX
 8
FULGOR
 10
0.2873
 20
-0.0678
 30
109.0578
 70
192
 0
VERTEX
 8
FULGOR
 10
0.2463
 20
-0.0678
 30
109.0562
 70
192
 0
VERTEX
 8
FULGOR
 10
0.1231
 20
-0.0678
 30
109.0652
 70
192
 0
VERTEX
 8
FULGOR
 10
0.0479
 20
-0.0678
 30
109.0935
 70
192
 0
VERTEX
 8
FULGOR
 10
-0.0235
 20
-0.0678
 30
109.1789
 70
192
 0
VERTEX
 8
FULGOR
 10
-0.0258
 20
-0.0678
 30
109.1895
 70
192
 0
VERTEX
 8
FULGOR
 10
-0.0273
 20
-0.0678
 30
109.2005
 70
192
 0
VERTEX
 8
FULGOR
 10
-0.0278
 20
-0.0678
 30
109.2119
 70
192
 0
VERTEX
 8
FULGOR
 10
-0.0271
 20
-0.0678
 30
109.2232
 70
192
 0
VERTEX
 8
FULGOR
 10
0.0287
 20
-0.0678
 30
109.106
 70
192
 0
VERTEX
 8
FULGOR
 10
0.0043
 20
-0.0678
 30
109.1282
 70
192
 0
VERTEX
 8
FULGOR
 10
-0.0056
 20
-0.0678
 30
109.1407
 70
192
 0
VERTEX
 8
FULGOR
 10
-0.0131
 20
-0.0678
 30
109.2635
 70
192
 0
VERTEX
 8
FULGOR
 10
-0.007
 20
-0.0678
 30
109.2723
 70
192
 0
VERTEX
 8
FULGOR
 10
-0.0001
 20
-0.0678
 30
109.2807
 70
192
 0
VERTEX
 8
FULGOR
 10
-0.0138
 20
-0.0678
 30
109.1543
 70
192
 0
VERTEX
 8
FULGOR
 10
0.0251
 20
-0.0678
 30
109.3027
 70
192
 0
VERTEX
 8
FULGOR
 10
0.0397
 20
-0.0678
 30
109.3122
 70
192
 0
VERTEX
 8
FULGOR
 10
-0.0202
 20
-0.0678
 30
109.1687
 70
192
 0
VERTEX
 8
FULGOR
 10
0.089
 20
-0.0678
 30
109.3342
 70
192
 0
VERTEX
 8
FULGOR
 10
0.1181
 20
-0.0678
 30
109.3424
 70
192
 0
VERTEX
 8
FULGOR
 10
-0.0253
 20
-0.0678
 30
109.2341
 70
192
 0
VERTEX
 8
FULGOR
 10
0.1691
 20
-0.0678
 30
109.3505
 70
192
 0
VERTEX
 8
FULGOR
 10
-0.0223
 20
-0.0678
 30
109.2444
 70
192
 0
VERTEX
 8
FULGOR
 10
0.2936
 20
-0.0678
 30
109.3463
 70
192
 0
VERTEX
 8
FULGOR
 10
-0.0182
 20
-0.0678
 30
109.2542
 70
192
 0
VERTEX
 8
FULGOR
 10
0.5411
 20
-0.0678
 30
109.3018
 70
192
 0
VERTEX
 8
FULGOR
 10
0.6982
 20
-0.0678
 30
109.2043
 70
192
 0
VERTEX
 8
FULGOR
 10
0.6995
 20
-0.0678
 30
109.182
 70
192
 0
VERTEX
 8
FULGOR
 10
0.0117
 20
-0.0678
 30
109.2922
 70
192
 0
VERTEX
 8
FULGOR
 10
0.0608
 20
-0.0678
 30
109.3231
 70
192
 0
VERTEX
 8
FULGOR
 10
0.7179
 20
-0.0678
 30
109.1225
 70
192
 0
VERTEX
 8
FULGOR
 10
0.7283
 20
-0.0678
 30
109.1051
 70
192
 0
VERTEX
 8
FULGOR
 10
0.7407
 20
-0.0678
 30
109.0887
 70
192
 0
VERTEX
 8
FULGOR
 10
0.7548
 20
-0.0678
 30
109.0735
 70
192
 0
VERTEX
 8
FULGOR
 10
0.779
 20
-0.0678
 30
109.0526
 70
192
 0
VERTEX
 8
FULGOR
 10
0.1526
 20
-0.0678
 30
109.3487
 70
192
 0
VERTEX
 8
FULGOR
 10
0.1898
 20
-0.0678
 30
109.3513
 70
192
 0
VERTEX
 8
FULGOR
 10
0.3901
 20
-0.0678
 30
109.3325
 70
192
 0
VERTEX
 8
FULGOR
 10
0.7033
 20
-0.0678
 30
109.161
 70
192
 0
VERTEX
 8
FULGOR
 10
0.7095
 20
-0.0678
 30
109.1412
 70
192
 0
VERTEX
 8
FULGOR
 10
1.0785
 20
-0.0678
 30
108.9578
 70
192
 0
VERTEX
 8
FULGOR
 10
1.1433
 20
-0.0678
 30
108.9552
 70
192
 0
VERTEX
 8
FULGOR
 10
0.8063
 20
-0.0678
 30
109.0341
 70
192
 0
VERTEX
 8
FULGOR
 10
1.3018
 20
-0.0678
 30
108.9705
 70
192
 0
VERTEX
 8
FULGOR
 10
0.8363
 20
-0.0678
 30
109.0178
 70
192
 0
VERTEX
 8
FULGOR
 10
0.8795
 20
-0.0678
 30
108.9994
 70
192
 0
VERTEX
 8
FULGOR
 10
0.9371
 20
-0.0678
 30
108.9813
 70
192
 0
VERTEX
 8
FULGOR
 10
1.0085
 20
-0.0678
 30
108.9663
 70
192
 0
VERTEX
 8
FULGOR
 10
1.2194
 20
-0.0678
 30
108.9588
 70
192
 0
VERTEX
 8
FULGOR
 10
1.5388
 20
-0.0678
 30
109.081
 70
192
 0
VERTEX
 8
FULGOR
 10
1.3727
 20
-0.0678
 30
108.9879
 70
192
 0
VERTEX
 8
FULGOR
 10
1.4289
 20
-0.0678
 30
109.0082
 70
192
 0
VERTEX
 8
FULGOR
 10
1.4704
 20
-0.0678
 30
109.0285
 70
192
 0
VERTEX
 8
FULGOR
 10
1.4986
 20
-0.0678
 30
109.0462
 70
192
 0
VERTEX
 8
FULGOR
 10
1.5239
 20
-0.0678
 30
109.0663
 70
192
 0
VERTEX
 8
FULGOR
 10
1.5869
 20
-0.0678
 30
109.1819
 70
192
 0
VERTEX
 8
FULGOR
 10
1.5882
 20
-0.0678
 30
109.2042
 70
192
 0
VERTEX
 8
FULGOR
 10
1.587
 20
-0.0678
 30
109.2264
 70
192
 0
VERTEX
 8
FULGOR
 10
1.5832
 20
-0.0678
 30
109.2474
 70
192
 0
VERTEX
 8
FULGOR
 10
1.5521
 20
-0.0678
 30
109.0967
 70
192
 0
VERTEX
 8
FULGOR
 10
1.5635
 20
-0.0678
 30
109.1136
 70
192
 0
VERTEX
 8
FULGOR
 10
1.5729
 20
-0.0678
 30
109.1316
 70
192
 0
VERTEX
 8
FULGOR
 10
1.5459
 20
-0.0678
 30
109.3197
 70
192
 0
VERTEX
 8
FULGOR
 10
1.5318
 20
-0.0678
 30
109.3349
 70
192
 0
VERTEX
 8
FULGOR
 10
1.5077
 20
-0.0678
 30
109.3557
 70
192
 0
VERTEX
 8
FULGOR
 10
1.4803
 20
-0.0678
 30
109.3743
 70
192
 0
VERTEX
 8
FULGOR
 10
1.4504
 20
-0.0678
 30
109.3906
 70
192
 0
VERTEX
 8
FULGOR
 10
1.4071
 20
-0.0678
 30
109.4091
 70
192
 0
VERTEX
 8
FULGOR
 10
1.5803
 20
-0.0678
 30
109.1508
 70
192
 0
VERTEX
 8
FULGOR
 10
1.5853
 20
-0.0678
 30
109.1712
 70
192
 0
VERTEX
 8
FULGOR
 10
1.577
 20
-0.0678
 30
109.2672
 70
192
 0
VERTEX
 8
FULGOR
 10
1.5687
 20
-0.0678
 30
109.2859
 70
192
 0
VERTEX
 8
FULGOR
 10
1.0671
 20
-0.0678
 30
109.4498
 70
192
 0
VERTEX
 8
FULGOR
 10
1.5583
 20
-0.0678
 30
109.3033
 70
192
 0
VERTEX
 8
FULGOR
 10
1.3495
 20
-0.0678
 30
109.4272
 70
192
 0
VERTEX
 8
FULGOR
 10
1.2781
 20
-0.0678
 30
109.4423
 70
192
 0
VERTEX
 8
FULGOR
 10
1.208
 20
-0.0678
 30
109.4508
 70
192
 0
VERTEX
 8
FULGOR
 10
0.7876
 20
-0.0678
 30
109.3624
 70
192
 0
VERTEX
 8
FULGOR
 10
0.7623
 20
-0.0678
 30
109.3424
 70
192
 0
VERTEX
 8
FULGOR
 10
0.7474
 20
-0.0678
 30
109.3277
 70
192
 0
VERTEX
 8
FULGOR
 10
0.7342
 20
-0.0678
 30
109.3119
 70
192
 0
VERTEX
 8
FULGOR
 10
0.7227
 20
-0.0678
 30
109.295
 70
192
 0
VERTEX
 8
FULGOR
 10
0.7133
 20
-0.0678
 30
109.2769
 70
192
 0
VERTEX
 8
FULGOR
 10
0.7061
 20
-0.0678
 30
109.2577
 70
192
 0
VERTEX
 8
FULGOR
 10
1.1433
 20
-0.0678
 30
109.4534
 70
192
 0
VERTEX
 8
FULGOR
 10
0.6995
 20
-0.0678
 30
109.2266
 70
192
 0
VERTEX
 8
FULGOR
 10
0.8981
 20
-0.0678
 30
109.2042
 70
192
 0
VERTEX
 8
FULGOR
 10
0.8987
 20
-0.0678
 30
109.1921
 70
192
 0
VERTEX
 8
FULGOR
 10
0.9846
 20
-0.0678
 30
109.4381
 70
192
 0
VERTEX
 8
FULGOR
 10
0.9136
 20
-0.0678
 30
109.4208
 70
192
 0
VERTEX
 8
FULGOR
 10
0.8574
 20
-0.0678
 30
109.4005
 70
192
 0
VERTEX
 8
FULGOR
 10
0.8159
 20
-0.0678
 30
109.3802
 70
192
 0
VERTEX
 8
FULGOR
 10
0.7011
 20
-0.0678
 30
109.2373
 70
192
 0
VERTEX
 8
FULGOR
 10
0.9227
 20
-0.0678
 30
109.1312
 70
192
 0
VERTEX
 8
FULGOR
 10
0.9298
 20
-0.0678
 30
109.1229
 70
192
 0
VERTEX
 8
FULGOR
 10
0.9003
 20
-0.0678
 30
109.1806
 70
192
 0
VERTEX
 8
FULGOR
 10
0.9029
 20
-0.0678
 30
109.1696
 70
192
 0
VERTEX
 8
FULGOR
 10
0.9064
 20
-0.0678
 30
109.1592
 70
192
 0
VERTEX
 8
FULGOR
 10
0.9109
 20
-0.0678
 30
109.1493
 70
192
 0
VERTEX
 8
FULGOR
 10
1.0188
 20
-0.0678
 30
109.0729
 70
192
 0
VERTEX
 8
FULGOR
 10
1.0528
 20
-0.0678
 30
109.0648
 70
192
 0
VERTEX
 8
FULGOR
 10
0.9164
 20
-0.0678
 30
109.14
 70
192
 0
VERTEX
 8
FULGOR
 10
1.1433
 20
-0.0678
 30
109.057
 70
192
 0
VERTEX
 8
FULGOR
 10
1.1974
 20
-0.0678
 30
109.0596
 70
192
 0
VERTEX
 8
FULGOR
 10
0.942
 20
-0.0678
 30
109.1114
 70
192
 0
VERTEX
 8
FULGOR
 10
1.2741
 20
-0.0678
 30
109.0749
 70
192
 0
VERTEX
 8
FULGOR
 10
1.2986
 20
-0.0678
 30
109.0839
 70
192
 0
VERTEX
 8
FULGOR
 10
1.3207
 20
-0.0678
 30
109.095
 70
192
 0
VERTEX
 8
FULGOR
 10
0.9558
 20
-0.0678
 30
109.1011
 70
192
 0
VERTEX
 8
FULGOR
 10
1.3489
 20
-0.0678
 30
109.1152
 70
192
 0
VERTEX
 8
FULGOR
 10
0.9712
 20
-0.0678
 30
109.0919
 70
192
 0
VERTEX
 8
FULGOR
 10
0.9939
 20
-0.0678
 30
109.0814
 70
192
 0
VERTEX
 8
FULGOR
 10
1.3731
 20
-0.0678
 30
109.1447
 70
192
 0
VERTEX
 8
FULGOR
 10
1.0967
 20
-0.0678
 30
109.0589
 70
192
 0
VERTEX
 8
FULGOR
 10
1.2408
 20
-0.0678
 30
109.0662
 70
192
 0
VERTEX
 8
FULGOR
 10
1.3356
 20
-0.0678
 30
109.1045
 70
192
 0
VERTEX
 8
FULGOR
 10
1.3873
 20
-0.0678
 30
109.1863
 70
192
 0
VERTEX
 8
FULGOR
 10
1.388
 20
-0.0678
 30
109.1921
 70
192
 0
VERTEX
 8
FULGOR
 10
1.3885
 20
-0.0678
 30
109.2042
 70
192
 0
VERTEX
 8
FULGOR
 10
1.388
 20
-0.0678
 30
109.2162
 70
192
 0
VERTEX
 8
FULGOR
 10
1.3605
 20
-0.0678
 30
109.127
 70
192
 0
VERTEX
 8
FULGOR
 10
1.3672
 20
-0.0678
 30
109.1356
 70
192
 0
VERTEX
 8
FULGOR
 10
1.3802
 20
-0.0678
 30
109.249
 70
192
 0
VERTEX
 8
FULGOR
 10
1.3756
 20
-0.0678
 30
109.2589
 70
192
 0
VERTEX
 8
FULGOR
 10
1.378
 20
-0.0678
 30
109.1543
 70
192
 0
VERTEX
 8
FULGOR
 10
1.3821
 20
-0.0678
 30
109.1644
 70
192
 0
VERTEX
 8
FULGOR
 10
1.3568
 20
-0.0678
 30
109.2852
 70
192
 0
VERTEX
 8
FULGOR
 10
1.3852
 20
-0.0678
 30
109.1751
 70
192
 0
VERTEX
 8
FULGOR
 10
1.3864
 20
-0.0678
 30
109.2277
 70
192
 0
VERTEX
 8
FULGOR
 10
1.3153
 20
-0.0678
 30
109.3161
 70
192
 0
VERTEX
 8
FULGOR
 10
1.2926
 20
-0.0678
 30
109.3266
 70
192
 0
VERTEX
 8
FULGOR
 10
1.3838
 20
-0.0678
 30
109.2386
 70
192
 0
VERTEX
 8
FULGOR
 10
1.3702
 20
-0.0678
 30
109.2682
 70
192
 0
VERTEX
 8
FULGOR
 10
1.3639
 20
-0.0678
 30
109.277
 70
192
 0
VERTEX
 8
FULGOR
 10
1.3446
 20
-0.0678
 30
109.2967
 70
192
 0
VERTEX
 8
FULGOR
 10
1.0892
 20
-0.0678
 30
109.3483
 70
192
 0
VERTEX
 8
FULGOR
 10
1.0458
 20
-0.0678
 30
109.3418
 70
192
 0
VERTEX
 8
FULGOR
 10
1.0125
 20
-0.0678
 30
109.3332
 70
192
 0
VERTEX
 8
FULGOR
 10
1.3307
 20
-0.0678
 30
109.3069
 70
192
 0
VERTEX
 8
FULGOR
 10
1.2676
 20
-0.0678
 30
109.3351
 70
192
 0
VERTEX
 8
FULGOR
 10
1.2337
 20
-0.0678
 30
109.3431
 70
192
 0
VERTEX
 8
FULGOR
 10
1.1898
 20
-0.0678
 30
109.349
 70
192
 0
VERTEX
 8
FULGOR
 10
1.1433
 20
-0.0678
 30
109.3509
 70
192
 0
VERTEX
 8
FULGOR
 10
0.9881
 20
-0.0678
 30
109.3242
 70
192
 0
VERTEX
 8
FULGOR
 10
0.9659
 20
-0.0678
 30
109.3132
 70
192
 0
VERTEX
 8
FULGOR
 10
0.9511
 20
-0.0678
 30
109.3037
 70
192
 0
VERTEX
 8
FULGOR
 10
0.9378
 20
-0.0678
 30
109.2931
 70
192
 0
VERTEX
 8
FULGOR
 10
0.9262
 20
-0.0678
 30
109.2813
 70
192
 0
VERTEX
 8
FULGOR
 10
0.9194
 20
-0.0678
 30
109.2727
 70
192
 0
VERTEX
 8
FULGOR
 10
0.9136
 20
-0.0678
 30
109.2637
 70
192
 0
VERTEX
 8
FULGOR
 10
0.9086
 20
-0.0678
 30
109.2541
 70
192
 0
VERTEX
 8
FULGOR
 10
0.9045
 20
-0.0678
 30
109.244
 70
192
 0
VERTEX
 8
FULGOR
 10
0.9014
 20
-0.0678
 30
109.2333
 70
192
 0
VERTEX
 8
FULGOR
 10
1.9942
 20
-0.0678
 30
109.1656
 70
192
 0
VERTEX
 8
FULGOR
 10
0.8993
 20
-0.0678
 30
109.2221
 70
192
 0
VERTEX
 8
FULGOR
 10
0.8987
 20
-0.0678
 30
109.2162
 70
192
 0
VERTEX
 8
FULGOR
 10
1.7453
 20
-0.0678
 30
108.9538
 70
192
 0
VERTEX
 8
FULGOR
 10
1.9001
 20
-0.0678
 30
108.9538
 70
192
 0
VERTEX
 8
FULGOR
 10
1.9001
 20
-0.0678
 30
109.1656
 70
192
 0
VERTEX
 8
FULGOR
 10
2.1035
 20
-0.0678
 30
109.1154
 70
192
 0
VERTEX
 8
FULGOR
 10
2.1154
 20
-0.0678
 30
109.1026
 70
192
 0
VERTEX
 8
FULGOR
 10
2.2241
 20
-0.0678
 30
108.9538
 70
192
 0
VERTEX
 8
FULGOR
 10
2.5002
 20
-0.0678
 30
108.9538
 70
192
 0
VERTEX
 8
FULGOR
 10
2.4631
 20
-0.0678
 30
108.9731
 70
192
 0
VERTEX
 8
FULGOR
 10
2.0454
 20
-0.0678
 30
109.1553
 70
192
 0
VERTEX
 8
FULGOR
 10
2.0581
 20
-0.0678
 30
109.1493
 70
192
 0
VERTEX
 8
FULGOR
 10
2.4093
 20
-0.0678
 30
109.0102
 70
192
 0
VERTEX
 8
FULGOR
 10
2.369
 20
-0.0678
 30
109.0478
 70
192
 0
VERTEX
 8
FULGOR
 10
1.7453
 20
-0.0678
 30
109.2546
 70
192
 0
VERTEX
 8
FULGOR
 10
2.3178
 20
-0.0678
 30
109.1169
 70
192
 0
VERTEX
 8
FULGOR
 10
2.2929
 20
-0.0678
 30
109.1451
 70
192
 0
VERTEX
 8
FULGOR
 10
2.2692
 20
-0.0678
 30
109.1652
 70
192
 0
VERTEX
 8
FULGOR
 10
2.0882
 20
-0.0678
 30
109.1292
 70
192
 0
VERTEX
 8
FULGOR
 10
1.2618
 20
-0.0678
 30
108.9649
 70
192
 0
VERTEX
 8
FULGOR
 10
2.2126
 20
-0.0678
 30
109.1958
 70
192
 0
VERTEX
 8
FULGOR
 10
2.4319
 20
-0.0678
 30
108.9927
 70
192
 0
VERTEX
 8
FULGOR
 10
2.2875
 20
-0.0678
 30
109.2272
 70
192
 0
VERTEX
 8
FULGOR
 10
2.2465
 20
-0.0678
 30
109.1801
 70
192
 0
VERTEX
 8
FULGOR
 10
2.3139
 20
-0.0678
 30
109.2489
 70
192
 0
VERTEX
 8
FULGOR
 10
2.229
 20
-0.0678
 30
109.1894
 70
192
 0
VERTEX
 8
FULGOR
 10
2.3388
 20
-0.0678
 30
109.2874
 70
192
 0
VERTEX
 8
FULGOR
 10
2.3443
 20
-0.0678
 30
109.3087
 70
192
 0
VERTEX
 8
FULGOR
 10
2.2485
 20
-0.0678
 30
109.2071
 70
192
 0
VERTEX
 8
FULGOR
 10
2.342
 20
-0.0678
 30
109.35
 70
192
 0
VERTEX
 8
FULGOR
 10
2.3328
 20
-0.0678
 30
109.3706
 70
192
 0
VERTEX
 8
FULGOR
 10
2.3186
 20
-0.0678
 30
109.3884
 70
192
 0
VERTEX
 8
FULGOR
 10
2.2952
 20
-0.0678
 30
109.4071
 70
192
 0
VERTEX
 8
FULGOR
 10
2.3295
 20
-0.0678
 30
109.2687
 70
192
 0
VERTEX
 8
FULGOR
 10
2.1817
 20
-0.0678
 30
109.4466
 70
192
 0
VERTEX
 8
FULGOR
 10
2.1364
 20
-0.0678
 30
109.4526
 70
192
 0
VERTEX
 8
FULGOR
 10
2.3454
 20
-0.0678
 30
109.3266
 70
192
 0
VERTEX
 8
FULGOR
 10
1.9001
 20
-0.0678
 30
109.3657
 70
192
 0
VERTEX
 8
FULGOR
 10
2.2545
 20
-0.0678
 30
109.4272
 70
192
 0
VERTEX
 8
FULGOR
 10
2.092
 20
-0.0678
 30
109.4549
 70
192
 0
VERTEX
 8
FULGOR
 10
1.7453
 20
-0.0678
 30
109.4549
 70
192
 0
VERTEX
 8
FULGOR
 10
1.9001
 20
-0.0678
 30
109.2548
 70
192
 0
VERTEX
 8
FULGOR
 10
2.0412
 20
-0.0678
 30
109.2546
 70
192
 0
VERTEX
 8
FULGOR
 10
2.0813
 20
-0.0678
 30
109.2579
 70
192
 0
VERTEX
 8
FULGOR
 10
2.1267
 20
-0.0678
 30
109.2742
 70
192
 0
VERTEX
 8
FULGOR
 10
2.1367
 20
-0.0678
 30
109.2824
 70
192
 0
VERTEX
 8
FULGOR
 10
2.1428
 20
-0.0678
 30
109.2901
 70
192
 0
VERTEX
 8
FULGOR
 10
2.1484
 20
-0.0678
 30
109.3174
 70
192
 0
VERTEX
 8
FULGOR
 10
2.1457
 20
-0.0678
 30
109.3272
 70
192
 0
VERTEX
 8
FULGOR
 10
2.0731
 20
-0.0678
 30
109.364
 70
192
 0
VERTEX
 8
FULGOR
 10
2.1234
 20
-0.0678
 30
109.35
 70
192
 0
VERTEX
 8
FULGOR
 10
2.0554
 20
-0.0678
 30
109.3654
 70
192
 0
VERTEX
 8
FULGOR
 10
2.1053
 20
-0.0678
 30
109.3575
 70
192
 0
VERTEX
 8
FULGOR
 10
2.091
 20
-0.0678
 30
109.3612
 70
192
 0
VERTEX
 8
FULGOR
 10
0.9723
 20
-0.0678
 30
108.9739
 70
192
 0
VERTEX
 8
FULGOR
 10
0.9113
 20
-0.0678
 30
108.9894
 70
192
 0
VERTEX
 8
FULGOR
 10
2.0364
 20
-0.0678
 30
109.3657
 70
192
 0
VERTEX
 8
FULGOR
 10
2.0333
 20
-0.0678
 30
109.4549
 70
192
 0
VERTEX
 8
FULGOR
 10
2.1405
 20
-0.0678
 30
109.3356
 70
192
 0
VERTEX
 8
FULGOR
 10
2.1338
 20
-0.0678
 30
109.3427
 70
192
 0
VERTEX
 8
FULGOR
 10
2.1486
 20
-0.0678
 30
109.308
 70
192
 0
VERTEX
 8
FULGOR
 10
2.1469
 20
-0.0678
 30
109.2989
 70
192
 0
VERTEX
 8
FULGOR
 10
1.9941
 20
-0.0678
 30
109.2547
 70
192
 0
VERTEX
 8
FULGOR
 10
2.2185
 20
-0.0678
 30
108.9616
 70
192
 0
VERTEX
 8
FULGOR
 10
2.2105
 20
-0.0678
 30
108.9725
 70
192
 0
VERTEX
 8
FULGOR
 10
0.139
 20
-0.0678
 30
109.0624
 70
192
 0
VERTEX
 8
FULGOR
 10
2.1963
 20
-0.0678
 30
108.9921
 70
192
 0
VERTEX
 8
FULGOR
 10
2.1831
 20
-0.0678
 30
109.0104
 70
192
 0
VERTEX
 8
FULGOR
 10
0.1722
 20
-0.0678
 30
109.0582
 70
192
 0
VERTEX
 8
FULGOR
 10
1.7453
 20
-0.0678
 30
109.1654
 70
192
 0
VERTEX
 8
FULGOR
 10
2.1476
 20
-0.0678
 30
109.0595
 70
192
 0
VERTEX
 8
FULGOR
 10
2.1344
 20
-0.0678
 30
109.0778
 70
192
 0
VERTEX
 8
FULGOR
 10
0
 20
0
 30
0
 70
128
 71
244
 72
245
 73
188
 74
3
 0
VERTEX
 8
FULGOR
 10
0
 20
0
 30
0
 70
128
 71
137
 72
135
 73
127
 74
120
 0
VERTEX
 8
FULGOR
 10
0
 20
0
 30
0
 70
128
 71
287
 72
288
 73
220
 74
219
 0
VERTEX
 8
FULGOR
 10
0
 20
0
 30
0
 70
128
 71
135
 72
134
 73
128
 74
127
 0
VERTEX
 8
FULGOR
 10
0
 20
0
 30
0
 70
128
 71
145
 72
144
 73
106
 74
99
 0
VERTEX
 8
FULGOR
 10
0
 20
0
 30
0
 70
128
 71
152
 72
148
 73
115
 74
112
 0
VERTEX
 8
FULGOR
 10
0
 20
0
 30
0
 70
128
 71
288
 72
289
 73
221
 74
220
 0
VERTEX
 8
FULGOR
 10
0
 20
0
 30
0
 70
128
 71
155
 72
152
 73
112
 74
109
 0
VERTEX
 8
FULGOR
 10
0
 20
0
 30
0
 70
128
 71
141
 72
155
 73
109
 74
103
 0
VERTEX
 8
FULGOR
 10
0
 20
0
 30
0
 70
128
 71
289
 72
290
 73
230
 74
221
 0
VERTEX
 8
FULGOR
 10
0
 20
0
 30
0
 70
128
 71
290
 72
292
 73
223
 74
230
 0
VERTEX
 8
FULGOR
 10
0
 20
0
 30
0
 70
128
 71
142
 72
141
 73
103
 74
108
 0
VERTEX
 8
FULGOR
 10
0
 20
0
 30
0
 70
128
 71
143
 72
142
 73
108
 74
107
 0
VERTEX
 8
FULGOR
 10
0
 20
0
 30
0
 70
128
 71
144
 72
143
 73
107
 74
106
 0
VERTEX
 8
FULGOR
 10
0
 20
0
 30
0
 70
128
 71
254
 72
255
 73
207
 74
206
 0
VERTEX
 8
FULGOR
 10
0
 20
0
 30
0
 70
128
 71
265
 72
254
 73
206
 74
199
 0
VERTEX
 8
FULGOR
 10
0
 20
0
 30
0
 70
128
 71
263
 72
265
 73
199
 74
198
 0
VERTEX
 8
FULGOR
 10
0
 20
0
 30
0
 70
128
 71
251
 72
240
 73
179
 74
178
 0
VERTEX
 8
FULGOR
 10
0
 20
0
 30
0
 70
128
 71
5
 72
8
 73
7
 74
6
 0
VERTEX
 8
FULGOR
 10
0
 20
0
 30
0
 70
128
 71
8
 72
5
 73
4
 74
4
 0
VERTEX
 8
FULGOR
 10
0
 20
0
 30
0
 70
128
 71
8
 72
4
 73
13
 74
2
 0
VERTEX
 8
FULGOR
 10
0
 20
0
 30
0
 70
128
 71
237
 72
238
 73
185
 74
346
 0
VERTEX
 8
FULGOR
 10
0
 20
0
 30
0
 70
128
 71
339
 72
340
 73
321
 74
328
 0
VERTEX
 8
FULGOR
 10
0
 20
0
 30
0
 70
128
 71
161
 72
174
 73
84
 74
89
 0
VERTEX
 8
FULGOR
 10
0
 20
0
 30
0
 70
128
 71
174
 72
159
 73
90
 74
84
 0
VERTEX
 8
FULGOR
 10
0
 20
0
 30
0
 70
128
 71
249
 72
237
 73
346
 74
184
 0
VERTEX
 8
FULGOR
 10
0
 20
0
 30
0
 70
128
 71
248
 72
249
 73
184
 74
347
 0
VERTEX
 8
FULGOR
 10
0
 20
0
 30
0
 70
128
 71
159
 72
173
 73
95
 74
90
 0
VERTEX
 8
FULGOR
 10
0
 20
0
 30
0
 70
128
 71
173
 72
157
 73
96
 74
95
 0
VERTEX
 8
FULGOR
 10
0
 20
0
 30
0
 70
128
 71
246
 72
248
 73
347
 74
183
 0
VERTEX
 8
FULGOR
 10
0
 20
0
 30
0
 70
128
 71
362
 72
307
 73
305
 74
359
 0
VERTEX
 8
FULGOR
 10
0
 20
0
 30
0
 70
128
 71
151
 72
150
 73
94
 74
93
 0
VERTEX
 8
FULGOR
 10
0
 20
0
 30
0
 70
128
 71
353
 72
352
 73
319
 74
318
 0
VERTEX
 8
FULGOR
 10
0
 20
0
 30
0
 70
128
 71
175
 72
161
 73
89
 74
88
 0
VERTEX
 8
FULGOR
 10
0
 20
0
 30
0
 70
128
 71
253
 72
247
 73
190
 74
189
 0
VERTEX
 8
FULGOR
 10
0
 20
0
 30
0
 70
128
 71
153
 72
166
 73
92
 74
91
 0
VERTEX
 8
FULGOR
 10
0
 20
0
 30
0
 70
128
 71
166
 72
151
 73
93
 74
92
 0
VERTEX
 8
FULGOR
 10
0
 20
0
 30
0
 70
128
 71
273
 72
274
 73
226
 74
210
 0
VERTEX
 8
FULGOR
 10
0
 20
0
 30
0
 70
128
 71
163
 72
175
 73
88
 74
81
 0
VERTEX
 8
FULGOR
 10
0
 20
0
 30
0
 70
128
 71
167
 72
154
 73
101
 74
100
 0
VERTEX
 8
FULGOR
 10
0
 20
0
 30
0
 70
128
 71
154
 72
153
 73
91
 74
101
 0
VERTEX
 8
FULGOR
 10
0
 20
0
 30
0
 70
128
 71
274
 72
275
 73
227
 74
226
 0
VERTEX
 8
FULGOR
 10
0
 20
0
 30
0
 70
128
 71
13
 72
12
 73
2
 74
2
 0
VERTEX
 8
FULGOR
 10
0
 20
0
 30
0
 70
128
 71
13
 72
4
 73
15
 74
14
 0
VERTEX
 8
FULGOR
 10
0
 20
0
 30
0
 70
128
 71
16
 72
74
 73
73
 74
9
 0
VERTEX
 8
FULGOR
 10
0
 20
0
 30
0
 70
128
 71
73
 72
72
 73
10
 74
9
 0
VERTEX
 8
FULGOR
 10
0
 20
0
 30
0
 70
128
 71
72
 72
82
 73
11
 74
10
 0
VERTEX
 8
FULGOR
 10
0
 20
0
 30
0
 70
128
 71
82
 72
70
 73
18
 74
17
 0
VERTEX
 8
FULGOR
 10
0
 20
0
 30
0
 70
128
 71
58
 72
57
 73
40
 74
39
 0
VERTEX
 8
FULGOR
 10
0
 20
0
 30
0
 70
128
 71
82
 72
17
 73
11
 74
11
 0
VERTEX
 8
FULGOR
 10
0
 20
0
 30
0
 70
128
 71
43
 72
58
 73
39
 74
38
 0
VERTEX
 8
FULGOR
 10
0
 20
0
 30
0
 70
128
 71
70
 72
69
 73
20
 74
19
 0
VERTEX
 8
FULGOR
 10
0
 20
0
 30
0
 70
128
 71
70
 72
19
 73
18
 74
18
 0
VERTEX
 8
FULGOR
 10
0
 20
0
 30
0
 70
128
 71
69
 72
68
 73
27
 74
20
 0
VERTEX
 8
FULGOR
 10
0
 20
0
 30
0
 70
128
 71
68
 72
67
 73
29
 74
27
 0
VERTEX
 8
FULGOR
 10
0
 20
0
 30
0
 70
128
 71
67
 72
66
 73
30
 74
29
 0
VERTEX
 8
FULGOR
 10
0
 20
0
 30
0
 70
128
 71
66
 72
78
 73
31
 74
30
 0
VERTEX
 8
FULGOR
 10
0
 20
0
 30
0
 70
128
 71
78
 72
77
 73
32
 74
31
 0
VERTEX
 8
FULGOR
 10
0
 20
0
 30
0
 70
128
 71
32
 72
77
 73
76
 74
21
 0
VERTEX
 8
FULGOR
 10
0
 20
0
 30
0
 70
128
 71
76
 72
62
 73
21
 74
21
 0
VERTEX
 8
FULGOR
 10
0
 20
0
 30
0
 70
128
 71
62
 72
61
 73
22
 74
21
 0
VERTEX
 8
FULGOR
 10
0
 20
0
 30
0
 70
128
 71
61
 72
75
 73
22
 74
22
 0
VERTEX
 8
FULGOR
 10
0
 20
0
 30
0
 70
128
 71
75
 72
59
 73
23
 74
22
 0
VERTEX
 8
FULGOR
 10
0
 20
0
 30
0
 70
128
 71
23
 72
59
 73
71
 74
24
 0
VERTEX
 8
FULGOR
 10
0
 20
0
 30
0
 70
128
 71
275
 72
281
 73
228
 74
227
 0
VERTEX
 8
FULGOR
 10
0
 20
0
 30
0
 70
128
 71
157
 72
156
 73
97
 74
96
 0
VERTEX
 8
FULGOR
 10
0
 20
0
 30
0
 70
128
 71
291
 72
296
 73
333
 74
354
 0
VERTEX
 8
FULGOR
 10
0
 20
0
 30
0
 70
128
 71
281
 72
282
 73
229
 74
228
 0
VERTEX
 8
FULGOR
 10
0
 20
0
 30
0
 70
128
 71
282
 72
283
 73
215
 74
229
 0
VERTEX
 8
FULGOR
 10
0
 20
0
 30
0
 70
128
 71
283
 72
284
 73
216
 74
215
 0
VERTEX
 8
FULGOR
 10
0
 20
0
 30
0
 70
128
 71
129
 72
1
 73
118
 74
117
 0
VERTEX
 8
FULGOR
 10
0
 20
0
 30
0
 70
128
 71
238
 72
251
 73
178
 74
185
 0
VERTEX
 8
FULGOR
 10
0
 20
0
 30
0
 70
128
 71
245
 72
253
 73
189
 74
188
 0
VERTEX
 8
FULGOR
 10
0
 20
0
 30
0
 70
128
 71
337
 72
338
 73
325
 74
316
 0
VERTEX
 8
FULGOR
 10
0
 20
0
 30
0
 70
128
 71
336
 72
337
 73
316
 74
314
 0
VERTEX
 8
FULGOR
 10
0
 20
0
 30
0
 70
128
 71
241
 72
252
 73
311
 74
186
 0
VERTEX
 8
FULGOR
 10
0
 20
0
 30
0
 70
128
 71
24
 72
71
 73
65
 74
25
 0
VERTEX
 8
FULGOR
 10
0
 20
0
 30
0
 70
128
 71
65
 72
64
 73
25
 74
25
 0
VERTEX
 8
FULGOR
 10
0
 20
0
 30
0
 70
128
 71
156
 72
167
 73
100
 74
97
 0
VERTEX
 8
FULGOR
 10
0
 20
0
 30
0
 70
128
 71
149
 72
162
 73
104
 74
102
 0
VERTEX
 8
FULGOR
 10
0
 20
0
 30
0
 70
128
 71
64
 72
63
 73
26
 74
25
 0
VERTEX
 8
FULGOR
 10
0
 20
0
 30
0
 70
128
 71
162
 72
160
 73
105
 74
104
 0
VERTEX
 8
FULGOR
 10
0
 20
0
 30
0
 70
128
 71
63
 72
60
 73
26
 74
26
 0
VERTEX
 8
FULGOR
 10
0
 20
0
 30
0
 70
128
 71
266
 72
269
 73
196
 74
195
 0
VERTEX
 8
FULGOR
 10
0
 20
0
 30
0
 70
128
 71
360
 72
129
 73
117
 74
126
 0
VERTEX
 8
FULGOR
 10
0
 20
0
 30
0
 70
128
 71
60
 72
53
 73
34
 74
26
 0
VERTEX
 8
FULGOR
 10
0
 20
0
 30
0
 70
128
 71
53
 72
52
 73
34
 74
34
 0
VERTEX
 8
FULGOR
 10
0
 20
0
 30
0
 70
128
 71
52
 72
51
 73
28
 74
34
 0
VERTEX
 8
FULGOR
 10
0
 20
0
 30
0
 70
128
 71
51
 72
50
 73
35
 74
28
 0
VERTEX
 8
FULGOR
 10
0
 20
0
 30
0
 70
128
 71
50
 72
49
 73
36
 74
35
 0
VERTEX
 8
FULGOR
 10
0
 20
0
 30
0
 70
128
 71
36
 72
49
 73
48
 74
37
 0
VERTEX
 8
FULGOR
 10
0
 20
0
 30
0
 70
128
 71
44
 72
43
 73
38
 74
56
 0
VERTEX
 8
FULGOR
 10
0
 20
0
 30
0
 70
128
 71
37
 72
48
 73
47
 74
41
 0
VERTEX
 8
FULGOR
 10
0
 20
0
 30
0
 70
128
 71
33
 72
47
 73
46
 74
42
 0
VERTEX
 8
FULGOR
 10
0
 20
0
 30
0
 70
128
 71
45
 72
55
 73
54
 74
54
 0
VERTEX
 8
FULGOR
 10
0
 20
0
 30
0
 70
128
 71
47
 72
33
 73
41
 74
41
 0
VERTEX
 8
FULGOR
 10
0
 20
0
 30
0
 70
128
 71
42
 72
46
 73
45
 74
54
 0
VERTEX
 8
FULGOR
 10
0
 20
0
 30
0
 70
128
 71
55
 72
45
 73
44
 74
56
 0
VERTEX
 8
FULGOR
 10
0
 20
0
 30
0
 70
128
 71
83
 72
80
 73
79
 74
85
 0
VERTEX
 8
FULGOR
 10
0
 20
0
 30
0
 70
128
 71
79
 72
87
 73
86
 74
85
 0
VERTEX
 8
FULGOR
 10
0
 20
0
 30
0
 70
128
 71
134
 72
124
 73
131
 74
128
 0
VERTEX
 8
FULGOR
 10
0
 20
0
 30
0
 70
128
 71
334
 72
335
 73
320
 74
312
 0
VERTEX
 8
FULGOR
 10
0
 20
0
 30
0
 70
128
 71
308
 72
307
 73
362
 74
363
 0
VERTEX
 8
FULGOR
 10
0
 20
0
 30
0
 70
128
 71
139
 72
357
 73
114
 74
113
 0
VERTEX
 8
FULGOR
 10
0
 20
0
 30
0
 70
128
 71
305
 72
304
 73
358
 74
359
 0
VERTEX
 8
FULGOR
 10
0
 20
0
 30
0
 70
128
 71
335
 72
336
 73
314
 74
320
 0
VERTEX
 8
FULGOR
 10
0
 20
0
 30
0
 70
128
 71
355
 72
356
 73
313
 74
301
 0
VERTEX
 8
FULGOR
 10
0
 20
0
 30
0
 70
128
 71
301
 72
300
 73
299
 74
355
 0
VERTEX
 8
FULGOR
 10
0
 20
0
 30
0
 70
128
 71
352
 72
339
 73
328
 74
319
 0
VERTEX
 8
FULGOR
 10
0
 20
0
 30
0
 70
128
 71
343
 72
348
 73
349
 74
331
 0
VERTEX
 8
FULGOR
 10
0
 20
0
 30
0
 70
128
 71
342
 72
344
 73
330
 74
324
 0
VERTEX
 8
FULGOR
 10
0
 20
0
 30
0
 70
128
 71
262
 72
263
 73
198
 74
197
 0
VERTEX
 8
FULGOR
 10
0
 20
0
 30
0
 70
128
 71
303
 72
312
 73
317
 74
310
 0
VERTEX
 8
FULGOR
 10
0
 20
0
 30
0
 70
128
 71
250
 72
262
 73
197
 74
187
 0
VERTEX
 8
FULGOR
 10
0
 20
0
 30
0
 70
128
 71
291
 72
354
 73
334
 74
302
 0
VERTEX
 8
FULGOR
 10
0
 20
0
 30
0
 70
128
 71
341
 72
343
 73
331
 74
327
 0
VERTEX
 8
FULGOR
 10
0
 20
0
 30
0
 70
128
 71
150
 72
149
 73
102
 74
94
 0
VERTEX
 8
FULGOR
 10
0
 20
0
 30
0
 70
128
 71
1
 72
138
 73
119
 74
118
 0
VERTEX
 8
FULGOR
 10
0
 20
0
 30
0
 70
128
 71
338
 72
353
 73
318
 74
325
 0
VERTEX
 8
FULGOR
 10
0
 20
0
 30
0
 70
128
 71
280
 72
273
 73
210
 74
222
 0
VERTEX
 8
FULGOR
 10
0
 20
0
 30
0
 70
128
 71
285
 72
286
 73
218
 74
217
 0
VERTEX
 8
FULGOR
 10
0
 20
0
 30
0
 70
128
 71
160
 72
158
 73
98
 74
105
 0
VERTEX
 8
FULGOR
 10
0
 20
0
 30
0
 70
128
 71
138
 72
137
 73
120
 74
119
 0
VERTEX
 8
FULGOR
 10
0
 20
0
 30
0
 70
128
 71
286
 72
287
 73
219
 74
218
 0
VERTEX
 8
FULGOR
 10
0
 20
0
 30
0
 70
128
 71
261
 72
270
 73
211
 74
209
 0
VERTEX
 8
FULGOR
 10
0
 20
0
 30
0
 70
128
 71
348
 72
329
 73
332
 74
349
 0
VERTEX
 8
FULGOR
 10
0
 20
0
 30
0
 70
128
 71
329
 72
333
 73
306
 74
332
 0
VERTEX
 8
FULGOR
 10
0
 20
0
 30
0
 70
128
 71
333
 72
296
 73
361
 74
306
 0
VERTEX
 8
FULGOR
 10
0
 20
0
 30
0
 70
128
 71
296
 72
295
 73
294
 74
361
 0
VERTEX
 8
FULGOR
 10
0
 20
0
 30
0
 70
128
 71
358
 72
304
 73
313
 74
356
 0
VERTEX
 8
FULGOR
 10
0
 20
0
 30
0
 70
128
 71
148
 72
147
 73
116
 74
115
 0
VERTEX
 8
FULGOR
 10
0
 20
0
 30
0
 70
128
 71
158
 72
145
 73
99
 74
98
 0
VERTEX
 8
FULGOR
 10
0
 20
0
 30
0
 70
128
 71
260
 72
261
 73
209
 74
208
 0
VERTEX
 8
FULGOR
 10
0
 20
0
 30
0
 70
128
 71
269
 72
260
 73
208
 74
196
 0
VERTEX
 8
FULGOR
 10
0
 20
0
 30
0
 70
128
 71
276
 72
267
 73
204
 74
203
 0
VERTEX
 8
FULGOR
 10
0
 20
0
 30
0
 70
128
 71
232
 72
242
 73
182
 74
180
 0
VERTEX
 8
FULGOR
 10
0
 20
0
 30
0
 70
128
 71
242
 72
246
 73
183
 74
182
 0
VERTEX
 8
FULGOR
 10
0
 20
0
 30
0
 70
128
 71
272
 72
276
 73
203
 74
202
 0
VERTEX
 8
FULGOR
 10
0
 20
0
 30
0
 70
128
 71
264
 72
272
 73
202
 74
201
 0
VERTEX
 8
FULGOR
 10
0
 20
0
 30
0
 70
128
 71
240
 72
241
 73
186
 74
179
 0
VERTEX
 8
FULGOR
 10
0
 20
0
 30
0
 70
128
 71
147
 72
136
 73
121
 74
116
 0
VERTEX
 8
FULGOR
 10
0
 20
0
 30
0
 70
128
 71
340
 72
350
 73
322
 74
321
 0
VERTEX
 8
FULGOR
 10
0
 20
0
 30
0
 70
128
 71
303
 72
302
 73
334
 74
312
 0
VERTEX
 8
FULGOR
 10
0
 20
0
 30
0
 70
128
 71
345
 72
341
 73
327
 74
326
 0
VERTEX
 8
FULGOR
 10
0
 20
0
 30
0
 70
128
 71
252
 72
243
 73
181
 74
311
 0
VERTEX
 8
FULGOR
 10
0
 20
0
 30
0
 70
128
 71
344
 72
345
 73
326
 74
330
 0
VERTEX
 8
FULGOR
 10
0
 20
0
 30
0
 70
128
 71
231
 72
232
 73
180
 74
172
 0
VERTEX
 8
FULGOR
 10
0
 20
0
 30
0
 70
128
 71
257
 72
266
 73
195
 74
194
 0
VERTEX
 8
FULGOR
 10
0
 20
0
 30
0
 70
128
 71
256
 72
257
 73
194
 74
193
 0
VERTEX
 8
FULGOR
 10
0
 20
0
 30
0
 70
128
 71
297
 72
310
 73
317
 74
315
 0
VERTEX
 8
FULGOR
 10
0
 20
0
 30
0
 70
128
 71
357
 72
130
 73
125
 74
114
 0
VERTEX
 8
FULGOR
 10
0
 20
0
 30
0
 70
128
 71
255
 72
256
 73
193
 74
207
 0
VERTEX
 8
FULGOR
 10
0
 20
0
 30
0
 70
128
 71
298
 72
297
 73
315
 74
309
 0
VERTEX
 8
FULGOR
 10
0
 20
0
 30
0
 70
128
 71
298
 72
309
 73
308
 74
363
 0
VERTEX
 8
FULGOR
 10
0
 20
0
 30
0
 70
128
 71
243
 72
244
 73
3
 74
181
 0
VERTEX
 8
FULGOR
 10
0
 20
0
 30
0
 70
128
 71
259
 72
250
 73
187
 74
192
 0
VERTEX
 8
FULGOR
 10
0
 20
0
 30
0
 70
128
 71
279
 72
280
 73
222
 74
214
 0
VERTEX
 8
FULGOR
 10
0
 20
0
 30
0
 70
128
 71
278
 72
279
 73
214
 74
213
 0
VERTEX
 8
FULGOR
 10
0
 20
0
 30
0
 70
128
 71
258
 72
259
 73
192
 74
191
 0
VERTEX
 8
FULGOR
 10
0
 20
0
 30
0
 70
128
 71
247
 72
258
 73
191
 74
190
 0
VERTEX
 8
FULGOR
 10
0
 20
0
 30
0
 70
128
 71
351
 72
342
 73
324
 74
323
 0
VERTEX
 8
FULGOR
 10
0
 20
0
 30
0
 70
128
 71
350
 72
351
 73
323
 74
322
 0
VERTEX
 8
FULGOR
 10
0
 20
0
 30
0
 70
128
 71
284
 72
285
 73
217
 74
216
 0
VERTEX
 8
FULGOR
 10
0
 20
0
 30
0
 70
128
 71
136
 72
146
 73
122
 74
121
 0
VERTEX
 8
FULGOR
 10
0
 20
0
 30
0
 70
128
 71
146
 72
140
 73
110
 74
122
 0
VERTEX
 8
FULGOR
 10
0
 20
0
 30
0
 70
128
 71
130
 72
360
 73
126
 74
125
 0
VERTEX
 8
FULGOR
 10
0
 20
0
 30
0
 70
128
 71
140
 72
133
 73
111
 74
110
 0
VERTEX
 8
FULGOR
 10
0
 20
0
 30
0
 70
128
 71
133
 72
132
 73
123
 74
111
 0
VERTEX
 8
FULGOR
 10
0
 20
0
 30
0
 70
128
 71
132
 72
139
 73
113
 74
123
 0
VERTEX
 8
FULGOR
 10
0
 20
0
 30
0
 70
128
 71
292
 72
293
 73
164
 74
223
 0
VERTEX
 8
FULGOR
 10
0
 20
0
 30
0
 70
128
 71
293
 72
224
 73
165
 74
164
 0
VERTEX
 8
FULGOR
 10
0
 20
0
 30
0
 70
128
 71
224
 72
225
 73
176
 74
165
 0
VERTEX
 8
FULGOR
 10
0
 20
0
 30
0
 70
128
 71
225
 72
233
 73
177
 74
176
 0
VERTEX
 8
FULGOR
 10
0
 20
0
 30
0
 70
128
 71
233
 72
234
 73
168
 74
177
 0
VERTEX
 8
FULGOR
 10
0
 20
0
 30
0
 70
128
 71
234
 72
235
 73
169
 74
168
 0
VERTEX
 8
FULGOR
 10
0
 20
0
 30
0
 70
128
 71
235
 72
236
 73
170
 74
169
 0
VERTEX
 8
FULGOR
 10
0
 20
0
 30
0
 70
128
 71
236
 72
239
 73
171
 74
170
 0
VERTEX
 8
FULGOR
 10
0
 20
0
 30
0
 70
128
 71
239
 72
231
 73
172
 74
171
 0
VERTEX
 8
FULGOR
 10
0
 20
0
 30
0
 70
128
 71
213
 72
212
 73
277
 74
278
 0
VERTEX
 8
FULGOR
 10
0
 20
0
 30
0
 70
128
 71
212
 72
205
 73
268
 74
277
 0
VERTEX
 8
FULGOR
 10
0
 20
0
 30
0
 70
128
 71
267
 72
268
 73
205
 74
204
 0
VERTEX
 8
FULGOR
 10
0
 20
0
 30
0
 70
128
 71
270
 72
271
 73
200
 74
211
 0
VERTEX
 8
FULGOR
 10
0
 20
0
 30
0
 70
128
 71
271
 72
264
 73
201
 74
200
 0
SEQEND
 0
POLYLINE
 8
MILANO
 66
1
 10
0.0
 20
0.0
 30
0.0
 70
64
 71
93
 72
47
 0
VERTEX
 8
MILANO
 10
0.2468
 20
-0.0679
 30
108.6186
 70
192
 0
VERTEX
 8
MILANO
 10
0.6787
 20
-0.0679
 30
108.4491
 70
192
 0
VERTEX
 8
MILANO
 10
0.6833
 20
-0.0679
 30
108.4102
 70
192
 0
VERTEX
 8
MILANO
 10
0.6997
 20
-0.0679
 30
108.3747
 70
192
 0
VERTEX
 8
MILANO
 10
0.7272
 20
-0.0679
 30
108.347
 70
192
 0
VERTEX
 8
MILANO
 10
0.7614
 20
-0.0679
 30
108.3281
 70
192
 0
VERTEX
 8
MILANO
 10
0.7989
 20
-0.0679
 30
108.3172
 70
192
 0
VERTEX
 8
MILANO
 10
0.8377
 20
-0.0679
 30
108.3129
 70
192
 0
VERTEX
 8
MILANO
 10
0.5157
 20
-0.0679
 30
108.3648
 70
192
 0
VERTEX
 8
MILANO
 10
0.8766
 20
-0.0679
 30
108.3159
 70
192
 0
VERTEX
 8
MILANO
 10
0.9142
 20
-0.0679
 30
108.3263
 70
192
 0
VERTEX
 8
MILANO
 10
0.9483
 20
-0.0679
 30
108.3454
 70
192
 0
VERTEX
 8
MILANO
 10
0.0833
 20
-0.0679
 30
108.3872
 70
192
 0
VERTEX
 8
MILANO
 10
0.1447
 20
-0.0679
 30
108.2767
 70
192
 0
VERTEX
 8
MILANO
 10
0.1951
 20
-0.0679
 30
108.2767
 70
192
 0
VERTEX
 8
MILANO
 10
0.9749
 20
-0.0679
 30
108.374
 70
192
 0
VERTEX
 8
MILANO
 10
0.9921
 20
-0.0679
 30
108.4091
 70
192
 0
VERTEX
 8
MILANO
 10
-0.195
 20
-0.0679
 30
108.2767
 70
192
 0
VERTEX
 8
MILANO
 10
-0.06
 20
-0.0679
 30
108.4252
 70
192
 0
VERTEX
 8
MILANO
 10
0.0626
 20
-0.0679
 30
108.4252
 70
192
 0
VERTEX
 8
MILANO
 10
0.9976
 20
-0.0679
 30
108.4478
 70
192
 0
VERTEX
 8
MILANO
 10
0.9926
 20
-0.0679
 30
108.4867
 70
192
 0
VERTEX
 8
MILANO
 10
0.9761
 20
-0.0679
 30
108.5221
 70
192
 0
VERTEX
 8
MILANO
 10
-0.3634
 20
-0.0679
 30
108.6186
 70
192
 0
VERTEX
 8
MILANO
 10
-0.3634
 20
-0.0679
 30
108.314
 70
192
 0
VERTEX
 8
MILANO
 10
0.9493
 20
-0.0679
 30
108.5505
 70
192
 0
VERTEX
 8
MILANO
 10
0.9153
 20
-0.0679
 30
108.5696
 70
192
 0
VERTEX
 8
MILANO
 10
0.8776
 20
-0.0679
 30
108.58
 70
192
 0
VERTEX
 8
MILANO
 10
-0.5348
 20
-0.0679
 30
108.6186
 70
192
 0
VERTEX
 8
MILANO
 10
-0.4923
 20
-0.0679
 30
108.6186
 70
192
 0
VERTEX
 8
MILANO
 10
-0.4923
 20
-0.0679
 30
108.2767
 70
192
 0
VERTEX
 8
MILANO
 10
-0.5348
 20
-0.0679
 30
108.2767
 70
192
 0
VERTEX
 8
MILANO
 10
-1.0466
 20
-0.0679
 30
108.2767
 70
192
 0
VERTEX
 8
MILANO
 10
-0.9937
 20
-0.0679
 30
108.6208
 70
192
 0
VERTEX
 8
MILANO
 10
-0.6709
 20
-0.0679
 30
108.6208
 70
192
 0
VERTEX
 8
MILANO
 10
-0.6551
 20
-0.0679
 30
108.6208
 70
192
 0
VERTEX
 8
MILANO
 10
-0.5992
 20
-0.0679
 30
108.2767
 70
192
 0
VERTEX
 8
MILANO
 10
-0.6454
 20
-0.0679
 30
108.2767
 70
192
 0
VERTEX
 8
MILANO
 10
-0.8326
 20
-0.0679
 30
108.2767
 70
192
 0
VERTEX
 8
MILANO
 10
-0.9675
 20
-0.0679
 30
108.5075
 70
192
 0
VERTEX
 8
MILANO
 10
-0.2121
 20
-0.0679
 30
108.314
 70
192
 0
VERTEX
 8
MILANO
 10
-0.2121
 20
-0.0679
 30
108.2767
 70
192
 0
VERTEX
 8
MILANO
 10
-0.4054
 20
-0.0679
 30
108.2767
 70
192
 0
VERTEX
 8
MILANO
 10
-0.9833
 20
-0.0679
 30
108.6208
 70
192
 0
VERTEX
 8
MILANO
 10
-0.8241
 20
-0.0679
 30
108.3469
 70
192
 0
VERTEX
 8
MILANO
 10
-0.6825
 20
-0.0679
 30
108.5075
 70
192
 0
VERTEX
 8
MILANO
 10
-0.8119
 20
-0.0679
 30
108.2767
 70
192
 0
VERTEX
 8
MILANO
 10
-1.0009
 20
-0.0679
 30
108.2767
 70
192
 0
VERTEX
 8
MILANO
 10
0.8389
 20
-0.0679
 30
108.6244
 70
192
 0
VERTEX
 8
MILANO
 10
0.7879
 20
-0.0679
 30
108.6216
 70
192
 0
VERTEX
 8
MILANO
 10
0.7383
 20
-0.0679
 30
108.6092
 70
192
 0
VERTEX
 8
MILANO
 10
0.6946
 20
-0.0679
 30
108.5831
 70
192
 0
VERTEX
 8
MILANO
 10
0.6596
 20
-0.0679
 30
108.5458
 70
192
 0
VERTEX
 8
MILANO
 10
0.6367
 20
-0.0679
 30
108.5002
 70
192
 0
VERTEX
 8
MILANO
 10
0.6297
 20
-0.0679
 30
108.4494
 70
192
 0
VERTEX
 8
MILANO
 10
0.6356
 20
-0.0679
 30
108.3986
 70
192
 0
VERTEX
 8
MILANO
 10
0.6571
 20
-0.0679
 30
108.3522
 70
192
 0
VERTEX
 8
MILANO
 10
0.693
 20
-0.0679
 30
108.316
 70
192
 0
VERTEX
 8
MILANO
 10
0.7377
 20
-0.0679
 30
108.2913
 70
192
 0
VERTEX
 8
MILANO
 10
0.7868
 20
-0.0679
 30
108.2769
 70
192
 0
VERTEX
 8
MILANO
 10
0.8375
 20
-0.0679
 30
108.2714
 70
192
 0
VERTEX
 8
MILANO
 10
0.8884
 20
-0.0679
 30
108.2753
 70
192
 0
VERTEX
 8
MILANO
 10
0.9377
 20
-0.0679
 30
108.2889
 70
192
 0
VERTEX
 8
MILANO
 10
0.9822
 20
-0.0679
 30
108.3139
 70
192
 0
VERTEX
 8
MILANO
 10
1.017
 20
-0.0679
 30
108.3512
 70
192
 0
VERTEX
 8
MILANO
 10
1.0395
 20
-0.0679
 30
108.3972
 70
192
 0
VERTEX
 8
MILANO
 10
1.0467
 20
-0.0679
 30
108.4478
 70
192
 0
VERTEX
 8
MILANO
 10
1.0402
 20
-0.0679
 30
108.4986
 70
192
 0
VERTEX
 8
MILANO
 10
1.0185
 20
-0.0679
 30
108.5449
 70
192
 0
VERTEX
 8
MILANO
 10
0.9835
 20
-0.0679
 30
108.5821
 70
192
 0
VERTEX
 8
MILANO
 10
0.2468
 20
-0.0679
 30
108.2767
 70
192
 0
VERTEX
 8
MILANO
 10
0.2914
 20
-0.0679
 30
108.2767
 70
192
 0
VERTEX
 8
MILANO
 10
0.2914
 20
-0.0679
 30
108.526
 70
192
 0
VERTEX
 8
MILANO
 10
0.5453
 20
-0.0679
 30
108.2767
 70
192
 0
VERTEX
 8
MILANO
 10
0.5599
 20
-0.0679
 30
108.2767
 70
192
 0
VERTEX
 8
MILANO
 10
0.5599
 20
-0.0679
 30
108.6186
 70
192
 0
VERTEX
 8
MILANO
 10
0.5151
 20
-0.0679
 30
108.6186
 70
192
 0
VERTEX
 8
MILANO
 10
0.939
 20
-0.0679
 30
108.6071
 70
192
 0
VERTEX
 8
MILANO
 10
0.2634
 20
-0.0679
 30
108.6186
 70
192
 0
VERTEX
 8
MILANO
 10
-0.1389
 20
-0.0679
 30
108.2767
 70
192
 0
VERTEX
 8
MILANO
 10
-0.082
 20
-0.0679
 30
108.3872
 70
192
 0
VERTEX
 8
MILANO
 10
0.8898
 20
-0.0679
 30
108.6207
 70
192
 0
VERTEX
 8
MILANO
 10
0.8387
 20
-0.0679
 30
108.5829
 70
192
 0
VERTEX
 8
MILANO
 10
0.7997
 20
-0.0679
 30
108.5807
 70
192
 0
VERTEX
 8
MILANO
 10
0.0082
 20
-0.0679
 30
108.6186
 70
192
 0
VERTEX
 8
MILANO
 10
-0.0063
 20
-0.0679
 30
108.6186
 70
192
 0
VERTEX
 8
MILANO
 10
0.7618
 20
-0.0679
 30
108.5712
 70
192
 0
VERTEX
 8
MILANO
 10
0.7284
 20
-0.0679
 30
108.5513
 70
192
 0
VERTEX
 8
MILANO
 10
0.7016
 20
-0.0679
 30
108.5228
 70
192
 0
VERTEX
 8
MILANO
 10
0.0056
 20
-0.0679
 30
108.5347
 70
192
 0
VERTEX
 8
MILANO
 10
-0.0044
 20
-0.0679
 30
108.5347
 70
192
 0
VERTEX
 8
MILANO
 10
-0.409
 20
-0.0679
 30
108.6186
 70
192
 0
VERTEX
 8
MILANO
 10
0.6841
 20
-0.0679
 30
108.4879
 70
192
 0
VERTEX
 8
MILANO
 10
0
 20
0
 30
0
 70
128
 71
71
 72
1
 73
73
 74
72
 0
VERTEX
 8
MILANO
 10
0
 20
0
 30
0
 70
128
 71
1
 72
79
 73
73
 74
73
 0
VERTEX
 8
MILANO
 10
0
 20
0
 30
0
 70
128
 71
73
 72
79
 73
9
 74
74
 0
VERTEX
 8
MILANO
 10
0
 20
0
 30
0
 70
128
 71
76
 72
75
 73
9
 74
77
 0
VERTEX
 8
MILANO
 10
0
 20
0
 30
0
 70
128
 71
9
 72
75
 73
74
 74
74
 0
VERTEX
 8
MILANO
 10
0
 20
0
 30
0
 70
128
 71
18
 72
86
 73
19
 74
81
 0
VERTEX
 8
MILANO
 10
0
 20
0
 30
0
 70
128
 71
80
 72
18
 73
81
 74
81
 0
VERTEX
 8
MILANO
 10
0
 20
0
 30
0
 70
128
 71
86
 72
85
 73
90
 74
91
 0
VERTEX
 8
MILANO
 10
0
 20
0
 30
0
 70
128
 71
15
 72
13
 73
20
 74
20
 0
VERTEX
 8
MILANO
 10
0
 20
0
 30
0
 70
128
 71
86
 72
91
 73
19
 74
19
 0
VERTEX
 8
MILANO
 10
0
 20
0
 30
0
 70
128
 71
85
 72
15
 73
20
 74
90
 0
VERTEX
 8
MILANO
 10
0
 20
0
 30
0
 70
128
 71
13
 72
81
 73
19
 74
20
 0
VERTEX
 8
MILANO
 10
0
 20
0
 30
0
 70
128
 71
15
 72
14
 73
13
 74
13
 0
VERTEX
 8
MILANO
 10
0
 20
0
 30
0
 70
128
 71
92
 72
24
 73
25
 74
43
 0
VERTEX
 8
MILANO
 10
0
 20
0
 30
0
 70
128
 71
25
 72
41
 73
42
 74
43
 0
VERTEX
 8
MILANO
 10
0
 20
0
 30
0
 70
128
 71
29
 72
30
 73
31
 74
32
 0
VERTEX
 8
MILANO
 10
0
 20
0
 30
0
 70
128
 71
33
 72
34
 73
40
 74
48
 0
VERTEX
 8
MILANO
 10
0
 20
0
 30
0
 70
128
 71
34
 72
44
 73
40
 74
40
 0
VERTEX
 8
MILANO
 10
0
 20
0
 30
0
 70
128
 71
40
 72
44
 73
45
 74
39
 0
VERTEX
 8
MILANO
 10
0
 20
0
 30
0
 70
128
 71
45
 72
35
 73
46
 74
47
 0
VERTEX
 8
MILANO
 10
0
 20
0
 30
0
 70
128
 71
46
 72
36
 73
37
 74
38
 0
VERTEX
 8
MILANO
 10
0
 20
0
 30
0
 70
128
 71
45
 72
47
 73
39
 74
39
 0
VERTEX
 8
MILANO
 10
0
 20
0
 30
0
 70
128
 71
35
 72
36
 73
46
 74
46
 0
VERTEX
 8
MILANO
 10
0
 20
0
 30
0
 70
128
 71
50
 72
49
 73
83
 74
84
 0
VERTEX
 8
MILANO
 10
0
 20
0
 30
0
 70
128
 71
51
 72
50
 73
84
 74
87
 0
VERTEX
 8
MILANO
 10
0
 20
0
 30
0
 70
128
 71
5
 72
6
 73
59
 74
58
 0
VERTEX
 8
MILANO
 10
0
 20
0
 30
0
 70
128
 71
28
 72
83
 73
49
 74
82
 0
VERTEX
 8
MILANO
 10
0
 20
0
 30
0
 70
128
 71
27
 72
28
 73
82
 74
78
 0
VERTEX
 8
MILANO
 10
0
 20
0
 30
0
 70
128
 71
26
 72
27
 73
78
 74
70
 0
VERTEX
 8
MILANO
 10
0
 20
0
 30
0
 70
128
 71
23
 72
26
 73
70
 74
69
 0
VERTEX
 8
MILANO
 10
0
 20
0
 30
0
 70
128
 71
6
 72
7
 73
60
 74
59
 0
VERTEX
 8
MILANO
 10
0
 20
0
 30
0
 70
128
 71
7
 72
8
 73
61
 74
60
 0
VERTEX
 8
MILANO
 10
0
 20
0
 30
0
 70
128
 71
22
 72
23
 73
69
 74
68
 0
VERTEX
 8
MILANO
 10
0
 20
0
 30
0
 70
128
 71
21
 72
22
 73
68
 74
67
 0
VERTEX
 8
MILANO
 10
0
 20
0
 30
0
 70
128
 71
17
 72
21
 73
67
 74
66
 0
VERTEX
 8
MILANO
 10
0
 20
0
 30
0
 70
128
 71
16
 72
17
 73
66
 74
65
 0
VERTEX
 8
MILANO
 10
0
 20
0
 30
0
 70
128
 71
12
 72
16
 73
65
 74
64
 0
VERTEX
 8
MILANO
 10
0
 20
0
 30
0
 70
128
 71
11
 72
12
 73
64
 74
63
 0
VERTEX
 8
MILANO
 10
0
 20
0
 30
0
 70
128
 71
10
 72
11
 73
63
 74
62
 0
VERTEX
 8
MILANO
 10
0
 20
0
 30
0
 70
128
 71
4
 72
5
 73
58
 74
57
 0
VERTEX
 8
MILANO
 10
0
 20
0
 30
0
 70
128
 71
57
 72
56
 73
3
 74
4
 0
VERTEX
 8
MILANO
 10
0
 20
0
 30
0
 70
128
 71
56
 72
55
 73
2
 74
3
 0
VERTEX
 8
MILANO
 10
0
 20
0
 30
0
 70
128
 71
55
 72
54
 73
93
 74
2
 0
VERTEX
 8
MILANO
 10
0
 20
0
 30
0
 70
128
 71
54
 72
53
 73
89
 74
93
 0
VERTEX
 8
MILANO
 10
0
 20
0
 30
0
 70
128
 71
53
 72
52
 73
88
 74
89
 0
VERTEX
 8
MILANO
 10
0
 20
0
 30
0
 70
128
 71
52
 72
51
 73
87
 74
88
 0
VERTEX
 8
MILANO
 10
0
 20
0
 30
0
 70
128
 71
8
 72
10
 73
62
 74
61
 0
SEQEND
 0
POLYLINE
 8
PANNELLO_FRONTALE
 66
1
 10
0.0
 20
0.0
 30
0.0
 70
64
 71
120
 72
124
 0
VERTEX
 8
PANNELLO_FRONTALE
 10
-37.5001
 20
-0.0599
 30
103.7042
 70
192
 0
VERTEX
 8
PANNELLO_FRONTALE
 10
-37.5001
 20
-0.0599
 30
148.1042
 70
192
 0
VERTEX
 8
PANNELLO_FRONTALE
 10
37.505
 20
-0.0599
 30
103.7042
 70
192
 0
VERTEX
 8
PANNELLO_FRONTALE
 10
37.505
 20
-0.0599
 30
148.1042
 70
192
 0
VERTEX
 8
PANNELLO_FRONTALE
 10
37.505
 20
0.52
 30
103.7042
 70
192
 0
VERTEX
 8
PANNELLO_FRONTALE
 10
37.505
 20
0.52
 30
148.1042
 70
192
 0
VERTEX
 8
PANNELLO_FRONTALE
 10
-37.5001
 20
0.52
 30
103.7042
 70
192
 0
VERTEX
 8
PANNELLO_FRONTALE
 10
-37.5001
 20
0.52
 30
148.1042
 70
192
 0
VERTEX
 8
PANNELLO_FRONTALE
 10
26.25
 20
-0.0599
 30
148.1042
 70
192
 0
VERTEX
 8
PANNELLO_FRONTALE
 10
26.25
 20
-0.0599
 30
103.7042
 70
192
 0
VERTEX
 8
PANNELLO_FRONTALE
 10
26.25
 20
0.52
 30
148.1042
 70
192
 0
VERTEX
 8
PANNELLO_FRONTALE
 10
26.25
 20
0.52
 30
103.7042
 70
192
 0
VERTEX
 8
PANNELLO_FRONTALE
 10
-37.5001
 20
-0.0599
 30
141.3541
 70
192
 0
VERTEX
 8
PANNELLO_FRONTALE
 10
-26.25
 20
-0.0599
 30
118.1843
 70
192
 0
VERTEX
 8
PANNELLO_FRONTALE
 10
37.505
 20
-0.0599
 30
141.3541
 70
192
 0
VERTEX
 8
PANNELLO_FRONTALE
 10
37.505
 20
0.52
 30
141.3541
 70
192
 0
VERTEX
 8
PANNELLO_FRONTALE
 10
-35.6384
 20
-0.0599
 30
118.1843
 70
192
 0
VERTEX
 8
PANNELLO_FRONTALE
 10
-37.5001
 20
0.52
 30
141.3541
 70
192
 0
VERTEX
 8
PANNELLO_FRONTALE
 10
-35.7584
 20
0.52
 30
118.1843
 70
192
 0
VERTEX
 8
PANNELLO_FRONTALE
 10
-26.25
 20
-0.0599
 30
103.7042
 70
192
 0
VERTEX
 8
PANNELLO_FRONTALE
 10
-26.25
 20
0.52
 30
148.1042
 70
192
 0
VERTEX
 8
PANNELLO_FRONTALE
 10
-26.25
 20
-0.0599
 30
148.1042
 70
192
 0
VERTEX
 8
PANNELLO_FRONTALE
 10
-26.25
 20
0.52
 30
103.7042
 70
192
 0
VERTEX
 8
PANNELLO_FRONTALE
 10
-35.6384
 20
0.52
 30
118.1843
 70
192
 0
VERTEX
 8
PANNELLO_FRONTALE
 10
-37.5001
 20
-0.0599
 30
119.0542
 70
192
 0
VERTEX
 8
PANNELLO_FRONTALE
 10
26.25
 20
-0.0599
 30
118.1843
 70
192
 0
VERTEX
 8
PANNELLO_FRONTALE
 10
37.505
 20
-0.0599
 30
119.0542
 70
192
 0
VERTEX
 8
PANNELLO_FRONTALE
 10
37.505
 20
0.52
 30
119.0542
 70
192
 0
VERTEX
 8
PANNELLO_FRONTALE
 10
35.3633
 20
0.52
 30
118.1843
 70
192
 0
VERTEX
 8
PANNELLO_FRONTALE
 10
-37.5001
 20
0.52
 30
119.0542
 70
192
 0
VERTEX
 8
PANNELLO_FRONTALE
 10
35.4831
 20
-0.0599
 30
118.1843
 70
192
 0
VERTEX
 8
PANNELLO_FRONTALE
 10
35.3633
 20
-0.0599
 30
118.1843
 70
192
 0
VERTEX
 8
PANNELLO_FRONTALE
 10
35.4831
 20
0.52
 30
119.0542
 70
192
 0
VERTEX
 8
PANNELLO_FRONTALE
 10
35.4831
 20
0.52
 30
103.7042
 70
192
 0
VERTEX
 8
PANNELLO_FRONTALE
 10
35.4831
 20
-0.0599
 30
148.1042
 70
192
 0
VERTEX
 8
PANNELLO_FRONTALE
 10
35.4831
 20
-0.0599
 30
141.3541
 70
192
 0
VERTEX
 8
PANNELLO_FRONTALE
 10
35.4831
 20
0.52
 30
148.1042
 70
192
 0
VERTEX
 8
PANNELLO_FRONTALE
 10
35.4831
 20
-0.0599
 30
103.7042
 70
192
 0
VERTEX
 8
PANNELLO_FRONTALE
 10
35.4831
 20
0.52
 30
141.3541
 70
192
 0
VERTEX
 8
PANNELLO_FRONTALE
 10
35.4831
 20
-0.0599
 30
119.0542
 70
192
 0
VERTEX
 8
PANNELLO_FRONTALE
 10
35.3633
 20
-0.0599
 30
148.1042
 70
192
 0
VERTEX
 8
PANNELLO_FRONTALE
 10
35.3633
 20
0.0634
 30
141.3541
 70
192
 0
VERTEX
 8
PANNELLO_FRONTALE
 10
35.3633
 20
0.52
 30
148.1042
 70
192
 0
VERTEX
 8
PANNELLO_FRONTALE
 10
35.3633
 20
-0.0599
 30
103.7042
 70
192
 0
VERTEX
 8
PANNELLO_FRONTALE
 10
35.3633
 20
0.52
 30
103.7042
 70
192
 0
VERTEX
 8
PANNELLO_FRONTALE
 10
35.3633
 20
0.52
 30
119.0542
 70
192
 0
VERTEX
 8
PANNELLO_FRONTALE
 10
35.3633
 20
0.52
 30
141.3541
 70
192
 0
VERTEX
 8
PANNELLO_FRONTALE
 10
35.3633
 20
0.0634
 30
119.0542
 70
192
 0
VERTEX
 8
PANNELLO_FRONTALE
 10
35.3633
 20
-0.0599
 30
142.4242
 70
192
 0
VERTEX
 8
PANNELLO_FRONTALE
 10
26.25
 20
-0.0599
 30
142.4242
 70
192
 0
VERTEX
 8
PANNELLO_FRONTALE
 10
-26.25
 20
0.52
 30
142.4242
 70
192
 0
VERTEX
 8
PANNELLO_FRONTALE
 10
26.25
 20
0.52
 30
142.4242
 70
192
 0
VERTEX
 8
PANNELLO_FRONTALE
 10
-37.5001
 20
-0.0599
 30
142.4242
 70
192
 0
VERTEX
 8
PANNELLO_FRONTALE
 10
-26.25
 20
-0.0599
 30
142.4242
 70
192
 0
VERTEX
 8
PANNELLO_FRONTALE
 10
37.505
 20
-0.0599
 30
142.4242
 70
192
 0
VERTEX
 8
PANNELLO_FRONTALE
 10
37.505
 20
0.52
 30
142.4242
 70
192
 0
VERTEX
 8
PANNELLO_FRONTALE
 10
35.4831
 20
0.52
 30
142.4242
 70
192
 0
VERTEX
 8
PANNELLO_FRONTALE
 10
-37.5001
 20
0.52
 30
142.4242
 70
192
 0
VERTEX
 8
PANNELLO_FRONTALE
 10
35.4831
 20
-0.0599
 30
142.4242
 70
192
 0
VERTEX
 8
PANNELLO_FRONTALE
 10
35.3633
 20
0.52
 30
142.4242
 70
192
 0
VERTEX
 8
PANNELLO_FRONTALE
 10
-37.5001
 20
-0.0599
 30
142.3041
 70
192
 0
VERTEX
 8
PANNELLO_FRONTALE
 10
-26.25
 20
0.0634
 30
142.3041
 70
192
 0
VERTEX
 8
PANNELLO_FRONTALE
 10
37.505
 20
-0.0599
 30
142.3041
 70
192
 0
VERTEX
 8
PANNELLO_FRONTALE
 10
37.505
 20
0.52
 30
142.3041
 70
192
 0
VERTEX
 8
PANNELLO_FRONTALE
 10
35.4831
 20
0.52
 30
142.3041
 70
192
 0
VERTEX
 8
PANNELLO_FRONTALE
 10
-37.5001
 20
0.52
 30
142.3041
 70
192
 0
VERTEX
 8
PANNELLO_FRONTALE
 10
35.3633
 20
0.0634
 30
142.3041
 70
192
 0
VERTEX
 8
PANNELLO_FRONTALE
 10
26.25
 20
0.0634
 30
142.3041
 70
192
 0
VERTEX
 8
PANNELLO_FRONTALE
 10
-26.25
 20
0.52
 30
142.3041
 70
192
 0
VERTEX
 8
PANNELLO_FRONTALE
 10
26.25
 20
0.52
 30
142.3041
 70
192
 0
VERTEX
 8
PANNELLO_FRONTALE
 10
35.4831
 20
-0.0599
 30
142.3041
 70
192
 0
VERTEX
 8
PANNELLO_FRONTALE
 10
35.3633
 20
0.52
 30
142.3041
 70
192
 0
VERTEX
 8
PANNELLO_FRONTALE
 10
-35.6384
 20
0.0634
 30
119.0542
 70
192
 0
VERTEX
 8
PANNELLO_FRONTALE
 10
-35.6384
 20
-0.0599
 30
103.7042
 70
192
 0
VERTEX
 8
PANNELLO_FRONTALE
 10
-35.6384
 20
0.52
 30
148.1042
 70
192
 0
VERTEX
 8
PANNELLO_FRONTALE
 10
-35.6384
 20
-0.0599
 30
148.1042
 70
192
 0
VERTEX
 8
PANNELLO_FRONTALE
 10
-35.6384
 20
0.52
 30
103.7042
 70
192
 0
VERTEX
 8
PANNELLO_FRONTALE
 10
-35.6384
 20
0.0634
 30
142.3041
 70
192
 0
VERTEX
 8
PANNELLO_FRONTALE
 10
-35.6384
 20
0.0634
 30
141.3541
 70
192
 0
VERTEX
 8
PANNELLO_FRONTALE
 10
-35.6384
 20
0.52
 30
119.0542
 70
192
 0
VERTEX
 8
PANNELLO_FRONTALE
 10
-35.6384
 20
0.52
 30
141.3541
 70
192
 0
VERTEX
 8
PANNELLO_FRONTALE
 10
-35.6384
 20
0.52
 30
142.4242
 70
192
 0
VERTEX
 8
PANNELLO_FRONTALE
 10
-35.6384
 20
-0.0599
 30
142.4242
 70
192
 0
VERTEX
 8
PANNELLO_FRONTALE
 10
-35.6384
 20
0.52
 30
142.3041
 70
192
 0
VERTEX
 8
PANNELLO_FRONTALE
 10
-35.7584
 20
-0.0599
 30
119.0542
 70
192
 0
VERTEX
 8
PANNELLO_FRONTALE
 10
-35.7584
 20
-0.0599
 30
103.7042
 70
192
 0
VERTEX
 8
PANNELLO_FRONTALE
 10
-35.7584
 20
0.52
 30
148.1042
 70
192
 0
VERTEX
 8
PANNELLO_FRONTALE
 10
-35.7584
 20
-0.0599
 30
148.1042
 70
192
 0
VERTEX
 8
PANNELLO_FRONTALE
 10
-35.7584
 20
0.52
 30
103.7042
 70
192
 0
VERTEX
 8
PANNELLO_FRONTALE
 10
-35.7584
 20
-0.0599
 30
142.3041
 70
192
 0
VERTEX
 8
PANNELLO_FRONTALE
 10
-35.7584
 20
-0.0599
 30
141.3541
 70
192
 0
VERTEX
 8
PANNELLO_FRONTALE
 10
-35.7584
 20
0.52
 30
119.0542
 70
192
 0
VERTEX
 8
PANNELLO_FRONTALE
 10
-35.7584
 20
0.52
 30
141.3541
 70
192
 0
VERTEX
 8
PANNELLO_FRONTALE
 10
-35.7584
 20
-0.0599
 30
142.4242
 70
192
 0
VERTEX
 8
PANNELLO_FRONTALE
 10
-35.7584
 20
0.52
 30
142.3041
 70
192
 0
VERTEX
 8
PANNELLO_FRONTALE
 10
-35.7584
 20
0.52
 30
142.4242
 70
192
 0
VERTEX
 8
PANNELLO_FRONTALE
 10
-37.5001
 20
-0.0599
 30
118.3044
 70
192
 0
VERTEX
 8
PANNELLO_FRONTALE
 10
-35.7584
 20
-0.0599
 30
118.3044
 70
192
 0
VERTEX
 8
PANNELLO_FRONTALE
 10
37.505
 20
-0.0599
 30
118.3044
 70
192
 0
VERTEX
 8
PANNELLO_FRONTALE
 10
37.505
 20
0.52
 30
118.3044
 70
192
 0
VERTEX
 8
PANNELLO_FRONTALE
 10
35.4831
 20
0.52
 30
118.3044
 70
192
 0
VERTEX
 8
PANNELLO_FRONTALE
 10
-37.5001
 20
0.52
 30
118.3044
 70
192
 0
VERTEX
 8
PANNELLO_FRONTALE
 10
-35.6384
 20
0.0634
 30
118.3044
 70
192
 0
VERTEX
 8
PANNELLO_FRONTALE
 10
26.25
 20
0.0634
 30
118.3044
 70
192
 0
VERTEX
 8
PANNELLO_FRONTALE
 10
-26.25
 20
0.0634
 30
118.3044
 70
192
 0
VERTEX
 8
PANNELLO_FRONTALE
 10
26.25
 20
0.52
 30
118.3044
 70
192
 0
VERTEX
 8
PANNELLO_FRONTALE
 10
-26.25
 20
0.52
 30
118.3044
 70
192
 0
VERTEX
 8
PANNELLO_FRONTALE
 10
35.4831
 20
-0.0599
 30
118.3044
 70
192
 0
VERTEX
 8
PANNELLO_FRONTALE
 10
-35.7584
 20
0.52
 30
118.3044
 70
192
 0
VERTEX
 8
PANNELLO_FRONTALE
 10
35.3633
 20
0.52
 30
118.3044
 70
192
 0
VERTEX
 8
PANNELLO_FRONTALE
 10
35.3633
 20
0.0634
 30
118.3044
 70
192
 0
VERTEX
 8
PANNELLO_FRONTALE
 10
-35.6384
 20
0.52
 30
118.3044
 70
192
 0
VERTEX
 8
PANNELLO_FRONTALE
 10
-37.5001
 20
-0.0599
 30
118.1843
 70
192
 0
VERTEX
 8
PANNELLO_FRONTALE
 10
-35.7584
 20
-0.0599
 30
118.1843
 70
192
 0
VERTEX
 8
PANNELLO_FRONTALE
 10
37.505
 20
-0.0599
 30
118.1843
 70
192
 0
VERTEX
 8
PANNELLO_FRONTALE
 10
37.505
 20
0.52
 30
118.1843
 70
192
 0
VERTEX
 8
PANNELLO_FRONTALE
 10
35.4831
 20
0.52
 30
118.1843
 70
192
 0
VERTEX
 8
PANNELLO_FRONTALE
 10
-37.5001
 20
0.52
 30
118.1843
 70
192
 0
VERTEX
 8
PANNELLO_FRONTALE
 10
26.25
 20
0.52
 30
118.1843
 70
192
 0
VERTEX
 8
PANNELLO_FRONTALE
 10
-26.25
 20
0.52
 30
118.1843
 70
192
 0
VERTEX
 8
PANNELLO_FRONTALE
 10
0
 20
0
 30
0
 70
128
 71
1
 72
113
 73
114
 74
86
 0
VERTEX
 8
PANNELLO_FRONTALE
 10
0
 20
0
 30
0
 70
128
 71
3
 72
115
 73
116
 74
5
 0
VERTEX
 8
PANNELLO_FRONTALE
 10
0
 20
0
 30
0
 70
128
 71
5
 72
116
 73
117
 74
34
 0
VERTEX
 8
PANNELLO_FRONTALE
 10
0
 20
0
 30
0
 70
128
 71
7
 72
118
 73
113
 74
1
 0
VERTEX
 8
PANNELLO_FRONTALE
 10
0
 20
0
 30
0
 70
128
 71
2
 72
8
 73
87
 74
88
 0
VERTEX
 8
PANNELLO_FRONTALE
 10
0
 20
0
 30
0
 70
128
 71
7
 72
1
 73
86
 74
89
 0
VERTEX
 8
PANNELLO_FRONTALE
 10
0
 20
0
 30
0
 70
128
 71
9
 72
41
 73
49
 74
50
 0
VERTEX
 8
PANNELLO_FRONTALE
 10
0
 20
0
 30
0
 70
128
 71
11
 72
21
 73
51
 74
52
 0
VERTEX
 8
PANNELLO_FRONTALE
 10
0
 20
0
 30
0
 70
128
 71
11
 72
43
 73
41
 74
9
 0
VERTEX
 8
PANNELLO_FRONTALE
 10
0
 20
0
 30
0
 70
128
 71
10
 72
44
 73
45
 74
12
 0
VERTEX
 8
PANNELLO_FRONTALE
 10
0
 20
0
 30
0
 70
128
 71
13
 72
61
 73
90
 74
91
 0
VERTEX
 8
PANNELLO_FRONTALE
 10
0
 20
0
 30
0
 70
128
 71
15
 72
63
 73
64
 74
16
 0
VERTEX
 8
PANNELLO_FRONTALE
 10
0
 20
0
 30
0
 70
128
 71
16
 72
64
 73
65
 74
39
 0
VERTEX
 8
PANNELLO_FRONTALE
 10
0
 20
0
 30
0
 70
128
 71
18
 72
66
 73
61
 74
13
 0
VERTEX
 8
PANNELLO_FRONTALE
 10
0
 20
0
 30
0
 70
128
 71
15
 72
27
 73
40
 74
36
 0
VERTEX
 8
PANNELLO_FRONTALE
 10
0
 20
0
 30
0
 70
128
 71
18
 72
30
 73
92
 74
93
 0
VERTEX
 8
PANNELLO_FRONTALE
 10
0
 20
0
 30
0
 70
128
 71
71
 72
67
 73
49
 74
49
 0
VERTEX
 8
PANNELLO_FRONTALE
 10
0
 20
0
 30
0
 70
128
 71
21
 72
11
 73
9
 74
22
 0
VERTEX
 8
PANNELLO_FRONTALE
 10
0
 20
0
 30
0
 70
128
 71
20
 72
10
 73
12
 74
23
 0
VERTEX
 8
PANNELLO_FRONTALE
 10
0
 20
0
 30
0
 70
128
 71
21
 72
75
 73
82
 74
51
 0
VERTEX
 8
PANNELLO_FRONTALE
 10
0
 20
0
 30
0
 70
128
 71
22
 72
9
 73
50
 74
54
 0
VERTEX
 8
PANNELLO_FRONTALE
 10
0
 20
0
 30
0
 70
128
 71
23
 72
12
 73
119
 74
120
 0
VERTEX
 8
PANNELLO_FRONTALE
 10
0
 20
0
 30
0
 70
128
 71
25
 72
13
 73
91
 74
85
 0
VERTEX
 8
PANNELLO_FRONTALE
 10
0
 20
0
 30
0
 70
128
 71
27
 72
15
 73
16
 74
28
 0
VERTEX
 8
PANNELLO_FRONTALE
 10
0
 20
0
 30
0
 70
128
 71
28
 72
16
 73
39
 74
33
 0
VERTEX
 8
PANNELLO_FRONTALE
 10
0
 20
0
 30
0
 70
128
 71
30
 72
18
 73
13
 74
25
 0
VERTEX
 8
PANNELLO_FRONTALE
 10
0
 20
0
 30
0
 70
128
 71
27
 72
99
 73
108
 74
40
 0
VERTEX
 8
PANNELLO_FRONTALE
 10
0
 20
0
 30
0
 70
128
 71
30
 72
102
 73
109
 74
92
 0
VERTEX
 8
PANNELLO_FRONTALE
 10
0
 20
0
 30
0
 70
128
 71
32
 72
111
 73
108
 74
108
 0
VERTEX
 8
PANNELLO_FRONTALE
 10
0
 20
0
 30
0
 70
128
 71
17
 72
114
 73
98
 74
98
 0
VERTEX
 8
PANNELLO_FRONTALE
 10
0
 20
0
 30
0
 70
128
 71
83
 72
78
 73
90
 74
90
 0
VERTEX
 8
PANNELLO_FRONTALE
 10
0
 20
0
 30
0
 70
128
 71
14
 72
20
 73
74
 74
17
 0
VERTEX
 8
PANNELLO_FRONTALE
 10
0
 20
0
 30
0
 70
128
 71
33
 72
46
 73
110
 74
101
 0
VERTEX
 8
PANNELLO_FRONTALE
 10
0
 20
0
 30
0
 70
128
 71
35
 72
4
 73
55
 74
59
 0
VERTEX
 8
PANNELLO_FRONTALE
 10
0
 20
0
 30
0
 70
128
 71
37
 72
6
 73
4
 74
35
 0
VERTEX
 8
PANNELLO_FRONTALE
 10
0
 20
0
 30
0
 70
128
 71
38
 72
3
 73
5
 74
34
 0
VERTEX
 8
PANNELLO_FRONTALE
 10
0
 20
0
 30
0
 70
128
 71
37
 72
43
 73
60
 74
57
 0
VERTEX
 8
PANNELLO_FRONTALE
 10
0
 20
0
 30
0
 70
128
 71
40
 72
48
 73
42
 74
36
 0
VERTEX
 8
PANNELLO_FRONTALE
 10
0
 20
0
 30
0
 70
128
 71
39
 72
47
 73
46
 74
33
 0
VERTEX
 8
PANNELLO_FRONTALE
 10
0
 20
0
 30
0
 70
128
 71
38
 72
44
 73
32
 74
31
 0
VERTEX
 8
PANNELLO_FRONTALE
 10
0
 20
0
 30
0
 70
128
 71
41
 72
35
 73
59
 74
49
 0
VERTEX
 8
PANNELLO_FRONTALE
 10
0
 20
0
 30
0
 70
128
 71
43
 72
37
 73
35
 74
41
 0
VERTEX
 8
PANNELLO_FRONTALE
 10
0
 20
0
 30
0
 70
128
 71
44
 72
38
 73
34
 74
45
 0
VERTEX
 8
PANNELLO_FRONTALE
 10
0
 20
0
 30
0
 70
128
 71
29
 72
45
 73
34
 74
117
 0
VERTEX
 8
PANNELLO_FRONTALE
 10
0
 20
0
 30
0
 70
128
 71
43
 72
11
 73
52
 74
60
 0
VERTEX
 8
PANNELLO_FRONTALE
 10
0
 20
0
 30
0
 70
128
 71
118
 72
7
 73
89
 74
19
 0
VERTEX
 8
PANNELLO_FRONTALE
 10
0
 20
0
 30
0
 70
128
 71
115
 72
3
 73
38
 74
31
 0
VERTEX
 8
PANNELLO_FRONTALE
 10
0
 20
0
 30
0
 70
128
 71
44
 72
10
 73
26
 74
32
 0
VERTEX
 8
PANNELLO_FRONTALE
 10
0
 20
0
 30
0
 70
128
 71
49
 72
67
 73
68
 74
50
 0
VERTEX
 8
PANNELLO_FRONTALE
 10
0
 20
0
 30
0
 70
128
 71
51
 72
69
 73
70
 74
52
 0
VERTEX
 8
PANNELLO_FRONTALE
 10
0
 20
0
 30
0
 70
128
 71
53
 72
2
 73
88
 74
94
 0
VERTEX
 8
PANNELLO_FRONTALE
 10
0
 20
0
 30
0
 70
128
 71
55
 72
4
 73
6
 74
56
 0
VERTEX
 8
PANNELLO_FRONTALE
 10
0
 20
0
 30
0
 70
128
 71
56
 72
6
 73
37
 74
57
 0
VERTEX
 8
PANNELLO_FRONTALE
 10
0
 20
0
 30
0
 70
128
 71
58
 72
8
 73
2
 74
53
 0
VERTEX
 8
PANNELLO_FRONTALE
 10
0
 20
0
 30
0
 70
128
 71
58
 72
66
 73
95
 74
96
 0
VERTEX
 8
PANNELLO_FRONTALE
 10
0
 20
0
 30
0
 70
128
 71
50
 72
68
 73
62
 74
54
 0
VERTEX
 8
PANNELLO_FRONTALE
 10
0
 20
0
 30
0
 70
128
 71
55
 72
63
 73
71
 74
59
 0
VERTEX
 8
PANNELLO_FRONTALE
 10
0
 20
0
 30
0
 70
128
 71
60
 72
72
 73
65
 74
57
 0
VERTEX
 8
PANNELLO_FRONTALE
 10
0
 20
0
 30
0
 70
128
 71
59
 72
71
 73
49
 74
49
 0
VERTEX
 8
PANNELLO_FRONTALE
 10
0
 20
0
 30
0
 70
128
 71
52
 72
70
 73
72
 74
60
 0
VERTEX
 8
PANNELLO_FRONTALE
 10
0
 20
0
 30
0
 70
128
 71
61
 72
53
 73
94
 74
90
 0
VERTEX
 8
PANNELLO_FRONTALE
 10
0
 20
0
 30
0
 70
128
 71
63
 72
55
 73
56
 74
64
 0
VERTEX
 8
PANNELLO_FRONTALE
 10
0
 20
0
 30
0
 70
128
 71
64
 72
56
 73
57
 74
65
 0
VERTEX
 8
PANNELLO_FRONTALE
 10
0
 20
0
 30
0
 70
128
 71
66
 72
58
 73
53
 74
61
 0
VERTEX
 8
PANNELLO_FRONTALE
 10
0
 20
0
 30
0
 70
128
 71
26
 72
10
 73
20
 74
14
 0
VERTEX
 8
PANNELLO_FRONTALE
 10
0
 20
0
 30
0
 70
128
 71
17
 72
74
 73
86
 74
114
 0
VERTEX
 8
PANNELLO_FRONTALE
 10
0
 20
0
 30
0
 70
128
 71
66
 72
18
 73
93
 74
95
 0
VERTEX
 8
PANNELLO_FRONTALE
 10
0
 20
0
 30
0
 70
128
 71
24
 72
112
 73
109
 74
19
 0
VERTEX
 8
PANNELLO_FRONTALE
 10
0
 20
0
 30
0
 70
128
 71
63
 72
15
 73
36
 74
71
 0
VERTEX
 8
PANNELLO_FRONTALE
 10
0
 20
0
 30
0
 70
128
 71
72
 72
47
 73
39
 74
65
 0
VERTEX
 8
PANNELLO_FRONTALE
 10
0
 20
0
 30
0
 70
128
 71
71
 72
36
 73
42
 74
67
 0
VERTEX
 8
PANNELLO_FRONTALE
 10
0
 20
0
 30
0
 70
128
 71
120
 72
107
 73
112
 74
24
 0
VERTEX
 8
PANNELLO_FRONTALE
 10
0
 20
0
 30
0
 70
128
 71
26
 72
104
 73
111
 74
32
 0
VERTEX
 8
PANNELLO_FRONTALE
 10
0
 20
0
 30
0
 70
128
 71
75
 72
21
 73
22
 74
76
 0
VERTEX
 8
PANNELLO_FRONTALE
 10
0
 20
0
 30
0
 70
128
 71
74
 72
20
 73
23
 74
77
 0
VERTEX
 8
PANNELLO_FRONTALE
 10
0
 20
0
 30
0
 70
128
 71
119
 72
12
 73
45
 74
29
 0
VERTEX
 8
PANNELLO_FRONTALE
 10
0
 20
0
 30
0
 70
128
 71
32
 72
108
 73
31
 74
31
 0
VERTEX
 8
PANNELLO_FRONTALE
 10
0
 20
0
 30
0
 70
128
 71
75
 72
87
 73
96
 74
82
 0
VERTEX
 8
PANNELLO_FRONTALE
 10
0
 20
0
 30
0
 70
128
 71
119
 72
106
 73
107
 74
120
 0
VERTEX
 8
PANNELLO_FRONTALE
 10
0
 20
0
 30
0
 70
128
 71
77
 72
23
 73
120
 74
24
 0
VERTEX
 8
PANNELLO_FRONTALE
 10
0
 20
0
 30
0
 70
128
 71
76
 72
22
 73
54
 74
83
 0
VERTEX
 8
PANNELLO_FRONTALE
 10
0
 20
0
 30
0
 70
128
 71
84
 72
69
 73
51
 74
82
 0
VERTEX
 8
PANNELLO_FRONTALE
 10
0
 20
0
 30
0
 70
128
 71
83
 72
54
 73
62
 74
78
 0
VERTEX
 8
PANNELLO_FRONTALE
 10
0
 20
0
 30
0
 70
128
 71
118
 72
102
 73
97
 74
113
 0
VERTEX
 8
PANNELLO_FRONTALE
 10
0
 20
0
 30
0
 70
128
 71
85
 72
73
 73
103
 74
98
 0
VERTEX
 8
PANNELLO_FRONTALE
 10
0
 20
0
 30
0
 70
128
 71
87
 72
75
 73
76
 74
88
 0
VERTEX
 8
PANNELLO_FRONTALE
 10
0
 20
0
 30
0
 70
128
 71
86
 72
74
 73
77
 74
89
 0
VERTEX
 8
PANNELLO_FRONTALE
 10
0
 20
0
 30
0
 70
128
 71
90
 72
78
 73
79
 74
91
 0
VERTEX
 8
PANNELLO_FRONTALE
 10
0
 20
0
 30
0
 70
128
 71
92
 72
80
 73
81
 74
93
 0
VERTEX
 8
PANNELLO_FRONTALE
 10
0
 20
0
 30
0
 70
128
 71
91
 72
79
 73
73
 74
85
 0
VERTEX
 8
PANNELLO_FRONTALE
 10
0
 20
0
 30
0
 70
128
 71
89
 72
77
 73
24
 74
19
 0
VERTEX
 8
PANNELLO_FRONTALE
 10
0
 20
0
 30
0
 70
128
 71
88
 72
76
 73
83
 74
94
 0
VERTEX
 8
PANNELLO_FRONTALE
 10
0
 20
0
 30
0
 70
128
 71
95
 72
84
 73
82
 74
96
 0
VERTEX
 8
PANNELLO_FRONTALE
 10
0
 20
0
 30
0
 70
128
 71
94
 72
83
 73
90
 74
90
 0
VERTEX
 8
PANNELLO_FRONTALE
 10
0
 20
0
 30
0
 70
128
 71
93
 72
81
 73
84
 74
95
 0
VERTEX
 8
PANNELLO_FRONTALE
 10
0
 20
0
 30
0
 70
128
 71
87
 72
8
 73
58
 74
96
 0
VERTEX
 8
PANNELLO_FRONTALE
 10
0
 20
0
 30
0
 70
128
 71
97
 72
25
 73
85
 74
98
 0
VERTEX
 8
PANNELLO_FRONTALE
 10
0
 20
0
 30
0
 70
128
 71
99
 72
27
 73
28
 74
100
 0
VERTEX
 8
PANNELLO_FRONTALE
 10
0
 20
0
 30
0
 70
128
 71
100
 72
28
 73
33
 74
101
 0
VERTEX
 8
PANNELLO_FRONTALE
 10
0
 20
0
 30
0
 70
128
 71
102
 72
30
 73
25
 74
97
 0
VERTEX
 8
PANNELLO_FRONTALE
 10
0
 20
0
 30
0
 70
128
 71
103
 72
17
 73
98
 74
98
 0
VERTEX
 8
PANNELLO_FRONTALE
 10
0
 20
0
 30
0
 70
128
 71
104
 72
26
 73
14
 74
105
 0
VERTEX
 8
PANNELLO_FRONTALE
 10
0
 20
0
 30
0
 70
128
 71
116
 72
100
 73
101
 74
117
 0
VERTEX
 8
PANNELLO_FRONTALE
 10
0
 20
0
 30
0
 70
128
 71
99
 72
115
 73
31
 74
108
 0
VERTEX
 8
PANNELLO_FRONTALE
 10
0
 20
0
 30
0
 70
128
 71
102
 72
118
 73
19
 74
109
 0
VERTEX
 8
PANNELLO_FRONTALE
 10
0
 20
0
 30
0
 70
128
 71
110
 72
29
 73
117
 74
101
 0
VERTEX
 8
PANNELLO_FRONTALE
 10
0
 20
0
 30
0
 70
128
 71
111
 72
48
 73
40
 74
108
 0
VERTEX
 8
PANNELLO_FRONTALE
 10
0
 20
0
 30
0
 70
128
 71
106
 72
119
 73
29
 74
110
 0
VERTEX
 8
PANNELLO_FRONTALE
 10
0
 20
0
 30
0
 70
128
 71
115
 72
99
 73
100
 74
116
 0
VERTEX
 8
PANNELLO_FRONTALE
 10
0
 20
0
 30
0
 70
128
 71
105
 72
14
 73
17
 74
103
 0
VERTEX
 8
PANNELLO_FRONTALE
 10
0
 20
0
 30
0
 70
128
 71
113
 72
97
 73
98
 74
114
 0
VERTEX
 8
PANNELLO_FRONTALE
 10
0
 20
0
 30
0
 70
128
 71
112
 72
80
 73
92
 74
109
 0
VERTEX
 8
PANNELLO_FRONTALE
 10
0
 20
0
 30
0
 70
128
 71
80
 72
112
 73
103
 74
73
 0
VERTEX
 8
PANNELLO_FRONTALE
 10
0
 20
0
 30
0
 70
128
 71
81
 72
80
 73
73
 74
79
 0
VERTEX
 8
PANNELLO_FRONTALE
 10
0
 20
0
 30
0
 70
128
 71
112
 72
107
 73
105
 74
103
 0
VERTEX
 8
PANNELLO_FRONTALE
 10
0
 20
0
 30
0
 70
128
 71
107
 72
106
 73
104
 74
105
 0
VERTEX
 8
PANNELLO_FRONTALE
 10
0
 20
0
 30
0
 70
128
 71
106
 72
110
 73
111
 74
104
 0
VERTEX
 8
PANNELLO_FRONTALE
 10
0
 20
0
 30
0
 70
128
 71
110
 72
46
 73
48
 74
111
 0
VERTEX
 8
PANNELLO_FRONTALE
 10
0
 20
0
 30
0
 70
128
 71
46
 72
47
 73
42
 74
48
 0
VERTEX
 8
PANNELLO_FRONTALE
 10
0
 20
0
 30
0
 70
128
 71
47
 72
72
 73
67
 74
42
 0
VERTEX
 8
PANNELLO_FRONTALE
 10
0
 20
0
 30
0
 70
128
 71
68
 72
67
 73
72
 74
70
 0
VERTEX
 8
PANNELLO_FRONTALE
 10
0
 20
0
 30
0
 70
128
 71
62
 72
68
 73
70
 74
69
 0
VERTEX
 8
PANNELLO_FRONTALE
 10
0
 20
0
 30
0
 70
128
 71
78
 72
62
 73
69
 74
84
 0
VERTEX
 8
PANNELLO_FRONTALE
 10
0
 20
0
 30
0
 70
128
 71
84
 72
81
 73
79
 74
78
 0
SEQEND
 0
POLYLINE
 8
PANNELLO_FRONTALE_1
 66
1
 10
0.0
 20
0.0
 30
0.0
 70
64
 71
32
 72
32
 0
VERTEX
 8
PANNELLO_FRONTALE_1
 10
26.25
 20
0.0635
 30
141.3541
 70
192
 0
VERTEX
 8
PANNELLO_FRONTALE_1
 10
26.25
 20
0.5202
 30
141.3541
 70
192
 0
VERTEX
 8
PANNELLO_FRONTALE_1
 10
-26.25
 20
0.0635
 30
141.3541
 70
192
 0
VERTEX
 8
PANNELLO_FRONTALE_1
 10
-26.25
 20
0.5202
 30
141.3541
 70
192
 0
VERTEX
 8
PANNELLO_FRONTALE_1
 10
-26.25
 20
0.0635
 30
119.0542
 70
192
 0
VERTEX
 8
PANNELLO_FRONTALE_1
 10
26.25
 20
0.5202
 30
119.0542
 70
192
 0
VERTEX
 8
PANNELLO_FRONTALE_1
 10
26.25
 20
0.0635
 30
119.0542
 70
192
 0
VERTEX
 8
PANNELLO_FRONTALE_1
 10
-26.25
 20
0.5202
 30
119.0542
 70
192
 0
VERTEX
 8
PANNELLO_FRONTALE_1
 10
35.3633
 20
0.0635
 30
141.3541
 70
192
 0
VERTEX
 8
PANNELLO_FRONTALE_1
 10
35.3633
 20
0.5202
 30
119.0542
 70
192
 0
VERTEX
 8
PANNELLO_FRONTALE_1
 10
35.3633
 20
0.5202
 30
141.3541
 70
192
 0
VERTEX
 8
PANNELLO_FRONTALE_1
 10
35.3633
 20
0.0635
 30
119.0542
 70
192
 0
VERTEX
 8
PANNELLO_FRONTALE_1
 10
-26.25
 20
0.0635
 30
142.3041
 70
192
 0
VERTEX
 8
PANNELLO_FRONTALE_1
 10
35.3633
 20
0.0635
 30
142.3041
 70
192
 0
VERTEX
 8
PANNELLO_FRONTALE_1
 10
26.25
 20
0.0635
 30
142.3041
 70
192
 0
VERTEX
 8
PANNELLO_FRONTALE_1
 10
-26.25
 20
0.5202
 30
142.3041
 70
192
 0
VERTEX
 8
PANNELLO_FRONTALE_1
 10
26.25
 20
0.5202
 30
142.3041
 70
192
 0
VERTEX
 8
PANNELLO_FRONTALE_1
 10
35.3633
 20
0.5202
 30
142.3041
 70
192
 0
VERTEX
 8
PANNELLO_FRONTALE_1
 10
-35.6384
 20
0.0635
 30
119.0542
 70
192
 0
VERTEX
 8
PANNELLO_FRONTALE_1
 10
-35.6384
 20
0.0635
 30
142.3041
 70
192
 0
VERTEX
 8
PANNELLO_FRONTALE_1
 10
-35.6384
 20
0.0635
 30
141.3541
 70
192
 0
VERTEX
 8
PANNELLO_FRONTALE_1
 10
-35.6384
 20
0.5202
 30
119.0542
 70
192
 0
VERTEX
 8
PANNELLO_FRONTALE_1
 10
-35.6384
 20
0.5202
 30
141.3541
 70
192
 0
VERTEX
 8
PANNELLO_FRONTALE_1
 10
-35.6384
 20
0.5202
 30
142.3041
 70
192
 0
VERTEX
 8
PANNELLO_FRONTALE_1
 10
-35.6384
 20
0.0635
 30
118.3044
 70
192
 0
VERTEX
 8
PANNELLO_FRONTALE_1
 10
26.25
 20
0.0635
 30
118.3044
 70
192
 0
VERTEX
 8
PANNELLO_FRONTALE_1
 10
-26.25
 20
0.0635
 30
118.3044
 70
192
 0
VERTEX
 8
PANNELLO_FRONTALE_1
 10
26.25
 20
0.5202
 30
118.3044
 70
192
 0
VERTEX
 8
PANNELLO_FRONTALE_1
 10
-26.25
 20
0.5202
 30
118.3044
 70
192
 0
VERTEX
 8
PANNELLO_FRONTALE_1
 10
35.3633
 20
0.5202
 30
118.3044
 70
192
 0
VERTEX
 8
PANNELLO_FRONTALE_1
 10
35.3633
 20
0.0635
 30
118.3044
 70
192
 0
VERTEX
 8
PANNELLO_FRONTALE_1
 10
-35.6384
 20
0.5202
 30
118.3044
 70
192
 0
VERTEX
 8
PANNELLO_FRONTALE_1
 10
0
 20
0
 30
0
 70
128
 71
7
 72
26
 73
27
 74
5
 0
VERTEX
 8
PANNELLO_FRONTALE_1
 10
0
 20
0
 30
0
 70
128
 71
5
 72
3
 73
4
 74
8
 0
VERTEX
 8
PANNELLO_FRONTALE_1
 10
0
 20
0
 30
0
 70
128
 71
7
 72
5
 73
8
 74
6
 0
VERTEX
 8
PANNELLO_FRONTALE_1
 10
0
 20
0
 30
0
 70
128
 71
2
 72
4
 73
3
 74
1
 0
VERTEX
 8
PANNELLO_FRONTALE_1
 10
0
 20
0
 30
0
 70
128
 71
6
 72
2
 73
1
 74
7
 0
VERTEX
 8
PANNELLO_FRONTALE_1
 10
0
 20
0
 30
0
 70
128
 71
10
 72
6
 73
28
 74
30
 0
VERTEX
 8
PANNELLO_FRONTALE_1
 10
0
 20
0
 30
0
 70
128
 71
12
 72
7
 73
1
 74
9
 0
VERTEX
 8
PANNELLO_FRONTALE_1
 10
0
 20
0
 30
0
 70
128
 71
11
 72
2
 73
6
 74
10
 0
VERTEX
 8
PANNELLO_FRONTALE_1
 10
0
 20
0
 30
0
 70
128
 71
14
 72
9
 73
1
 74
15
 0
VERTEX
 8
PANNELLO_FRONTALE_1
 10
0
 20
0
 30
0
 70
128
 71
16
 72
4
 73
2
 74
17
 0
VERTEX
 8
PANNELLO_FRONTALE_1
 10
0
 20
0
 30
0
 70
128
 71
15
 72
1
 73
3
 74
13
 0
VERTEX
 8
PANNELLO_FRONTALE_1
 10
0
 20
0
 30
0
 70
128
 71
17
 72
2
 73
11
 74
18
 0
VERTEX
 8
PANNELLO_FRONTALE_1
 10
0
 20
0
 30
0
 70
128
 71
19
 72
5
 73
27
 74
25
 0
VERTEX
 8
PANNELLO_FRONTALE_1
 10
0
 20
0
 30
0
 70
128
 71
20
 72
13
 73
3
 74
21
 0
VERTEX
 8
PANNELLO_FRONTALE_1
 10
0
 20
0
 30
0
 70
128
 71
22
 72
8
 73
4
 74
23
 0
VERTEX
 8
PANNELLO_FRONTALE_1
 10
0
 20
0
 30
0
 70
128
 71
21
 72
3
 73
5
 74
19
 0
VERTEX
 8
PANNELLO_FRONTALE_1
 10
0
 20
0
 30
0
 70
128
 71
23
 72
4
 73
16
 74
24
 0
VERTEX
 8
PANNELLO_FRONTALE_1
 10
0
 20
0
 30
0
 70
128
 71
28
 72
6
 73
8
 74
29
 0
VERTEX
 8
PANNELLO_FRONTALE_1
 10
0
 20
0
 30
0
 70
128
 71
26
 72
7
 73
12
 74
31
 0
VERTEX
 8
PANNELLO_FRONTALE_1
 10
0
 20
0
 30
0
 70
128
 71
29
 72
8
 73
22
 74
32
 0
VERTEX
 8
PANNELLO_FRONTALE_1
 10
0
 20
0
 30
0
 70
128
 71
18
 72
11
 73
9
 74
14
 0
VERTEX
 8
PANNELLO_FRONTALE_1
 10
0
 20
0
 30
0
 70
128
 71
17
 72
18
 73
14
 74
15
 0
VERTEX
 8
PANNELLO_FRONTALE_1
 10
0
 20
0
 30
0
 70
128
 71
11
 72
10
 73
12
 74
9
 0
VERTEX
 8
PANNELLO_FRONTALE_1
 10
0
 20
0
 30
0
 70
128
 71
10
 72
30
 73
31
 74
12
 0
VERTEX
 8
PANNELLO_FRONTALE_1
 10
0
 20
0
 30
0
 70
128
 71
30
 72
28
 73
26
 74
31
 0
VERTEX
 8
PANNELLO_FRONTALE_1
 10
0
 20
0
 30
0
 70
128
 71
29
 72
32
 73
25
 74
27
 0
VERTEX
 8
PANNELLO_FRONTALE_1
 10
0
 20
0
 30
0
 70
128
 71
28
 72
29
 73
27
 74
26
 0
VERTEX
 8
PANNELLO_FRONTALE_1
 10
0
 20
0
 30
0
 70
128
 71
19
 72
25
 73
32
 74
22
 0
VERTEX
 8
PANNELLO_FRONTALE_1
 10
0
 20
0
 30
0
 70
128
 71
21
 72
19
 73
22
 74
23
 0
VERTEX
 8
PANNELLO_FRONTALE_1
 10
0
 20
0
 30
0
 70
128
 71
20
 72
21
 73
23
 74
24
 0
VERTEX
 8
PANNELLO_FRONTALE_1
 10
0
 20
0
 30
0
 70
128
 71
13
 72
20
 73
24
 74
16
 0
VERTEX
 8
PANNELLO_FRONTALE_1
 10
0
 20
0
 30
0
 70
128
 71
15
 72
13
 73
16
 74
17
 0
SEQEND
 0
POLYLINE
 8
VETRO
 66
1
 10
0.0
 20
0.0
 30
0.0
 70
64
 71
8
 72
6
 0
VERTEX
 8
VETRO
 10
26.25
 20
0.0636
 30
141.3541
 70
192
 0
VERTEX
 8
VETRO
 10
26.25
 20
0.5202
 30
141.3541
 70
192
 0
VERTEX
 8
VETRO
 10
-26.25
 20
0.0636
 30
141.3541
 70
192
 0
VERTEX
 8
VETRO
 10
-26.25
 20
0.5202
 30
141.3541
 70
192
 0
VERTEX
 8
VETRO
 10
-26.25
 20
0.0636
 30
119.0542
 70
192
 0
VERTEX
 8
VETRO
 10
26.25
 20
0.5202
 30
119.0542
 70
192
 0
VERTEX
 8
VETRO
 10
26.25
 20
0.0636
 30
119.0542
 70
192
 0
VERTEX
 8
VETRO
 10
-26.25
 20
0.5202
 30
119.0542
 70
192
 0
VERTEX
 8
VETRO
 10
0
 20
0
 30
0
 70
128
 71
3
 72
1
 73
7
 74
5
 0
VERTEX
 8
VETRO
 10
0
 20
0
 30
0
 70
128
 71
6
 72
2
 73
4
 74
8
 0
VERTEX
 8
VETRO
 10
0
 20
0
 30
0
 70
128
 71
2
 72
6
 73
7
 74
1
 0
VERTEX
 8
VETRO
 10
0
 20
0
 30
0
 70
128
 71
4
 72
2
 73
1
 74
3
 0
VERTEX
 8
VETRO
 10
0
 20
0
 30
0
 70
128
 71
6
 72
8
 73
5
 74
7
 0
VERTEX
 8
VETRO
 10
0
 20
0
 30
0
 70
128
 71
8
 72
4
 73
3
 74
5
 0
SEQEND
 0
POLYLINE
 8
PANNELLO_DISPALY
 66
1
 10
0.0
 20
0.0
 30
0.0
 70
64
 71
36
 72
36
 0
VERTEX
 8
PANNELLO_DISPALY
 10
-37.5
 20
-0.1398
 30
149.0141
 70
192
 0
VERTEX
 8
PANNELLO_DISPALY
 10
-37.5
 20
-0.1398
 30
160.5141
 70
192
 0
VERTEX
 8
PANNELLO_DISPALY
 10
37.555
 20
-0.1398
 30
149.0141
 70
192
 0
VERTEX
 8
PANNELLO_DISPALY
 10
37.555
 20
-0.1398
 30
160.5141
 70
192
 0
VERTEX
 8
PANNELLO_DISPALY
 10
37.555
 20
0.3502
 30
149.0141
 70
192
 0
VERTEX
 8
PANNELLO_DISPALY
 10
37.555
 20
0.3502
 30
160.5141
 70
192
 0
VERTEX
 8
PANNELLO_DISPALY
 10
-37.5
 20
0.3502
 30
149.0141
 70
192
 0
VERTEX
 8
PANNELLO_DISPALY
 10
-37.5
 20
0.3502
 30
160.5141
 70
192
 0
VERTEX
 8
PANNELLO_DISPALY
 10
-21.684
 20
-0.1398
 30
160.5141
 70
192
 0
VERTEX
 8
PANNELLO_DISPALY
 10
-21.684
 20
-0.1398
 30
149.0141
 70
192
 0
VERTEX
 8
PANNELLO_DISPALY
 10
-21.564
 20
0.3502
 30
160.5141
 70
192
 0
VERTEX
 8
PANNELLO_DISPALY
 10
-21.564
 20
0.3502
 30
149.0141
 70
192
 0
VERTEX
 8
PANNELLO_DISPALY
 10
-37.5
 20
-0.1398
 30
150.4103
 70
192
 0
VERTEX
 8
PANNELLO_DISPALY
 10
-21.684
 20
-0.1398
 30
150.4103
 70
192
 0
VERTEX
 8
PANNELLO_DISPALY
 10
37.555
 20
-0.1398
 30
150.4103
 70
192
 0
VERTEX
 8
PANNELLO_DISPALY
 10
37.555
 20
0.3502
 30
150.53
 70
192
 0
VERTEX
 8
PANNELLO_DISPALY
 10
-21.564
 20
0.3502
 30
150.53
 70
192
 0
VERTEX
 8
PANNELLO_DISPALY
 10
-37.5
 20
0.3502
 30
150.53
 70
192
 0
VERTEX
 8
PANNELLO_DISPALY
 10
21.436
 20
0.3502
 30
150.53
 70
192
 0
VERTEX
 8
PANNELLO_DISPALY
 10
21.436
 20
0.3502
 30
149.0141
 70
192
 0
VERTEX
 8
PANNELLO_DISPALY
 10
21.556
 20
-0.1398
 30
160.5141
 70
192
 0
VERTEX
 8
PANNELLO_DISPALY
 10
21.556
 20
-0.1398
 30
150.4103
 70
192
 0
VERTEX
 8
PANNELLO_DISPALY
 10
21.436
 20
0.3502
 30
160.5141
 70
192
 0
VERTEX
 8
PANNELLO_DISPALY
 10
21.556
 20
-0.1398
 30
149.0141
 70
192
 0
VERTEX
 8
PANNELLO_DISPALY
 10
21.556
 20
-0.1398
 30
159.1503
 70
192
 0
VERTEX
 8
PANNELLO_DISPALY
 10
-21.684
 20
-0.1398
 30
159.1503
 70
192
 0
VERTEX
 8
PANNELLO_DISPALY
 10
-37.5
 20
0.3502
 30
159.03
 70
192
 0
VERTEX
 8
PANNELLO_DISPALY
 10
-21.564
 20
0.3502
 30
159.03
 70
192
 0
VERTEX
 8
PANNELLO_DISPALY
 10
-37.5
 20
-0.1398
 30
159.1503
 70
192
 0
VERTEX
 8
PANNELLO_DISPALY
 10
37.555
 20
-0.1398
 30
159.1503
 70
192
 0
VERTEX
 8
PANNELLO_DISPALY
 10
37.555
 20
0.3502
 30
159.03
 70
192
 0
VERTEX
 8
PANNELLO_DISPALY
 10
21.436
 20
0.3502
 30
159.03
 70
192
 0
VERTEX
 8
PANNELLO_DISPALY
 10
-21.5638
 20
-0.0198
 30
150.5303
 70
192
 0
VERTEX
 8
PANNELLO_DISPALY
 10
21.436
 20
-0.0198
 30
150.5303
 70
192
 0
VERTEX
 8
PANNELLO_DISPALY
 10
21.436
 20
-0.0198
 30
159.0302
 70
192
 0
VERTEX
 8
PANNELLO_DISPALY
 10
-21.5638
 20
-0.0198
 30
159.0302
 70
192
 0
VERTEX
 8
PANNELLO_DISPALY
 10
0
 20
0
 30
0
 70
128
 71
1
 72
13
 73
14
 74
10
 0
VERTEX
 8
PANNELLO_DISPALY
 10
0
 20
0
 30
0
 70
128
 71
3
 72
15
 73
16
 74
5
 0
VERTEX
 8
PANNELLO_DISPALY
 10
0
 20
0
 30
0
 70
128
 71
5
 72
16
 73
19
 74
20
 0
VERTEX
 8
PANNELLO_DISPALY
 10
0
 20
0
 30
0
 70
128
 71
7
 72
18
 73
13
 74
1
 0
VERTEX
 8
PANNELLO_DISPALY
 10
0
 20
0
 30
0
 70
128
 71
2
 72
8
 73
11
 74
9
 0
VERTEX
 8
PANNELLO_DISPALY
 10
0
 20
0
 30
0
 70
128
 71
7
 72
1
 73
10
 74
12
 0
VERTEX
 8
PANNELLO_DISPALY
 10
0
 20
0
 30
0
 70
128
 71
9
 72
21
 73
25
 74
26
 0
VERTEX
 8
PANNELLO_DISPALY
 10
0
 20
0
 30
0
 70
128
 71
11
 72
8
 73
27
 74
28
 0
VERTEX
 8
PANNELLO_DISPALY
 10
0
 20
0
 30
0
 70
128
 71
11
 72
23
 73
21
 74
9
 0
VERTEX
 8
PANNELLO_DISPALY
 10
0
 20
0
 30
0
 70
128
 71
10
 72
24
 73
20
 74
12
 0
VERTEX
 8
PANNELLO_DISPALY
 10
0
 20
0
 30
0
 70
128
 71
13
 72
29
 73
26
 74
14
 0
VERTEX
 8
PANNELLO_DISPALY
 10
0
 20
0
 30
0
 70
128
 71
15
 72
30
 73
31
 74
16
 0
VERTEX
 8
PANNELLO_DISPALY
 10
0
 20
0
 30
0
 70
128
 71
16
 72
31
 73
32
 74
19
 0
VERTEX
 8
PANNELLO_DISPALY
 10
0
 20
0
 30
0
 70
128
 71
18
 72
27
 73
29
 74
13
 0
VERTEX
 8
PANNELLO_DISPALY
 10
0
 20
0
 30
0
 70
128
 71
15
 72
3
 73
24
 74
22
 0
VERTEX
 8
PANNELLO_DISPALY
 10
0
 20
0
 30
0
 70
128
 71
18
 72
7
 73
12
 74
17
 0
VERTEX
 8
PANNELLO_DISPALY
 10
0
 20
0
 30
0
 70
128
 71
19
 72
17
 73
12
 74
20
 0
VERTEX
 8
PANNELLO_DISPALY
 10
0
 20
0
 30
0
 70
128
 71
21
 72
4
 73
30
 74
25
 0
VERTEX
 8
PANNELLO_DISPALY
 10
0
 20
0
 30
0
 70
128
 71
23
 72
6
 73
4
 74
21
 0
VERTEX
 8
PANNELLO_DISPALY
 10
0
 20
0
 30
0
 70
128
 71
24
 72
3
 73
5
 74
20
 0
VERTEX
 8
PANNELLO_DISPALY
 10
0
 20
0
 30
0
 70
128
 71
23
 72
11
 73
28
 74
32
 0
VERTEX
 8
PANNELLO_DISPALY
 10
0
 20
0
 30
0
 70
128
 71
24
 72
10
 73
14
 74
22
 0
VERTEX
 8
PANNELLO_DISPALY
 10
0
 20
0
 30
0
 70
128
 71
36
 72
26
 73
25
 74
35
 0
VERTEX
 8
PANNELLO_DISPALY
 10
0
 20
0
 30
0
 70
128
 71
27
 72
18
 73
17
 74
28
 0
VERTEX
 8
PANNELLO_DISPALY
 10
0
 20
0
 30
0
 70
128
 71
29
 72
2
 73
9
 74
26
 0
VERTEX
 8
PANNELLO_DISPALY
 10
0
 20
0
 30
0
 70
128
 71
30
 72
4
 73
6
 74
31
 0
VERTEX
 8
PANNELLO_DISPALY
 10
0
 20
0
 30
0
 70
128
 71
31
 72
6
 73
23
 74
32
 0
VERTEX
 8
PANNELLO_DISPALY
 10
0
 20
0
 30
0
 70
128
 71
27
 72
8
 73
2
 74
29
 0
VERTEX
 8
PANNELLO_DISPALY
 10
0
 20
0
 30
0
 70
128
 71
30
 72
15
 73
22
 74
25
 0
VERTEX
 8
PANNELLO_DISPALY
 10
0
 20
0
 30
0
 70
128
 71
33
 72
14
 73
26
 74
36
 0
VERTEX
 8
PANNELLO_DISPALY
 10
0
 20
0
 30
0
 70
128
 71
35
 72
25
 73
22
 74
34
 0
VERTEX
 8
PANNELLO_DISPALY
 10
0
 20
0
 30
0
 70
128
 71
34
 72
22
 73
14
 74
33
 0
VERTEX
 8
PANNELLO_DISPALY
 10
0
 20
0
 30
0
 70
128
 71
19
 72
32
 73
35
 74
34
 0
VERTEX
 8
PANNELLO_DISPALY
 10
0
 20
0
 30
0
 70
128
 71
32
 72
28
 73
36
 74
35
 0
VERTEX
 8
PANNELLO_DISPALY
 10
0
 20
0
 30
0
 70
128
 71
17
 72
19
 73
34
 74
33
 0
VERTEX
 8
PANNELLO_DISPALY
 10
0
 20
0
 30
0
 70
128
 71
28
 72
17
 73
33
 74
36
 0
SEQEND
 0
POLYLINE
 8
DISPALY
 66
1
 10
0.0
 20
0.0
 30
0.0
 70
64
 71
32
 72
32
 0
VERTEX
 8
DISPALY
 10
-21.564
 20
0.3504
 30
150.53
 70
192
 0
VERTEX
 8
DISPALY
 10
21.436
 20
0.3504
 30
150.53
 70
192
 0
VERTEX
 8
DISPALY
 10
-21.564
 20
0.3504
 30
159.03
 70
192
 0
VERTEX
 8
DISPALY
 10
21.436
 20
0.3504
 30
159.03
 70
192
 0
VERTEX
 8
DISPALY
 10
-21.5638
 20
-0.0196
 30
150.5303
 70
192
 0
VERTEX
 8
DISPALY
 10
21.436
 20
-0.0196
 30
150.5303
 70
192
 0
VERTEX
 8
DISPALY
 10
21.436
 20
-0.0196
 30
159.0302
 70
192
 0
VERTEX
 8
DISPALY
 10
-21.5638
 20
-0.0196
 30
159.0302
 70
192
 0
VERTEX
 8
DISPALY
 10
-3.734
 20
0.3504
 30
150.53
 70
192
 0
VERTEX
 8
DISPALY
 10
-3.734
 20
-0.0196
 30
150.5303
 70
192
 0
VERTEX
 8
DISPALY
 10
-3.734
 20
0.3504
 30
159.03
 70
192
 0
VERTEX
 8
DISPALY
 10
-3.734
 20
-0.0196
 30
159.0302
 70
192
 0
VERTEX
 8
DISPALY
 10
21.436
 20
0.3504
 30
157.5103
 70
192
 0
VERTEX
 8
DISPALY
 10
21.436
 20
-0.0196
 30
157.5103
 70
192
 0
VERTEX
 8
DISPALY
 10
-21.564
 20
0.3504
 30
157.5103
 70
192
 0
VERTEX
 8
DISPALY
 10
-21.5638
 20
-0.0196
 30
157.5103
 70
192
 0
VERTEX
 8
DISPALY
 10
-3.734
 20
-0.0196
 30
157.5103
 70
192
 0
VERTEX
 8
DISPALY
 10
-3.734
 20
0.3504
 30
157.5103
 70
192
 0
VERTEX
 8
DISPALY
 10
3.546
 20
0.3504
 30
150.53
 70
192
 0
VERTEX
 8
DISPALY
 10
3.546
 20
-0.0196
 30
150.5303
 70
192
 0
VERTEX
 8
DISPALY
 10
3.546
 20
-0.0196
 30
157.5103
 70
192
 0
VERTEX
 8
DISPALY
 10
3.546
 20
0.3504
 30
159.03
 70
192
 0
VERTEX
 8
DISPALY
 10
3.546
 20
-0.0196
 30
159.0302
 70
192
 0
VERTEX
 8
DISPALY
 10
3.546
 20
0.3504
 30
157.5103
 70
192
 0
VERTEX
 8
DISPALY
 10
-21.564
 20
0.3504
 30
152.0103
 70
192
 0
VERTEX
 8
DISPALY
 10
-21.5638
 20
-0.0196
 30
152.0103
 70
192
 0
VERTEX
 8
DISPALY
 10
3.546
 20
-0.0196
 30
152.0103
 70
192
 0
VERTEX
 8
DISPALY
 10
21.436
 20
-0.0196
 30
152.0103
 70
192
 0
VERTEX
 8
DISPALY
 10
-3.734
 20
-0.0196
 30
152.0103
 70
192
 0
VERTEX
 8
DISPALY
 10
3.546
 20
0.3504
 30
152.0103
 70
192
 0
VERTEX
 8
DISPALY
 10
-3.734
 20
0.3504
 30
152.0103
 70
192
 0
VERTEX
 8
DISPALY
 10
21.436
 20
0.3504
 30
152.0103
 70
192
 0
VERTEX
 8
DISPALY
 10
0
 20
0
 30
0
 70
128
 71
7
 72
4
 73
13
 74
14
 0
VERTEX
 8
DISPALY
 10
0
 20
0
 30
0
 70
128
 71
6
 72
2
 73
19
 74
20
 0
VERTEX
 8
DISPALY
 10
0
 20
0
 30
0
 70
128
 71
5
 72
1
 73
25
 74
26
 0
VERTEX
 8
DISPALY
 10
0
 20
0
 30
0
 70
128
 71
8
 72
3
 73
11
 74
12
 0
VERTEX
 8
DISPALY
 10
0
 20
0
 30
0
 70
128
 71
6
 72
20
 73
27
 74
28
 0
VERTEX
 8
DISPALY
 10
0
 20
0
 30
0
 70
128
 71
3
 72
15
 73
18
 74
11
 0
VERTEX
 8
DISPALY
 10
0
 20
0
 30
0
 70
128
 71
9
 72
1
 73
5
 74
10
 0
VERTEX
 8
DISPALY
 10
0
 20
0
 30
0
 70
128
 71
11
 72
22
 73
23
 74
12
 0
VERTEX
 8
DISPALY
 10
0
 20
0
 30
0
 70
128
 71
10
 72
5
 73
26
 74
29
 0
VERTEX
 8
DISPALY
 10
0
 20
0
 30
0
 70
128
 71
9
 72
19
 73
30
 74
31
 0
VERTEX
 8
DISPALY
 10
0
 20
0
 30
0
 70
128
 71
13
 72
32
 73
28
 74
14
 0
VERTEX
 8
DISPALY
 10
0
 20
0
 30
0
 70
128
 71
15
 72
3
 73
8
 74
16
 0
VERTEX
 8
DISPALY
 10
0
 20
0
 30
0
 70
128
 71
17
 72
12
 73
23
 74
21
 0
VERTEX
 8
DISPALY
 10
0
 20
0
 30
0
 70
128
 71
15
 72
25
 73
31
 74
18
 0
VERTEX
 8
DISPALY
 10
0
 20
0
 30
0
 70
128
 71
16
 72
8
 73
12
 74
17
 0
VERTEX
 8
DISPALY
 10
0
 20
0
 30
0
 70
128
 71
13
 72
4
 73
22
 74
24
 0
VERTEX
 8
DISPALY
 10
0
 20
0
 30
0
 70
128
 71
19
 72
9
 73
10
 74
20
 0
VERTEX
 8
DISPALY
 10
0
 20
0
 30
0
 70
128
 71
20
 72
10
 73
29
 74
27
 0
VERTEX
 8
DISPALY
 10
0
 20
0
 30
0
 70
128
 71
22
 72
4
 73
7
 74
23
 0
VERTEX
 8
DISPALY
 10
0
 20
0
 30
0
 70
128
 71
19
 72
2
 73
32
 74
30
 0
VERTEX
 8
DISPALY
 10
0
 20
0
 30
0
 70
128
 71
23
 72
7
 73
14
 74
21
 0
VERTEX
 8
DISPALY
 10
0
 20
0
 30
0
 70
128
 71
22
 72
11
 73
18
 74
24
 0
VERTEX
 8
DISPALY
 10
0
 20
0
 30
0
 70
128
 71
25
 72
15
 73
16
 74
26
 0
VERTEX
 8
DISPALY
 10
0
 20
0
 30
0
 70
128
 71
27
 72
21
 73
14
 74
28
 0
VERTEX
 8
DISPALY
 10
0
 20
0
 30
0
 70
128
 71
26
 72
16
 73
17
 74
29
 0
VERTEX
 8
DISPALY
 10
0
 20
0
 30
0
 70
128
 71
32
 72
13
 73
24
 74
30
 0
VERTEX
 8
DISPALY
 10
0
 20
0
 30
0
 70
128
 71
32
 72
2
 73
6
 74
28
 0
VERTEX
 8
DISPALY
 10
0
 20
0
 30
0
 70
128
 71
25
 72
1
 73
9
 74
31
 0
VERTEX
 8
DISPALY
 10
0
 20
0
 30
0
 70
128
 71
18
 72
31
 73
29
 74
17
 0
VERTEX
 8
DISPALY
 10
0
 20
0
 30
0
 70
128
 71
31
 72
30
 73
27
 74
29
 0
VERTEX
 8
DISPALY
 10
0
 20
0
 30
0
 70
128
 71
24
 72
18
 73
17
 74
21
 0
VERTEX
 8
DISPALY
 10
0
 20
0
 30
0
 70
128
 71
30
 72
24
 73
21
 74
27
 0
SEQEND
 0
POLYLINE
 8
DISPALY_1
 66
1
 10
0.0
 20
0.0
 30
0.0
 70
64
 71
8
 72
6
 0
VERTEX
 8
DISPALY_1
 10
-3.734
 20
-0.0196
 30
157.5103
 70
192
 0
VERTEX
 8
DISPALY_1
 10
-3.734
 20
0.3504
 30
157.5103
 70
192
 0
VERTEX
 8
DISPALY_1
 10
3.546
 20
-0.0196
 30
157.5103
 70
192
 0
VERTEX
 8
DISPALY_1
 10
3.546
 20
0.3504
 30
157.5103
 70
192
 0
VERTEX
 8
DISPALY_1
 10
3.546
 20
-0.0196
 30
152.0103
 70
192
 0
VERTEX
 8
DISPALY_1
 10
-3.734
 20
-0.0196
 30
152.0103
 70
192
 0
VERTEX
 8
DISPALY_1
 10
3.546
 20
0.3504
 30
152.0103
 70
192
 0
VERTEX
 8
DISPALY_1
 10
-3.734
 20
0.3504
 30
152.0103
 70
192
 0
VERTEX
 8
DISPALY_1
 10
0
 20
0
 30
0
 70
128
 71
3
 72
4
 73
7
 74
5
 0
VERTEX
 8
DISPALY_1
 10
0
 20
0
 30
0
 70
128
 71
5
 72
7
 73
8
 74
6
 0
VERTEX
 8
DISPALY_1
 10
0
 20
0
 30
0
 70
128
 71
6
 72
8
 73
2
 74
1
 0
VERTEX
 8
DISPALY_1
 10
0
 20
0
 30
0
 70
128
 71
1
 72
2
 73
4
 74
3
 0
VERTEX
 8
DISPALY_1
 10
0
 20
0
 30
0
 70
128
 71
3
 72
5
 73
6
 74
1
 0
VERTEX
 8
DISPALY_1
 10
0
 20
0
 30
0
 70
128
 71
2
 72
8
 73
7
 74
4
 0
SEQEND
 0
POLYLINE
 8
CILINDRO
 66
1
 10
0.0
 20
0.0
 30
0.0
 70
64
 71
212
 72
312
 0
VERTEX
 8
CILINDRO
 10
-26.198
 20
-3.7481
 30
144.9801
 70
192
 0
VERTEX
 8
CILINDRO
 10
-24.798
 20
-3.7481
 30
144.9801
 70
192
 0
VERTEX
 8
CILINDRO
 10
-26.198
 20
-4.4971
 30
144.9801
 70
192
 0
VERTEX
 8
CILINDRO
 10
-24.798
 20
-4.4971
 30
144.9801
 70
192
 0
VERTEX
 8
CILINDRO
 10
-26.198
 20
-4.4916
 30
144.8898
 70
192
 0
VERTEX
 8
CILINDRO
 10
-24.798
 20
-4.4916
 30
144.8898
 70
192
 0
VERTEX
 8
CILINDRO
 10
-26.198
 20
-4.4753
 30
144.8008
 70
192
 0
VERTEX
 8
CILINDRO
 10
-24.798
 20
-4.4753
 30
144.8008
 70
192
 0
VERTEX
 8
CILINDRO
 10
-26.198
 20
-4.4484
 30
144.7145
 70
192
 0
VERTEX
 8
CILINDRO
 10
-24.798
 20
-4.4484
 30
144.7145
 70
192
 0
VERTEX
 8
CILINDRO
 10
-26.198
 20
-4.4113
 30
144.632
 70
192
 0
VERTEX
 8
CILINDRO
 10
-24.798
 20
-4.4113
 30
144.632
 70
192
 0
VERTEX
 8
CILINDRO
 10
-26.198
 20
-4.3645
 30
144.5546
 70
192
 0
VERTEX
 8
CILINDRO
 10
-24.798
 20
-4.3645
 30
144.5546
 70
192
 0
VERTEX
 8
CILINDRO
 10
-26.198
 20
-4.3087
 30
144.4834
 70
192
 0
VERTEX
 8
CILINDRO
 10
-24.798
 20
-4.3087
 30
144.4834
 70
192
 0
VERTEX
 8
CILINDRO
 10
-26.198
 20
-4.2447
 30
144.4194
 70
192
 0
VERTEX
 8
CILINDRO
 10
-24.798
 20
-4.2447
 30
144.4194
 70
192
 0
VERTEX
 8
CILINDRO
 10
-26.198
 20
-4.1735
 30
144.3636
 70
192
 0
VERTEX
 8
CILINDRO
 10
-24.798
 20
-4.1735
 30
144.3636
 70
192
 0
VERTEX
 8
CILINDRO
 10
-26.198
 20
-4.0961
 30
144.3168
 70
192
 0
VERTEX
 8
CILINDRO
 10
-24.798
 20
-4.0961
 30
144.3168
 70
192
 0
VERTEX
 8
CILINDRO
 10
-26.198
 20
-4.0137
 30
144.2797
 70
192
 0
VERTEX
 8
CILINDRO
 10
-24.798
 20
-4.0137
 30
144.2797
 70
192
 0
VERTEX
 8
CILINDRO
 10
-26.198
 20
-3.9273
 30
144.2528
 70
192
 0
VERTEX
 8
CILINDRO
 10
-24.798
 20
-3.9273
 30
144.2528
 70
192
 0
VERTEX
 8
CILINDRO
 10
-26.198
 20
-3.8383
 30
144.2365
 70
192
 0
VERTEX
 8
CILINDRO
 10
-24.798
 20
-3.8383
 30
144.2365
 70
192
 0
VERTEX
 8
CILINDRO
 10
-26.198
 20
-3.7481
 30
144.2311
 70
192
 0
VERTEX
 8
CILINDRO
 10
-24.798
 20
-3.7481
 30
144.2311
 70
192
 0
VERTEX
 8
CILINDRO
 10
-26.198
 20
-3.6578
 30
144.2365
 70
192
 0
VERTEX
 8
CILINDRO
 10
-24.798
 20
-3.6578
 30
144.2365
 70
192
 0
VERTEX
 8
CILINDRO
 10
-26.198
 20
-3.5688
 30
144.2528
 70
192
 0
VERTEX
 8
CILINDRO
 10
-24.798
 20
-3.5688
 30
144.2528
 70
192
 0
VERTEX
 8
CILINDRO
 10
-26.198
 20
-3.4825
 30
144.2797
 70
192
 0
VERTEX
 8
CILINDRO
 10
-24.798
 20
-3.4825
 30
144.2797
 70
192
 0
VERTEX
 8
CILINDRO
 10
-26.198
 20
-3.4
 30
144.3168
 70
192
 0
VERTEX
 8
CILINDRO
 10
-24.798
 20
-3.4
 30
144.3168
 70
192
 0
VERTEX
 8
CILINDRO
 10
-26.198
 20
-3.3226
 30
144.3636
 70
192
 0
VERTEX
 8
CILINDRO
 10
-24.798
 20
-3.3226
 30
144.3636
 70
192
 0
VERTEX
 8
CILINDRO
 10
-26.198
 20
-3.2514
 30
144.4194
 70
192
 0
VERTEX
 8
CILINDRO
 10
-24.798
 20
-3.2514
 30
144.4194
 70
192
 0
VERTEX
 8
CILINDRO
 10
-26.198
 20
-3.1874
 30
144.4834
 70
192
 0
VERTEX
 8
CILINDRO
 10
-24.798
 20
-3.1874
 30
144.4834
 70
192
 0
VERTEX
 8
CILINDRO
 10
-26.198
 20
-3.1316
 30
144.5546
 70
192
 0
VERTEX
 8
CILINDRO
 10
-24.798
 20
-3.1316
 30
144.5546
 70
192
 0
VERTEX
 8
CILINDRO
 10
-26.198
 20
-3.0848
 30
144.632
 70
192
 0
VERTEX
 8
CILINDRO
 10
-24.798
 20
-3.0848
 30
144.632
 70
192
 0
VERTEX
 8
CILINDRO
 10
-26.198
 20
-3.0477
 30
144.7145
 70
192
 0
VERTEX
 8
CILINDRO
 10
-24.798
 20
-3.0477
 30
144.7145
 70
192
 0
VERTEX
 8
CILINDRO
 10
-26.198
 20
-3.0208
 30
144.8008
 70
192
 0
VERTEX
 8
CILINDRO
 10
-24.798
 20
-3.0208
 30
144.8008
 70
192
 0
VERTEX
 8
CILINDRO
 10
-26.198
 20
-3.0045
 30
144.8898
 70
192
 0
VERTEX
 8
CILINDRO
 10
-24.798
 20
-3.0045
 30
144.8898
 70
192
 0
VERTEX
 8
CILINDRO
 10
-26.198
 20
-2.9991
 30
144.9801
 70
192
 0
VERTEX
 8
CILINDRO
 10
-24.798
 20
-2.9991
 30
144.9801
 70
192
 0
VERTEX
 8
CILINDRO
 10
-26.198
 20
-3.0045
 30
145.0703
 70
192
 0
VERTEX
 8
CILINDRO
 10
-24.798
 20
-3.0045
 30
145.0703
 70
192
 0
VERTEX
 8
CILINDRO
 10
-26.198
 20
-3.0208
 30
145.1593
 70
192
 0
VERTEX
 8
CILINDRO
 10
-24.798
 20
-3.0208
 30
145.1593
 70
192
 0
VERTEX
 8
CILINDRO
 10
-26.198
 20
-3.0477
 30
145.2457
 70
192
 0
VERTEX
 8
CILINDRO
 10
-24.798
 20
-3.0477
 30
145.2457
 70
192
 0
VERTEX
 8
CILINDRO
 10
-26.198
 20
-3.0848
 30
145.3281
 70
192
 0
VERTEX
 8
CILINDRO
 10
-24.798
 20
-3.0848
 30
145.3281
 70
192
 0
VERTEX
 8
CILINDRO
 10
-26.198
 20
-3.1316
 30
145.4055
 70
192
 0
VERTEX
 8
CILINDRO
 10
-24.798
 20
-3.1316
 30
145.4055
 70
192
 0
VERTEX
 8
CILINDRO
 10
-26.198
 20
-3.1874
 30
145.4767
 70
192
 0
VERTEX
 8
CILINDRO
 10
-24.798
 20
-3.1874
 30
145.4767
 70
192
 0
VERTEX
 8
CILINDRO
 10
-26.198
 20
-3.2514
 30
145.5407
 70
192
 0
VERTEX
 8
CILINDRO
 10
-24.798
 20
-3.2514
 30
145.5407
 70
192
 0
VERTEX
 8
CILINDRO
 10
-26.198
 20
-3.3226
 30
145.5965
 70
192
 0
VERTEX
 8
CILINDRO
 10
-24.798
 20
-3.3226
 30
145.5965
 70
192
 0
VERTEX
 8
CILINDRO
 10
-26.198
 20
-3.4
 30
145.6433
 70
192
 0
VERTEX
 8
CILINDRO
 10
-24.798
 20
-3.4
 30
145.6433
 70
192
 0
VERTEX
 8
CILINDRO
 10
-26.198
 20
-3.4825
 30
145.6804
 70
192
 0
VERTEX
 8
CILINDRO
 10
-24.798
 20
-3.4825
 30
145.6804
 70
192
 0
VERTEX
 8
CILINDRO
 10
-26.198
 20
-3.5688
 30
145.7073
 70
192
 0
VERTEX
 8
CILINDRO
 10
-24.798
 20
-3.5688
 30
145.7073
 70
192
 0
VERTEX
 8
CILINDRO
 10
-26.198
 20
-3.6578
 30
145.7236
 70
192
 0
VERTEX
 8
CILINDRO
 10
-24.798
 20
-3.6578
 30
145.7236
 70
192
 0
VERTEX
 8
CILINDRO
 10
-26.198
 20
-3.7481
 30
145.7291
 70
192
 0
VERTEX
 8
CILINDRO
 10
-24.798
 20
-3.7481
 30
145.7291
 70
192
 0
VERTEX
 8
CILINDRO
 10
-26.198
 20
-3.8383
 30
145.7236
 70
192
 0
VERTEX
 8
CILINDRO
 10
-24.798
 20
-3.8383
 30
145.7236
 70
192
 0
VERTEX
 8
CILINDRO
 10
-26.198
 20
-3.9273
 30
145.7073
 70
192
 0
VERTEX
 8
CILINDRO
 10
-24.798
 20
-3.9273
 30
145.7073
 70
192
 0
VERTEX
 8
CILINDRO
 10
-26.198
 20
-4.0137
 30
145.6804
 70
192
 0
VERTEX
 8
CILINDRO
 10
-24.798
 20
-4.0137
 30
145.6804
 70
192
 0
VERTEX
 8
CILINDRO
 10
-26.198
 20
-4.0961
 30
145.6433
 70
192
 0
VERTEX
 8
CILINDRO
 10
-24.798
 20
-4.0961
 30
145.6433
 70
192
 0
VERTEX
 8
CILINDRO
 10
-26.198
 20
-4.1735
 30
145.5965
 70
192
 0
VERTEX
 8
CILINDRO
 10
-24.798
 20
-4.1735
 30
145.5965
 70
192
 0
VERTEX
 8
CILINDRO
 10
-26.198
 20
-4.2447
 30
145.5407
 70
192
 0
VERTEX
 8
CILINDRO
 10
-24.798
 20
-4.2447
 30
145.5407
 70
192
 0
VERTEX
 8
CILINDRO
 10
-26.198
 20
-4.3087
 30
145.4767
 70
192
 0
VERTEX
 8
CILINDRO
 10
-24.798
 20
-4.3087
 30
145.4767
 70
192
 0
VERTEX
 8
CILINDRO
 10
-26.198
 20
-4.3645
 30
145.4055
 70
192
 0
VERTEX
 8
CILINDRO
 10
-24.798
 20
-4.3645
 30
145.4055
 70
192
 0
VERTEX
 8
CILINDRO
 10
-26.198
 20
-4.4113
 30
145.3281
 70
192
 0
VERTEX
 8
CILINDRO
 10
-24.798
 20
-4.4113
 30
145.3281
 70
192
 0
VERTEX
 8
CILINDRO
 10
-26.198
 20
-4.4484
 30
145.2457
 70
192
 0
VERTEX
 8
CILINDRO
 10
-24.798
 20
-4.4484
 30
145.2457
 70
192
 0
VERTEX
 8
CILINDRO
 10
-26.198
 20
-4.4753
 30
145.1593
 70
192
 0
VERTEX
 8
CILINDRO
 10
-24.798
 20
-4.4753
 30
145.1593
 70
192
 0
VERTEX
 8
CILINDRO
 10
-26.198
 20
-4.4916
 30
145.0703
 70
192
 0
VERTEX
 8
CILINDRO
 10
-24.798
 20
-4.4916
 30
145.0703
 70
192
 0
VERTEX
 8
CILINDRO
 10
24.8019
 20
-3.7481
 30
144.9801
 70
192
 0
VERTEX
 8
CILINDRO
 10
26.2019
 20
-3.7481
 30
144.9801
 70
192
 0
VERTEX
 8
CILINDRO
 10
24.8019
 20
-4.4971
 30
144.9801
 70
192
 0
VERTEX
 8
CILINDRO
 10
26.2019
 20
-4.4971
 30
144.9801
 70
192
 0
VERTEX
 8
CILINDRO
 10
24.8019
 20
-4.4916
 30
144.8898
 70
192
 0
VERTEX
 8
CILINDRO
 10
26.2019
 20
-4.4916
 30
144.8898
 70
192
 0
VERTEX
 8
CILINDRO
 10
24.8019
 20
-4.4753
 30
144.8008
 70
192
 0
VERTEX
 8
CILINDRO
 10
26.2019
 20
-4.4753
 30
144.8008
 70
192
 0
VERTEX
 8
CILINDRO
 10
24.8019
 20
-4.4484
 30
144.7145
 70
192
 0
VERTEX
 8
CILINDRO
 10
26.2019
 20
-4.4484
 30
144.7145
 70
192
 0
VERTEX
 8
CILINDRO
 10
24.8019
 20
-4.4113
 30
144.632
 70
192
 0
VERTEX
 8
CILINDRO
 10
26.2019
 20
-4.4113
 30
144.632
 70
192
 0
VERTEX
 8
CILINDRO
 10
24.8019
 20
-4.3645
 30
144.5546
 70
192
 0
VERTEX
 8
CILINDRO
 10
26.2019
 20
-4.3645
 30
144.5546
 70
192
 0
VERTEX
 8
CILINDRO
 10
24.8019
 20
-4.3087
 30
144.4834
 70
192
 0
VERTEX
 8
CILINDRO
 10
26.2019
 20
-4.3087
 30
144.4834
 70
192
 0
VERTEX
 8
CILINDRO
 10
24.8019
 20
-4.2447
 30
144.4194
 70
192
 0
VERTEX
 8
CILINDRO
 10
26.2019
 20
-4.2447
 30
144.4194
 70
192
 0
VERTEX
 8
CILINDRO
 10
24.8019
 20
-4.1735
 30
144.3636
 70
192
 0
VERTEX
 8
CILINDRO
 10
26.2019
 20
-4.1735
 30
144.3636
 70
192
 0
VERTEX
 8
CILINDRO
 10
24.8019
 20
-4.0961
 30
144.3168
 70
192
 0
VERTEX
 8
CILINDRO
 10
26.2019
 20
-4.0961
 30
144.3168
 70
192
 0
VERTEX
 8
CILINDRO
 10
24.8019
 20
-4.0137
 30
144.2797
 70
192
 0
VERTEX
 8
CILINDRO
 10
26.2019
 20
-4.0137
 30
144.2797
 70
192
 0
VERTEX
 8
CILINDRO
 10
24.8019
 20
-3.9273
 30
144.2528
 70
192
 0
VERTEX
 8
CILINDRO
 10
26.2019
 20
-3.9273
 30
144.2528
 70
192
 0
VERTEX
 8
CILINDRO
 10
24.8019
 20
-3.8383
 30
144.2365
 70
192
 0
VERTEX
 8
CILINDRO
 10
26.2019
 20
-3.8383
 30
144.2365
 70
192
 0
VERTEX
 8
CILINDRO
 10
24.8019
 20
-3.7481
 30
144.2311
 70
192
 0
VERTEX
 8
CILINDRO
 10
26.2019
 20
-3.7481
 30
144.2311
 70
192
 0
VERTEX
 8
CILINDRO
 10
24.8019
 20
-3.6578
 30
144.2365
 70
192
 0
VERTEX
 8
CILINDRO
 10
26.2019
 20
-3.6578
 30
144.2365
 70
192
 0
VERTEX
 8
CILINDRO
 10
24.8019
 20
-3.5688
 30
144.2528
 70
192
 0
VERTEX
 8
CILINDRO
 10
26.2019
 20
-3.5688
 30
144.2528
 70
192
 0
VERTEX
 8
CILINDRO
 10
24.8019
 20
-3.4825
 30
144.2797
 70
192
 0
VERTEX
 8
CILINDRO
 10
26.2019
 20
-3.4825
 30
144.2797
 70
192
 0
VERTEX
 8
CILINDRO
 10
24.8019
 20
-3.4
 30
144.3168
 70
192
 0
VERTEX
 8
CILINDRO
 10
26.2019
 20
-3.4
 30
144.3168
 70
192
 0
VERTEX
 8
CILINDRO
 10
24.8019
 20
-3.3226
 30
144.3636
 70
192
 0
VERTEX
 8
CILINDRO
 10
26.2019
 20
-3.3226
 30
144.3636
 70
192
 0
VERTEX
 8
CILINDRO
 10
24.8019
 20
-3.2514
 30
144.4194
 70
192
 0
VERTEX
 8
CILINDRO
 10
26.2019
 20
-3.2514
 30
144.4194
 70
192
 0
VERTEX
 8
CILINDRO
 10
24.8019
 20
-3.1874
 30
144.4834
 70
192
 0
VERTEX
 8
CILINDRO
 10
26.2019
 20
-3.1874
 30
144.4834
 70
192
 0
VERTEX
 8
CILINDRO
 10
24.8019
 20
-3.1316
 30
144.5546
 70
192
 0
VERTEX
 8
CILINDRO
 10
26.2019
 20
-3.1316
 30
144.5546
 70
192
 0
VERTEX
 8
CILINDRO
 10
24.8019
 20
-3.0848
 30
144.632
 70
192
 0
VERTEX
 8
CILINDRO
 10
26.2019
 20
-3.0848
 30
144.632
 70
192
 0
VERTEX
 8
CILINDRO
 10
24.8019
 20
-3.0477
 30
144.7145
 70
192
 0
VERTEX
 8
CILINDRO
 10
26.2019
 20
-3.0477
 30
144.7145
 70
192
 0
VERTEX
 8
CILINDRO
 10
24.8019
 20
-3.0208
 30
144.8008
 70
192
 0
VERTEX
 8
CILINDRO
 10
26.2019
 20
-3.0208
 30
144.8008
 70
192
 0
VERTEX
 8
CILINDRO
 10
24.8019
 20
-3.0045
 30
144.8898
 70
192
 0
VERTEX
 8
CILINDRO
 10
26.2019
 20
-3.0045
 30
144.8898
 70
192
 0
VERTEX
 8
CILINDRO
 10
24.8019
 20
-2.9991
 30
144.9801
 70
192
 0
VERTEX
 8
CILINDRO
 10
26.2019
 20
-2.9991
 30
144.9801
 70
192
 0
VERTEX
 8
CILINDRO
 10
24.8019
 20
-3.0045
 30
145.0703
 70
192
 0
VERTEX
 8
CILINDRO
 10
26.2019
 20
-3.0045
 30
145.0703
 70
192
 0
VERTEX
 8
CILINDRO
 10
24.8019
 20
-3.0208
 30
145.1593
 70
192
 0
VERTEX
 8
CILINDRO
 10
26.2019
 20
-3.0208
 30
145.1593
 70
192
 0
VERTEX
 8
CILINDRO
 10
24.8019
 20
-3.0477
 30
145.2457
 70
192
 0
VERTEX
 8
CILINDRO
 10
26.2019
 20
-3.0477
 30
145.2457
 70
192
 0
VERTEX
 8
CILINDRO
 10
24.8019
 20
-3.0848
 30
145.3281
 70
192
 0
VERTEX
 8
CILINDRO
 10
26.2019
 20
-3.0848
 30
145.3281
 70
192
 0
VERTEX
 8
CILINDRO
 10
24.8019
 20
-3.1316
 30
145.4055
 70
192
 0
VERTEX
 8
CILINDRO
 10
26.2019
 20
-3.1316
 30
145.4055
 70
192
 0
VERTEX
 8
CILINDRO
 10
24.8019
 20
-3.1874
 30
145.4767
 70
192
 0
VERTEX
 8
CILINDRO
 10
26.2019
 20
-3.1874
 30
145.4767
 70
192
 0
VERTEX
 8
CILINDRO
 10
24.8019
 20
-3.2514
 30
145.5407
 70
192
 0
VERTEX
 8
CILINDRO
 10
26.2019
 20
-3.2514
 30
145.5407
 70
192
 0
VERTEX
 8
CILINDRO
 10
24.8019
 20
-3.3226
 30
145.5965
 70
192
 0
VERTEX
 8
CILINDRO
 10
26.2019
 20
-3.3226
 30
145.5965
 70
192
 0
VERTEX
 8
CILINDRO
 10
24.8019
 20
-3.4
 30
145.6433
 70
192
 0
VERTEX
 8
CILINDRO
 10
26.2019
 20
-3.4
 30
145.6433
 70
192
 0
VERTEX
 8
CILINDRO
 10
24.8019
 20
-3.4825
 30
145.6804
 70
192
 0
VERTEX
 8
CILINDRO
 10
26.2019
 20
-3.4825
 30
145.6804
 70
192
 0
VERTEX
 8
CILINDRO
 10
24.8019
 20
-3.5688
 30
145.7073
 70
192
 0
VERTEX
 8
CILINDRO
 10
26.2019
 20
-3.5688
 30
145.7073
 70
192
 0
VERTEX
 8
CILINDRO
 10
24.8019
 20
-3.6578
 30
145.7236
 70
192
 0
VERTEX
 8
CILINDRO
 10
26.2019
 20
-3.6578
 30
145.7236
 70
192
 0
VERTEX
 8
CILINDRO
 10
24.8019
 20
-3.7481
 30
145.7291
 70
192
 0
VERTEX
 8
CILINDRO
 10
26.2019
 20
-3.7481
 30
145.7291
 70
192
 0
VERTEX
 8
CILINDRO
 10
24.8019
 20
-3.8383
 30
145.7236
 70
192
 0
VERTEX
 8
CILINDRO
 10
26.2019
 20
-3.8383
 30
145.7236
 70
192
 0
VERTEX
 8
CILINDRO
 10
24.8019
 20
-3.9273
 30
145.7073
 70
192
 0
VERTEX
 8
CILINDRO
 10
26.2019
 20
-3.9273
 30
145.7073
 70
192
 0
VERTEX
 8
CILINDRO
 10
24.8019
 20
-4.0137
 30
145.6804
 70
192
 0
VERTEX
 8
CILINDRO
 10
26.2019
 20
-4.0137
 30
145.6804
 70
192
 0
VERTEX
 8
CILINDRO
 10
24.8019
 20
-4.0961
 30
145.6433
 70
192
 0
VERTEX
 8
CILINDRO
 10
26.2019
 20
-4.0961
 30
145.6433
 70
192
 0
VERTEX
 8
CILINDRO
 10
24.8019
 20
-4.1735
 30
145.5965
 70
192
 0
VERTEX
 8
CILINDRO
 10
26.2019
 20
-4.1735
 30
145.5965
 70
192
 0
VERTEX
 8
CILINDRO
 10
24.8019
 20
-4.2447
 30
145.5407
 70
192
 0
VERTEX
 8
CILINDRO
 10
26.2019
 20
-4.2447
 30
145.5407
 70
192
 0
VERTEX
 8
CILINDRO
 10
24.8019
 20
-4.3087
 30
145.4767
 70
192
 0
VERTEX
 8
CILINDRO
 10
26.2019
 20
-4.3087
 30
145.4767
 70
192
 0
VERTEX
 8
CILINDRO
 10
24.8019
 20
-4.3645
 30
145.4055
 70
192
 0
VERTEX
 8
CILINDRO
 10
26.2019
 20
-4.3645
 30
145.4055
 70
192
 0
VERTEX
 8
CILINDRO
 10
24.8019
 20
-4.4113
 30
145.3281
 70
192
 0
VERTEX
 8
CILINDRO
 10
26.2019
 20
-4.4113
 30
145.3281
 70
192
 0
VERTEX
 8
CILINDRO
 10
24.8019
 20
-4.4484
 30
145.2457
 70
192
 0
VERTEX
 8
CILINDRO
 10
26.2019
 20
-4.4484
 30
145.2457
 70
192
 0
VERTEX
 8
CILINDRO
 10
24.8019
 20
-4.4753
 30
145.1593
 70
192
 0
VERTEX
 8
CILINDRO
 10
26.2019
 20
-4.4753
 30
145.1593
 70
192
 0
VERTEX
 8
CILINDRO
 10
24.8019
 20
-4.4916
 30
145.0703
 70
192
 0
VERTEX
 8
CILINDRO
 10
26.2019
 20
-4.4916
 30
145.0703
 70
192
 0
VERTEX
 8
CILINDRO
 10
0
 20
0
 30
0
 70
128
 71
1
 72
3
 73
5
 74
5
 0
VERTEX
 8
CILINDRO
 10
0
 20
0
 30
0
 70
128
 71
3
 72
4
 73
6
 74
5
 0
VERTEX
 8
CILINDRO
 10
0
 20
0
 30
0
 70
128
 71
4
 72
2
 73
6
 74
6
 0
VERTEX
 8
CILINDRO
 10
0
 20
0
 30
0
 70
128
 71
1
 72
5
 73
7
 74
7
 0
VERTEX
 8
CILINDRO
 10
0
 20
0
 30
0
 70
128
 71
5
 72
6
 73
8
 74
7
 0
VERTEX
 8
CILINDRO
 10
0
 20
0
 30
0
 70
128
 71
6
 72
2
 73
8
 74
8
 0
VERTEX
 8
CILINDRO
 10
0
 20
0
 30
0
 70
128
 71
1
 72
7
 73
9
 74
9
 0
VERTEX
 8
CILINDRO
 10
0
 20
0
 30
0
 70
128
 71
7
 72
8
 73
10
 74
9
 0
VERTEX
 8
CILINDRO
 10
0
 20
0
 30
0
 70
128
 71
8
 72
2
 73
10
 74
10
 0
VERTEX
 8
CILINDRO
 10
0
 20
0
 30
0
 70
128
 71
1
 72
9
 73
11
 74
11
 0
VERTEX
 8
CILINDRO
 10
0
 20
0
 30
0
 70
128
 71
9
 72
10
 73
12
 74
11
 0
VERTEX
 8
CILINDRO
 10
0
 20
0
 30
0
 70
128
 71
10
 72
2
 73
12
 74
12
 0
VERTEX
 8
CILINDRO
 10
0
 20
0
 30
0
 70
128
 71
1
 72
11
 73
13
 74
13
 0
VERTEX
 8
CILINDRO
 10
0
 20
0
 30
0
 70
128
 71
11
 72
12
 73
14
 74
13
 0
VERTEX
 8
CILINDRO
 10
0
 20
0
 30
0
 70
128
 71
12
 72
2
 73
14
 74
14
 0
VERTEX
 8
CILINDRO
 10
0
 20
0
 30
0
 70
128
 71
1
 72
13
 73
15
 74
15
 0
VERTEX
 8
CILINDRO
 10
0
 20
0
 30
0
 70
128
 71
13
 72
14
 73
16
 74
15
 0
VERTEX
 8
CILINDRO
 10
0
 20
0
 30
0
 70
128
 71
14
 72
2
 73
16
 74
16
 0
VERTEX
 8
CILINDRO
 10
0
 20
0
 30
0
 70
128
 71
1
 72
15
 73
17
 74
17
 0
VERTEX
 8
CILINDRO
 10
0
 20
0
 30
0
 70
128
 71
15
 72
16
 73
18
 74
17
 0
VERTEX
 8
CILINDRO
 10
0
 20
0
 30
0
 70
128
 71
16
 72
2
 73
18
 74
18
 0
VERTEX
 8
CILINDRO
 10
0
 20
0
 30
0
 70
128
 71
1
 72
17
 73
19
 74
19
 0
VERTEX
 8
CILINDRO
 10
0
 20
0
 30
0
 70
128
 71
17
 72
18
 73
20
 74
19
 0
VERTEX
 8
CILINDRO
 10
0
 20
0
 30
0
 70
128
 71
18
 72
2
 73
20
 74
20
 0
VERTEX
 8
CILINDRO
 10
0
 20
0
 30
0
 70
128
 71
1
 72
19
 73
21
 74
21
 0
VERTEX
 8
CILINDRO
 10
0
 20
0
 30
0
 70
128
 71
19
 72
20
 73
22
 74
21
 0
VERTEX
 8
CILINDRO
 10
0
 20
0
 30
0
 70
128
 71
20
 72
2
 73
22
 74
22
 0
VERTEX
 8
CILINDRO
 10
0
 20
0
 30
0
 70
128
 71
1
 72
21
 73
23
 74
23
 0
VERTEX
 8
CILINDRO
 10
0
 20
0
 30
0
 70
128
 71
21
 72
22
 73
24
 74
23
 0
VERTEX
 8
CILINDRO
 10
0
 20
0
 30
0
 70
128
 71
22
 72
2
 73
24
 74
24
 0
VERTEX
 8
CILINDRO
 10
0
 20
0
 30
0
 70
128
 71
1
 72
23
 73
25
 74
25
 0
VERTEX
 8
CILINDRO
 10
0
 20
0
 30
0
 70
128
 71
23
 72
24
 73
26
 74
25
 0
VERTEX
 8
CILINDRO
 10
0
 20
0
 30
0
 70
128
 71
24
 72
2
 73
26
 74
26
 0
VERTEX
 8
CILINDRO
 10
0
 20
0
 30
0
 70
128
 71
1
 72
25
 73
27
 74
27
 0
VERTEX
 8
CILINDRO
 10
0
 20
0
 30
0
 70
128
 71
25
 72
26
 73
28
 74
27
 0
VERTEX
 8
CILINDRO
 10
0
 20
0
 30
0
 70
128
 71
26
 72
2
 73
28
 74
28
 0
VERTEX
 8
CILINDRO
 10
0
 20
0
 30
0
 70
128
 71
1
 72
27
 73
29
 74
29
 0
VERTEX
 8
CILINDRO
 10
0
 20
0
 30
0
 70
128
 71
27
 72
28
 73
30
 74
29
 0
VERTEX
 8
CILINDRO
 10
0
 20
0
 30
0
 70
128
 71
28
 72
2
 73
30
 74
30
 0
VERTEX
 8
CILINDRO
 10
0
 20
0
 30
0
 70
128
 71
1
 72
29
 73
31
 74
31
 0
VERTEX
 8
CILINDRO
 10
0
 20
0
 30
0
 70
128
 71
29
 72
30
 73
32
 74
31
 0
VERTEX
 8
CILINDRO
 10
0
 20
0
 30
0
 70
128
 71
30
 72
2
 73
32
 74
32
 0
VERTEX
 8
CILINDRO
 10
0
 20
0
 30
0
 70
128
 71
1
 72
31
 73
33
 74
33
 0
VERTEX
 8
CILINDRO
 10
0
 20
0
 30
0
 70
128
 71
31
 72
32
 73
34
 74
33
 0
VERTEX
 8
CILINDRO
 10
0
 20
0
 30
0
 70
128
 71
32
 72
2
 73
34
 74
34
 0
VERTEX
 8
CILINDRO
 10
0
 20
0
 30
0
 70
128
 71
1
 72
33
 73
35
 74
35
 0
VERTEX
 8
CILINDRO
 10
0
 20
0
 30
0
 70
128
 71
33
 72
34
 73
36
 74
35
 0
VERTEX
 8
CILINDRO
 10
0
 20
0
 30
0
 70
128
 71
34
 72
2
 73
36
 74
36
 0
VERTEX
 8
CILINDRO
 10
0
 20
0
 30
0
 70
128
 71
1
 72
35
 73
37
 74
37
 0
VERTEX
 8
CILINDRO
 10
0
 20
0
 30
0
 70
128
 71
35
 72
36
 73
38
 74
37
 0
VERTEX
 8
CILINDRO
 10
0
 20
0
 30
0
 70
128
 71
36
 72
2
 73
38
 74
38
 0
VERTEX
 8
CILINDRO
 10
0
 20
0
 30
0
 70
128
 71
1
 72
37
 73
39
 74
39
 0
VERTEX
 8
CILINDRO
 10
0
 20
0
 30
0
 70
128
 71
37
 72
38
 73
40
 74
39
 0
VERTEX
 8
CILINDRO
 10
0
 20
0
 30
0
 70
128
 71
38
 72
2
 73
40
 74
40
 0
VERTEX
 8
CILINDRO
 10
0
 20
0
 30
0
 70
128
 71
1
 72
39
 73
41
 74
41
 0
VERTEX
 8
CILINDRO
 10
0
 20
0
 30
0
 70
128
 71
39
 72
40
 73
42
 74
41
 0
VERTEX
 8
CILINDRO
 10
0
 20
0
 30
0
 70
128
 71
40
 72
2
 73
42
 74
42
 0
VERTEX
 8
CILINDRO
 10
0
 20
0
 30
0
 70
128
 71
1
 72
41
 73
43
 74
43
 0
VERTEX
 8
CILINDRO
 10
0
 20
0
 30
0
 70
128
 71
41
 72
42
 73
44
 74
43
 0
VERTEX
 8
CILINDRO
 10
0
 20
0
 30
0
 70
128
 71
42
 72
2
 73
44
 74
44
 0
VERTEX
 8
CILINDRO
 10
0
 20
0
 30
0
 70
128
 71
1
 72
43
 73
45
 74
45
 0
VERTEX
 8
CILINDRO
 10
0
 20
0
 30
0
 70
128
 71
43
 72
44
 73
46
 74
45
 0
VERTEX
 8
CILINDRO
 10
0
 20
0
 30
0
 70
128
 71
44
 72
2
 73
46
 74
46
 0
VERTEX
 8
CILINDRO
 10
0
 20
0
 30
0
 70
128
 71
1
 72
45
 73
47
 74
47
 0
VERTEX
 8
CILINDRO
 10
0
 20
0
 30
0
 70
128
 71
45
 72
46
 73
48
 74
47
 0
VERTEX
 8
CILINDRO
 10
0
 20
0
 30
0
 70
128
 71
46
 72
2
 73
48
 74
48
 0
VERTEX
 8
CILINDRO
 10
0
 20
0
 30
0
 70
128
 71
1
 72
47
 73
49
 74
49
 0
VERTEX
 8
CILINDRO
 10
0
 20
0
 30
0
 70
128
 71
47
 72
48
 73
50
 74
49
 0
VERTEX
 8
CILINDRO
 10
0
 20
0
 30
0
 70
128
 71
48
 72
2
 73
50
 74
50
 0
VERTEX
 8
CILINDRO
 10
0
 20
0
 30
0
 70
128
 71
1
 72
49
 73
51
 74
51
 0
VERTEX
 8
CILINDRO
 10
0
 20
0
 30
0
 70
128
 71
49
 72
50
 73
52
 74
51
 0
VERTEX
 8
CILINDRO
 10
0
 20
0
 30
0
 70
128
 71
50
 72
2
 73
52
 74
52
 0
VERTEX
 8
CILINDRO
 10
0
 20
0
 30
0
 70
128
 71
1
 72
51
 73
53
 74
53
 0
VERTEX
 8
CILINDRO
 10
0
 20
0
 30
0
 70
128
 71
51
 72
52
 73
54
 74
53
 0
VERTEX
 8
CILINDRO
 10
0
 20
0
 30
0
 70
128
 71
52
 72
2
 73
54
 74
54
 0
VERTEX
 8
CILINDRO
 10
0
 20
0
 30
0
 70
128
 71
1
 72
53
 73
55
 74
55
 0
VERTEX
 8
CILINDRO
 10
0
 20
0
 30
0
 70
128
 71
53
 72
54
 73
56
 74
55
 0
VERTEX
 8
CILINDRO
 10
0
 20
0
 30
0
 70
128
 71
54
 72
2
 73
56
 74
56
 0
VERTEX
 8
CILINDRO
 10
0
 20
0
 30
0
 70
128
 71
1
 72
55
 73
57
 74
57
 0
VERTEX
 8
CILINDRO
 10
0
 20
0
 30
0
 70
128
 71
55
 72
56
 73
58
 74
57
 0
VERTEX
 8
CILINDRO
 10
0
 20
0
 30
0
 70
128
 71
56
 72
2
 73
58
 74
58
 0
VERTEX
 8
CILINDRO
 10
0
 20
0
 30
0
 70
128
 71
1
 72
57
 73
59
 74
59
 0
VERTEX
 8
CILINDRO
 10
0
 20
0
 30
0
 70
128
 71
57
 72
58
 73
60
 74
59
 0
VERTEX
 8
CILINDRO
 10
0
 20
0
 30
0
 70
128
 71
58
 72
2
 73
60
 74
60
 0
VERTEX
 8
CILINDRO
 10
0
 20
0
 30
0
 70
128
 71
1
 72
59
 73
61
 74
61
 0
VERTEX
 8
CILINDRO
 10
0
 20
0
 30
0
 70
128
 71
59
 72
60
 73
62
 74
61
 0
VERTEX
 8
CILINDRO
 10
0
 20
0
 30
0
 70
128
 71
60
 72
2
 73
62
 74
62
 0
VERTEX
 8
CILINDRO
 10
0
 20
0
 30
0
 70
128
 71
1
 72
61
 73
63
 74
63
 0
VERTEX
 8
CILINDRO
 10
0
 20
0
 30
0
 70
128
 71
61
 72
62
 73
64
 74
63
 0
VERTEX
 8
CILINDRO
 10
0
 20
0
 30
0
 70
128
 71
62
 72
2
 73
64
 74
64
 0
VERTEX
 8
CILINDRO
 10
0
 20
0
 30
0
 70
128
 71
1
 72
63
 73
65
 74
65
 0
VERTEX
 8
CILINDRO
 10
0
 20
0
 30
0
 70
128
 71
63
 72
64
 73
66
 74
65
 0
VERTEX
 8
CILINDRO
 10
0
 20
0
 30
0
 70
128
 71
64
 72
2
 73
66
 74
66
 0
VERTEX
 8
CILINDRO
 10
0
 20
0
 30
0
 70
128
 71
1
 72
65
 73
67
 74
67
 0
VERTEX
 8
CILINDRO
 10
0
 20
0
 30
0
 70
128
 71
65
 72
66
 73
68
 74
67
 0
VERTEX
 8
CILINDRO
 10
0
 20
0
 30
0
 70
128
 71
66
 72
2
 73
68
 74
68
 0
VERTEX
 8
CILINDRO
 10
0
 20
0
 30
0
 70
128
 71
1
 72
67
 73
69
 74
69
 0
VERTEX
 8
CILINDRO
 10
0
 20
0
 30
0
 70
128
 71
67
 72
68
 73
70
 74
69
 0
VERTEX
 8
CILINDRO
 10
0
 20
0
 30
0
 70
128
 71
68
 72
2
 73
70
 74
70
 0
VERTEX
 8
CILINDRO
 10
0
 20
0
 30
0
 70
128
 71
1
 72
69
 73
71
 74
71
 0
VERTEX
 8
CILINDRO
 10
0
 20
0
 30
0
 70
128
 71
69
 72
70
 73
72
 74
71
 0
VERTEX
 8
CILINDRO
 10
0
 20
0
 30
0
 70
128
 71
70
 72
2
 73
72
 74
72
 0
VERTEX
 8
CILINDRO
 10
0
 20
0
 30
0
 70
128
 71
1
 72
71
 73
73
 74
73
 0
VERTEX
 8
CILINDRO
 10
0
 20
0
 30
0
 70
128
 71
71
 72
72
 73
74
 74
73
 0
VERTEX
 8
CILINDRO
 10
0
 20
0
 30
0
 70
128
 71
72
 72
2
 73
74
 74
74
 0
VERTEX
 8
CILINDRO
 10
0
 20
0
 30
0
 70
128
 71
1
 72
73
 73
75
 74
75
 0
VERTEX
 8
CILINDRO
 10
0
 20
0
 30
0
 70
128
 71
73
 72
74
 73
76
 74
75
 0
VERTEX
 8
CILINDRO
 10
0
 20
0
 30
0
 70
128
 71
74
 72
2
 73
76
 74
76
 0
VERTEX
 8
CILINDRO
 10
0
 20
0
 30
0
 70
128
 71
1
 72
75
 73
77
 74
77
 0
VERTEX
 8
CILINDRO
 10
0
 20
0
 30
0
 70
128
 71
75
 72
76
 73
78
 74
77
 0
VERTEX
 8
CILINDRO
 10
0
 20
0
 30
0
 70
128
 71
76
 72
2
 73
78
 74
78
 0
VERTEX
 8
CILINDRO
 10
0
 20
0
 30
0
 70
128
 71
1
 72
77
 73
79
 74
79
 0
VERTEX
 8
CILINDRO
 10
0
 20
0
 30
0
 70
128
 71
77
 72
78
 73
80
 74
79
 0
VERTEX
 8
CILINDRO
 10
0
 20
0
 30
0
 70
128
 71
78
 72
2
 73
80
 74
80
 0
VERTEX
 8
CILINDRO
 10
0
 20
0
 30
0
 70
128
 71
1
 72
79
 73
81
 74
81
 0
VERTEX
 8
CILINDRO
 10
0
 20
0
 30
0
 70
128
 71
79
 72
80
 73
82
 74
81
 0
VERTEX
 8
CILINDRO
 10
0
 20
0
 30
0
 70
128
 71
80
 72
2
 73
82
 74
82
 0
VERTEX
 8
CILINDRO
 10
0
 20
0
 30
0
 70
128
 71
1
 72
81
 73
83
 74
83
 0
VERTEX
 8
CILINDRO
 10
0
 20
0
 30
0
 70
128
 71
81
 72
82
 73
84
 74
83
 0
VERTEX
 8
CILINDRO
 10
0
 20
0
 30
0
 70
128
 71
82
 72
2
 73
84
 74
84
 0
VERTEX
 8
CILINDRO
 10
0
 20
0
 30
0
 70
128
 71
1
 72
83
 73
85
 74
85
 0
VERTEX
 8
CILINDRO
 10
0
 20
0
 30
0
 70
128
 71
83
 72
84
 73
86
 74
85
 0
VERTEX
 8
CILINDRO
 10
0
 20
0
 30
0
 70
128
 71
84
 72
2
 73
86
 74
86
 0
VERTEX
 8
CILINDRO
 10
0
 20
0
 30
0
 70
128
 71
1
 72
85
 73
87
 74
87
 0
VERTEX
 8
CILINDRO
 10
0
 20
0
 30
0
 70
128
 71
85
 72
86
 73
88
 74
87
 0
VERTEX
 8
CILINDRO
 10
0
 20
0
 30
0
 70
128
 71
86
 72
2
 73
88
 74
88
 0
VERTEX
 8
CILINDRO
 10
0
 20
0
 30
0
 70
128
 71
1
 72
87
 73
89
 74
89
 0
VERTEX
 8
CILINDRO
 10
0
 20
0
 30
0
 70
128
 71
87
 72
88
 73
90
 74
89
 0
VERTEX
 8
CILINDRO
 10
0
 20
0
 30
0
 70
128
 71
88
 72
2
 73
90
 74
90
 0
VERTEX
 8
CILINDRO
 10
0
 20
0
 30
0
 70
128
 71
1
 72
89
 73
91
 74
91
 0
VERTEX
 8
CILINDRO
 10
0
 20
0
 30
0
 70
128
 71
89
 72
90
 73
92
 74
91
 0
VERTEX
 8
CILINDRO
 10
0
 20
0
 30
0
 70
128
 71
90
 72
2
 73
92
 74
92
 0
VERTEX
 8
CILINDRO
 10
0
 20
0
 30
0
 70
128
 71
1
 72
91
 73
93
 74
93
 0
VERTEX
 8
CILINDRO
 10
0
 20
0
 30
0
 70
128
 71
91
 72
92
 73
94
 74
93
 0
VERTEX
 8
CILINDRO
 10
0
 20
0
 30
0
 70
128
 71
92
 72
2
 73
94
 74
94
 0
VERTEX
 8
CILINDRO
 10
0
 20
0
 30
0
 70
128
 71
1
 72
93
 73
95
 74
95
 0
VERTEX
 8
CILINDRO
 10
0
 20
0
 30
0
 70
128
 71
93
 72
94
 73
96
 74
95
 0
VERTEX
 8
CILINDRO
 10
0
 20
0
 30
0
 70
128
 71
94
 72
2
 73
96
 74
96
 0
VERTEX
 8
CILINDRO
 10
0
 20
0
 30
0
 70
128
 71
1
 72
95
 73
97
 74
97
 0
VERTEX
 8
CILINDRO
 10
0
 20
0
 30
0
 70
128
 71
95
 72
96
 73
98
 74
97
 0
VERTEX
 8
CILINDRO
 10
0
 20
0
 30
0
 70
128
 71
96
 72
2
 73
98
 74
98
 0
VERTEX
 8
CILINDRO
 10
0
 20
0
 30
0
 70
128
 71
1
 72
97
 73
99
 74
99
 0
VERTEX
 8
CILINDRO
 10
0
 20
0
 30
0
 70
128
 71
97
 72
98
 73
100
 74
99
 0
VERTEX
 8
CILINDRO
 10
0
 20
0
 30
0
 70
128
 71
98
 72
2
 73
100
 74
100
 0
VERTEX
 8
CILINDRO
 10
0
 20
0
 30
0
 70
128
 71
1
 72
99
 73
101
 74
101
 0
VERTEX
 8
CILINDRO
 10
0
 20
0
 30
0
 70
128
 71
99
 72
100
 73
102
 74
101
 0
VERTEX
 8
CILINDRO
 10
0
 20
0
 30
0
 70
128
 71
100
 72
2
 73
102
 74
102
 0
VERTEX
 8
CILINDRO
 10
0
 20
0
 30
0
 70
128
 71
1
 72
101
 73
103
 74
103
 0
VERTEX
 8
CILINDRO
 10
0
 20
0
 30
0
 70
128
 71
101
 72
102
 73
104
 74
103
 0
VERTEX
 8
CILINDRO
 10
0
 20
0
 30
0
 70
128
 71
102
 72
2
 73
104
 74
104
 0
VERTEX
 8
CILINDRO
 10
0
 20
0
 30
0
 70
128
 71
1
 72
103
 73
105
 74
105
 0
VERTEX
 8
CILINDRO
 10
0
 20
0
 30
0
 70
128
 71
103
 72
104
 73
106
 74
105
 0
VERTEX
 8
CILINDRO
 10
0
 20
0
 30
0
 70
128
 71
104
 72
2
 73
106
 74
106
 0
VERTEX
 8
CILINDRO
 10
0
 20
0
 30
0
 70
128
 71
1
 72
105
 73
3
 74
3
 0
VERTEX
 8
CILINDRO
 10
0
 20
0
 30
0
 70
128
 71
105
 72
106
 73
4
 74
3
 0
VERTEX
 8
CILINDRO
 10
0
 20
0
 30
0
 70
128
 71
106
 72
2
 73
4
 74
4
 0
VERTEX
 8
CILINDRO
 10
0
 20
0
 30
0
 70
128
 71
107
 72
109
 73
111
 74
111
 0
VERTEX
 8
CILINDRO
 10
0
 20
0
 30
0
 70
128
 71
109
 72
110
 73
112
 74
111
 0
VERTEX
 8
CILINDRO
 10
0
 20
0
 30
0
 70
128
 71
110
 72
108
 73
112
 74
112
 0
VERTEX
 8
CILINDRO
 10
0
 20
0
 30
0
 70
128
 71
107
 72
111
 73
113
 74
113
 0
VERTEX
 8
CILINDRO
 10
0
 20
0
 30
0
 70
128
 71
111
 72
112
 73
114
 74
113
 0
VERTEX
 8
CILINDRO
 10
0
 20
0
 30
0
 70
128
 71
112
 72
108
 73
114
 74
114
 0
VERTEX
 8
CILINDRO
 10
0
 20
0
 30
0
 70
128
 71
107
 72
113
 73
115
 74
115
 0
VERTEX
 8
CILINDRO
 10
0
 20
0
 30
0
 70
128
 71
113
 72
114
 73
116
 74
115
 0
VERTEX
 8
CILINDRO
 10
0
 20
0
 30
0
 70
128
 71
114
 72
108
 73
116
 74
116
 0
VERTEX
 8
CILINDRO
 10
0
 20
0
 30
0
 70
128
 71
107
 72
115
 73
117
 74
117
 0
VERTEX
 8
CILINDRO
 10
0
 20
0
 30
0
 70
128
 71
115
 72
116
 73
118
 74
117
 0
VERTEX
 8
CILINDRO
 10
0
 20
0
 30
0
 70
128
 71
116
 72
108
 73
118
 74
118
 0
VERTEX
 8
CILINDRO
 10
0
 20
0
 30
0
 70
128
 71
107
 72
117
 73
119
 74
119
 0
VERTEX
 8
CILINDRO
 10
0
 20
0
 30
0
 70
128
 71
117
 72
118
 73
120
 74
119
 0
VERTEX
 8
CILINDRO
 10
0
 20
0
 30
0
 70
128
 71
118
 72
108
 73
120
 74
120
 0
VERTEX
 8
CILINDRO
 10
0
 20
0
 30
0
 70
128
 71
107
 72
119
 73
121
 74
121
 0
VERTEX
 8
CILINDRO
 10
0
 20
0
 30
0
 70
128
 71
119
 72
120
 73
122
 74
121
 0
VERTEX
 8
CILINDRO
 10
0
 20
0
 30
0
 70
128
 71
120
 72
108
 73
122
 74
122
 0
VERTEX
 8
CILINDRO
 10
0
 20
0
 30
0
 70
128
 71
107
 72
121
 73
123
 74
123
 0
VERTEX
 8
CILINDRO
 10
0
 20
0
 30
0
 70
128
 71
121
 72
122
 73
124
 74
123
 0
VERTEX
 8
CILINDRO
 10
0
 20
0
 30
0
 70
128
 71
122
 72
108
 73
124
 74
124
 0
VERTEX
 8
CILINDRO
 10
0
 20
0
 30
0
 70
128
 71
107
 72
123
 73
125
 74
125
 0
VERTEX
 8
CILINDRO
 10
0
 20
0
 30
0
 70
128
 71
123
 72
124
 73
126
 74
125
 0
VERTEX
 8
CILINDRO
 10
0
 20
0
 30
0
 70
128
 71
124
 72
108
 73
126
 74
126
 0
VERTEX
 8
CILINDRO
 10
0
 20
0
 30
0
 70
128
 71
107
 72
125
 73
127
 74
127
 0
VERTEX
 8
CILINDRO
 10
0
 20
0
 30
0
 70
128
 71
125
 72
126
 73
128
 74
127
 0
VERTEX
 8
CILINDRO
 10
0
 20
0
 30
0
 70
128
 71
126
 72
108
 73
128
 74
128
 0
VERTEX
 8
CILINDRO
 10
0
 20
0
 30
0
 70
128
 71
107
 72
127
 73
129
 74
129
 0
VERTEX
 8
CILINDRO
 10
0
 20
0
 30
0
 70
128
 71
127
 72
128
 73
130
 74
129
 0
VERTEX
 8
CILINDRO
 10
0
 20
0
 30
0
 70
128
 71
128
 72
108
 73
130
 74
130
 0
VERTEX
 8
CILINDRO
 10
0
 20
0
 30
0
 70
128
 71
107
 72
129
 73
131
 74
131
 0
VERTEX
 8
CILINDRO
 10
0
 20
0
 30
0
 70
128
 71
129
 72
130
 73
132
 74
131
 0
VERTEX
 8
CILINDRO
 10
0
 20
0
 30
0
 70
128
 71
130
 72
108
 73
132
 74
132
 0
VERTEX
 8
CILINDRO
 10
0
 20
0
 30
0
 70
128
 71
107
 72
131
 73
133
 74
133
 0
VERTEX
 8
CILINDRO
 10
0
 20
0
 30
0
 70
128
 71
131
 72
132
 73
134
 74
133
 0
VERTEX
 8
CILINDRO
 10
0
 20
0
 30
0
 70
128
 71
132
 72
108
 73
134
 74
134
 0
VERTEX
 8
CILINDRO
 10
0
 20
0
 30
0
 70
128
 71
107
 72
133
 73
135
 74
135
 0
VERTEX
 8
CILINDRO
 10
0
 20
0
 30
0
 70
128
 71
133
 72
134
 73
136
 74
135
 0
VERTEX
 8
CILINDRO
 10
0
 20
0
 30
0
 70
128
 71
134
 72
108
 73
136
 74
136
 0
VERTEX
 8
CILINDRO
 10
0
 20
0
 30
0
 70
128
 71
107
 72
135
 73
137
 74
137
 0
VERTEX
 8
CILINDRO
 10
0
 20
0
 30
0
 70
128
 71
135
 72
136
 73
138
 74
137
 0
VERTEX
 8
CILINDRO
 10
0
 20
0
 30
0
 70
128
 71
136
 72
108
 73
138
 74
138
 0
VERTEX
 8
CILINDRO
 10
0
 20
0
 30
0
 70
128
 71
107
 72
137
 73
139
 74
139
 0
VERTEX
 8
CILINDRO
 10
0
 20
0
 30
0
 70
128
 71
137
 72
138
 73
140
 74
139
 0
VERTEX
 8
CILINDRO
 10
0
 20
0
 30
0
 70
128
 71
138
 72
108
 73
140
 74
140
 0
VERTEX
 8
CILINDRO
 10
0
 20
0
 30
0
 70
128
 71
107
 72
139
 73
141
 74
141
 0
VERTEX
 8
CILINDRO
 10
0
 20
0
 30
0
 70
128
 71
139
 72
140
 73
142
 74
141
 0
VERTEX
 8
CILINDRO
 10
0
 20
0
 30
0
 70
128
 71
140
 72
108
 73
142
 74
142
 0
VERTEX
 8
CILINDRO
 10
0
 20
0
 30
0
 70
128
 71
107
 72
141
 73
143
 74
143
 0
VERTEX
 8
CILINDRO
 10
0
 20
0
 30
0
 70
128
 71
141
 72
142
 73
144
 74
143
 0
VERTEX
 8
CILINDRO
 10
0
 20
0
 30
0
 70
128
 71
142
 72
108
 73
144
 74
144
 0
VERTEX
 8
CILINDRO
 10
0
 20
0
 30
0
 70
128
 71
107
 72
143
 73
145
 74
145
 0
VERTEX
 8
CILINDRO
 10
0
 20
0
 30
0
 70
128
 71
143
 72
144
 73
146
 74
145
 0
VERTEX
 8
CILINDRO
 10
0
 20
0
 30
0
 70
128
 71
144
 72
108
 73
146
 74
146
 0
VERTEX
 8
CILINDRO
 10
0
 20
0
 30
0
 70
128
 71
107
 72
145
 73
147
 74
147
 0
VERTEX
 8
CILINDRO
 10
0
 20
0
 30
0
 70
128
 71
145
 72
146
 73
148
 74
147
 0
VERTEX
 8
CILINDRO
 10
0
 20
0
 30
0
 70
128
 71
146
 72
108
 73
148
 74
148
 0
VERTEX
 8
CILINDRO
 10
0
 20
0
 30
0
 70
128
 71
107
 72
147
 73
149
 74
149
 0
VERTEX
 8
CILINDRO
 10
0
 20
0
 30
0
 70
128
 71
147
 72
148
 73
150
 74
149
 0
VERTEX
 8
CILINDRO
 10
0
 20
0
 30
0
 70
128
 71
148
 72
108
 73
150
 74
150
 0
VERTEX
 8
CILINDRO
 10
0
 20
0
 30
0
 70
128
 71
107
 72
149
 73
151
 74
151
 0
VERTEX
 8
CILINDRO
 10
0
 20
0
 30
0
 70
128
 71
149
 72
150
 73
152
 74
151
 0
VERTEX
 8
CILINDRO
 10
0
 20
0
 30
0
 70
128
 71
150
 72
108
 73
152
 74
152
 0
VERTEX
 8
CILINDRO
 10
0
 20
0
 30
0
 70
128
 71
107
 72
151
 73
153
 74
153
 0
VERTEX
 8
CILINDRO
 10
0
 20
0
 30
0
 70
128
 71
151
 72
152
 73
154
 74
153
 0
VERTEX
 8
CILINDRO
 10
0
 20
0
 30
0
 70
128
 71
152
 72
108
 73
154
 74
154
 0
VERTEX
 8
CILINDRO
 10
0
 20
0
 30
0
 70
128
 71
107
 72
153
 73
155
 74
155
 0
VERTEX
 8
CILINDRO
 10
0
 20
0
 30
0
 70
128
 71
153
 72
154
 73
156
 74
155
 0
VERTEX
 8
CILINDRO
 10
0
 20
0
 30
0
 70
128
 71
154
 72
108
 73
156
 74
156
 0
VERTEX
 8
CILINDRO
 10
0
 20
0
 30
0
 70
128
 71
107
 72
155
 73
157
 74
157
 0
VERTEX
 8
CILINDRO
 10
0
 20
0
 30
0
 70
128
 71
155
 72
156
 73
158
 74
157
 0
VERTEX
 8
CILINDRO
 10
0
 20
0
 30
0
 70
128
 71
156
 72
108
 73
158
 74
158
 0
VERTEX
 8
CILINDRO
 10
0
 20
0
 30
0
 70
128
 71
107
 72
157
 73
159
 74
159
 0
VERTEX
 8
CILINDRO
 10
0
 20
0
 30
0
 70
128
 71
157
 72
158
 73
160
 74
159
 0
VERTEX
 8
CILINDRO
 10
0
 20
0
 30
0
 70
128
 71
158
 72
108
 73
160
 74
160
 0
VERTEX
 8
CILINDRO
 10
0
 20
0
 30
0
 70
128
 71
107
 72
159
 73
161
 74
161
 0
VERTEX
 8
CILINDRO
 10
0
 20
0
 30
0
 70
128
 71
159
 72
160
 73
162
 74
161
 0
VERTEX
 8
CILINDRO
 10
0
 20
0
 30
0
 70
128
 71
160
 72
108
 73
162
 74
162
 0
VERTEX
 8
CILINDRO
 10
0
 20
0
 30
0
 70
128
 71
107
 72
161
 73
163
 74
163
 0
VERTEX
 8
CILINDRO
 10
0
 20
0
 30
0
 70
128
 71
161
 72
162
 73
164
 74
163
 0
VERTEX
 8
CILINDRO
 10
0
 20
0
 30
0
 70
128
 71
162
 72
108
 73
164
 74
164
 0
VERTEX
 8
CILINDRO
 10
0
 20
0
 30
0
 70
128
 71
107
 72
163
 73
165
 74
165
 0
VERTEX
 8
CILINDRO
 10
0
 20
0
 30
0
 70
128
 71
163
 72
164
 73
166
 74
165
 0
VERTEX
 8
CILINDRO
 10
0
 20
0
 30
0
 70
128
 71
164
 72
108
 73
166
 74
166
 0
VERTEX
 8
CILINDRO
 10
0
 20
0
 30
0
 70
128
 71
107
 72
165
 73
167
 74
167
 0
VERTEX
 8
CILINDRO
 10
0
 20
0
 30
0
 70
128
 71
165
 72
166
 73
168
 74
167
 0
VERTEX
 8
CILINDRO
 10
0
 20
0
 30
0
 70
128
 71
166
 72
108
 73
168
 74
168
 0
VERTEX
 8
CILINDRO
 10
0
 20
0
 30
0
 70
128
 71
107
 72
167
 73
169
 74
169
 0
VERTEX
 8
CILINDRO
 10
0
 20
0
 30
0
 70
128
 71
167
 72
168
 73
170
 74
169
 0
VERTEX
 8
CILINDRO
 10
0
 20
0
 30
0
 70
128
 71
168
 72
108
 73
170
 74
170
 0
VERTEX
 8
CILINDRO
 10
0
 20
0
 30
0
 70
128
 71
107
 72
169
 73
171
 74
171
 0
VERTEX
 8
CILINDRO
 10
0
 20
0
 30
0
 70
128
 71
169
 72
170
 73
172
 74
171
 0
VERTEX
 8
CILINDRO
 10
0
 20
0
 30
0
 70
128
 71
170
 72
108
 73
172
 74
172
 0
VERTEX
 8
CILINDRO
 10
0
 20
0
 30
0
 70
128
 71
107
 72
171
 73
173
 74
173
 0
VERTEX
 8
CILINDRO
 10
0
 20
0
 30
0
 70
128
 71
171
 72
172
 73
174
 74
173
 0
VERTEX
 8
CILINDRO
 10
0
 20
0
 30
0
 70
128
 71
172
 72
108
 73
174
 74
174
 0
VERTEX
 8
CILINDRO
 10
0
 20
0
 30
0
 70
128
 71
107
 72
173
 73
175
 74
175
 0
VERTEX
 8
CILINDRO
 10
0
 20
0
 30
0
 70
128
 71
173
 72
174
 73
176
 74
175
 0
VERTEX
 8
CILINDRO
 10
0
 20
0
 30
0
 70
128
 71
174
 72
108
 73
176
 74
176
 0
VERTEX
 8
CILINDRO
 10
0
 20
0
 30
0
 70
128
 71
107
 72
175
 73
177
 74
177
 0
VERTEX
 8
CILINDRO
 10
0
 20
0
 30
0
 70
128
 71
175
 72
176
 73
178
 74
177
 0
VERTEX
 8
CILINDRO
 10
0
 20
0
 30
0
 70
128
 71
176
 72
108
 73
178
 74
178
 0
VERTEX
 8
CILINDRO
 10
0
 20
0
 30
0
 70
128
 71
107
 72
177
 73
179
 74
179
 0
VERTEX
 8
CILINDRO
 10
0
 20
0
 30
0
 70
128
 71
177
 72
178
 73
180
 74
179
 0
VERTEX
 8
CILINDRO
 10
0
 20
0
 30
0
 70
128
 71
178
 72
108
 73
180
 74
180
 0
VERTEX
 8
CILINDRO
 10
0
 20
0
 30
0
 70
128
 71
107
 72
179
 73
181
 74
181
 0
VERTEX
 8
CILINDRO
 10
0
 20
0
 30
0
 70
128
 71
179
 72
180
 73
182
 74
181
 0
VERTEX
 8
CILINDRO
 10
0
 20
0
 30
0
 70
128
 71
180
 72
108
 73
182
 74
182
 0
VERTEX
 8
CILINDRO
 10
0
 20
0
 30
0
 70
128
 71
107
 72
181
 73
183
 74
183
 0
VERTEX
 8
CILINDRO
 10
0
 20
0
 30
0
 70
128
 71
181
 72
182
 73
184
 74
183
 0
VERTEX
 8
CILINDRO
 10
0
 20
0
 30
0
 70
128
 71
182
 72
108
 73
184
 74
184
 0
VERTEX
 8
CILINDRO
 10
0
 20
0
 30
0
 70
128
 71
107
 72
183
 73
185
 74
185
 0
VERTEX
 8
CILINDRO
 10
0
 20
0
 30
0
 70
128
 71
183
 72
184
 73
186
 74
185
 0
VERTEX
 8
CILINDRO
 10
0
 20
0
 30
0
 70
128
 71
184
 72
108
 73
186
 74
186
 0
VERTEX
 8
CILINDRO
 10
0
 20
0
 30
0
 70
128
 71
107
 72
185
 73
187
 74
187
 0
VERTEX
 8
CILINDRO
 10
0
 20
0
 30
0
 70
128
 71
185
 72
186
 73
188
 74
187
 0
VERTEX
 8
CILINDRO
 10
0
 20
0
 30
0
 70
128
 71
186
 72
108
 73
188
 74
188
 0
VERTEX
 8
CILINDRO
 10
0
 20
0
 30
0
 70
128
 71
107
 72
187
 73
189
 74
189
 0
VERTEX
 8
CILINDRO
 10
0
 20
0
 30
0
 70
128
 71
187
 72
188
 73
190
 74
189
 0
VERTEX
 8
CILINDRO
 10
0
 20
0
 30
0
 70
128
 71
188
 72
108
 73
190
 74
190
 0
VERTEX
 8
CILINDRO
 10
0
 20
0
 30
0
 70
128
 71
107
 72
189
 73
191
 74
191
 0
VERTEX
 8
CILINDRO
 10
0
 20
0
 30
0
 70
128
 71
189
 72
190
 73
192
 74
191
 0
VERTEX
 8
CILINDRO
 10
0
 20
0
 30
0
 70
128
 71
190
 72
108
 73
192
 74
192
 0
VERTEX
 8
CILINDRO
 10
0
 20
0
 30
0
 70
128
 71
107
 72
191
 73
193
 74
193
 0
VERTEX
 8
CILINDRO
 10
0
 20
0
 30
0
 70
128
 71
191
 72
192
 73
194
 74
193
 0
VERTEX
 8
CILINDRO
 10
0
 20
0
 30
0
 70
128
 71
192
 72
108
 73
194
 74
194
 0
VERTEX
 8
CILINDRO
 10
0
 20
0
 30
0
 70
128
 71
107
 72
193
 73
195
 74
195
 0
VERTEX
 8
CILINDRO
 10
0
 20
0
 30
0
 70
128
 71
193
 72
194
 73
196
 74
195
 0
VERTEX
 8
CILINDRO
 10
0
 20
0
 30
0
 70
128
 71
194
 72
108
 73
196
 74
196
 0
VERTEX
 8
CILINDRO
 10
0
 20
0
 30
0
 70
128
 71
107
 72
195
 73
197
 74
197
 0
VERTEX
 8
CILINDRO
 10
0
 20
0
 30
0
 70
128
 71
195
 72
196
 73
198
 74
197
 0
VERTEX
 8
CILINDRO
 10
0
 20
0
 30
0
 70
128
 71
196
 72
108
 73
198
 74
198
 0
VERTEX
 8
CILINDRO
 10
0
 20
0
 30
0
 70
128
 71
107
 72
197
 73
199
 74
199
 0
VERTEX
 8
CILINDRO
 10
0
 20
0
 30
0
 70
128
 71
197
 72
198
 73
200
 74
199
 0
VERTEX
 8
CILINDRO
 10
0
 20
0
 30
0
 70
128
 71
198
 72
108
 73
200
 74
200
 0
VERTEX
 8
CILINDRO
 10
0
 20
0
 30
0
 70
128
 71
107
 72
199
 73
201
 74
201
 0
VERTEX
 8
CILINDRO
 10
0
 20
0
 30
0
 70
128
 71
199
 72
200
 73
202
 74
201
 0
VERTEX
 8
CILINDRO
 10
0
 20
0
 30
0
 70
128
 71
200
 72
108
 73
202
 74
202
 0
VERTEX
 8
CILINDRO
 10
0
 20
0
 30
0
 70
128
 71
107
 72
201
 73
203
 74
203
 0
VERTEX
 8
CILINDRO
 10
0
 20
0
 30
0
 70
128
 71
201
 72
202
 73
204
 74
203
 0
VERTEX
 8
CILINDRO
 10
0
 20
0
 30
0
 70
128
 71
202
 72
108
 73
204
 74
204
 0
VERTEX
 8
CILINDRO
 10
0
 20
0
 30
0
 70
128
 71
107
 72
203
 73
205
 74
205
 0
VERTEX
 8
CILINDRO
 10
0
 20
0
 30
0
 70
128
 71
203
 72
204
 73
206
 74
205
 0
VERTEX
 8
CILINDRO
 10
0
 20
0
 30
0
 70
128
 71
204
 72
108
 73
206
 74
206
 0
VERTEX
 8
CILINDRO
 10
0
 20
0
 30
0
 70
128
 71
107
 72
205
 73
207
 74
207
 0
VERTEX
 8
CILINDRO
 10
0
 20
0
 30
0
 70
128
 71
205
 72
206
 73
208
 74
207
 0
VERTEX
 8
CILINDRO
 10
0
 20
0
 30
0
 70
128
 71
206
 72
108
 73
208
 74
208
 0
VERTEX
 8
CILINDRO
 10
0
 20
0
 30
0
 70
128
 71
107
 72
207
 73
209
 74
209
 0
VERTEX
 8
CILINDRO
 10
0
 20
0
 30
0
 70
128
 71
207
 72
208
 73
210
 74
209
 0
VERTEX
 8
CILINDRO
 10
0
 20
0
 30
0
 70
128
 71
208
 72
108
 73
210
 74
210
 0
VERTEX
 8
CILINDRO
 10
0
 20
0
 30
0
 70
128
 71
107
 72
209
 73
211
 74
211
 0
VERTEX
 8
CILINDRO
 10
0
 20
0
 30
0
 70
128
 71
209
 72
210
 73
212
 74
211
 0
VERTEX
 8
CILINDRO
 10
0
 20
0
 30
0
 70
128
 71
210
 72
108
 73
212
 74
212
 0
VERTEX
 8
CILINDRO
 10
0
 20
0
 30
0
 70
128
 71
107
 72
211
 73
109
 74
109
 0
VERTEX
 8
CILINDRO
 10
0
 20
0
 30
0
 70
128
 71
211
 72
212
 73
110
 74
109
 0
VERTEX
 8
CILINDRO
 10
0
 20
0
 30
0
 70
128
 71
212
 72
108
 73
110
 74
110
 0
SEQEND
 0
POLYLINE
 8
MANIGLIA_1
 66
1
 10
0.0
 20
0.0
 30
0.0
 70
64
 71
686
 72
632
 0
VERTEX
 8
MANIGLIA_1
 10
-26.198
 20
-4.7443
 30
144.9801
 70
192
 0
VERTEX
 8
MANIGLIA_1
 10
-25.998
 20
-4.7443
 30
144.9801
 70
192
 0
VERTEX
 8
MANIGLIA_1
 10
-21.9979
 20
-4.7443
 30
144.9801
 70
192
 0
VERTEX
 8
MANIGLIA_1
 10
22.002
 20
-4.7443
 30
144.9801
 70
192
 0
VERTEX
 8
MANIGLIA_1
 10
26.002
 20
-4.7443
 30
144.9801
 70
192
 0
VERTEX
 8
MANIGLIA_1
 10
26.2019
 20
-4.7443
 30
144.9801
 70
192
 0
VERTEX
 8
MANIGLIA_1
 10
-26.198
 20
-4.737
 30
144.8595
 70
192
 0
VERTEX
 8
MANIGLIA_1
 10
-25.998
 20
-4.737
 30
144.8595
 70
192
 0
VERTEX
 8
MANIGLIA_1
 10
-21.9979
 20
-4.737
 30
144.8595
 70
192
 0
VERTEX
 8
MANIGLIA_1
 10
22.002
 20
-4.737
 30
144.8595
 70
192
 0
VERTEX
 8
MANIGLIA_1
 10
26.002
 20
-4.737
 30
144.8595
 70
192
 0
VERTEX
 8
MANIGLIA_1
 10
26.2019
 20
-4.737
 30
144.8595
 70
192
 0
VERTEX
 8
MANIGLIA_1
 10
-26.198
 20
-4.7153
 30
144.7407
 70
192
 0
VERTEX
 8
MANIGLIA_1
 10
-25.998
 20
-4.7153
 30
144.7407
 70
192
 0
VERTEX
 8
MANIGLIA_1
 10
-21.9979
 20
-4.7153
 30
144.7407
 70
192
 0
VERTEX
 8
MANIGLIA_1
 10
22.002
 20
-4.7153
 30
144.7407
 70
192
 0
VERTEX
 8
MANIGLIA_1
 10
26.002
 20
-4.7153
 30
144.7407
 70
192
 0
VERTEX
 8
MANIGLIA_1
 10
26.2019
 20
-4.7153
 30
144.7407
 70
192
 0
VERTEX
 8
MANIGLIA_1
 10
-26.198
 20
-4.6794
 30
144.6254
 70
192
 0
VERTEX
 8
MANIGLIA_1
 10
-25.998
 20
-4.6794
 30
144.6254
 70
192
 0
VERTEX
 8
MANIGLIA_1
 10
-21.9979
 20
-4.6794
 30
144.6254
 70
192
 0
VERTEX
 8
MANIGLIA_1
 10
22.002
 20
-4.6794
 30
144.6254
 70
192
 0
VERTEX
 8
MANIGLIA_1
 10
26.002
 20
-4.6794
 30
144.6254
 70
192
 0
VERTEX
 8
MANIGLIA_1
 10
26.2019
 20
-4.6794
 30
144.6254
 70
192
 0
VERTEX
 8
MANIGLIA_1
 10
-26.198
 20
-4.6298
 30
144.5153
 70
192
 0
VERTEX
 8
MANIGLIA_1
 10
-25.998
 20
-4.6298
 30
144.5153
 70
192
 0
VERTEX
 8
MANIGLIA_1
 10
-21.9979
 20
-4.6298
 30
144.5153
 70
192
 0
VERTEX
 8
MANIGLIA_1
 10
22.002
 20
-4.6298
 30
144.5153
 70
192
 0
VERTEX
 8
MANIGLIA_1
 10
26.002
 20
-4.6298
 30
144.5153
 70
192
 0
VERTEX
 8
MANIGLIA_1
 10
26.2019
 20
-4.6298
 30
144.5153
 70
192
 0
VERTEX
 8
MANIGLIA_1
 10
-26.198
 20
-4.5673
 30
144.412
 70
192
 0
VERTEX
 8
MANIGLIA_1
 10
-25.998
 20
-4.5673
 30
144.412
 70
192
 0
VERTEX
 8
MANIGLIA_1
 10
-21.9979
 20
-4.5673
 30
144.412
 70
192
 0
VERTEX
 8
MANIGLIA_1
 10
22.002
 20
-4.5673
 30
144.412
 70
192
 0
VERTEX
 8
MANIGLIA_1
 10
26.002
 20
-4.5673
 30
144.412
 70
192
 0
VERTEX
 8
MANIGLIA_1
 10
26.2019
 20
-4.5673
 30
144.412
 70
192
 0
VERTEX
 8
MANIGLIA_1
 10
-26.198
 20
-4.4928
 30
144.3169
 70
192
 0
VERTEX
 8
MANIGLIA_1
 10
-25.998
 20
-4.4928
 30
144.3169
 70
192
 0
VERTEX
 8
MANIGLIA_1
 10
-21.9979
 20
-4.4928
 30
144.3169
 70
192
 0
VERTEX
 8
MANIGLIA_1
 10
22.002
 20
-4.4928
 30
144.3169
 70
192
 0
VERTEX
 8
MANIGLIA_1
 10
26.002
 20
-4.4928
 30
144.3169
 70
192
 0
VERTEX
 8
MANIGLIA_1
 10
26.2019
 20
-4.4928
 30
144.3169
 70
192
 0
VERTEX
 8
MANIGLIA_1
 10
-26.198
 20
-4.4075
 30
144.2315
 70
192
 0
VERTEX
 8
MANIGLIA_1
 10
-25.998
 20
-4.4075
 30
144.2315
 70
192
 0
VERTEX
 8
MANIGLIA_1
 10
-21.9979
 20
-4.4075
 30
144.2315
 70
192
 0
VERTEX
 8
MANIGLIA_1
 10
22.002
 20
-4.4075
 30
144.2315
 70
192
 0
VERTEX
 8
MANIGLIA_1
 10
26.002
 20
-4.4075
 30
144.2315
 70
192
 0
VERTEX
 8
MANIGLIA_1
 10
26.2019
 20
-4.4075
 30
144.2315
 70
192
 0
VERTEX
 8
MANIGLIA_1
 10
-26.198
 20
-4.3124
 30
144.1571
 70
192
 0
VERTEX
 8
MANIGLIA_1
 10
-25.998
 20
-4.3124
 30
144.1571
 70
192
 0
VERTEX
 8
MANIGLIA_1
 10
-21.9979
 20
-4.3124
 30
144.1571
 70
192
 0
VERTEX
 8
MANIGLIA_1
 10
22.002
 20
-4.3124
 30
144.1571
 70
192
 0
VERTEX
 8
MANIGLIA_1
 10
26.002
 20
-4.3124
 30
144.1571
 70
192
 0
VERTEX
 8
MANIGLIA_1
 10
26.2019
 20
-4.3124
 30
144.1571
 70
192
 0
VERTEX
 8
MANIGLIA_1
 10
-26.198
 20
-4.2091
 30
144.0946
 70
192
 0
VERTEX
 8
MANIGLIA_1
 10
-25.998
 20
-4.2091
 30
144.0946
 70
192
 0
VERTEX
 8
MANIGLIA_1
 10
-21.9979
 20
-4.2091
 30
144.0946
 70
192
 0
VERTEX
 8
MANIGLIA_1
 10
22.002
 20
-4.2091
 30
144.0946
 70
192
 0
VERTEX
 8
MANIGLIA_1
 10
26.002
 20
-4.2091
 30
144.0946
 70
192
 0
VERTEX
 8
MANIGLIA_1
 10
26.2019
 20
-4.2091
 30
144.0946
 70
192
 0
VERTEX
 8
MANIGLIA_1
 10
-26.198
 20
-4.0989
 30
144.045
 70
192
 0
VERTEX
 8
MANIGLIA_1
 10
-25.998
 20
-4.0989
 30
144.045
 70
192
 0
VERTEX
 8
MANIGLIA_1
 10
-21.9979
 20
-4.0989
 30
144.045
 70
192
 0
VERTEX
 8
MANIGLIA_1
 10
22.002
 20
-4.0989
 30
144.045
 70
192
 0
VERTEX
 8
MANIGLIA_1
 10
26.002
 20
-4.0989
 30
144.045
 70
192
 0
VERTEX
 8
MANIGLIA_1
 10
26.2019
 20
-4.0989
 30
144.045
 70
192
 0
VERTEX
 8
MANIGLIA_1
 10
-26.198
 20
-3.9837
 30
144.0091
 70
192
 0
VERTEX
 8
MANIGLIA_1
 10
-25.998
 20
-3.9837
 30
144.0091
 70
192
 0
VERTEX
 8
MANIGLIA_1
 10
-21.9979
 20
-3.9837
 30
144.0091
 70
192
 0
VERTEX
 8
MANIGLIA_1
 10
22.002
 20
-3.9837
 30
144.0091
 70
192
 0
VERTEX
 8
MANIGLIA_1
 10
26.002
 20
-3.9837
 30
144.0091
 70
192
 0
VERTEX
 8
MANIGLIA_1
 10
26.2019
 20
-3.9837
 30
144.0091
 70
192
 0
VERTEX
 8
MANIGLIA_1
 10
-26.198
 20
-3.8649
 30
143.9873
 70
192
 0
VERTEX
 8
MANIGLIA_1
 10
-25.998
 20
-3.8649
 30
143.9873
 70
192
 0
VERTEX
 8
MANIGLIA_1
 10
-21.9979
 20
-3.8649
 30
143.9873
 70
192
 0
VERTEX
 8
MANIGLIA_1
 10
22.002
 20
-3.8649
 30
143.9873
 70
192
 0
VERTEX
 8
MANIGLIA_1
 10
26.002
 20
-3.8649
 30
143.9873
 70
192
 0
VERTEX
 8
MANIGLIA_1
 10
26.2019
 20
-3.8649
 30
143.9873
 70
192
 0
VERTEX
 8
MANIGLIA_1
 10
-26.198
 20
-3.7443
 30
143.9801
 70
192
 0
VERTEX
 8
MANIGLIA_1
 10
-25.998
 20
-3.7443
 30
143.9801
 70
192
 0
VERTEX
 8
MANIGLIA_1
 10
-21.9979
 20
-3.7443
 30
143.9801
 70
192
 0
VERTEX
 8
MANIGLIA_1
 10
22.002
 20
-3.7443
 30
143.9801
 70
192
 0
VERTEX
 8
MANIGLIA_1
 10
26.002
 20
-3.7443
 30
143.9801
 70
192
 0
VERTEX
 8
MANIGLIA_1
 10
26.2019
 20
-3.7443
 30
143.9801
 70
192
 0
VERTEX
 8
MANIGLIA_1
 10
-26.198
 20
-3.6238
 30
143.9873
 70
192
 0
VERTEX
 8
MANIGLIA_1
 10
-25.998
 20
-3.6238
 30
143.9873
 70
192
 0
VERTEX
 8
MANIGLIA_1
 10
-21.9979
 20
-3.6238
 30
143.9873
 70
192
 0
VERTEX
 8
MANIGLIA_1
 10
22.002
 20
-3.6238
 30
143.9873
 70
192
 0
VERTEX
 8
MANIGLIA_1
 10
26.002
 20
-3.6238
 30
143.9873
 70
192
 0
VERTEX
 8
MANIGLIA_1
 10
26.2019
 20
-3.6238
 30
143.9873
 70
192
 0
VERTEX
 8
MANIGLIA_1
 10
-26.198
 20
-3.505
 30
144.0091
 70
192
 0
VERTEX
 8
MANIGLIA_1
 10
-25.998
 20
-3.505
 30
144.0091
 70
192
 0
VERTEX
 8
MANIGLIA_1
 10
-21.9979
 20
-3.505
 30
144.0091
 70
192
 0
VERTEX
 8
MANIGLIA_1
 10
22.002
 20
-3.505
 30
144.0091
 70
192
 0
VERTEX
 8
MANIGLIA_1
 10
26.002
 20
-3.505
 30
144.0091
 70
192
 0
VERTEX
 8
MANIGLIA_1
 10
26.2019
 20
-3.505
 30
144.0091
 70
192
 0
VERTEX
 8
MANIGLIA_1
 10
-26.198
 20
-3.3897
 30
144.045
 70
192
 0
VERTEX
 8
MANIGLIA_1
 10
-25.998
 20
-3.3897
 30
144.045
 70
192
 0
VERTEX
 8
MANIGLIA_1
 10
-21.9979
 20
-3.3897
 30
144.045
 70
192
 0
VERTEX
 8
MANIGLIA_1
 10
22.002
 20
-3.3897
 30
144.045
 70
192
 0
VERTEX
 8
MANIGLIA_1
 10
26.002
 20
-3.3897
 30
144.045
 70
192
 0
VERTEX
 8
MANIGLIA_1
 10
26.2019
 20
-3.3897
 30
144.045
 70
192
 0
VERTEX
 8
MANIGLIA_1
 10
-26.198
 20
-3.2796
 30
144.0946
 70
192
 0
VERTEX
 8
MANIGLIA_1
 10
-25.998
 20
-3.2796
 30
144.0946
 70
192
 0
VERTEX
 8
MANIGLIA_1
 10
-21.9979
 20
-3.2796
 30
144.0946
 70
192
 0
VERTEX
 8
MANIGLIA_1
 10
22.002
 20
-3.2796
 30
144.0946
 70
192
 0
VERTEX
 8
MANIGLIA_1
 10
26.002
 20
-3.2796
 30
144.0946
 70
192
 0
VERTEX
 8
MANIGLIA_1
 10
26.2019
 20
-3.2796
 30
144.0946
 70
192
 0
VERTEX
 8
MANIGLIA_1
 10
-26.198
 20
-3.1763
 30
144.1571
 70
192
 0
VERTEX
 8
MANIGLIA_1
 10
-25.998
 20
-3.1763
 30
144.1571
 70
192
 0
VERTEX
 8
MANIGLIA_1
 10
-21.9979
 20
-3.1763
 30
144.1571
 70
192
 0
VERTEX
 8
MANIGLIA_1
 10
22.002
 20
-3.1763
 30
144.1571
 70
192
 0
VERTEX
 8
MANIGLIA_1
 10
26.002
 20
-3.1763
 30
144.1571
 70
192
 0
VERTEX
 8
MANIGLIA_1
 10
26.2019
 20
-3.1763
 30
144.1571
 70
192
 0
VERTEX
 8
MANIGLIA_1
 10
-26.198
 20
-3.0812
 30
144.2315
 70
192
 0
VERTEX
 8
MANIGLIA_1
 10
-25.998
 20
-3.0812
 30
144.2315
 70
192
 0
VERTEX
 8
MANIGLIA_1
 10
-21.9979
 20
-3.0812
 30
144.2315
 70
192
 0
VERTEX
 8
MANIGLIA_1
 10
22.002
 20
-3.0812
 30
144.2315
 70
192
 0
VERTEX
 8
MANIGLIA_1
 10
26.002
 20
-3.0812
 30
144.2315
 70
192
 0
VERTEX
 8
MANIGLIA_1
 10
26.2019
 20
-3.0812
 30
144.2315
 70
192
 0
VERTEX
 8
MANIGLIA_1
 10
-26.198
 20
-2.9958
 30
144.3169
 70
192
 0
VERTEX
 8
MANIGLIA_1
 10
-25.998
 20
-2.9958
 30
144.3169
 70
192
 0
VERTEX
 8
MANIGLIA_1
 10
-21.9979
 20
-2.9958
 30
144.3169
 70
192
 0
VERTEX
 8
MANIGLIA_1
 10
22.002
 20
-2.9958
 30
144.3169
 70
192
 0
VERTEX
 8
MANIGLIA_1
 10
26.002
 20
-2.9958
 30
144.3169
 70
192
 0
VERTEX
 8
MANIGLIA_1
 10
26.2019
 20
-2.9958
 30
144.3169
 70
192
 0
VERTEX
 8
MANIGLIA_1
 10
-26.198
 20
-2.9214
 30
144.412
 70
192
 0
VERTEX
 8
MANIGLIA_1
 10
-25.998
 20
-2.9214
 30
144.412
 70
192
 0
VERTEX
 8
MANIGLIA_1
 10
-21.9979
 20
-2.9214
 30
144.412
 70
192
 0
VERTEX
 8
MANIGLIA_1
 10
22.002
 20
-2.9214
 30
144.412
 70
192
 0
VERTEX
 8
MANIGLIA_1
 10
26.002
 20
-2.9214
 30
144.412
 70
192
 0
VERTEX
 8
MANIGLIA_1
 10
26.2019
 20
-2.9214
 30
144.412
 70
192
 0
VERTEX
 8
MANIGLIA_1
 10
-26.198
 20
-2.8589
 30
144.5153
 70
192
 0
VERTEX
 8
MANIGLIA_1
 10
-25.998
 20
-2.8589
 30
144.5153
 70
192
 0
VERTEX
 8
MANIGLIA_1
 10
-21.9979
 20
-2.8589
 30
144.5153
 70
192
 0
VERTEX
 8
MANIGLIA_1
 10
22.002
 20
-2.8589
 30
144.5153
 70
192
 0
VERTEX
 8
MANIGLIA_1
 10
26.002
 20
-2.8589
 30
144.5153
 70
192
 0
VERTEX
 8
MANIGLIA_1
 10
26.2019
 20
-2.8589
 30
144.5153
 70
192
 0
VERTEX
 8
MANIGLIA_1
 10
-26.198
 20
-2.8093
 30
144.6254
 70
192
 0
VERTEX
 8
MANIGLIA_1
 10
-25.998
 20
-2.8093
 30
144.6254
 70
192
 0
VERTEX
 8
MANIGLIA_1
 10
-21.9979
 20
-2.8093
 30
144.6254
 70
192
 0
VERTEX
 8
MANIGLIA_1
 10
22.002
 20
-2.8093
 30
144.6254
 70
192
 0
VERTEX
 8
MANIGLIA_1
 10
26.002
 20
-2.8093
 30
144.6254
 70
192
 0
VERTEX
 8
MANIGLIA_1
 10
26.2019
 20
-2.8093
 30
144.6254
 70
192
 0
VERTEX
 8
MANIGLIA_1
 10
-26.198
 20
-2.7734
 30
144.7407
 70
192
 0
VERTEX
 8
MANIGLIA_1
 10
-25.998
 20
-2.7734
 30
144.7407
 70
192
 0
VERTEX
 8
MANIGLIA_1
 10
-21.9979
 20
-2.7734
 30
144.7407
 70
192
 0
VERTEX
 8
MANIGLIA_1
 10
22.002
 20
-2.7734
 30
144.7407
 70
192
 0
VERTEX
 8
MANIGLIA_1
 10
26.002
 20
-2.7734
 30
144.7407
 70
192
 0
VERTEX
 8
MANIGLIA_1
 10
26.2019
 20
-2.7734
 30
144.7407
 70
192
 0
VERTEX
 8
MANIGLIA_1
 10
-26.198
 20
-2.7516
 30
144.8595
 70
192
 0
VERTEX
 8
MANIGLIA_1
 10
-25.998
 20
-2.7516
 30
144.8595
 70
192
 0
VERTEX
 8
MANIGLIA_1
 10
-21.9979
 20
-2.7516
 30
144.8595
 70
192
 0
VERTEX
 8
MANIGLIA_1
 10
22.002
 20
-2.7516
 30
144.8595
 70
192
 0
VERTEX
 8
MANIGLIA_1
 10
26.002
 20
-2.7516
 30
144.8595
 70
192
 0
VERTEX
 8
MANIGLIA_1
 10
26.2019
 20
-2.7516
 30
144.8595
 70
192
 0
VERTEX
 8
MANIGLIA_1
 10
-26.198
 20
-2.7443
 30
144.9801
 70
192
 0
VERTEX
 8
MANIGLIA_1
 10
-25.998
 20
-2.7443
 30
144.9801
 70
192
 0
VERTEX
 8
MANIGLIA_1
 10
-21.9979
 20
-2.7443
 30
144.9801
 70
192
 0
VERTEX
 8
MANIGLIA_1
 10
22.002
 20
-2.7443
 30
144.9801
 70
192
 0
VERTEX
 8
MANIGLIA_1
 10
26.002
 20
-2.7443
 30
144.9801
 70
192
 0
VERTEX
 8
MANIGLIA_1
 10
26.2019
 20
-2.7443
 30
144.9801
 70
192
 0
VERTEX
 8
MANIGLIA_1
 10
-26.198
 20
-2.7516
 30
145.1006
 70
192
 0
VERTEX
 8
MANIGLIA_1
 10
-25.998
 20
-2.7516
 30
145.1006
 70
192
 0
VERTEX
 8
MANIGLIA_1
 10
-21.9979
 20
-2.7516
 30
145.1006
 70
192
 0
VERTEX
 8
MANIGLIA_1
 10
22.002
 20
-2.7516
 30
145.1006
 70
192
 0
VERTEX
 8
MANIGLIA_1
 10
26.002
 20
-2.7516
 30
145.1006
 70
192
 0
VERTEX
 8
MANIGLIA_1
 10
26.2019
 20
-2.7516
 30
145.1006
 70
192
 0
VERTEX
 8
MANIGLIA_1
 10
-26.198
 20
-2.7734
 30
145.2194
 70
192
 0
VERTEX
 8
MANIGLIA_1
 10
-25.998
 20
-2.7734
 30
145.2194
 70
192
 0
VERTEX
 8
MANIGLIA_1
 10
-21.9979
 20
-2.7734
 30
145.2194
 70
192
 0
VERTEX
 8
MANIGLIA_1
 10
22.002
 20
-2.7734
 30
145.2194
 70
192
 0
VERTEX
 8
MANIGLIA_1
 10
26.002
 20
-2.7734
 30
145.2194
 70
192
 0
VERTEX
 8
MANIGLIA_1
 10
26.2019
 20
-2.7734
 30
145.2194
 70
192
 0
VERTEX
 8
MANIGLIA_1
 10
-26.198
 20
-2.8093
 30
145.3347
 70
192
 0
VERTEX
 8
MANIGLIA_1
 10
-25.998
 20
-2.8093
 30
145.3347
 70
192
 0
VERTEX
 8
MANIGLIA_1
 10
-21.9979
 20
-2.8093
 30
145.3347
 70
192
 0
VERTEX
 8
MANIGLIA_1
 10
22.002
 20
-2.8093
 30
145.3347
 70
192
 0
VERTEX
 8
MANIGLIA_1
 10
26.002
 20
-2.8093
 30
145.3347
 70
192
 0
VERTEX
 8
MANIGLIA_1
 10
26.2019
 20
-2.8093
 30
145.3347
 70
192
 0
VERTEX
 8
MANIGLIA_1
 10
-26.198
 20
-2.8589
 30
145.4448
 70
192
 0
VERTEX
 8
MANIGLIA_1
 10
-25.998
 20
-2.8589
 30
145.4448
 70
192
 0
VERTEX
 8
MANIGLIA_1
 10
-21.9979
 20
-2.8589
 30
145.4448
 70
192
 0
VERTEX
 8
MANIGLIA_1
 10
22.002
 20
-2.8589
 30
145.4448
 70
192
 0
VERTEX
 8
MANIGLIA_1
 10
26.002
 20
-2.8589
 30
145.4448
 70
192
 0
VERTEX
 8
MANIGLIA_1
 10
26.2019
 20
-2.8589
 30
145.4448
 70
192
 0
VERTEX
 8
MANIGLIA_1
 10
-26.198
 20
-2.9214
 30
145.5481
 70
192
 0
VERTEX
 8
MANIGLIA_1
 10
-25.998
 20
-2.9214
 30
145.5481
 70
192
 0
VERTEX
 8
MANIGLIA_1
 10
-21.9979
 20
-2.9214
 30
145.5481
 70
192
 0
VERTEX
 8
MANIGLIA_1
 10
22.002
 20
-2.9214
 30
145.5481
 70
192
 0
VERTEX
 8
MANIGLIA_1
 10
26.002
 20
-2.9214
 30
145.5481
 70
192
 0
VERTEX
 8
MANIGLIA_1
 10
26.2019
 20
-2.9214
 30
145.5481
 70
192
 0
VERTEX
 8
MANIGLIA_1
 10
-26.198
 20
-2.9958
 30
145.6432
 70
192
 0
VERTEX
 8
MANIGLIA_1
 10
-25.998
 20
-2.9958
 30
145.6432
 70
192
 0
VERTEX
 8
MANIGLIA_1
 10
-21.9979
 20
-2.9958
 30
145.6432
 70
192
 0
VERTEX
 8
MANIGLIA_1
 10
22.002
 20
-2.9958
 30
145.6432
 70
192
 0
VERTEX
 8
MANIGLIA_1
 10
26.002
 20
-2.9958
 30
145.6432
 70
192
 0
VERTEX
 8
MANIGLIA_1
 10
26.2019
 20
-2.9958
 30
145.6432
 70
192
 0
VERTEX
 8
MANIGLIA_1
 10
-26.198
 20
-3.0812
 30
145.7286
 70
192
 0
VERTEX
 8
MANIGLIA_1
 10
-25.998
 20
-3.0812
 30
145.7286
 70
192
 0
VERTEX
 8
MANIGLIA_1
 10
-21.9979
 20
-3.0812
 30
145.7286
 70
192
 0
VERTEX
 8
MANIGLIA_1
 10
22.002
 20
-3.0812
 30
145.7286
 70
192
 0
VERTEX
 8
MANIGLIA_1
 10
26.002
 20
-3.0812
 30
145.7286
 70
192
 0
VERTEX
 8
MANIGLIA_1
 10
26.2019
 20
-3.0812
 30
145.7286
 70
192
 0
VERTEX
 8
MANIGLIA_1
 10
-26.198
 20
-3.1763
 30
145.803
 70
192
 0
VERTEX
 8
MANIGLIA_1
 10
-25.998
 20
-3.1763
 30
145.803
 70
192
 0
VERTEX
 8
MANIGLIA_1
 10
-21.9979
 20
-3.1763
 30
145.803
 70
192
 0
VERTEX
 8
MANIGLIA_1
 10
22.002
 20
-3.1763
 30
145.803
 70
192
 0
VERTEX
 8
MANIGLIA_1
 10
26.002
 20
-3.1763
 30
145.803
 70
192
 0
VERTEX
 8
MANIGLIA_1
 10
26.2019
 20
-3.1763
 30
145.803
 70
192
 0
VERTEX
 8
MANIGLIA_1
 10
-26.198
 20
-3.2796
 30
145.8655
 70
192
 0
VERTEX
 8
MANIGLIA_1
 10
-25.998
 20
-3.2796
 30
145.8655
 70
192
 0
VERTEX
 8
MANIGLIA_1
 10
-21.9979
 20
-3.2796
 30
145.8655
 70
192
 0
VERTEX
 8
MANIGLIA_1
 10
22.002
 20
-3.2796
 30
145.8655
 70
192
 0
VERTEX
 8
MANIGLIA_1
 10
26.002
 20
-3.2796
 30
145.8655
 70
192
 0
VERTEX
 8
MANIGLIA_1
 10
26.2019
 20
-3.2796
 30
145.8655
 70
192
 0
VERTEX
 8
MANIGLIA_1
 10
-26.198
 20
-3.3897
 30
145.9151
 70
192
 0
VERTEX
 8
MANIGLIA_1
 10
-25.998
 20
-3.3897
 30
145.9151
 70
192
 0
VERTEX
 8
MANIGLIA_1
 10
-21.9979
 20
-3.3897
 30
145.9151
 70
192
 0
VERTEX
 8
MANIGLIA_1
 10
22.002
 20
-3.3897
 30
145.9151
 70
192
 0
VERTEX
 8
MANIGLIA_1
 10
26.002
 20
-3.3897
 30
145.9151
 70
192
 0
VERTEX
 8
MANIGLIA_1
 10
26.2019
 20
-3.3897
 30
145.9151
 70
192
 0
VERTEX
 8
MANIGLIA_1
 10
-26.198
 20
-3.505
 30
145.951
 70
192
 0
VERTEX
 8
MANIGLIA_1
 10
-25.998
 20
-3.505
 30
145.951
 70
192
 0
VERTEX
 8
MANIGLIA_1
 10
-21.9979
 20
-3.505
 30
145.951
 70
192
 0
VERTEX
 8
MANIGLIA_1
 10
22.002
 20
-3.505
 30
145.951
 70
192
 0
VERTEX
 8
MANIGLIA_1
 10
26.002
 20
-3.505
 30
145.951
 70
192
 0
VERTEX
 8
MANIGLIA_1
 10
26.2019
 20
-3.505
 30
145.951
 70
192
 0
VERTEX
 8
MANIGLIA_1
 10
-26.198
 20
-3.6238
 30
145.9728
 70
192
 0
VERTEX
 8
MANIGLIA_1
 10
-25.998
 20
-3.6238
 30
145.9728
 70
192
 0
VERTEX
 8
MANIGLIA_1
 10
-21.9979
 20
-3.6238
 30
145.9728
 70
192
 0
VERTEX
 8
MANIGLIA_1
 10
22.002
 20
-3.6238
 30
145.9728
 70
192
 0
VERTEX
 8
MANIGLIA_1
 10
26.002
 20
-3.6238
 30
145.9728
 70
192
 0
VERTEX
 8
MANIGLIA_1
 10
26.2019
 20
-3.6238
 30
145.9728
 70
192
 0
VERTEX
 8
MANIGLIA_1
 10
-26.198
 20
-3.7443
 30
145.9801
 70
192
 0
VERTEX
 8
MANIGLIA_1
 10
-25.998
 20
-3.7443
 30
145.9801
 70
192
 0
VERTEX
 8
MANIGLIA_1
 10
-21.9979
 20
-3.7443
 30
145.9801
 70
192
 0
VERTEX
 8
MANIGLIA_1
 10
22.002
 20
-3.7443
 30
145.9801
 70
192
 0
VERTEX
 8
MANIGLIA_1
 10
26.002
 20
-3.7443
 30
145.9801
 70
192
 0
VERTEX
 8
MANIGLIA_1
 10
26.2019
 20
-3.7443
 30
145.9801
 70
192
 0
VERTEX
 8
MANIGLIA_1
 10
-26.198
 20
-3.8649
 30
145.9728
 70
192
 0
VERTEX
 8
MANIGLIA_1
 10
-25.998
 20
-3.8649
 30
145.9728
 70
192
 0
VERTEX
 8
MANIGLIA_1
 10
-21.9979
 20
-3.8649
 30
145.9728
 70
192
 0
VERTEX
 8
MANIGLIA_1
 10
22.002
 20
-3.8649
 30
145.9728
 70
192
 0
VERTEX
 8
MANIGLIA_1
 10
26.002
 20
-3.8649
 30
145.9728
 70
192
 0
VERTEX
 8
MANIGLIA_1
 10
26.2019
 20
-3.8649
 30
145.9728
 70
192
 0
VERTEX
 8
MANIGLIA_1
 10
-26.198
 20
-3.9837
 30
145.951
 70
192
 0
VERTEX
 8
MANIGLIA_1
 10
-25.998
 20
-3.9837
 30
145.951
 70
192
 0
VERTEX
 8
MANIGLIA_1
 10
-21.9979
 20
-3.9837
 30
145.951
 70
192
 0
VERTEX
 8
MANIGLIA_1
 10
22.002
 20
-3.9837
 30
145.951
 70
192
 0
VERTEX
 8
MANIGLIA_1
 10
26.002
 20
-3.9837
 30
145.951
 70
192
 0
VERTEX
 8
MANIGLIA_1
 10
26.2019
 20
-3.9837
 30
145.951
 70
192
 0
VERTEX
 8
MANIGLIA_1
 10
-26.198
 20
-4.0989
 30
145.9151
 70
192
 0
VERTEX
 8
MANIGLIA_1
 10
-25.998
 20
-4.0989
 30
145.9151
 70
192
 0
VERTEX
 8
MANIGLIA_1
 10
-21.9979
 20
-4.0989
 30
145.9151
 70
192
 0
VERTEX
 8
MANIGLIA_1
 10
22.002
 20
-4.0989
 30
145.9151
 70
192
 0
VERTEX
 8
MANIGLIA_1
 10
26.002
 20
-4.0989
 30
145.9151
 70
192
 0
VERTEX
 8
MANIGLIA_1
 10
26.2019
 20
-4.0989
 30
145.9151
 70
192
 0
VERTEX
 8
MANIGLIA_1
 10
-26.198
 20
-4.2091
 30
145.8655
 70
192
 0
VERTEX
 8
MANIGLIA_1
 10
-25.998
 20
-4.2091
 30
145.8655
 70
192
 0
VERTEX
 8
MANIGLIA_1
 10
-21.9979
 20
-4.2091
 30
145.8655
 70
192
 0
VERTEX
 8
MANIGLIA_1
 10
22.002
 20
-4.2091
 30
145.8655
 70
192
 0
VERTEX
 8
MANIGLIA_1
 10
26.002
 20
-4.2091
 30
145.8655
 70
192
 0
VERTEX
 8
MANIGLIA_1
 10
26.2019
 20
-4.2091
 30
145.8655
 70
192
 0
VERTEX
 8
MANIGLIA_1
 10
-26.198
 20
-4.3124
 30
145.803
 70
192
 0
VERTEX
 8
MANIGLIA_1
 10
-25.998
 20
-4.3124
 30
145.803
 70
192
 0
VERTEX
 8
MANIGLIA_1
 10
-21.9979
 20
-4.3124
 30
145.803
 70
192
 0
VERTEX
 8
MANIGLIA_1
 10
22.002
 20
-4.3124
 30
145.803
 70
192
 0
VERTEX
 8
MANIGLIA_1
 10
26.002
 20
-4.3124
 30
145.803
 70
192
 0
VERTEX
 8
MANIGLIA_1
 10
26.2019
 20
-4.3124
 30
145.803
 70
192
 0
VERTEX
 8
MANIGLIA_1
 10
-26.198
 20
-4.4075
 30
145.7286
 70
192
 0
VERTEX
 8
MANIGLIA_1
 10
-25.998
 20
-4.4075
 30
145.7286
 70
192
 0
VERTEX
 8
MANIGLIA_1
 10
-21.9979
 20
-4.4075
 30
145.7286
 70
192
 0
VERTEX
 8
MANIGLIA_1
 10
22.002
 20
-4.4075
 30
145.7286
 70
192
 0
VERTEX
 8
MANIGLIA_1
 10
26.002
 20
-4.4075
 30
145.7286
 70
192
 0
VERTEX
 8
MANIGLIA_1
 10
26.2019
 20
-4.4075
 30
145.7286
 70
192
 0
VERTEX
 8
MANIGLIA_1
 10
-26.198
 20
-4.4928
 30
145.6432
 70
192
 0
VERTEX
 8
MANIGLIA_1
 10
-25.998
 20
-4.4928
 30
145.6432
 70
192
 0
VERTEX
 8
MANIGLIA_1
 10
-21.9979
 20
-4.4928
 30
145.6432
 70
192
 0
VERTEX
 8
MANIGLIA_1
 10
22.002
 20
-4.4928
 30
145.6432
 70
192
 0
VERTEX
 8
MANIGLIA_1
 10
26.002
 20
-4.4928
 30
145.6432
 70
192
 0
VERTEX
 8
MANIGLIA_1
 10
26.2019
 20
-4.4928
 30
145.6432
 70
192
 0
VERTEX
 8
MANIGLIA_1
 10
-26.198
 20
-4.5673
 30
145.5481
 70
192
 0
VERTEX
 8
MANIGLIA_1
 10
-25.998
 20
-4.5673
 30
145.5481
 70
192
 0
VERTEX
 8
MANIGLIA_1
 10
-21.9979
 20
-4.5673
 30
145.5481
 70
192
 0
VERTEX
 8
MANIGLIA_1
 10
22.002
 20
-4.5673
 30
145.5481
 70
192
 0
VERTEX
 8
MANIGLIA_1
 10
26.002
 20
-4.5673
 30
145.5481
 70
192
 0
VERTEX
 8
MANIGLIA_1
 10
26.2019
 20
-4.5673
 30
145.5481
 70
192
 0
VERTEX
 8
MANIGLIA_1
 10
-26.198
 20
-4.6298
 30
145.4448
 70
192
 0
VERTEX
 8
MANIGLIA_1
 10
-25.998
 20
-4.6298
 30
145.4448
 70
192
 0
VERTEX
 8
MANIGLIA_1
 10
-21.9979
 20
-4.6298
 30
145.4448
 70
192
 0
VERTEX
 8
MANIGLIA_1
 10
22.002
 20
-4.6298
 30
145.4448
 70
192
 0
VERTEX
 8
MANIGLIA_1
 10
26.002
 20
-4.6298
 30
145.4448
 70
192
 0
VERTEX
 8
MANIGLIA_1
 10
26.2019
 20
-4.6298
 30
145.4448
 70
192
 0
VERTEX
 8
MANIGLIA_1
 10
-26.198
 20
-4.6794
 30
145.3347
 70
192
 0
VERTEX
 8
MANIGLIA_1
 10
-25.998
 20
-4.6794
 30
145.3347
 70
192
 0
VERTEX
 8
MANIGLIA_1
 10
-21.9979
 20
-4.6794
 30
145.3347
 70
192
 0
VERTEX
 8
MANIGLIA_1
 10
22.002
 20
-4.6794
 30
145.3347
 70
192
 0
VERTEX
 8
MANIGLIA_1
 10
26.002
 20
-4.6794
 30
145.3347
 70
192
 0
VERTEX
 8
MANIGLIA_1
 10
26.2019
 20
-4.6794
 30
145.3347
 70
192
 0
VERTEX
 8
MANIGLIA_1
 10
-26.198
 20
-4.7153
 30
145.2194
 70
192
 0
VERTEX
 8
MANIGLIA_1
 10
-25.998
 20
-4.7153
 30
145.2194
 70
192
 0
VERTEX
 8
MANIGLIA_1
 10
-21.9979
 20
-4.7153
 30
145.2194
 70
192
 0
VERTEX
 8
MANIGLIA_1
 10
22.002
 20
-4.7153
 30
145.2194
 70
192
 0
VERTEX
 8
MANIGLIA_1
 10
26.002
 20
-4.7153
 30
145.2194
 70
192
 0
VERTEX
 8
MANIGLIA_1
 10
26.2019
 20
-4.7153
 30
145.2194
 70
192
 0
VERTEX
 8
MANIGLIA_1
 10
-26.198
 20
-4.737
 30
145.1006
 70
192
 0
VERTEX
 8
MANIGLIA_1
 10
-25.998
 20
-4.737
 30
145.1006
 70
192
 0
VERTEX
 8
MANIGLIA_1
 10
-21.9979
 20
-4.737
 30
145.1006
 70
192
 0
VERTEX
 8
MANIGLIA_1
 10
22.002
 20
-4.737
 30
145.1006
 70
192
 0
VERTEX
 8
MANIGLIA_1
 10
26.002
 20
-4.737
 30
145.1006
 70
192
 0
VERTEX
 8
MANIGLIA_1
 10
26.2019
 20
-4.737
 30
145.1006
 70
192
 0
VERTEX
 8
MANIGLIA_1
 10
-25.998
 20
-0.0003
 30
144.2315
 70
192
 0
VERTEX
 8
MANIGLIA_1
 10
-21.9979
 20
-0.0003
 30
144.2315
 70
192
 0
VERTEX
 8
MANIGLIA_1
 10
-25.998
 20
-0.0003
 30
144.3169
 70
192
 0
VERTEX
 8
MANIGLIA_1
 10
-21.9979
 20
-0.0003
 30
144.3169
 70
192
 0
VERTEX
 8
MANIGLIA_1
 10
-25.998
 20
-0.0003
 30
144.412
 70
192
 0
VERTEX
 8
MANIGLIA_1
 10
-21.9979
 20
-0.0003
 30
144.412
 70
192
 0
VERTEX
 8
MANIGLIA_1
 10
-25.998
 20
-0.0003
 30
144.5153
 70
192
 0
VERTEX
 8
MANIGLIA_1
 10
-21.9979
 20
-0.0003
 30
144.5153
 70
192
 0
VERTEX
 8
MANIGLIA_1
 10
-25.998
 20
-0.0003
 30
144.6254
 70
192
 0
VERTEX
 8
MANIGLIA_1
 10
-21.9979
 20
-0.0003
 30
144.6254
 70
192
 0
VERTEX
 8
MANIGLIA_1
 10
-25.998
 20
-0.0003
 30
144.7407
 70
192
 0
VERTEX
 8
MANIGLIA_1
 10
-21.9979
 20
-0.0003
 30
144.7407
 70
192
 0
VERTEX
 8
MANIGLIA_1
 10
-25.998
 20
-0.0003
 30
144.8595
 70
192
 0
VERTEX
 8
MANIGLIA_1
 10
-21.9979
 20
-0.0003
 30
144.8595
 70
192
 0
VERTEX
 8
MANIGLIA_1
 10
-25.998
 20
-0.0001
 30
144.9801
 70
192
 0
VERTEX
 8
MANIGLIA_1
 10
-21.9979
 20
-0.0001
 30
144.9801
 70
192
 0
VERTEX
 8
MANIGLIA_1
 10
-25.998
 20
-0.0003
 30
145.1006
 70
192
 0
VERTEX
 8
MANIGLIA_1
 10
-21.9979
 20
-0.0003
 30
145.1006
 70
192
 0
VERTEX
 8
MANIGLIA_1
 10
-25.998
 20
-0.0003
 30
145.2194
 70
192
 0
VERTEX
 8
MANIGLIA_1
 10
-21.9979
 20
-0.0003
 30
145.2194
 70
192
 0
VERTEX
 8
MANIGLIA_1
 10
-25.998
 20
-0.0003
 30
145.3347
 70
192
 0
VERTEX
 8
MANIGLIA_1
 10
-21.9979
 20
-0.0003
 30
145.3347
 70
192
 0
VERTEX
 8
MANIGLIA_1
 10
-25.998
 20
-0.0003
 30
145.4448
 70
192
 0
VERTEX
 8
MANIGLIA_1
 10
-21.9979
 20
-0.0003
 30
145.4448
 70
192
 0
VERTEX
 8
MANIGLIA_1
 10
-25.998
 20
-0.0003
 30
145.5481
 70
192
 0
VERTEX
 8
MANIGLIA_1
 10
-21.9979
 20
-0.0003
 30
145.5481
 70
192
 0
VERTEX
 8
MANIGLIA_1
 10
-25.998
 20
-0.0003
 30
145.6432
 70
192
 0
VERTEX
 8
MANIGLIA_1
 10
-21.9979
 20
-0.0003
 30
145.6432
 70
192
 0
VERTEX
 8
MANIGLIA_1
 10
-25.998
 20
-0.0003
 30
145.7286
 70
192
 0
VERTEX
 8
MANIGLIA_1
 10
-21.9979
 20
-0.0003
 30
145.7286
 70
192
 0
VERTEX
 8
MANIGLIA_1
 10
22.002
 20
-0.0003
 30
144.2315
 70
192
 0
VERTEX
 8
MANIGLIA_1
 10
26.002
 20
-0.0003
 30
144.2315
 70
192
 0
VERTEX
 8
MANIGLIA_1
 10
22.002
 20
-0.0003
 30
144.3169
 70
192
 0
VERTEX
 8
MANIGLIA_1
 10
26.002
 20
-0.0003
 30
144.3169
 70
192
 0
VERTEX
 8
MANIGLIA_1
 10
22.002
 20
-0.0003
 30
144.412
 70
192
 0
VERTEX
 8
MANIGLIA_1
 10
26.002
 20
-0.0003
 30
144.412
 70
192
 0
VERTEX
 8
MANIGLIA_1
 10
22.002
 20
-0.0003
 30
144.5153
 70
192
 0
VERTEX
 8
MANIGLIA_1
 10
26.002
 20
-0.0003
 30
144.5153
 70
192
 0
VERTEX
 8
MANIGLIA_1
 10
22.002
 20
-0.0003
 30
144.6254
 70
192
 0
VERTEX
 8
MANIGLIA_1
 10
26.002
 20
-0.0003
 30
144.6254
 70
192
 0
VERTEX
 8
MANIGLIA_1
 10
22.002
 20
-0.0003
 30
144.7407
 70
192
 0
VERTEX
 8
MANIGLIA_1
 10
26.002
 20
-0.0003
 30
144.7407
 70
192
 0
VERTEX
 8
MANIGLIA_1
 10
22.002
 20
-0.0003
 30
144.8595
 70
192
 0
VERTEX
 8
MANIGLIA_1
 10
26.002
 20
-0.0003
 30
144.8595
 70
192
 0
VERTEX
 8
MANIGLIA_1
 10
22.002
 20
-0.0001
 30
144.9801
 70
192
 0
VERTEX
 8
MANIGLIA_1
 10
26.002
 20
-0.0001
 30
144.9801
 70
192
 0
VERTEX
 8
MANIGLIA_1
 10
22.002
 20
-0.0003
 30
145.1006
 70
192
 0
VERTEX
 8
MANIGLIA_1
 10
26.002
 20
-0.0003
 30
145.1006
 70
192
 0
VERTEX
 8
MANIGLIA_1
 10
22.002
 20
-0.0003
 30
145.2194
 70
192
 0
VERTEX
 8
MANIGLIA_1
 10
26.002
 20
-0.0003
 30
145.2194
 70
192
 0
VERTEX
 8
MANIGLIA_1
 10
22.002
 20
-0.0003
 30
145.3347
 70
192
 0
VERTEX
 8
MANIGLIA_1
 10
26.002
 20
-0.0003
 30
145.3347
 70
192
 0
VERTEX
 8
MANIGLIA_1
 10
22.002
 20
-0.0003
 30
145.4448
 70
192
 0
VERTEX
 8
MANIGLIA_1
 10
26.002
 20
-0.0003
 30
145.4448
 70
192
 0
VERTEX
 8
MANIGLIA_1
 10
22.002
 20
-0.0003
 30
145.5481
 70
192
 0
VERTEX
 8
MANIGLIA_1
 10
26.002
 20
-0.0003
 30
145.5481
 70
192
 0
VERTEX
 8
MANIGLIA_1
 10
22.002
 20
-0.0003
 30
145.6432
 70
192
 0
VERTEX
 8
MANIGLIA_1
 10
26.002
 20
-0.0003
 30
145.6432
 70
192
 0
VERTEX
 8
MANIGLIA_1
 10
22.002
 20
-0.0003
 30
145.7286
 70
192
 0
VERTEX
 8
MANIGLIA_1
 10
26.002
 20
-0.0003
 30
145.7286
 70
192
 0
VERTEX
 8
MANIGLIA_1
 10
26.2019
 20
-3.0811
 30
145.3281
 70
192
 0
VERTEX
 8
MANIGLIA_1
 10
-26.198
 20
-4.4878
 30
144.8898
 70
192
 0
VERTEX
 8
MANIGLIA_1
 10
-26.198
 20
-4.4933
 30
144.9801
 70
192
 0
VERTEX
 8
MANIGLIA_1
 10
26.2019
 20
-3.5651
 30
144.2528
 70
192
 0
VERTEX
 8
MANIGLIA_1
 10
-26.198
 20
-3.1279
 30
145.4056
 70
192
 0
VERTEX
 8
MANIGLIA_1
 10
26.2019
 20
-4.4878
 30
144.8898
 70
192
 0
VERTEX
 8
MANIGLIA_1
 10
26.2019
 20
-4.4933
 30
144.9801
 70
192
 0
VERTEX
 8
MANIGLIA_1
 10
-26.198
 20
-3.4787
 30
144.2797
 70
192
 0
VERTEX
 8
MANIGLIA_1
 10
-26.198
 20
-4.3049
 30
145.4767
 70
192
 0
VERTEX
 8
MANIGLIA_1
 10
-26.198
 20
-3.3963
 30
144.3168
 70
192
 0
VERTEX
 8
MANIGLIA_1
 10
-26.198
 20
-4.4715
 30
144.8008
 70
192
 0
VERTEX
 8
MANIGLIA_1
 10
26.2019
 20
-4.3049
 30
145.4767
 70
192
 0
VERTEX
 8
MANIGLIA_1
 10
26.2019
 20
-3.3963
 30
144.3168
 70
192
 0
VERTEX
 8
MANIGLIA_1
 10
26.2019
 20
-4.4715
 30
144.8008
 70
192
 0
VERTEX
 8
MANIGLIA_1
 10
-26.198
 20
-4.3607
 30
145.4055
 70
192
 0
VERTEX
 8
MANIGLIA_1
 10
-26.198
 20
-3.3188
 30
144.3636
 70
192
 0
VERTEX
 8
MANIGLIA_1
 10
-26.198
 20
-4.4446
 30
144.7145
 70
192
 0
VERTEX
 8
MANIGLIA_1
 10
26.2019
 20
-4.3607
 30
145.4055
 70
192
 0
VERTEX
 8
MANIGLIA_1
 10
26.2019
 20
-3.3188
 30
144.3636
 70
192
 0
VERTEX
 8
MANIGLIA_1
 10
26.2019
 20
-4.4446
 30
144.7145
 70
192
 0
VERTEX
 8
MANIGLIA_1
 10
-26.198
 20
-4.4075
 30
145.3281
 70
192
 0
VERTEX
 8
MANIGLIA_1
 10
-26.198
 20
-3.2476
 30
144.4194
 70
192
 0
VERTEX
 8
MANIGLIA_1
 10
-26.198
 20
-4.4075
 30
144.632
 70
192
 0
VERTEX
 8
MANIGLIA_1
 10
26.2019
 20
-4.4075
 30
145.3281
 70
192
 0
VERTEX
 8
MANIGLIA_1
 10
26.2019
 20
-3.2476
 30
144.4194
 70
192
 0
VERTEX
 8
MANIGLIA_1
 10
26.2019
 20
-4.4075
 30
144.632
 70
192
 0
VERTEX
 8
MANIGLIA_1
 10
-26.198
 20
-4.4446
 30
145.2456
 70
192
 0
VERTEX
 8
MANIGLIA_1
 10
-26.198
 20
-3.1837
 30
144.4834
 70
192
 0
VERTEX
 8
MANIGLIA_1
 10
-26.198
 20
-4.3607
 30
144.5546
 70
192
 0
VERTEX
 8
MANIGLIA_1
 10
26.2019
 20
-4.4446
 30
145.2456
 70
192
 0
VERTEX
 8
MANIGLIA_1
 10
26.2019
 20
-3.1837
 30
144.4834
 70
192
 0
VERTEX
 8
MANIGLIA_1
 10
26.2019
 20
-4.3607
 30
144.5546
 70
192
 0
VERTEX
 8
MANIGLIA_1
 10
-26.198
 20
-4.4715
 30
145.1593
 70
192
 0
VERTEX
 8
MANIGLIA_1
 10
-26.198
 20
-3.1279
 30
144.5546
 70
192
 0
VERTEX
 8
MANIGLIA_1
 10
-26.198
 20
-4.3049
 30
144.4834
 70
192
 0
VERTEX
 8
MANIGLIA_1
 10
26.2019
 20
-4.4715
 30
145.1593
 70
192
 0
VERTEX
 8
MANIGLIA_1
 10
26.2019
 20
-3.1279
 30
144.5546
 70
192
 0
VERTEX
 8
MANIGLIA_1
 10
26.2019
 20
-4.3049
 30
144.4834
 70
192
 0
VERTEX
 8
MANIGLIA_1
 10
-26.198
 20
-4.4878
 30
145.0703
 70
192
 0
VERTEX
 8
MANIGLIA_1
 10
-26.198
 20
-3.0811
 30
144.632
 70
192
 0
VERTEX
 8
MANIGLIA_1
 10
-26.198
 20
-4.241
 30
144.4194
 70
192
 0
VERTEX
 8
MANIGLIA_1
 10
-26.198
 20
-3.0008
 30
145.0703
 70
192
 0
VERTEX
 8
MANIGLIA_1
 10
26.2019
 20
-3.0811
 30
144.632
 70
192
 0
VERTEX
 8
MANIGLIA_1
 10
26.2019
 20
-4.241
 30
144.4194
 70
192
 0
VERTEX
 8
MANIGLIA_1
 10
26.2019
 20
-3.0008
 30
145.0703
 70
192
 0
VERTEX
 8
MANIGLIA_1
 10
-26.198
 20
-3.044
 30
144.7144
 70
192
 0
VERTEX
 8
MANIGLIA_1
 10
-26.198
 20
-4.1698
 30
144.3637
 70
192
 0
VERTEX
 8
MANIGLIA_1
 10
-26.198
 20
-3.0171
 30
145.1593
 70
192
 0
VERTEX
 8
MANIGLIA_1
 10
26.2019
 20
-3.044
 30
144.7144
 70
192
 0
VERTEX
 8
MANIGLIA_1
 10
26.2019
 20
-4.1698
 30
144.3637
 70
192
 0
VERTEX
 8
MANIGLIA_1
 10
26.2019
 20
-3.0171
 30
145.1593
 70
192
 0
VERTEX
 8
MANIGLIA_1
 10
-26.198
 20
-3.0171
 30
144.8008
 70
192
 0
VERTEX
 8
MANIGLIA_1
 10
-26.198
 20
-4.0924
 30
144.3169
 70
192
 0
VERTEX
 8
MANIGLIA_1
 10
-26.198
 20
-3.044
 30
145.2457
 70
192
 0
VERTEX
 8
MANIGLIA_1
 10
26.2019
 20
-3.0171
 30
144.8008
 70
192
 0
VERTEX
 8
MANIGLIA_1
 10
26.2019
 20
-4.0924
 30
144.3169
 70
192
 0
VERTEX
 8
MANIGLIA_1
 10
26.2019
 20
-3.044
 30
145.2457
 70
192
 0
VERTEX
 8
MANIGLIA_1
 10
-26.198
 20
-3.0008
 30
144.8898
 70
192
 0
VERTEX
 8
MANIGLIA_1
 10
-26.198
 20
-4.0099
 30
144.2797
 70
192
 0
VERTEX
 8
MANIGLIA_1
 10
-26.198
 20
-3.0811
 30
145.3281
 70
192
 0
VERTEX
 8
MANIGLIA_1
 10
26.2019
 20
-3.0008
 30
144.8898
 70
192
 0
VERTEX
 8
MANIGLIA_1
 10
26.2019
 20
-4.0099
 30
144.2797
 70
192
 0
VERTEX
 8
MANIGLIA_1
 10
26.2019
 20
-3.3963
 30
145.6433
 70
192
 0
VERTEX
 8
MANIGLIA_1
 10
-26.198
 20
-3.8346
 30
145.7236
 70
192
 0
VERTEX
 8
MANIGLIA_1
 10
-26.198
 20
-3.9236
 30
144.2528
 70
192
 0
VERTEX
 8
MANIGLIA_1
 10
26.2019
 20
-3.9236
 30
144.2528
 70
192
 0
VERTEX
 8
MANIGLIA_1
 10
26.2019
 20
-2.9953
 30
144.9801
 70
192
 0
VERTEX
 8
MANIGLIA_1
 10
-26.198
 20
-3.9236
 30
145.7073
 70
192
 0
VERTEX
 8
MANIGLIA_1
 10
-26.198
 20
-3.8346
 30
144.2365
 70
192
 0
VERTEX
 8
MANIGLIA_1
 10
-26.198
 20
-3.1837
 30
145.4768
 70
192
 0
VERTEX
 8
MANIGLIA_1
 10
26.2019
 20
-3.9236
 30
145.7073
 70
192
 0
VERTEX
 8
MANIGLIA_1
 10
26.2019
 20
-3.8346
 30
144.2365
 70
192
 0
VERTEX
 8
MANIGLIA_1
 10
26.2019
 20
-3.1837
 30
145.4768
 70
192
 0
VERTEX
 8
MANIGLIA_1
 10
-26.198
 20
-4.0099
 30
145.6804
 70
192
 0
VERTEX
 8
MANIGLIA_1
 10
-26.198
 20
-3.7443
 30
144.2311
 70
192
 0
VERTEX
 8
MANIGLIA_1
 10
-26.198
 20
-3.2476
 30
145.5407
 70
192
 0
VERTEX
 8
MANIGLIA_1
 10
26.2019
 20
-4.0099
 30
145.6804
 70
192
 0
VERTEX
 8
MANIGLIA_1
 10
26.2019
 20
-3.7443
 30
144.2311
 70
192
 0
VERTEX
 8
MANIGLIA_1
 10
26.2019
 20
-3.2476
 30
145.5407
 70
192
 0
VERTEX
 8
MANIGLIA_1
 10
-26.198
 20
-4.0924
 30
145.6432
 70
192
 0
VERTEX
 8
MANIGLIA_1
 10
-26.198
 20
-3.6541
 30
144.2365
 70
192
 0
VERTEX
 8
MANIGLIA_1
 10
-26.198
 20
-3.3188
 30
145.5965
 70
192
 0
VERTEX
 8
MANIGLIA_1
 10
26.2019
 20
-4.0924
 30
145.6432
 70
192
 0
VERTEX
 8
MANIGLIA_1
 10
26.2019
 20
-3.6541
 30
144.2365
 70
192
 0
VERTEX
 8
MANIGLIA_1
 10
26.2019
 20
-3.3188
 30
145.5965
 70
192
 0
VERTEX
 8
MANIGLIA_1
 10
-26.198
 20
-4.1698
 30
145.5964
 70
192
 0
VERTEX
 8
MANIGLIA_1
 10
-26.198
 20
-3.5651
 30
144.2528
 70
192
 0
VERTEX
 8
MANIGLIA_1
 10
-26.198
 20
-3.3963
 30
145.6433
 70
192
 0
VERTEX
 8
MANIGLIA_1
 10
26.2019
 20
-4.1698
 30
145.5964
 70
192
 0
VERTEX
 8
MANIGLIA_1
 10
-26.198
 20
-4.241
 30
145.5407
 70
192
 0
VERTEX
 8
MANIGLIA_1
 10
-26.198
 20
-3.4787
 30
145.6804
 70
192
 0
VERTEX
 8
MANIGLIA_1
 10
26.2019
 20
-4.241
 30
145.5407
 70
192
 0
VERTEX
 8
MANIGLIA_1
 10
26.2019
 20
-3.4787
 30
144.2797
 70
192
 0
VERTEX
 8
MANIGLIA_1
 10
26.2019
 20
-3.1279
 30
145.4056
 70
192
 0
VERTEX
 8
MANIGLIA_1
 10
-26.198
 20
-2.9953
 30
144.9801
 70
192
 0
VERTEX
 8
MANIGLIA_1
 10
26.2019
 20
-3.4787
 30
145.6804
 70
192
 0
VERTEX
 8
MANIGLIA_1
 10
26.2019
 20
-4.4878
 30
145.0703
 70
192
 0
VERTEX
 8
MANIGLIA_1
 10
-26.198
 20
-3.5651
 30
145.7073
 70
192
 0
VERTEX
 8
MANIGLIA_1
 10
26.2019
 20
-3.5651
 30
145.7073
 70
192
 0
VERTEX
 8
MANIGLIA_1
 10
26.2019
 20
-3.7443
 30
145.729
 70
192
 0
VERTEX
 8
MANIGLIA_1
 10
-26.198
 20
-3.6541
 30
145.7236
 70
192
 0
VERTEX
 8
MANIGLIA_1
 10
26.2019
 20
-3.6541
 30
145.7236
 70
192
 0
VERTEX
 8
MANIGLIA_1
 10
-26.198
 20
-3.7443
 30
145.729
 70
192
 0
VERTEX
 8
MANIGLIA_1
 10
26.2019
 20
-3.8346
 30
145.7236
 70
192
 0
VERTEX
 8
MANIGLIA_1
 10
-24.798
 20
-3.7443
 30
144.9801
 70
192
 0
VERTEX
 8
MANIGLIA_1
 10
-24.798
 20
-4.4933
 30
144.9801
 70
192
 0
VERTEX
 8
MANIGLIA_1
 10
-24.798
 20
-4.4878
 30
144.8898
 70
192
 0
VERTEX
 8
MANIGLIA_1
 10
-24.798
 20
-4.4715
 30
144.8008
 70
192
 0
VERTEX
 8
MANIGLIA_1
 10
-24.798
 20
-4.4446
 30
144.7145
 70
192
 0
VERTEX
 8
MANIGLIA_1
 10
-24.798
 20
-4.4075
 30
144.632
 70
192
 0
VERTEX
 8
MANIGLIA_1
 10
-24.798
 20
-4.3607
 30
144.5546
 70
192
 0
VERTEX
 8
MANIGLIA_1
 10
-24.798
 20
-4.3049
 30
144.4834
 70
192
 0
VERTEX
 8
MANIGLIA_1
 10
-24.798
 20
-4.241
 30
144.4194
 70
192
 0
VERTEX
 8
MANIGLIA_1
 10
-24.798
 20
-4.1698
 30
144.3636
 70
192
 0
VERTEX
 8
MANIGLIA_1
 10
-24.798
 20
-4.0924
 30
144.3168
 70
192
 0
VERTEX
 8
MANIGLIA_1
 10
-24.798
 20
-4.0099
 30
144.2797
 70
192
 0
VERTEX
 8
MANIGLIA_1
 10
-24.798
 20
-3.9235
 30
144.2528
 70
192
 0
VERTEX
 8
MANIGLIA_1
 10
-24.798
 20
-3.8346
 30
144.2365
 70
192
 0
VERTEX
 8
MANIGLIA_1
 10
-24.798
 20
-3.7443
 30
144.2311
 70
192
 0
VERTEX
 8
MANIGLIA_1
 10
-24.798
 20
-3.654
 30
144.2365
 70
192
 0
VERTEX
 8
MANIGLIA_1
 10
-24.798
 20
-3.565
 30
144.2528
 70
192
 0
VERTEX
 8
MANIGLIA_1
 10
-24.798
 20
-3.4787
 30
144.2797
 70
192
 0
VERTEX
 8
MANIGLIA_1
 10
-24.798
 20
-3.3962
 30
144.3168
 70
192
 0
VERTEX
 8
MANIGLIA_1
 10
-24.798
 20
-3.3188
 30
144.3636
 70
192
 0
VERTEX
 8
MANIGLIA_1
 10
-24.798
 20
-3.2476
 30
144.4194
 70
192
 0
VERTEX
 8
MANIGLIA_1
 10
-24.798
 20
-3.1837
 30
144.4834
 70
192
 0
VERTEX
 8
MANIGLIA_1
 10
-24.798
 20
-3.1279
 30
144.5546
 70
192
 0
VERTEX
 8
MANIGLIA_1
 10
-24.798
 20
-3.0811
 30
144.632
 70
192
 0
VERTEX
 8
MANIGLIA_1
 10
-24.798
 20
-3.044
 30
144.7145
 70
192
 0
VERTEX
 8
MANIGLIA_1
 10
-24.798
 20
-3.0171
 30
144.8008
 70
192
 0
VERTEX
 8
MANIGLIA_1
 10
-24.798
 20
-3.0008
 30
144.8898
 70
192
 0
VERTEX
 8
MANIGLIA_1
 10
-24.798
 20
-2.9953
 30
144.9801
 70
192
 0
VERTEX
 8
MANIGLIA_1
 10
-24.798
 20
-3.0008
 30
145.0703
 70
192
 0
VERTEX
 8
MANIGLIA_1
 10
-24.798
 20
-3.0171
 30
145.1593
 70
192
 0
VERTEX
 8
MANIGLIA_1
 10
-24.798
 20
-3.044
 30
145.2457
 70
192
 0
VERTEX
 8
MANIGLIA_1
 10
-24.798
 20
-3.0811
 30
145.3281
 70
192
 0
VERTEX
 8
MANIGLIA_1
 10
-24.798
 20
-3.1279
 30
145.4055
 70
192
 0
VERTEX
 8
MANIGLIA_1
 10
-24.798
 20
-3.1837
 30
145.4767
 70
192
 0
VERTEX
 8
MANIGLIA_1
 10
-24.798
 20
-3.2476
 30
145.5407
 70
192
 0
VERTEX
 8
MANIGLIA_1
 10
-24.798
 20
-3.3188
 30
145.5965
 70
192
 0
VERTEX
 8
MANIGLIA_1
 10
-24.798
 20
-3.3962
 30
145.6433
 70
192
 0
VERTEX
 8
MANIGLIA_1
 10
-24.798
 20
-3.4787
 30
145.6804
 70
192
 0
VERTEX
 8
MANIGLIA_1
 10
-24.798
 20
-3.565
 30
145.7073
 70
192
 0
VERTEX
 8
MANIGLIA_1
 10
-24.798
 20
-3.654
 30
145.7236
 70
192
 0
VERTEX
 8
MANIGLIA_1
 10
-24.798
 20
-3.7443
 30
145.7291
 70
192
 0
VERTEX
 8
MANIGLIA_1
 10
-24.798
 20
-3.8346
 30
145.7236
 70
192
 0
VERTEX
 8
MANIGLIA_1
 10
-24.798
 20
-3.9235
 30
145.7073
 70
192
 0
VERTEX
 8
MANIGLIA_1
 10
-24.798
 20
-4.0099
 30
145.6804
 70
192
 0
VERTEX
 8
MANIGLIA_1
 10
-24.798
 20
-4.0924
 30
145.6433
 70
192
 0
VERTEX
 8
MANIGLIA_1
 10
-24.798
 20
-4.1698
 30
145.5965
 70
192
 0
VERTEX
 8
MANIGLIA_1
 10
-24.798
 20
-4.241
 30
145.5407
 70
192
 0
VERTEX
 8
MANIGLIA_1
 10
-24.798
 20
-4.3049
 30
145.4767
 70
192
 0
VERTEX
 8
MANIGLIA_1
 10
-24.798
 20
-4.3607
 30
145.4055
 70
192
 0
VERTEX
 8
MANIGLIA_1
 10
-24.798
 20
-4.4075
 30
145.3281
 70
192
 0
VERTEX
 8
MANIGLIA_1
 10
-24.798
 20
-4.4446
 30
145.2457
 70
192
 0
VERTEX
 8
MANIGLIA_1
 10
-24.798
 20
-4.4715
 30
145.1593
 70
192
 0
VERTEX
 8
MANIGLIA_1
 10
-24.798
 20
-4.4878
 30
145.0703
 70
192
 0
VERTEX
 8
MANIGLIA_1
 10
24.8019
 20
-3.7443
 30
144.9801
 70
192
 0
VERTEX
 8
MANIGLIA_1
 10
24.8019
 20
-4.4933
 30
144.9801
 70
192
 0
VERTEX
 8
MANIGLIA_1
 10
24.8019
 20
-4.4878
 30
144.8898
 70
192
 0
VERTEX
 8
MANIGLIA_1
 10
24.8019
 20
-4.4715
 30
144.8008
 70
192
 0
VERTEX
 8
MANIGLIA_1
 10
24.8019
 20
-4.4446
 30
144.7145
 70
192
 0
VERTEX
 8
MANIGLIA_1
 10
24.8019
 20
-4.4075
 30
144.632
 70
192
 0
VERTEX
 8
MANIGLIA_1
 10
24.8019
 20
-4.3607
 30
144.5546
 70
192
 0
VERTEX
 8
MANIGLIA_1
 10
24.8019
 20
-4.3049
 30
144.4834
 70
192
 0
VERTEX
 8
MANIGLIA_1
 10
24.8019
 20
-4.241
 30
144.4194
 70
192
 0
VERTEX
 8
MANIGLIA_1
 10
24.8019
 20
-4.1698
 30
144.3636
 70
192
 0
VERTEX
 8
MANIGLIA_1
 10
24.8019
 20
-4.0924
 30
144.3168
 70
192
 0
VERTEX
 8
MANIGLIA_1
 10
24.8019
 20
-4.0099
 30
144.2797
 70
192
 0
VERTEX
 8
MANIGLIA_1
 10
24.8019
 20
-3.9235
 30
144.2528
 70
192
 0
VERTEX
 8
MANIGLIA_1
 10
24.8019
 20
-3.8346
 30
144.2365
 70
192
 0
VERTEX
 8
MANIGLIA_1
 10
24.8019
 20
-3.7443
 30
144.2311
 70
192
 0
VERTEX
 8
MANIGLIA_1
 10
24.8019
 20
-3.654
 30
144.2365
 70
192
 0
VERTEX
 8
MANIGLIA_1
 10
24.8019
 20
-3.565
 30
144.2528
 70
192
 0
VERTEX
 8
MANIGLIA_1
 10
24.8019
 20
-3.4787
 30
144.2797
 70
192
 0
VERTEX
 8
MANIGLIA_1
 10
24.8019
 20
-3.3962
 30
144.3168
 70
192
 0
VERTEX
 8
MANIGLIA_1
 10
24.8019
 20
-3.3188
 30
144.3636
 70
192
 0
VERTEX
 8
MANIGLIA_1
 10
24.8019
 20
-3.2476
 30
144.4194
 70
192
 0
VERTEX
 8
MANIGLIA_1
 10
24.8019
 20
-3.1837
 30
144.4834
 70
192
 0
VERTEX
 8
MANIGLIA_1
 10
24.8019
 20
-3.1279
 30
144.5546
 70
192
 0
VERTEX
 8
MANIGLIA_1
 10
24.8019
 20
-3.0811
 30
144.632
 70
192
 0
VERTEX
 8
MANIGLIA_1
 10
24.8019
 20
-3.044
 30
144.7145
 70
192
 0
VERTEX
 8
MANIGLIA_1
 10
24.8019
 20
-3.0171
 30
144.8008
 70
192
 0
VERTEX
 8
MANIGLIA_1
 10
24.8019
 20
-3.0008
 30
144.8898
 70
192
 0
VERTEX
 8
MANIGLIA_1
 10
24.8019
 20
-2.9953
 30
144.9801
 70
192
 0
VERTEX
 8
MANIGLIA_1
 10
24.8019
 20
-3.0008
 30
145.0703
 70
192
 0
VERTEX
 8
MANIGLIA_1
 10
24.8019
 20
-3.0171
 30
145.1593
 70
192
 0
VERTEX
 8
MANIGLIA_1
 10
24.8019
 20
-3.044
 30
145.2457
 70
192
 0
VERTEX
 8
MANIGLIA_1
 10
24.8019
 20
-3.0811
 30
145.3281
 70
192
 0
VERTEX
 8
MANIGLIA_1
 10
24.8019
 20
-3.1279
 30
145.4055
 70
192
 0
VERTEX
 8
MANIGLIA_1
 10
24.8019
 20
-3.1837
 30
145.4767
 70
192
 0
VERTEX
 8
MANIGLIA_1
 10
24.8019
 20
-3.2476
 30
145.5407
 70
192
 0
VERTEX
 8
MANIGLIA_1
 10
24.8019
 20
-3.3188
 30
145.5965
 70
192
 0
VERTEX
 8
MANIGLIA_1
 10
24.8019
 20
-3.3962
 30
145.6433
 70
192
 0
VERTEX
 8
MANIGLIA_1
 10
24.8019
 20
-3.4787
 30
145.6804
 70
192
 0
VERTEX
 8
MANIGLIA_1
 10
24.8019
 20
-3.565
 30
145.7073
 70
192
 0
VERTEX
 8
MANIGLIA_1
 10
24.8019
 20
-3.654
 30
145.7236
 70
192
 0
VERTEX
 8
MANIGLIA_1
 10
24.8019
 20
-3.7443
 30
145.7291
 70
192
 0
VERTEX
 8
MANIGLIA_1
 10
24.8019
 20
-3.8346
 30
145.7236
 70
192
 0
VERTEX
 8
MANIGLIA_1
 10
24.8019
 20
-3.9235
 30
145.7073
 70
192
 0
VERTEX
 8
MANIGLIA_1
 10
24.8019
 20
-4.0099
 30
145.6804
 70
192
 0
VERTEX
 8
MANIGLIA_1
 10
24.8019
 20
-4.0924
 30
145.6433
 70
192
 0
VERTEX
 8
MANIGLIA_1
 10
24.8019
 20
-4.1698
 30
145.5965
 70
192
 0
VERTEX
 8
MANIGLIA_1
 10
24.8019
 20
-4.241
 30
145.5407
 70
192
 0
VERTEX
 8
MANIGLIA_1
 10
24.8019
 20
-4.3049
 30
145.4767
 70
192
 0
VERTEX
 8
MANIGLIA_1
 10
24.8019
 20
-4.3607
 30
145.4055
 70
192
 0
VERTEX
 8
MANIGLIA_1
 10
24.8019
 20
-4.4075
 30
145.3281
 70
192
 0
VERTEX
 8
MANIGLIA_1
 10
24.8019
 20
-4.4446
 30
145.2457
 70
192
 0
VERTEX
 8
MANIGLIA_1
 10
24.8019
 20
-4.4715
 30
145.1593
 70
192
 0
VERTEX
 8
MANIGLIA_1
 10
24.8019
 20
-4.4878
 30
145.0703
 70
192
 0
VERTEX
 8
MANIGLIA_1
 10
-26.198
 20
-4.4933
 30
144.9801
 70
192
 0
VERTEX
 8
MANIGLIA_1
 10
-26.198
 20
-3.565
 30
144.2528
 70
192
 0
VERTEX
 8
MANIGLIA_1
 10
-26.198
 20
-4.3049
 30
145.4767
 70
192
 0
VERTEX
 8
MANIGLIA_1
 10
26.2019
 20
-4.4933
 30
144.9801
 70
192
 0
VERTEX
 8
MANIGLIA_1
 10
26.2019
 20
-3.565
 30
144.2528
 70
192
 0
VERTEX
 8
MANIGLIA_1
 10
26.2019
 20
-4.3049
 30
145.4767
 70
192
 0
VERTEX
 8
MANIGLIA_1
 10
-26.198
 20
-3.4787
 30
144.2797
 70
192
 0
VERTEX
 8
MANIGLIA_1
 10
-26.198
 20
-4.4878
 30
144.8898
 70
192
 0
VERTEX
 8
MANIGLIA_1
 10
-26.198
 20
-3.1837
 30
145.4767
 70
192
 0
VERTEX
 8
MANIGLIA_1
 10
26.2019
 20
-3.4787
 30
144.2797
 70
192
 0
VERTEX
 8
MANIGLIA_1
 10
26.2019
 20
-4.4878
 30
144.8898
 70
192
 0
VERTEX
 8
MANIGLIA_1
 10
26.2019
 20
-3.1837
 30
145.4767
 70
192
 0
VERTEX
 8
MANIGLIA_1
 10
-26.198
 20
-3.3962
 30
144.3168
 70
192
 0
VERTEX
 8
MANIGLIA_1
 10
-26.198
 20
-4.4715
 30
144.8008
 70
192
 0
VERTEX
 8
MANIGLIA_1
 10
-26.198
 20
-3.2476
 30
145.5407
 70
192
 0
VERTEX
 8
MANIGLIA_1
 10
26.2019
 20
-3.3962
 30
144.3168
 70
192
 0
VERTEX
 8
MANIGLIA_1
 10
26.2019
 20
-4.4715
 30
144.8008
 70
192
 0
VERTEX
 8
MANIGLIA_1
 10
26.2019
 20
-3.2476
 30
145.5407
 70
192
 0
VERTEX
 8
MANIGLIA_1
 10
-26.198
 20
-3.3188
 30
144.3636
 70
192
 0
VERTEX
 8
MANIGLIA_1
 10
-26.198
 20
-4.4446
 30
144.7145
 70
192
 0
VERTEX
 8
MANIGLIA_1
 10
-26.198
 20
-3.3188
 30
145.5965
 70
192
 0
VERTEX
 8
MANIGLIA_1
 10
26.2019
 20
-3.3188
 30
144.3636
 70
192
 0
VERTEX
 8
MANIGLIA_1
 10
26.2019
 20
-4.4446
 30
144.7145
 70
192
 0
VERTEX
 8
MANIGLIA_1
 10
26.2019
 20
-3.3188
 30
145.5965
 70
192
 0
VERTEX
 8
MANIGLIA_1
 10
-26.198
 20
-3.2476
 30
144.4194
 70
192
 0
VERTEX
 8
MANIGLIA_1
 10
-26.198
 20
-4.4075
 30
144.632
 70
192
 0
VERTEX
 8
MANIGLIA_1
 10
-26.198
 20
-3.3962
 30
145.6433
 70
192
 0
VERTEX
 8
MANIGLIA_1
 10
26.2019
 20
-3.2476
 30
144.4194
 70
192
 0
VERTEX
 8
MANIGLIA_1
 10
26.2019
 20
-4.4075
 30
144.632
 70
192
 0
VERTEX
 8
MANIGLIA_1
 10
26.2019
 20
-3.3962
 30
145.6433
 70
192
 0
VERTEX
 8
MANIGLIA_1
 10
-26.198
 20
-3.1837
 30
144.4834
 70
192
 0
VERTEX
 8
MANIGLIA_1
 10
-26.198
 20
-4.3607
 30
144.5546
 70
192
 0
VERTEX
 8
MANIGLIA_1
 10
-26.198
 20
-3.4787
 30
145.6804
 70
192
 0
VERTEX
 8
MANIGLIA_1
 10
26.2019
 20
-3.1837
 30
144.4834
 70
192
 0
VERTEX
 8
MANIGLIA_1
 10
26.2019
 20
-4.3607
 30
144.5546
 70
192
 0
VERTEX
 8
MANIGLIA_1
 10
-26.198
 20
-3.1279
 30
144.5546
 70
192
 0
VERTEX
 8
MANIGLIA_1
 10
26.2019
 20
-2.9953
 30
144.9801
 70
192
 0
VERTEX
 8
MANIGLIA_1
 10
-26.198
 20
-4.3049
 30
144.4834
 70
192
 0
VERTEX
 8
MANIGLIA_1
 10
26.2019
 20
-3.1279
 30
144.5546
 70
192
 0
VERTEX
 8
MANIGLIA_1
 10
-26.198
 20
-3.0008
 30
145.0703
 70
192
 0
VERTEX
 8
MANIGLIA_1
 10
26.2019
 20
-4.3049
 30
144.4834
 70
192
 0
VERTEX
 8
MANIGLIA_1
 10
-26.198
 20
-3.0811
 30
144.632
 70
192
 0
VERTEX
 8
MANIGLIA_1
 10
26.2019
 20
-3.0008
 30
145.0703
 70
192
 0
VERTEX
 8
MANIGLIA_1
 10
-26.198
 20
-4.241
 30
144.4194
 70
192
 0
VERTEX
 8
MANIGLIA_1
 10
26.2019
 20
-3.0811
 30
144.632
 70
192
 0
VERTEX
 8
MANIGLIA_1
 10
-26.198
 20
-3.0171
 30
145.1593
 70
192
 0
VERTEX
 8
MANIGLIA_1
 10
26.2019
 20
-4.241
 30
144.4194
 70
192
 0
VERTEX
 8
MANIGLIA_1
 10
-26.198
 20
-3.044
 30
144.7145
 70
192
 0
VERTEX
 8
MANIGLIA_1
 10
26.2019
 20
-3.0171
 30
145.1593
 70
192
 0
VERTEX
 8
MANIGLIA_1
 10
-26.198
 20
-4.1698
 30
144.3636
 70
192
 0
VERTEX
 8
MANIGLIA_1
 10
26.2019
 20
-3.044
 30
144.7145
 70
192
 0
VERTEX
 8
MANIGLIA_1
 10
-26.198
 20
-3.044
 30
145.2457
 70
192
 0
VERTEX
 8
MANIGLIA_1
 10
26.2019
 20
-4.1698
 30
144.3636
 70
192
 0
VERTEX
 8
MANIGLIA_1
 10
-26.198
 20
-3.0171
 30
144.8008
 70
192
 0
VERTEX
 8
MANIGLIA_1
 10
26.2019
 20
-3.044
 30
145.2457
 70
192
 0
VERTEX
 8
MANIGLIA_1
 10
-26.198
 20
-4.0924
 30
144.3168
 70
192
 0
VERTEX
 8
MANIGLIA_1
 10
26.2019
 20
-3.0171
 30
144.8008
 70
192
 0
VERTEX
 8
MANIGLIA_1
 10
-26.198
 20
-3.0811
 30
145.3281
 70
192
 0
VERTEX
 8
MANIGLIA_1
 10
26.2019
 20
-4.0924
 30
144.3168
 70
192
 0
VERTEX
 8
MANIGLIA_1
 10
-26.198
 20
-3.0008
 30
144.8898
 70
192
 0
VERTEX
 8
MANIGLIA_1
 10
26.2019
 20
-3.0811
 30
145.3281
 70
192
 0
VERTEX
 8
MANIGLIA_1
 10
-26.198
 20
-4.0099
 30
144.2797
 70
192
 0
VERTEX
 8
MANIGLIA_1
 10
-26.198
 20
-3.9235
 30
145.7073
 70
192
 0
VERTEX
 8
MANIGLIA_1
 10
-26.198
 20
-2.9953
 30
144.9801
 70
192
 0
VERTEX
 8
MANIGLIA_1
 10
26.2019
 20
-4.0099
 30
144.2797
 70
192
 0
VERTEX
 8
MANIGLIA_1
 10
26.2019
 20
-3.0008
 30
144.8898
 70
192
 0
VERTEX
 8
MANIGLIA_1
 10
26.2019
 20
-3.1279
 30
145.4055
 70
192
 0
VERTEX
 8
MANIGLIA_1
 10
-26.198
 20
-3.9235
 30
144.2528
 70
192
 0
VERTEX
 8
MANIGLIA_1
 10
-26.198
 20
-4.0099
 30
145.6804
 70
192
 0
VERTEX
 8
MANIGLIA_1
 10
-26.198
 20
-4.3607
 30
145.4055
 70
192
 0
VERTEX
 8
MANIGLIA_1
 10
26.2019
 20
-3.9235
 30
144.2528
 70
192
 0
VERTEX
 8
MANIGLIA_1
 10
26.2019
 20
-4.0099
 30
145.6804
 70
192
 0
VERTEX
 8
MANIGLIA_1
 10
26.2019
 20
-4.3607
 30
145.4055
 70
192
 0
VERTEX
 8
MANIGLIA_1
 10
-26.198
 20
-3.8346
 30
144.2365
 70
192
 0
VERTEX
 8
MANIGLIA_1
 10
-26.198
 20
-4.0924
 30
145.6433
 70
192
 0
VERTEX
 8
MANIGLIA_1
 10
-26.198
 20
-4.4075
 30
145.3281
 70
192
 0
VERTEX
 8
MANIGLIA_1
 10
26.2019
 20
-3.8346
 30
144.2365
 70
192
 0
VERTEX
 8
MANIGLIA_1
 10
26.2019
 20
-4.0924
 30
145.6433
 70
192
 0
VERTEX
 8
MANIGLIA_1
 10
26.2019
 20
-4.4075
 30
145.3281
 70
192
 0
VERTEX
 8
MANIGLIA_1
 10
-26.198
 20
-3.7443
 30
144.2311
 70
192
 0
VERTEX
 8
MANIGLIA_1
 10
-26.198
 20
-4.1698
 30
145.5965
 70
192
 0
VERTEX
 8
MANIGLIA_1
 10
-26.198
 20
-4.4446
 30
145.2457
 70
192
 0
VERTEX
 8
MANIGLIA_1
 10
26.2019
 20
-3.7443
 30
144.2311
 70
192
 0
VERTEX
 8
MANIGLIA_1
 10
26.2019
 20
-4.1698
 30
145.5965
 70
192
 0
VERTEX
 8
MANIGLIA_1
 10
26.2019
 20
-4.4446
 30
145.2457
 70
192
 0
VERTEX
 8
MANIGLIA_1
 10
-26.198
 20
-3.654
 30
144.2365
 70
192
 0
VERTEX
 8
MANIGLIA_1
 10
-26.198
 20
-4.241
 30
145.5407
 70
192
 0
VERTEX
 8
MANIGLIA_1
 10
-26.198
 20
-4.4715
 30
145.1593
 70
192
 0
VERTEX
 8
MANIGLIA_1
 10
26.2019
 20
-3.654
 30
144.2365
 70
192
 0
VERTEX
 8
MANIGLIA_1
 10
26.2019
 20
-4.241
 30
145.5407
 70
192
 0
VERTEX
 8
MANIGLIA_1
 10
26.2019
 20
-4.4715
 30
145.1593
 70
192
 0
VERTEX
 8
MANIGLIA_1
 10
-26.198
 20
-4.4878
 30
145.0703
 70
192
 0
VERTEX
 8
MANIGLIA_1
 10
-26.198
 20
-3.1279
 30
145.4055
 70
192
 0
VERTEX
 8
MANIGLIA_1
 10
26.2019
 20
-4.4878
 30
145.0703
 70
192
 0
VERTEX
 8
MANIGLIA_1
 10
26.2019
 20
-3.4787
 30
145.6804
 70
192
 0
VERTEX
 8
MANIGLIA_1
 10
-26.198
 20
-3.565
 30
145.7073
 70
192
 0
VERTEX
 8
MANIGLIA_1
 10
26.2019
 20
-3.565
 30
145.7073
 70
192
 0
VERTEX
 8
MANIGLIA_1
 10
-26.198
 20
-3.654
 30
145.7236
 70
192
 0
VERTEX
 8
MANIGLIA_1
 10
26.2019
 20
-3.654
 30
145.7236
 70
192
 0
VERTEX
 8
MANIGLIA_1
 10
-26.198
 20
-3.7443
 30
145.7291
 70
192
 0
VERTEX
 8
MANIGLIA_1
 10
26.2019
 20
-3.7443
 30
145.7291
 70
192
 0
VERTEX
 8
MANIGLIA_1
 10
-26.198
 20
-3.8346
 30
145.7236
 70
192
 0
VERTEX
 8
MANIGLIA_1
 10
26.2019
 20
-3.8346
 30
145.7236
 70
192
 0
VERTEX
 8
MANIGLIA_1
 10
26.2019
 20
-3.9235
 30
145.7073
 70
192
 0
VERTEX
 8
MANIGLIA_1
 10
0
 20
0
 30
0
 70
128
 71
374
 72
375
 73
1
 74
7
 0
VERTEX
 8
MANIGLIA_1
 10
0
 20
0
 30
0
 70
128
 71
1
 72
2
 73
8
 74
7
 0
VERTEX
 8
MANIGLIA_1
 10
0
 20
0
 30
0
 70
128
 71
2
 72
3
 73
9
 74
8
 0
VERTEX
 8
MANIGLIA_1
 10
0
 20
0
 30
0
 70
128
 71
3
 72
4
 73
10
 74
9
 0
VERTEX
 8
MANIGLIA_1
 10
0
 20
0
 30
0
 70
128
 71
4
 72
5
 73
11
 74
10
 0
VERTEX
 8
MANIGLIA_1
 10
0
 20
0
 30
0
 70
128
 71
5
 72
6
 73
12
 74
11
 0
VERTEX
 8
MANIGLIA_1
 10
0
 20
0
 30
0
 70
128
 71
6
 72
379
 73
378
 74
12
 0
VERTEX
 8
MANIGLIA_1
 10
0
 20
0
 30
0
 70
128
 71
383
 72
374
 73
7
 74
13
 0
VERTEX
 8
MANIGLIA_1
 10
0
 20
0
 30
0
 70
128
 71
7
 72
8
 73
14
 74
13
 0
VERTEX
 8
MANIGLIA_1
 10
0
 20
0
 30
0
 70
128
 71
8
 72
9
 73
15
 74
14
 0
VERTEX
 8
MANIGLIA_1
 10
0
 20
0
 30
0
 70
128
 71
9
 72
10
 73
16
 74
15
 0
VERTEX
 8
MANIGLIA_1
 10
0
 20
0
 30
0
 70
128
 71
10
 72
11
 73
17
 74
16
 0
VERTEX
 8
MANIGLIA_1
 10
0
 20
0
 30
0
 70
128
 71
11
 72
12
 73
18
 74
17
 0
VERTEX
 8
MANIGLIA_1
 10
0
 20
0
 30
0
 70
128
 71
12
 72
378
 73
386
 74
18
 0
VERTEX
 8
MANIGLIA_1
 10
0
 20
0
 30
0
 70
128
 71
389
 72
383
 73
13
 74
19
 0
VERTEX
 8
MANIGLIA_1
 10
0
 20
0
 30
0
 70
128
 71
13
 72
14
 73
20
 74
19
 0
VERTEX
 8
MANIGLIA_1
 10
0
 20
0
 30
0
 70
128
 71
14
 72
15
 73
21
 74
20
 0
VERTEX
 8
MANIGLIA_1
 10
0
 20
0
 30
0
 70
128
 71
15
 72
16
 73
22
 74
21
 0
VERTEX
 8
MANIGLIA_1
 10
0
 20
0
 30
0
 70
128
 71
16
 72
17
 73
23
 74
22
 0
VERTEX
 8
MANIGLIA_1
 10
0
 20
0
 30
0
 70
128
 71
17
 72
18
 73
24
 74
23
 0
VERTEX
 8
MANIGLIA_1
 10
0
 20
0
 30
0
 70
128
 71
18
 72
386
 73
392
 74
24
 0
VERTEX
 8
MANIGLIA_1
 10
0
 20
0
 30
0
 70
128
 71
395
 72
389
 73
19
 74
25
 0
VERTEX
 8
MANIGLIA_1
 10
0
 20
0
 30
0
 70
128
 71
19
 72
20
 73
26
 74
25
 0
VERTEX
 8
MANIGLIA_1
 10
0
 20
0
 30
0
 70
128
 71
20
 72
21
 73
27
 74
26
 0
VERTEX
 8
MANIGLIA_1
 10
0
 20
0
 30
0
 70
128
 71
21
 72
22
 73
28
 74
27
 0
VERTEX
 8
MANIGLIA_1
 10
0
 20
0
 30
0
 70
128
 71
22
 72
23
 73
29
 74
28
 0
VERTEX
 8
MANIGLIA_1
 10
0
 20
0
 30
0
 70
128
 71
23
 72
24
 73
30
 74
29
 0
VERTEX
 8
MANIGLIA_1
 10
0
 20
0
 30
0
 70
128
 71
24
 72
392
 73
398
 74
30
 0
VERTEX
 8
MANIGLIA_1
 10
0
 20
0
 30
0
 70
128
 71
401
 72
395
 73
25
 74
31
 0
VERTEX
 8
MANIGLIA_1
 10
0
 20
0
 30
0
 70
128
 71
25
 72
26
 73
32
 74
31
 0
VERTEX
 8
MANIGLIA_1
 10
0
 20
0
 30
0
 70
128
 71
26
 72
27
 73
33
 74
32
 0
VERTEX
 8
MANIGLIA_1
 10
0
 20
0
 30
0
 70
128
 71
27
 72
28
 73
34
 74
33
 0
VERTEX
 8
MANIGLIA_1
 10
0
 20
0
 30
0
 70
128
 71
28
 72
29
 73
35
 74
34
 0
VERTEX
 8
MANIGLIA_1
 10
0
 20
0
 30
0
 70
128
 71
29
 72
30
 73
36
 74
35
 0
VERTEX
 8
MANIGLIA_1
 10
0
 20
0
 30
0
 70
128
 71
30
 72
398
 73
404
 74
36
 0
VERTEX
 8
MANIGLIA_1
 10
0
 20
0
 30
0
 70
128
 71
407
 72
401
 73
31
 74
37
 0
VERTEX
 8
MANIGLIA_1
 10
0
 20
0
 30
0
 70
128
 71
31
 72
32
 73
38
 74
37
 0
VERTEX
 8
MANIGLIA_1
 10
0
 20
0
 30
0
 70
128
 71
32
 72
33
 73
39
 74
38
 0
VERTEX
 8
MANIGLIA_1
 10
0
 20
0
 30
0
 70
128
 71
33
 72
34
 73
40
 74
39
 0
VERTEX
 8
MANIGLIA_1
 10
0
 20
0
 30
0
 70
128
 71
34
 72
35
 73
41
 74
40
 0
VERTEX
 8
MANIGLIA_1
 10
0
 20
0
 30
0
 70
128
 71
35
 72
36
 73
42
 74
41
 0
VERTEX
 8
MANIGLIA_1
 10
0
 20
0
 30
0
 70
128
 71
36
 72
404
 73
410
 74
42
 0
VERTEX
 8
MANIGLIA_1
 10
0
 20
0
 30
0
 70
128
 71
413
 72
407
 73
37
 74
43
 0
VERTEX
 8
MANIGLIA_1
 10
0
 20
0
 30
0
 70
128
 71
37
 72
38
 73
44
 74
43
 0
VERTEX
 8
MANIGLIA_1
 10
0
 20
0
 30
0
 70
128
 71
38
 72
39
 73
45
 74
44
 0
VERTEX
 8
MANIGLIA_1
 10
0
 20
0
 30
0
 70
128
 71
39
 72
40
 73
46
 74
45
 0
VERTEX
 8
MANIGLIA_1
 10
0
 20
0
 30
0
 70
128
 71
40
 72
41
 73
47
 74
46
 0
VERTEX
 8
MANIGLIA_1
 10
0
 20
0
 30
0
 70
128
 71
41
 72
42
 73
48
 74
47
 0
VERTEX
 8
MANIGLIA_1
 10
0
 20
0
 30
0
 70
128
 71
42
 72
410
 73
416
 74
48
 0
VERTEX
 8
MANIGLIA_1
 10
0
 20
0
 30
0
 70
128
 71
419
 72
413
 73
43
 74
49
 0
VERTEX
 8
MANIGLIA_1
 10
0
 20
0
 30
0
 70
128
 71
43
 72
44
 73
50
 74
49
 0
VERTEX
 8
MANIGLIA_1
 10
0
 20
0
 30
0
 70
128
 71
44
 72
45
 73
51
 74
50
 0
VERTEX
 8
MANIGLIA_1
 10
0
 20
0
 30
0
 70
128
 71
45
 72
46
 73
52
 74
51
 0
VERTEX
 8
MANIGLIA_1
 10
0
 20
0
 30
0
 70
128
 71
46
 72
47
 73
53
 74
52
 0
VERTEX
 8
MANIGLIA_1
 10
0
 20
0
 30
0
 70
128
 71
47
 72
48
 73
54
 74
53
 0
VERTEX
 8
MANIGLIA_1
 10
0
 20
0
 30
0
 70
128
 71
48
 72
416
 73
422
 74
54
 0
VERTEX
 8
MANIGLIA_1
 10
0
 20
0
 30
0
 70
128
 71
425
 72
419
 73
49
 74
55
 0
VERTEX
 8
MANIGLIA_1
 10
0
 20
0
 30
0
 70
128
 71
49
 72
50
 73
56
 74
55
 0
VERTEX
 8
MANIGLIA_1
 10
0
 20
0
 30
0
 70
128
 71
50
 72
51
 73
57
 74
56
 0
VERTEX
 8
MANIGLIA_1
 10
0
 20
0
 30
0
 70
128
 71
51
 72
52
 73
58
 74
57
 0
VERTEX
 8
MANIGLIA_1
 10
0
 20
0
 30
0
 70
128
 71
52
 72
53
 73
59
 74
58
 0
VERTEX
 8
MANIGLIA_1
 10
0
 20
0
 30
0
 70
128
 71
53
 72
54
 73
60
 74
59
 0
VERTEX
 8
MANIGLIA_1
 10
0
 20
0
 30
0
 70
128
 71
54
 72
422
 73
428
 74
60
 0
VERTEX
 8
MANIGLIA_1
 10
0
 20
0
 30
0
 70
128
 71
431
 72
425
 73
55
 74
61
 0
VERTEX
 8
MANIGLIA_1
 10
0
 20
0
 30
0
 70
128
 71
55
 72
56
 73
62
 74
61
 0
VERTEX
 8
MANIGLIA_1
 10
0
 20
0
 30
0
 70
128
 71
56
 72
57
 73
63
 74
62
 0
VERTEX
 8
MANIGLIA_1
 10
0
 20
0
 30
0
 70
128
 71
57
 72
58
 73
64
 74
63
 0
VERTEX
 8
MANIGLIA_1
 10
0
 20
0
 30
0
 70
128
 71
58
 72
59
 73
65
 74
64
 0
VERTEX
 8
MANIGLIA_1
 10
0
 20
0
 30
0
 70
128
 71
59
 72
60
 73
66
 74
65
 0
VERTEX
 8
MANIGLIA_1
 10
0
 20
0
 30
0
 70
128
 71
60
 72
428
 73
434
 74
66
 0
VERTEX
 8
MANIGLIA_1
 10
0
 20
0
 30
0
 70
128
 71
437
 72
431
 73
61
 74
67
 0
VERTEX
 8
MANIGLIA_1
 10
0
 20
0
 30
0
 70
128
 71
61
 72
62
 73
68
 74
67
 0
VERTEX
 8
MANIGLIA_1
 10
0
 20
0
 30
0
 70
128
 71
62
 72
63
 73
69
 74
68
 0
VERTEX
 8
MANIGLIA_1
 10
0
 20
0
 30
0
 70
128
 71
63
 72
64
 73
70
 74
69
 0
VERTEX
 8
MANIGLIA_1
 10
0
 20
0
 30
0
 70
128
 71
64
 72
65
 73
71
 74
70
 0
VERTEX
 8
MANIGLIA_1
 10
0
 20
0
 30
0
 70
128
 71
65
 72
66
 73
72
 74
71
 0
VERTEX
 8
MANIGLIA_1
 10
0
 20
0
 30
0
 70
128
 71
66
 72
434
 73
438
 74
72
 0
VERTEX
 8
MANIGLIA_1
 10
0
 20
0
 30
0
 70
128
 71
441
 72
437
 73
67
 74
73
 0
VERTEX
 8
MANIGLIA_1
 10
0
 20
0
 30
0
 70
128
 71
67
 72
68
 73
74
 74
73
 0
VERTEX
 8
MANIGLIA_1
 10
0
 20
0
 30
0
 70
128
 71
68
 72
69
 73
75
 74
74
 0
VERTEX
 8
MANIGLIA_1
 10
0
 20
0
 30
0
 70
128
 71
69
 72
70
 73
76
 74
75
 0
VERTEX
 8
MANIGLIA_1
 10
0
 20
0
 30
0
 70
128
 71
70
 72
71
 73
77
 74
76
 0
VERTEX
 8
MANIGLIA_1
 10
0
 20
0
 30
0
 70
128
 71
71
 72
72
 73
78
 74
77
 0
VERTEX
 8
MANIGLIA_1
 10
0
 20
0
 30
0
 70
128
 71
72
 72
438
 73
444
 74
78
 0
VERTEX
 8
MANIGLIA_1
 10
0
 20
0
 30
0
 70
128
 71
447
 72
441
 73
73
 74
79
 0
VERTEX
 8
MANIGLIA_1
 10
0
 20
0
 30
0
 70
128
 71
73
 72
74
 73
80
 74
79
 0
VERTEX
 8
MANIGLIA_1
 10
0
 20
0
 30
0
 70
128
 71
74
 72
75
 73
81
 74
80
 0
VERTEX
 8
MANIGLIA_1
 10
0
 20
0
 30
0
 70
128
 71
75
 72
76
 73
82
 74
81
 0
VERTEX
 8
MANIGLIA_1
 10
0
 20
0
 30
0
 70
128
 71
76
 72
77
 73
83
 74
82
 0
VERTEX
 8
MANIGLIA_1
 10
0
 20
0
 30
0
 70
128
 71
77
 72
78
 73
84
 74
83
 0
VERTEX
 8
MANIGLIA_1
 10
0
 20
0
 30
0
 70
128
 71
78
 72
444
 73
450
 74
84
 0
VERTEX
 8
MANIGLIA_1
 10
0
 20
0
 30
0
 70
128
 71
453
 72
447
 73
79
 74
85
 0
VERTEX
 8
MANIGLIA_1
 10
0
 20
0
 30
0
 70
128
 71
79
 72
80
 73
86
 74
85
 0
VERTEX
 8
MANIGLIA_1
 10
0
 20
0
 30
0
 70
128
 71
80
 72
81
 73
87
 74
86
 0
VERTEX
 8
MANIGLIA_1
 10
0
 20
0
 30
0
 70
128
 71
81
 72
82
 73
88
 74
87
 0
VERTEX
 8
MANIGLIA_1
 10
0
 20
0
 30
0
 70
128
 71
82
 72
83
 73
89
 74
88
 0
VERTEX
 8
MANIGLIA_1
 10
0
 20
0
 30
0
 70
128
 71
83
 72
84
 73
90
 74
89
 0
VERTEX
 8
MANIGLIA_1
 10
0
 20
0
 30
0
 70
128
 71
84
 72
450
 73
456
 74
90
 0
VERTEX
 8
MANIGLIA_1
 10
0
 20
0
 30
0
 70
128
 71
459
 72
453
 73
85
 74
91
 0
VERTEX
 8
MANIGLIA_1
 10
0
 20
0
 30
0
 70
128
 71
85
 72
86
 73
92
 74
91
 0
VERTEX
 8
MANIGLIA_1
 10
0
 20
0
 30
0
 70
128
 71
86
 72
87
 73
93
 74
92
 0
VERTEX
 8
MANIGLIA_1
 10
0
 20
0
 30
0
 70
128
 71
87
 72
88
 73
94
 74
93
 0
VERTEX
 8
MANIGLIA_1
 10
0
 20
0
 30
0
 70
128
 71
88
 72
89
 73
95
 74
94
 0
VERTEX
 8
MANIGLIA_1
 10
0
 20
0
 30
0
 70
128
 71
89
 72
90
 73
96
 74
95
 0
VERTEX
 8
MANIGLIA_1
 10
0
 20
0
 30
0
 70
128
 71
90
 72
456
 73
376
 74
96
 0
VERTEX
 8
MANIGLIA_1
 10
0
 20
0
 30
0
 70
128
 71
380
 72
459
 73
91
 74
97
 0
VERTEX
 8
MANIGLIA_1
 10
0
 20
0
 30
0
 70
128
 71
91
 72
92
 73
98
 74
97
 0
VERTEX
 8
MANIGLIA_1
 10
0
 20
0
 30
0
 70
128
 71
92
 72
93
 73
99
 74
98
 0
VERTEX
 8
MANIGLIA_1
 10
0
 20
0
 30
0
 70
128
 71
93
 72
94
 73
100
 74
99
 0
VERTEX
 8
MANIGLIA_1
 10
0
 20
0
 30
0
 70
128
 71
94
 72
95
 73
101
 74
100
 0
VERTEX
 8
MANIGLIA_1
 10
0
 20
0
 30
0
 70
128
 71
95
 72
96
 73
102
 74
101
 0
VERTEX
 8
MANIGLIA_1
 10
0
 20
0
 30
0
 70
128
 71
96
 72
376
 73
465
 74
102
 0
VERTEX
 8
MANIGLIA_1
 10
0
 20
0
 30
0
 70
128
 71
382
 72
380
 73
97
 74
103
 0
VERTEX
 8
MANIGLIA_1
 10
0
 20
0
 30
0
 70
128
 71
97
 72
98
 73
104
 74
103
 0
VERTEX
 8
MANIGLIA_1
 10
0
 20
0
 30
0
 70
128
 71
98
 72
99
 73
105
 74
104
 0
VERTEX
 8
MANIGLIA_1
 10
0
 20
0
 30
0
 70
128
 71
99
 72
100
 73
106
 74
105
 0
VERTEX
 8
MANIGLIA_1
 10
0
 20
0
 30
0
 70
128
 71
100
 72
101
 73
107
 74
106
 0
VERTEX
 8
MANIGLIA_1
 10
0
 20
0
 30
0
 70
128
 71
101
 72
102
 73
108
 74
107
 0
VERTEX
 8
MANIGLIA_1
 10
0
 20
0
 30
0
 70
128
 71
102
 72
465
 73
385
 74
108
 0
VERTEX
 8
MANIGLIA_1
 10
0
 20
0
 30
0
 70
128
 71
388
 72
382
 73
103
 74
109
 0
VERTEX
 8
MANIGLIA_1
 10
0
 20
0
 30
0
 70
128
 71
103
 72
104
 73
110
 74
109
 0
VERTEX
 8
MANIGLIA_1
 10
0
 20
0
 30
0
 70
128
 71
104
 72
105
 73
111
 74
110
 0
VERTEX
 8
MANIGLIA_1
 10
0
 20
0
 30
0
 70
128
 71
105
 72
106
 73
112
 74
111
 0
VERTEX
 8
MANIGLIA_1
 10
0
 20
0
 30
0
 70
128
 71
106
 72
107
 73
113
 74
112
 0
VERTEX
 8
MANIGLIA_1
 10
0
 20
0
 30
0
 70
128
 71
107
 72
108
 73
114
 74
113
 0
VERTEX
 8
MANIGLIA_1
 10
0
 20
0
 30
0
 70
128
 71
108
 72
385
 73
391
 74
114
 0
VERTEX
 8
MANIGLIA_1
 10
0
 20
0
 30
0
 70
128
 71
394
 72
388
 73
109
 74
115
 0
VERTEX
 8
MANIGLIA_1
 10
0
 20
0
 30
0
 70
128
 71
109
 72
110
 73
116
 74
115
 0
VERTEX
 8
MANIGLIA_1
 10
0
 20
0
 30
0
 70
128
 71
110
 72
111
 73
117
 74
116
 0
VERTEX
 8
MANIGLIA_1
 10
0
 20
0
 30
0
 70
128
 71
111
 72
112
 73
118
 74
117
 0
VERTEX
 8
MANIGLIA_1
 10
0
 20
0
 30
0
 70
128
 71
112
 72
113
 73
119
 74
118
 0
VERTEX
 8
MANIGLIA_1
 10
0
 20
0
 30
0
 70
128
 71
113
 72
114
 73
120
 74
119
 0
VERTEX
 8
MANIGLIA_1
 10
0
 20
0
 30
0
 70
128
 71
114
 72
391
 73
397
 74
120
 0
VERTEX
 8
MANIGLIA_1
 10
0
 20
0
 30
0
 70
128
 71
400
 72
394
 73
115
 74
121
 0
VERTEX
 8
MANIGLIA_1
 10
0
 20
0
 30
0
 70
128
 71
115
 72
116
 73
122
 74
121
 0
VERTEX
 8
MANIGLIA_1
 10
0
 20
0
 30
0
 70
128
 71
313
 72
314
 73
316
 74
315
 0
VERTEX
 8
MANIGLIA_1
 10
0
 20
0
 30
0
 70
128
 71
117
 72
118
 73
124
 74
123
 0
VERTEX
 8
MANIGLIA_1
 10
0
 20
0
 30
0
 70
128
 71
343
 72
344
 73
346
 74
345
 0
VERTEX
 8
MANIGLIA_1
 10
0
 20
0
 30
0
 70
128
 71
119
 72
120
 73
126
 74
125
 0
VERTEX
 8
MANIGLIA_1
 10
0
 20
0
 30
0
 70
128
 71
120
 72
397
 73
403
 74
126
 0
VERTEX
 8
MANIGLIA_1
 10
0
 20
0
 30
0
 70
128
 71
406
 72
400
 73
121
 74
127
 0
VERTEX
 8
MANIGLIA_1
 10
0
 20
0
 30
0
 70
128
 71
121
 72
122
 73
128
 74
127
 0
VERTEX
 8
MANIGLIA_1
 10
0
 20
0
 30
0
 70
128
 71
315
 72
316
 73
318
 74
317
 0
VERTEX
 8
MANIGLIA_1
 10
0
 20
0
 30
0
 70
128
 71
123
 72
124
 73
130
 74
129
 0
VERTEX
 8
MANIGLIA_1
 10
0
 20
0
 30
0
 70
128
 71
345
 72
346
 73
348
 74
347
 0
VERTEX
 8
MANIGLIA_1
 10
0
 20
0
 30
0
 70
128
 71
125
 72
126
 73
132
 74
131
 0
VERTEX
 8
MANIGLIA_1
 10
0
 20
0
 30
0
 70
128
 71
126
 72
403
 73
409
 74
132
 0
VERTEX
 8
MANIGLIA_1
 10
0
 20
0
 30
0
 70
128
 71
412
 72
406
 73
127
 74
133
 0
VERTEX
 8
MANIGLIA_1
 10
0
 20
0
 30
0
 70
128
 71
127
 72
128
 73
134
 74
133
 0
VERTEX
 8
MANIGLIA_1
 10
0
 20
0
 30
0
 70
128
 71
317
 72
318
 73
320
 74
319
 0
VERTEX
 8
MANIGLIA_1
 10
0
 20
0
 30
0
 70
128
 71
129
 72
130
 73
136
 74
135
 0
VERTEX
 8
MANIGLIA_1
 10
0
 20
0
 30
0
 70
128
 71
347
 72
348
 73
350
 74
349
 0
VERTEX
 8
MANIGLIA_1
 10
0
 20
0
 30
0
 70
128
 71
131
 72
132
 73
138
 74
137
 0
VERTEX
 8
MANIGLIA_1
 10
0
 20
0
 30
0
 70
128
 71
132
 72
409
 73
415
 74
138
 0
VERTEX
 8
MANIGLIA_1
 10
0
 20
0
 30
0
 70
128
 71
418
 72
412
 73
133
 74
139
 0
VERTEX
 8
MANIGLIA_1
 10
0
 20
0
 30
0
 70
128
 71
133
 72
134
 73
140
 74
139
 0
VERTEX
 8
MANIGLIA_1
 10
0
 20
0
 30
0
 70
128
 71
319
 72
320
 73
322
 74
321
 0
VERTEX
 8
MANIGLIA_1
 10
0
 20
0
 30
0
 70
128
 71
135
 72
136
 73
142
 74
141
 0
VERTEX
 8
MANIGLIA_1
 10
0
 20
0
 30
0
 70
128
 71
349
 72
350
 73
352
 74
351
 0
VERTEX
 8
MANIGLIA_1
 10
0
 20
0
 30
0
 70
128
 71
137
 72
138
 73
144
 74
143
 0
VERTEX
 8
MANIGLIA_1
 10
0
 20
0
 30
0
 70
128
 71
138
 72
415
 73
421
 74
144
 0
VERTEX
 8
MANIGLIA_1
 10
0
 20
0
 30
0
 70
128
 71
424
 72
418
 73
139
 74
145
 0
VERTEX
 8
MANIGLIA_1
 10
0
 20
0
 30
0
 70
128
 71
139
 72
140
 73
146
 74
145
 0
VERTEX
 8
MANIGLIA_1
 10
0
 20
0
 30
0
 70
128
 71
321
 72
322
 73
324
 74
323
 0
VERTEX
 8
MANIGLIA_1
 10
0
 20
0
 30
0
 70
128
 71
141
 72
142
 73
148
 74
147
 0
VERTEX
 8
MANIGLIA_1
 10
0
 20
0
 30
0
 70
128
 71
351
 72
352
 73
354
 74
353
 0
VERTEX
 8
MANIGLIA_1
 10
0
 20
0
 30
0
 70
128
 71
143
 72
144
 73
150
 74
149
 0
VERTEX
 8
MANIGLIA_1
 10
0
 20
0
 30
0
 70
128
 71
144
 72
421
 73
427
 74
150
 0
VERTEX
 8
MANIGLIA_1
 10
0
 20
0
 30
0
 70
128
 71
430
 72
424
 73
145
 74
151
 0
VERTEX
 8
MANIGLIA_1
 10
0
 20
0
 30
0
 70
128
 71
145
 72
146
 73
152
 74
151
 0
VERTEX
 8
MANIGLIA_1
 10
0
 20
0
 30
0
 70
128
 71
323
 72
324
 73
326
 74
325
 0
VERTEX
 8
MANIGLIA_1
 10
0
 20
0
 30
0
 70
128
 71
147
 72
148
 73
154
 74
153
 0
VERTEX
 8
MANIGLIA_1
 10
0
 20
0
 30
0
 70
128
 71
353
 72
354
 73
356
 74
355
 0
VERTEX
 8
MANIGLIA_1
 10
0
 20
0
 30
0
 70
128
 71
149
 72
150
 73
156
 74
155
 0
VERTEX
 8
MANIGLIA_1
 10
0
 20
0
 30
0
 70
128
 71
150
 72
427
 73
433
 74
156
 0
VERTEX
 8
MANIGLIA_1
 10
0
 20
0
 30
0
 70
128
 71
467
 72
430
 73
151
 74
157
 0
VERTEX
 8
MANIGLIA_1
 10
0
 20
0
 30
0
 70
128
 71
151
 72
152
 73
158
 74
157
 0
VERTEX
 8
MANIGLIA_1
 10
0
 20
0
 30
0
 70
128
 71
325
 72
326
 73
328
 74
327
 0
VERTEX
 8
MANIGLIA_1
 10
0
 20
0
 30
0
 70
128
 71
153
 72
154
 73
160
 74
159
 0
VERTEX
 8
MANIGLIA_1
 10
0
 20
0
 30
0
 70
128
 71
355
 72
356
 73
358
 74
357
 0
VERTEX
 8
MANIGLIA_1
 10
0
 20
0
 30
0
 70
128
 71
155
 72
156
 73
162
 74
161
 0
VERTEX
 8
MANIGLIA_1
 10
0
 20
0
 30
0
 70
128
 71
156
 72
433
 73
439
 74
162
 0
VERTEX
 8
MANIGLIA_1
 10
0
 20
0
 30
0
 70
128
 71
163
 72
414
 73
467
 74
157
 0
VERTEX
 8
MANIGLIA_1
 10
0
 20
0
 30
0
 70
128
 71
157
 72
158
 73
164
 74
163
 0
VERTEX
 8
MANIGLIA_1
 10
0
 20
0
 30
0
 70
128
 71
327
 72
328
 73
330
 74
329
 0
VERTEX
 8
MANIGLIA_1
 10
0
 20
0
 30
0
 70
128
 71
159
 72
160
 73
166
 74
165
 0
VERTEX
 8
MANIGLIA_1
 10
0
 20
0
 30
0
 70
128
 71
357
 72
358
 73
360
 74
359
 0
VERTEX
 8
MANIGLIA_1
 10
0
 20
0
 30
0
 70
128
 71
161
 72
162
 73
168
 74
167
 0
VERTEX
 8
MANIGLIA_1
 10
0
 20
0
 30
0
 70
128
 71
439
 72
417
 73
168
 74
162
 0
VERTEX
 8
MANIGLIA_1
 10
0
 20
0
 30
0
 70
128
 71
169
 72
420
 73
414
 74
163
 0
VERTEX
 8
MANIGLIA_1
 10
0
 20
0
 30
0
 70
128
 71
163
 72
164
 73
170
 74
169
 0
VERTEX
 8
MANIGLIA_1
 10
0
 20
0
 30
0
 70
128
 71
329
 72
330
 73
332
 74
331
 0
VERTEX
 8
MANIGLIA_1
 10
0
 20
0
 30
0
 70
128
 71
165
 72
166
 73
172
 74
171
 0
VERTEX
 8
MANIGLIA_1
 10
0
 20
0
 30
0
 70
128
 71
359
 72
360
 73
362
 74
361
 0
VERTEX
 8
MANIGLIA_1
 10
0
 20
0
 30
0
 70
128
 71
167
 72
168
 73
174
 74
173
 0
VERTEX
 8
MANIGLIA_1
 10
0
 20
0
 30
0
 70
128
 71
417
 72
423
 73
174
 74
168
 0
VERTEX
 8
MANIGLIA_1
 10
0
 20
0
 30
0
 70
128
 71
175
 72
426
 73
420
 74
169
 0
VERTEX
 8
MANIGLIA_1
 10
0
 20
0
 30
0
 70
128
 71
169
 72
170
 73
176
 74
175
 0
VERTEX
 8
MANIGLIA_1
 10
0
 20
0
 30
0
 70
128
 71
331
 72
332
 73
334
 74
333
 0
VERTEX
 8
MANIGLIA_1
 10
0
 20
0
 30
0
 70
128
 71
171
 72
172
 73
178
 74
177
 0
VERTEX
 8
MANIGLIA_1
 10
0
 20
0
 30
0
 70
128
 71
361
 72
362
 73
364
 74
363
 0
VERTEX
 8
MANIGLIA_1
 10
0
 20
0
 30
0
 70
128
 71
173
 72
174
 73
180
 74
179
 0
VERTEX
 8
MANIGLIA_1
 10
0
 20
0
 30
0
 70
128
 71
423
 72
429
 73
180
 74
174
 0
VERTEX
 8
MANIGLIA_1
 10
0
 20
0
 30
0
 70
128
 71
181
 72
432
 73
426
 74
175
 0
VERTEX
 8
MANIGLIA_1
 10
0
 20
0
 30
0
 70
128
 71
175
 72
176
 73
182
 74
181
 0
VERTEX
 8
MANIGLIA_1
 10
0
 20
0
 30
0
 70
128
 71
333
 72
334
 73
336
 74
335
 0
VERTEX
 8
MANIGLIA_1
 10
0
 20
0
 30
0
 70
128
 71
177
 72
178
 73
184
 74
183
 0
VERTEX
 8
MANIGLIA_1
 10
0
 20
0
 30
0
 70
128
 71
363
 72
364
 73
366
 74
365
 0
VERTEX
 8
MANIGLIA_1
 10
0
 20
0
 30
0
 70
128
 71
179
 72
180
 73
186
 74
185
 0
VERTEX
 8
MANIGLIA_1
 10
0
 20
0
 30
0
 70
128
 71
429
 72
373
 73
186
 74
180
 0
VERTEX
 8
MANIGLIA_1
 10
0
 20
0
 30
0
 70
128
 71
187
 72
377
 73
432
 74
181
 0
VERTEX
 8
MANIGLIA_1
 10
0
 20
0
 30
0
 70
128
 71
181
 72
182
 73
188
 74
187
 0
VERTEX
 8
MANIGLIA_1
 10
0
 20
0
 30
0
 70
128
 71
335
 72
336
 73
338
 74
337
 0
VERTEX
 8
MANIGLIA_1
 10
0
 20
0
 30
0
 70
128
 71
183
 72
184
 73
190
 74
189
 0
VERTEX
 8
MANIGLIA_1
 10
0
 20
0
 30
0
 70
128
 71
365
 72
366
 73
368
 74
367
 0
VERTEX
 8
MANIGLIA_1
 10
0
 20
0
 30
0
 70
128
 71
185
 72
186
 73
192
 74
191
 0
VERTEX
 8
MANIGLIA_1
 10
0
 20
0
 30
0
 70
128
 71
373
 72
466
 73
192
 74
186
 0
VERTEX
 8
MANIGLIA_1
 10
0
 20
0
 30
0
 70
128
 71
193
 72
442
 73
377
 74
187
 0
VERTEX
 8
MANIGLIA_1
 10
0
 20
0
 30
0
 70
128
 71
187
 72
188
 73
194
 74
193
 0
VERTEX
 8
MANIGLIA_1
 10
0
 20
0
 30
0
 70
128
 71
337
 72
338
 73
340
 74
339
 0
VERTEX
 8
MANIGLIA_1
 10
0
 20
0
 30
0
 70
128
 71
189
 72
190
 73
196
 74
195
 0
VERTEX
 8
MANIGLIA_1
 10
0
 20
0
 30
0
 70
128
 71
367
 72
368
 73
370
 74
369
 0
VERTEX
 8
MANIGLIA_1
 10
0
 20
0
 30
0
 70
128
 71
191
 72
192
 73
198
 74
197
 0
VERTEX
 8
MANIGLIA_1
 10
0
 20
0
 30
0
 70
128
 71
466
 72
445
 73
198
 74
192
 0
VERTEX
 8
MANIGLIA_1
 10
0
 20
0
 30
0
 70
128
 71
199
 72
448
 73
442
 74
193
 0
VERTEX
 8
MANIGLIA_1
 10
0
 20
0
 30
0
 70
128
 71
193
 72
194
 73
200
 74
199
 0
VERTEX
 8
MANIGLIA_1
 10
0
 20
0
 30
0
 70
128
 71
339
 72
340
 73
342
 74
341
 0
VERTEX
 8
MANIGLIA_1
 10
0
 20
0
 30
0
 70
128
 71
195
 72
196
 73
202
 74
201
 0
VERTEX
 8
MANIGLIA_1
 10
0
 20
0
 30
0
 70
128
 71
369
 72
370
 73
372
 74
371
 0
VERTEX
 8
MANIGLIA_1
 10
0
 20
0
 30
0
 70
128
 71
197
 72
198
 73
204
 74
203
 0
VERTEX
 8
MANIGLIA_1
 10
0
 20
0
 30
0
 70
128
 71
445
 72
451
 73
204
 74
198
 0
VERTEX
 8
MANIGLIA_1
 10
0
 20
0
 30
0
 70
128
 71
205
 72
454
 73
448
 74
199
 0
VERTEX
 8
MANIGLIA_1
 10
0
 20
0
 30
0
 70
128
 71
199
 72
200
 73
206
 74
205
 0
VERTEX
 8
MANIGLIA_1
 10
0
 20
0
 30
0
 70
128
 71
200
 72
201
 73
207
 74
206
 0
VERTEX
 8
MANIGLIA_1
 10
0
 20
0
 30
0
 70
128
 71
201
 72
202
 73
208
 74
207
 0
VERTEX
 8
MANIGLIA_1
 10
0
 20
0
 30
0
 70
128
 71
202
 72
203
 73
209
 74
208
 0
VERTEX
 8
MANIGLIA_1
 10
0
 20
0
 30
0
 70
128
 71
203
 72
204
 73
210
 74
209
 0
VERTEX
 8
MANIGLIA_1
 10
0
 20
0
 30
0
 70
128
 71
451
 72
457
 73
210
 74
204
 0
VERTEX
 8
MANIGLIA_1
 10
0
 20
0
 30
0
 70
128
 71
211
 72
460
 73
454
 74
205
 0
VERTEX
 8
MANIGLIA_1
 10
0
 20
0
 30
0
 70
128
 71
205
 72
206
 73
212
 74
211
 0
VERTEX
 8
MANIGLIA_1
 10
0
 20
0
 30
0
 70
128
 71
206
 72
207
 73
213
 74
212
 0
VERTEX
 8
MANIGLIA_1
 10
0
 20
0
 30
0
 70
128
 71
207
 72
208
 73
214
 74
213
 0
VERTEX
 8
MANIGLIA_1
 10
0
 20
0
 30
0
 70
128
 71
208
 72
209
 73
215
 74
214
 0
VERTEX
 8
MANIGLIA_1
 10
0
 20
0
 30
0
 70
128
 71
209
 72
210
 73
216
 74
215
 0
VERTEX
 8
MANIGLIA_1
 10
0
 20
0
 30
0
 70
128
 71
457
 72
435
 73
216
 74
210
 0
VERTEX
 8
MANIGLIA_1
 10
0
 20
0
 30
0
 70
128
 71
217
 72
463
 73
460
 74
211
 0
VERTEX
 8
MANIGLIA_1
 10
0
 20
0
 30
0
 70
128
 71
211
 72
212
 73
218
 74
217
 0
VERTEX
 8
MANIGLIA_1
 10
0
 20
0
 30
0
 70
128
 71
212
 72
213
 73
219
 74
218
 0
VERTEX
 8
MANIGLIA_1
 10
0
 20
0
 30
0
 70
128
 71
213
 72
214
 73
220
 74
219
 0
VERTEX
 8
MANIGLIA_1
 10
0
 20
0
 30
0
 70
128
 71
214
 72
215
 73
221
 74
220
 0
VERTEX
 8
MANIGLIA_1
 10
0
 20
0
 30
0
 70
128
 71
215
 72
216
 73
222
 74
221
 0
VERTEX
 8
MANIGLIA_1
 10
0
 20
0
 30
0
 70
128
 71
435
 72
468
 73
222
 74
216
 0
VERTEX
 8
MANIGLIA_1
 10
0
 20
0
 30
0
 70
128
 71
223
 72
470
 73
463
 74
217
 0
VERTEX
 8
MANIGLIA_1
 10
0
 20
0
 30
0
 70
128
 71
217
 72
218
 73
224
 74
223
 0
VERTEX
 8
MANIGLIA_1
 10
0
 20
0
 30
0
 70
128
 71
218
 72
219
 73
225
 74
224
 0
VERTEX
 8
MANIGLIA_1
 10
0
 20
0
 30
0
 70
128
 71
219
 72
220
 73
226
 74
225
 0
VERTEX
 8
MANIGLIA_1
 10
0
 20
0
 30
0
 70
128
 71
220
 72
221
 73
227
 74
226
 0
VERTEX
 8
MANIGLIA_1
 10
0
 20
0
 30
0
 70
128
 71
221
 72
222
 73
228
 74
227
 0
VERTEX
 8
MANIGLIA_1
 10
0
 20
0
 30
0
 70
128
 71
468
 72
471
 73
228
 74
222
 0
VERTEX
 8
MANIGLIA_1
 10
0
 20
0
 30
0
 70
128
 71
229
 72
473
 73
470
 74
223
 0
VERTEX
 8
MANIGLIA_1
 10
0
 20
0
 30
0
 70
128
 71
223
 72
224
 73
230
 74
229
 0
VERTEX
 8
MANIGLIA_1
 10
0
 20
0
 30
0
 70
128
 71
224
 72
225
 73
231
 74
230
 0
VERTEX
 8
MANIGLIA_1
 10
0
 20
0
 30
0
 70
128
 71
225
 72
226
 73
232
 74
231
 0
VERTEX
 8
MANIGLIA_1
 10
0
 20
0
 30
0
 70
128
 71
226
 72
227
 73
233
 74
232
 0
VERTEX
 8
MANIGLIA_1
 10
0
 20
0
 30
0
 70
128
 71
227
 72
228
 73
234
 74
233
 0
VERTEX
 8
MANIGLIA_1
 10
0
 20
0
 30
0
 70
128
 71
471
 72
474
 73
234
 74
228
 0
VERTEX
 8
MANIGLIA_1
 10
0
 20
0
 30
0
 70
128
 71
235
 72
475
 73
473
 74
229
 0
VERTEX
 8
MANIGLIA_1
 10
0
 20
0
 30
0
 70
128
 71
229
 72
230
 73
236
 74
235
 0
VERTEX
 8
MANIGLIA_1
 10
0
 20
0
 30
0
 70
128
 71
230
 72
231
 73
237
 74
236
 0
VERTEX
 8
MANIGLIA_1
 10
0
 20
0
 30
0
 70
128
 71
231
 72
232
 73
238
 74
237
 0
VERTEX
 8
MANIGLIA_1
 10
0
 20
0
 30
0
 70
128
 71
232
 72
233
 73
239
 74
238
 0
VERTEX
 8
MANIGLIA_1
 10
0
 20
0
 30
0
 70
128
 71
233
 72
234
 73
240
 74
239
 0
VERTEX
 8
MANIGLIA_1
 10
0
 20
0
 30
0
 70
128
 71
474
 72
472
 73
240
 74
234
 0
VERTEX
 8
MANIGLIA_1
 10
0
 20
0
 30
0
 70
128
 71
241
 72
436
 73
475
 74
235
 0
VERTEX
 8
MANIGLIA_1
 10
0
 20
0
 30
0
 70
128
 71
235
 72
236
 73
242
 74
241
 0
VERTEX
 8
MANIGLIA_1
 10
0
 20
0
 30
0
 70
128
 71
236
 72
237
 73
243
 74
242
 0
VERTEX
 8
MANIGLIA_1
 10
0
 20
0
 30
0
 70
128
 71
237
 72
238
 73
244
 74
243
 0
VERTEX
 8
MANIGLIA_1
 10
0
 20
0
 30
0
 70
128
 71
238
 72
239
 73
245
 74
244
 0
VERTEX
 8
MANIGLIA_1
 10
0
 20
0
 30
0
 70
128
 71
239
 72
240
 73
246
 74
245
 0
VERTEX
 8
MANIGLIA_1
 10
0
 20
0
 30
0
 70
128
 71
472
 72
476
 73
246
 74
240
 0
VERTEX
 8
MANIGLIA_1
 10
0
 20
0
 30
0
 70
128
 71
247
 72
440
 73
436
 74
241
 0
VERTEX
 8
MANIGLIA_1
 10
0
 20
0
 30
0
 70
128
 71
241
 72
242
 73
248
 74
247
 0
VERTEX
 8
MANIGLIA_1
 10
0
 20
0
 30
0
 70
128
 71
242
 72
243
 73
249
 74
248
 0
VERTEX
 8
MANIGLIA_1
 10
0
 20
0
 30
0
 70
128
 71
243
 72
244
 73
250
 74
249
 0
VERTEX
 8
MANIGLIA_1
 10
0
 20
0
 30
0
 70
128
 71
244
 72
245
 73
251
 74
250
 0
VERTEX
 8
MANIGLIA_1
 10
0
 20
0
 30
0
 70
128
 71
245
 72
246
 73
252
 74
251
 0
VERTEX
 8
MANIGLIA_1
 10
0
 20
0
 30
0
 70
128
 71
476
 72
443
 73
252
 74
246
 0
VERTEX
 8
MANIGLIA_1
 10
0
 20
0
 30
0
 70
128
 71
253
 72
446
 73
440
 74
247
 0
VERTEX
 8
MANIGLIA_1
 10
0
 20
0
 30
0
 70
128
 71
247
 72
248
 73
254
 74
253
 0
VERTEX
 8
MANIGLIA_1
 10
0
 20
0
 30
0
 70
128
 71
248
 72
249
 73
255
 74
254
 0
VERTEX
 8
MANIGLIA_1
 10
0
 20
0
 30
0
 70
128
 71
249
 72
250
 73
256
 74
255
 0
VERTEX
 8
MANIGLIA_1
 10
0
 20
0
 30
0
 70
128
 71
250
 72
251
 73
257
 74
256
 0
VERTEX
 8
MANIGLIA_1
 10
0
 20
0
 30
0
 70
128
 71
251
 72
252
 73
258
 74
257
 0
VERTEX
 8
MANIGLIA_1
 10
0
 20
0
 30
0
 70
128
 71
443
 72
449
 73
258
 74
252
 0
VERTEX
 8
MANIGLIA_1
 10
0
 20
0
 30
0
 70
128
 71
259
 72
452
 73
446
 74
253
 0
VERTEX
 8
MANIGLIA_1
 10
0
 20
0
 30
0
 70
128
 71
253
 72
254
 73
260
 74
259
 0
VERTEX
 8
MANIGLIA_1
 10
0
 20
0
 30
0
 70
128
 71
254
 72
255
 73
261
 74
260
 0
VERTEX
 8
MANIGLIA_1
 10
0
 20
0
 30
0
 70
128
 71
255
 72
256
 73
262
 74
261
 0
VERTEX
 8
MANIGLIA_1
 10
0
 20
0
 30
0
 70
128
 71
256
 72
257
 73
263
 74
262
 0
VERTEX
 8
MANIGLIA_1
 10
0
 20
0
 30
0
 70
128
 71
257
 72
258
 73
264
 74
263
 0
VERTEX
 8
MANIGLIA_1
 10
0
 20
0
 30
0
 70
128
 71
449
 72
455
 73
264
 74
258
 0
VERTEX
 8
MANIGLIA_1
 10
0
 20
0
 30
0
 70
128
 71
265
 72
458
 73
452
 74
259
 0
VERTEX
 8
MANIGLIA_1
 10
0
 20
0
 30
0
 70
128
 71
259
 72
260
 73
266
 74
265
 0
VERTEX
 8
MANIGLIA_1
 10
0
 20
0
 30
0
 70
128
 71
260
 72
261
 73
267
 74
266
 0
VERTEX
 8
MANIGLIA_1
 10
0
 20
0
 30
0
 70
128
 71
261
 72
262
 73
268
 74
267
 0
VERTEX
 8
MANIGLIA_1
 10
0
 20
0
 30
0
 70
128
 71
262
 72
263
 73
269
 74
268
 0
VERTEX
 8
MANIGLIA_1
 10
0
 20
0
 30
0
 70
128
 71
263
 72
264
 73
270
 74
269
 0
VERTEX
 8
MANIGLIA_1
 10
0
 20
0
 30
0
 70
128
 71
455
 72
461
 73
270
 74
264
 0
VERTEX
 8
MANIGLIA_1
 10
0
 20
0
 30
0
 70
128
 71
271
 72
462
 73
458
 74
265
 0
VERTEX
 8
MANIGLIA_1
 10
0
 20
0
 30
0
 70
128
 71
265
 72
266
 73
272
 74
271
 0
VERTEX
 8
MANIGLIA_1
 10
0
 20
0
 30
0
 70
128
 71
266
 72
267
 73
273
 74
272
 0
VERTEX
 8
MANIGLIA_1
 10
0
 20
0
 30
0
 70
128
 71
267
 72
268
 73
274
 74
273
 0
VERTEX
 8
MANIGLIA_1
 10
0
 20
0
 30
0
 70
128
 71
268
 72
269
 73
275
 74
274
 0
VERTEX
 8
MANIGLIA_1
 10
0
 20
0
 30
0
 70
128
 71
269
 72
270
 73
276
 74
275
 0
VERTEX
 8
MANIGLIA_1
 10
0
 20
0
 30
0
 70
128
 71
461
 72
464
 73
276
 74
270
 0
VERTEX
 8
MANIGLIA_1
 10
0
 20
0
 30
0
 70
128
 71
277
 72
381
 73
462
 74
271
 0
VERTEX
 8
MANIGLIA_1
 10
0
 20
0
 30
0
 70
128
 71
271
 72
272
 73
278
 74
277
 0
VERTEX
 8
MANIGLIA_1
 10
0
 20
0
 30
0
 70
128
 71
272
 72
273
 73
279
 74
278
 0
VERTEX
 8
MANIGLIA_1
 10
0
 20
0
 30
0
 70
128
 71
273
 72
274
 73
280
 74
279
 0
VERTEX
 8
MANIGLIA_1
 10
0
 20
0
 30
0
 70
128
 71
274
 72
275
 73
281
 74
280
 0
VERTEX
 8
MANIGLIA_1
 10
0
 20
0
 30
0
 70
128
 71
275
 72
276
 73
282
 74
281
 0
VERTEX
 8
MANIGLIA_1
 10
0
 20
0
 30
0
 70
128
 71
464
 72
384
 73
282
 74
276
 0
VERTEX
 8
MANIGLIA_1
 10
0
 20
0
 30
0
 70
128
 71
283
 72
387
 73
381
 74
277
 0
VERTEX
 8
MANIGLIA_1
 10
0
 20
0
 30
0
 70
128
 71
277
 72
278
 73
284
 74
283
 0
VERTEX
 8
MANIGLIA_1
 10
0
 20
0
 30
0
 70
128
 71
278
 72
279
 73
285
 74
284
 0
VERTEX
 8
MANIGLIA_1
 10
0
 20
0
 30
0
 70
128
 71
279
 72
280
 73
286
 74
285
 0
VERTEX
 8
MANIGLIA_1
 10
0
 20
0
 30
0
 70
128
 71
280
 72
281
 73
287
 74
286
 0
VERTEX
 8
MANIGLIA_1
 10
0
 20
0
 30
0
 70
128
 71
281
 72
282
 73
288
 74
287
 0
VERTEX
 8
MANIGLIA_1
 10
0
 20
0
 30
0
 70
128
 71
384
 72
390
 73
288
 74
282
 0
VERTEX
 8
MANIGLIA_1
 10
0
 20
0
 30
0
 70
128
 71
289
 72
393
 73
387
 74
283
 0
VERTEX
 8
MANIGLIA_1
 10
0
 20
0
 30
0
 70
128
 71
283
 72
284
 73
290
 74
289
 0
VERTEX
 8
MANIGLIA_1
 10
0
 20
0
 30
0
 70
128
 71
284
 72
285
 73
291
 74
290
 0
VERTEX
 8
MANIGLIA_1
 10
0
 20
0
 30
0
 70
128
 71
285
 72
286
 73
292
 74
291
 0
VERTEX
 8
MANIGLIA_1
 10
0
 20
0
 30
0
 70
128
 71
286
 72
287
 73
293
 74
292
 0
VERTEX
 8
MANIGLIA_1
 10
0
 20
0
 30
0
 70
128
 71
287
 72
288
 73
294
 74
293
 0
VERTEX
 8
MANIGLIA_1
 10
0
 20
0
 30
0
 70
128
 71
390
 72
396
 73
294
 74
288
 0
VERTEX
 8
MANIGLIA_1
 10
0
 20
0
 30
0
 70
128
 71
295
 72
399
 73
393
 74
289
 0
VERTEX
 8
MANIGLIA_1
 10
0
 20
0
 30
0
 70
128
 71
289
 72
290
 73
296
 74
295
 0
VERTEX
 8
MANIGLIA_1
 10
0
 20
0
 30
0
 70
128
 71
290
 72
291
 73
297
 74
296
 0
VERTEX
 8
MANIGLIA_1
 10
0
 20
0
 30
0
 70
128
 71
291
 72
292
 73
298
 74
297
 0
VERTEX
 8
MANIGLIA_1
 10
0
 20
0
 30
0
 70
128
 71
292
 72
293
 73
299
 74
298
 0
VERTEX
 8
MANIGLIA_1
 10
0
 20
0
 30
0
 70
128
 71
293
 72
294
 73
300
 74
299
 0
VERTEX
 8
MANIGLIA_1
 10
0
 20
0
 30
0
 70
128
 71
396
 72
402
 73
300
 74
294
 0
VERTEX
 8
MANIGLIA_1
 10
0
 20
0
 30
0
 70
128
 71
301
 72
405
 73
399
 74
295
 0
VERTEX
 8
MANIGLIA_1
 10
0
 20
0
 30
0
 70
128
 71
295
 72
296
 73
302
 74
301
 0
VERTEX
 8
MANIGLIA_1
 10
0
 20
0
 30
0
 70
128
 71
296
 72
297
 73
303
 74
302
 0
VERTEX
 8
MANIGLIA_1
 10
0
 20
0
 30
0
 70
128
 71
297
 72
298
 73
304
 74
303
 0
VERTEX
 8
MANIGLIA_1
 10
0
 20
0
 30
0
 70
128
 71
298
 72
299
 73
305
 74
304
 0
VERTEX
 8
MANIGLIA_1
 10
0
 20
0
 30
0
 70
128
 71
299
 72
300
 73
306
 74
305
 0
VERTEX
 8
MANIGLIA_1
 10
0
 20
0
 30
0
 70
128
 71
402
 72
408
 73
306
 74
300
 0
VERTEX
 8
MANIGLIA_1
 10
0
 20
0
 30
0
 70
128
 71
307
 72
411
 73
405
 74
301
 0
VERTEX
 8
MANIGLIA_1
 10
0
 20
0
 30
0
 70
128
 71
301
 72
302
 73
308
 74
307
 0
VERTEX
 8
MANIGLIA_1
 10
0
 20
0
 30
0
 70
128
 71
302
 72
303
 73
309
 74
308
 0
VERTEX
 8
MANIGLIA_1
 10
0
 20
0
 30
0
 70
128
 71
303
 72
304
 73
310
 74
309
 0
VERTEX
 8
MANIGLIA_1
 10
0
 20
0
 30
0
 70
128
 71
304
 72
305
 73
311
 74
310
 0
VERTEX
 8
MANIGLIA_1
 10
0
 20
0
 30
0
 70
128
 71
305
 72
306
 73
312
 74
311
 0
VERTEX
 8
MANIGLIA_1
 10
0
 20
0
 30
0
 70
128
 71
408
 72
469
 73
312
 74
306
 0
VERTEX
 8
MANIGLIA_1
 10
0
 20
0
 30
0
 70
128
 71
1
 72
375
 73
411
 74
307
 0
VERTEX
 8
MANIGLIA_1
 10
0
 20
0
 30
0
 70
128
 71
307
 72
308
 73
2
 74
1
 0
VERTEX
 8
MANIGLIA_1
 10
0
 20
0
 30
0
 70
128
 71
308
 72
309
 73
3
 74
2
 0
VERTEX
 8
MANIGLIA_1
 10
0
 20
0
 30
0
 70
128
 71
309
 72
310
 73
4
 74
3
 0
VERTEX
 8
MANIGLIA_1
 10
0
 20
0
 30
0
 70
128
 71
310
 72
311
 73
5
 74
4
 0
VERTEX
 8
MANIGLIA_1
 10
0
 20
0
 30
0
 70
128
 71
311
 72
312
 73
6
 74
5
 0
VERTEX
 8
MANIGLIA_1
 10
0
 20
0
 30
0
 70
128
 71
379
 72
6
 73
312
 74
469
 0
VERTEX
 8
MANIGLIA_1
 10
0
 20
0
 30
0
 70
128
 71
313
 72
116
 73
117
 74
314
 0
VERTEX
 8
MANIGLIA_1
 10
0
 20
0
 30
0
 70
128
 71
314
 72
117
 73
123
 74
316
 0
VERTEX
 8
MANIGLIA_1
 10
0
 20
0
 30
0
 70
128
 71
315
 72
122
 73
116
 74
313
 0
VERTEX
 8
MANIGLIA_1
 10
0
 20
0
 30
0
 70
128
 71
316
 72
123
 73
129
 74
318
 0
VERTEX
 8
MANIGLIA_1
 10
0
 20
0
 30
0
 70
128
 71
317
 72
128
 73
122
 74
315
 0
VERTEX
 8
MANIGLIA_1
 10
0
 20
0
 30
0
 70
128
 71
318
 72
129
 73
135
 74
320
 0
VERTEX
 8
MANIGLIA_1
 10
0
 20
0
 30
0
 70
128
 71
319
 72
134
 73
128
 74
317
 0
VERTEX
 8
MANIGLIA_1
 10
0
 20
0
 30
0
 70
128
 71
320
 72
135
 73
141
 74
322
 0
VERTEX
 8
MANIGLIA_1
 10
0
 20
0
 30
0
 70
128
 71
321
 72
140
 73
134
 74
319
 0
VERTEX
 8
MANIGLIA_1
 10
0
 20
0
 30
0
 70
128
 71
322
 72
141
 73
147
 74
324
 0
VERTEX
 8
MANIGLIA_1
 10
0
 20
0
 30
0
 70
128
 71
323
 72
146
 73
140
 74
321
 0
VERTEX
 8
MANIGLIA_1
 10
0
 20
0
 30
0
 70
128
 71
324
 72
147
 73
153
 74
326
 0
VERTEX
 8
MANIGLIA_1
 10
0
 20
0
 30
0
 70
128
 71
325
 72
152
 73
146
 74
323
 0
VERTEX
 8
MANIGLIA_1
 10
0
 20
0
 30
0
 70
128
 71
326
 72
153
 73
159
 74
328
 0
VERTEX
 8
MANIGLIA_1
 10
0
 20
0
 30
0
 70
128
 71
327
 72
158
 73
152
 74
325
 0
VERTEX
 8
MANIGLIA_1
 10
0
 20
0
 30
0
 70
128
 71
328
 72
159
 73
165
 74
330
 0
VERTEX
 8
MANIGLIA_1
 10
0
 20
0
 30
0
 70
128
 71
329
 72
164
 73
158
 74
327
 0
VERTEX
 8
MANIGLIA_1
 10
0
 20
0
 30
0
 70
128
 71
330
 72
165
 73
171
 74
332
 0
VERTEX
 8
MANIGLIA_1
 10
0
 20
0
 30
0
 70
128
 71
331
 72
170
 73
164
 74
329
 0
VERTEX
 8
MANIGLIA_1
 10
0
 20
0
 30
0
 70
128
 71
332
 72
171
 73
177
 74
334
 0
VERTEX
 8
MANIGLIA_1
 10
0
 20
0
 30
0
 70
128
 71
333
 72
176
 73
170
 74
331
 0
VERTEX
 8
MANIGLIA_1
 10
0
 20
0
 30
0
 70
128
 71
334
 72
177
 73
183
 74
336
 0
VERTEX
 8
MANIGLIA_1
 10
0
 20
0
 30
0
 70
128
 71
335
 72
182
 73
176
 74
333
 0
VERTEX
 8
MANIGLIA_1
 10
0
 20
0
 30
0
 70
128
 71
336
 72
183
 73
189
 74
338
 0
VERTEX
 8
MANIGLIA_1
 10
0
 20
0
 30
0
 70
128
 71
337
 72
188
 73
182
 74
335
 0
VERTEX
 8
MANIGLIA_1
 10
0
 20
0
 30
0
 70
128
 71
338
 72
189
 73
195
 74
340
 0
VERTEX
 8
MANIGLIA_1
 10
0
 20
0
 30
0
 70
128
 71
339
 72
194
 73
188
 74
337
 0
VERTEX
 8
MANIGLIA_1
 10
0
 20
0
 30
0
 70
128
 71
340
 72
195
 73
201
 74
342
 0
VERTEX
 8
MANIGLIA_1
 10
0
 20
0
 30
0
 70
128
 71
342
 72
201
 73
200
 74
341
 0
VERTEX
 8
MANIGLIA_1
 10
0
 20
0
 30
0
 70
128
 71
341
 72
200
 73
194
 74
339
 0
VERTEX
 8
MANIGLIA_1
 10
0
 20
0
 30
0
 70
128
 71
343
 72
118
 73
119
 74
344
 0
VERTEX
 8
MANIGLIA_1
 10
0
 20
0
 30
0
 70
128
 71
344
 72
119
 73
125
 74
346
 0
VERTEX
 8
MANIGLIA_1
 10
0
 20
0
 30
0
 70
128
 71
345
 72
124
 73
118
 74
343
 0
VERTEX
 8
MANIGLIA_1
 10
0
 20
0
 30
0
 70
128
 71
346
 72
125
 73
131
 74
348
 0
VERTEX
 8
MANIGLIA_1
 10
0
 20
0
 30
0
 70
128
 71
347
 72
130
 73
124
 74
345
 0
VERTEX
 8
MANIGLIA_1
 10
0
 20
0
 30
0
 70
128
 71
348
 72
131
 73
137
 74
350
 0
VERTEX
 8
MANIGLIA_1
 10
0
 20
0
 30
0
 70
128
 71
349
 72
136
 73
130
 74
347
 0
VERTEX
 8
MANIGLIA_1
 10
0
 20
0
 30
0
 70
128
 71
350
 72
137
 73
143
 74
352
 0
VERTEX
 8
MANIGLIA_1
 10
0
 20
0
 30
0
 70
128
 71
351
 72
142
 73
136
 74
349
 0
VERTEX
 8
MANIGLIA_1
 10
0
 20
0
 30
0
 70
128
 71
352
 72
143
 73
149
 74
354
 0
VERTEX
 8
MANIGLIA_1
 10
0
 20
0
 30
0
 70
128
 71
353
 72
148
 73
142
 74
351
 0
VERTEX
 8
MANIGLIA_1
 10
0
 20
0
 30
0
 70
128
 71
354
 72
149
 73
155
 74
356
 0
VERTEX
 8
MANIGLIA_1
 10
0
 20
0
 30
0
 70
128
 71
355
 72
154
 73
148
 74
353
 0
VERTEX
 8
MANIGLIA_1
 10
0
 20
0
 30
0
 70
128
 71
356
 72
155
 73
161
 74
358
 0
VERTEX
 8
MANIGLIA_1
 10
0
 20
0
 30
0
 70
128
 71
357
 72
160
 73
154
 74
355
 0
VERTEX
 8
MANIGLIA_1
 10
0
 20
0
 30
0
 70
128
 71
358
 72
161
 73
167
 74
360
 0
VERTEX
 8
MANIGLIA_1
 10
0
 20
0
 30
0
 70
128
 71
359
 72
166
 73
160
 74
357
 0
VERTEX
 8
MANIGLIA_1
 10
0
 20
0
 30
0
 70
128
 71
360
 72
167
 73
173
 74
362
 0
VERTEX
 8
MANIGLIA_1
 10
0
 20
0
 30
0
 70
128
 71
361
 72
172
 73
166
 74
359
 0
VERTEX
 8
MANIGLIA_1
 10
0
 20
0
 30
0
 70
128
 71
362
 72
173
 73
179
 74
364
 0
VERTEX
 8
MANIGLIA_1
 10
0
 20
0
 30
0
 70
128
 71
363
 72
178
 73
172
 74
361
 0
VERTEX
 8
MANIGLIA_1
 10
0
 20
0
 30
0
 70
128
 71
364
 72
179
 73
185
 74
366
 0
VERTEX
 8
MANIGLIA_1
 10
0
 20
0
 30
0
 70
128
 71
365
 72
184
 73
178
 74
363
 0
VERTEX
 8
MANIGLIA_1
 10
0
 20
0
 30
0
 70
128
 71
366
 72
185
 73
191
 74
368
 0
VERTEX
 8
MANIGLIA_1
 10
0
 20
0
 30
0
 70
128
 71
367
 72
190
 73
184
 74
365
 0
VERTEX
 8
MANIGLIA_1
 10
0
 20
0
 30
0
 70
128
 71
368
 72
191
 73
197
 74
370
 0
VERTEX
 8
MANIGLIA_1
 10
0
 20
0
 30
0
 70
128
 71
369
 72
196
 73
190
 74
367
 0
VERTEX
 8
MANIGLIA_1
 10
0
 20
0
 30
0
 70
128
 71
370
 72
197
 73
203
 74
372
 0
VERTEX
 8
MANIGLIA_1
 10
0
 20
0
 30
0
 70
128
 71
372
 72
203
 73
202
 74
371
 0
VERTEX
 8
MANIGLIA_1
 10
0
 20
0
 30
0
 70
128
 71
371
 72
202
 73
196
 74
369
 0
VERTEX
 8
MANIGLIA_1
 10
0
 20
0
 30
0
 70
128
 71
478
 72
583
 73
590
 74
479
 0
VERTEX
 8
MANIGLIA_1
 10
0
 20
0
 30
0
 70
128
 71
477
 72
478
 73
479
 74
479
 0
VERTEX
 8
MANIGLIA_1
 10
0
 20
0
 30
0
 70
128
 71
479
 72
590
 73
596
 74
480
 0
VERTEX
 8
MANIGLIA_1
 10
0
 20
0
 30
0
 70
128
 71
477
 72
479
 73
480
 74
480
 0
VERTEX
 8
MANIGLIA_1
 10
0
 20
0
 30
0
 70
128
 71
480
 72
596
 73
602
 74
481
 0
VERTEX
 8
MANIGLIA_1
 10
0
 20
0
 30
0
 70
128
 71
477
 72
480
 73
481
 74
481
 0
VERTEX
 8
MANIGLIA_1
 10
0
 20
0
 30
0
 70
128
 71
481
 72
602
 73
608
 74
482
 0
VERTEX
 8
MANIGLIA_1
 10
0
 20
0
 30
0
 70
128
 71
477
 72
481
 73
482
 74
482
 0
VERTEX
 8
MANIGLIA_1
 10
0
 20
0
 30
0
 70
128
 71
482
 72
608
 73
614
 74
483
 0
VERTEX
 8
MANIGLIA_1
 10
0
 20
0
 30
0
 70
128
 71
477
 72
482
 73
483
 74
483
 0
VERTEX
 8
MANIGLIA_1
 10
0
 20
0
 30
0
 70
128
 71
483
 72
614
 73
620
 74
484
 0
VERTEX
 8
MANIGLIA_1
 10
0
 20
0
 30
0
 70
128
 71
477
 72
483
 73
484
 74
484
 0
VERTEX
 8
MANIGLIA_1
 10
0
 20
0
 30
0
 70
128
 71
484
 72
620
 73
626
 74
485
 0
VERTEX
 8
MANIGLIA_1
 10
0
 20
0
 30
0
 70
128
 71
477
 72
484
 73
485
 74
485
 0
VERTEX
 8
MANIGLIA_1
 10
0
 20
0
 30
0
 70
128
 71
485
 72
626
 73
632
 74
486
 0
VERTEX
 8
MANIGLIA_1
 10
0
 20
0
 30
0
 70
128
 71
477
 72
485
 73
486
 74
486
 0
VERTEX
 8
MANIGLIA_1
 10
0
 20
0
 30
0
 70
128
 71
486
 72
632
 73
638
 74
487
 0
VERTEX
 8
MANIGLIA_1
 10
0
 20
0
 30
0
 70
128
 71
477
 72
486
 73
487
 74
487
 0
VERTEX
 8
MANIGLIA_1
 10
0
 20
0
 30
0
 70
128
 71
487
 72
638
 73
644
 74
488
 0
VERTEX
 8
MANIGLIA_1
 10
0
 20
0
 30
0
 70
128
 71
477
 72
487
 73
488
 74
488
 0
VERTEX
 8
MANIGLIA_1
 10
0
 20
0
 30
0
 70
128
 71
488
 72
644
 73
650
 74
489
 0
VERTEX
 8
MANIGLIA_1
 10
0
 20
0
 30
0
 70
128
 71
477
 72
488
 73
489
 74
489
 0
VERTEX
 8
MANIGLIA_1
 10
0
 20
0
 30
0
 70
128
 71
489
 72
650
 73
656
 74
490
 0
VERTEX
 8
MANIGLIA_1
 10
0
 20
0
 30
0
 70
128
 71
477
 72
489
 73
490
 74
490
 0
VERTEX
 8
MANIGLIA_1
 10
0
 20
0
 30
0
 70
128
 71
490
 72
656
 73
662
 74
491
 0
VERTEX
 8
MANIGLIA_1
 10
0
 20
0
 30
0
 70
128
 71
477
 72
490
 73
491
 74
491
 0
VERTEX
 8
MANIGLIA_1
 10
0
 20
0
 30
0
 70
128
 71
491
 72
662
 73
668
 74
492
 0
VERTEX
 8
MANIGLIA_1
 10
0
 20
0
 30
0
 70
128
 71
477
 72
491
 73
492
 74
492
 0
VERTEX
 8
MANIGLIA_1
 10
0
 20
0
 30
0
 70
128
 71
492
 72
668
 73
584
 74
493
 0
VERTEX
 8
MANIGLIA_1
 10
0
 20
0
 30
0
 70
128
 71
477
 72
492
 73
493
 74
493
 0
VERTEX
 8
MANIGLIA_1
 10
0
 20
0
 30
0
 70
128
 71
493
 72
584
 73
589
 74
494
 0
VERTEX
 8
MANIGLIA_1
 10
0
 20
0
 30
0
 70
128
 71
477
 72
493
 73
494
 74
494
 0
VERTEX
 8
MANIGLIA_1
 10
0
 20
0
 30
0
 70
128
 71
494
 72
589
 73
595
 74
495
 0
VERTEX
 8
MANIGLIA_1
 10
0
 20
0
 30
0
 70
128
 71
477
 72
494
 73
495
 74
495
 0
VERTEX
 8
MANIGLIA_1
 10
0
 20
0
 30
0
 70
128
 71
495
 72
595
 73
601
 74
496
 0
VERTEX
 8
MANIGLIA_1
 10
0
 20
0
 30
0
 70
128
 71
477
 72
495
 73
496
 74
496
 0
VERTEX
 8
MANIGLIA_1
 10
0
 20
0
 30
0
 70
128
 71
496
 72
601
 73
607
 74
497
 0
VERTEX
 8
MANIGLIA_1
 10
0
 20
0
 30
0
 70
128
 71
477
 72
496
 73
497
 74
497
 0
VERTEX
 8
MANIGLIA_1
 10
0
 20
0
 30
0
 70
128
 71
497
 72
607
 73
613
 74
498
 0
VERTEX
 8
MANIGLIA_1
 10
0
 20
0
 30
0
 70
128
 71
477
 72
497
 73
498
 74
498
 0
VERTEX
 8
MANIGLIA_1
 10
0
 20
0
 30
0
 70
128
 71
498
 72
613
 73
618
 74
499
 0
VERTEX
 8
MANIGLIA_1
 10
0
 20
0
 30
0
 70
128
 71
477
 72
498
 73
499
 74
499
 0
VERTEX
 8
MANIGLIA_1
 10
0
 20
0
 30
0
 70
128
 71
499
 72
618
 73
624
 74
500
 0
VERTEX
 8
MANIGLIA_1
 10
0
 20
0
 30
0
 70
128
 71
477
 72
499
 73
500
 74
500
 0
VERTEX
 8
MANIGLIA_1
 10
0
 20
0
 30
0
 70
128
 71
500
 72
624
 73
630
 74
501
 0
VERTEX
 8
MANIGLIA_1
 10
0
 20
0
 30
0
 70
128
 71
477
 72
500
 73
501
 74
501
 0
VERTEX
 8
MANIGLIA_1
 10
0
 20
0
 30
0
 70
128
 71
501
 72
630
 73
636
 74
502
 0
VERTEX
 8
MANIGLIA_1
 10
0
 20
0
 30
0
 70
128
 71
477
 72
501
 73
502
 74
502
 0
VERTEX
 8
MANIGLIA_1
 10
0
 20
0
 30
0
 70
128
 71
502
 72
636
 73
642
 74
503
 0
VERTEX
 8
MANIGLIA_1
 10
0
 20
0
 30
0
 70
128
 71
477
 72
502
 73
503
 74
503
 0
VERTEX
 8
MANIGLIA_1
 10
0
 20
0
 30
0
 70
128
 71
503
 72
642
 73
646
 74
504
 0
VERTEX
 8
MANIGLIA_1
 10
0
 20
0
 30
0
 70
128
 71
477
 72
503
 73
504
 74
504
 0
VERTEX
 8
MANIGLIA_1
 10
0
 20
0
 30
0
 70
128
 71
504
 72
646
 73
622
 74
505
 0
VERTEX
 8
MANIGLIA_1
 10
0
 20
0
 30
0
 70
128
 71
477
 72
504
 73
505
 74
505
 0
VERTEX
 8
MANIGLIA_1
 10
0
 20
0
 30
0
 70
128
 71
505
 72
622
 73
628
 74
506
 0
VERTEX
 8
MANIGLIA_1
 10
0
 20
0
 30
0
 70
128
 71
477
 72
505
 73
506
 74
506
 0
VERTEX
 8
MANIGLIA_1
 10
0
 20
0
 30
0
 70
128
 71
506
 72
628
 73
634
 74
507
 0
VERTEX
 8
MANIGLIA_1
 10
0
 20
0
 30
0
 70
128
 71
477
 72
506
 73
507
 74
507
 0
VERTEX
 8
MANIGLIA_1
 10
0
 20
0
 30
0
 70
128
 71
507
 72
634
 73
640
 74
508
 0
VERTEX
 8
MANIGLIA_1
 10
0
 20
0
 30
0
 70
128
 71
477
 72
507
 73
508
 74
508
 0
VERTEX
 8
MANIGLIA_1
 10
0
 20
0
 30
0
 70
128
 71
508
 72
640
 73
675
 74
509
 0
VERTEX
 8
MANIGLIA_1
 10
0
 20
0
 30
0
 70
128
 71
477
 72
508
 73
509
 74
509
 0
VERTEX
 8
MANIGLIA_1
 10
0
 20
0
 30
0
 70
128
 71
509
 72
675
 73
591
 74
510
 0
VERTEX
 8
MANIGLIA_1
 10
0
 20
0
 30
0
 70
128
 71
477
 72
509
 73
510
 74
510
 0
VERTEX
 8
MANIGLIA_1
 10
0
 20
0
 30
0
 70
128
 71
510
 72
591
 73
597
 74
511
 0
VERTEX
 8
MANIGLIA_1
 10
0
 20
0
 30
0
 70
128
 71
477
 72
510
 73
511
 74
511
 0
VERTEX
 8
MANIGLIA_1
 10
0
 20
0
 30
0
 70
128
 71
511
 72
597
 73
603
 74
512
 0
VERTEX
 8
MANIGLIA_1
 10
0
 20
0
 30
0
 70
128
 71
477
 72
511
 73
512
 74
512
 0
VERTEX
 8
MANIGLIA_1
 10
0
 20
0
 30
0
 70
128
 71
512
 72
603
 73
609
 74
513
 0
VERTEX
 8
MANIGLIA_1
 10
0
 20
0
 30
0
 70
128
 71
477
 72
512
 73
513
 74
513
 0
VERTEX
 8
MANIGLIA_1
 10
0
 20
0
 30
0
 70
128
 71
513
 72
609
 73
615
 74
514
 0
VERTEX
 8
MANIGLIA_1
 10
0
 20
0
 30
0
 70
128
 71
477
 72
513
 73
514
 74
514
 0
VERTEX
 8
MANIGLIA_1
 10
0
 20
0
 30
0
 70
128
 71
514
 72
615
 73
678
 74
515
 0
VERTEX
 8
MANIGLIA_1
 10
0
 20
0
 30
0
 70
128
 71
477
 72
514
 73
515
 74
515
 0
VERTEX
 8
MANIGLIA_1
 10
0
 20
0
 30
0
 70
128
 71
515
 72
678
 73
680
 74
516
 0
VERTEX
 8
MANIGLIA_1
 10
0
 20
0
 30
0
 70
128
 71
477
 72
515
 73
516
 74
516
 0
VERTEX
 8
MANIGLIA_1
 10
0
 20
0
 30
0
 70
128
 71
516
 72
680
 73
682
 74
517
 0
VERTEX
 8
MANIGLIA_1
 10
0
 20
0
 30
0
 70
128
 71
477
 72
516
 73
517
 74
517
 0
VERTEX
 8
MANIGLIA_1
 10
0
 20
0
 30
0
 70
128
 71
517
 72
682
 73
684
 74
518
 0
VERTEX
 8
MANIGLIA_1
 10
0
 20
0
 30
0
 70
128
 71
477
 72
517
 73
518
 74
518
 0
VERTEX
 8
MANIGLIA_1
 10
0
 20
0
 30
0
 70
128
 71
518
 72
684
 73
645
 74
519
 0
VERTEX
 8
MANIGLIA_1
 10
0
 20
0
 30
0
 70
128
 71
477
 72
518
 73
519
 74
519
 0
VERTEX
 8
MANIGLIA_1
 10
0
 20
0
 30
0
 70
128
 71
519
 72
645
 73
651
 74
520
 0
VERTEX
 8
MANIGLIA_1
 10
0
 20
0
 30
0
 70
128
 71
477
 72
519
 73
520
 74
520
 0
VERTEX
 8
MANIGLIA_1
 10
0
 20
0
 30
0
 70
128
 71
520
 72
651
 73
657
 74
521
 0
VERTEX
 8
MANIGLIA_1
 10
0
 20
0
 30
0
 70
128
 71
477
 72
520
 73
521
 74
521
 0
VERTEX
 8
MANIGLIA_1
 10
0
 20
0
 30
0
 70
128
 71
521
 72
657
 73
663
 74
522
 0
VERTEX
 8
MANIGLIA_1
 10
0
 20
0
 30
0
 70
128
 71
477
 72
521
 73
522
 74
522
 0
VERTEX
 8
MANIGLIA_1
 10
0
 20
0
 30
0
 70
128
 71
522
 72
663
 73
669
 74
523
 0
VERTEX
 8
MANIGLIA_1
 10
0
 20
0
 30
0
 70
128
 71
477
 72
522
 73
523
 74
523
 0
VERTEX
 8
MANIGLIA_1
 10
0
 20
0
 30
0
 70
128
 71
523
 72
669
 73
585
 74
524
 0
VERTEX
 8
MANIGLIA_1
 10
0
 20
0
 30
0
 70
128
 71
477
 72
523
 73
524
 74
524
 0
VERTEX
 8
MANIGLIA_1
 10
0
 20
0
 30
0
 70
128
 71
524
 72
585
 73
652
 74
525
 0
VERTEX
 8
MANIGLIA_1
 10
0
 20
0
 30
0
 70
128
 71
477
 72
524
 73
525
 74
525
 0
VERTEX
 8
MANIGLIA_1
 10
0
 20
0
 30
0
 70
128
 71
525
 72
652
 73
658
 74
526
 0
VERTEX
 8
MANIGLIA_1
 10
0
 20
0
 30
0
 70
128
 71
477
 72
525
 73
526
 74
526
 0
VERTEX
 8
MANIGLIA_1
 10
0
 20
0
 30
0
 70
128
 71
526
 72
658
 73
664
 74
527
 0
VERTEX
 8
MANIGLIA_1
 10
0
 20
0
 30
0
 70
128
 71
477
 72
526
 73
527
 74
527
 0
VERTEX
 8
MANIGLIA_1
 10
0
 20
0
 30
0
 70
128
 71
527
 72
664
 73
670
 74
528
 0
VERTEX
 8
MANIGLIA_1
 10
0
 20
0
 30
0
 70
128
 71
477
 72
527
 73
528
 74
528
 0
VERTEX
 8
MANIGLIA_1
 10
0
 20
0
 30
0
 70
128
 71
528
 72
670
 73
674
 74
529
 0
VERTEX
 8
MANIGLIA_1
 10
0
 20
0
 30
0
 70
128
 71
477
 72
528
 73
529
 74
529
 0
VERTEX
 8
MANIGLIA_1
 10
0
 20
0
 30
0
 70
128
 71
529
 72
674
 73
583
 74
478
 0
VERTEX
 8
MANIGLIA_1
 10
0
 20
0
 30
0
 70
128
 71
477
 72
529
 73
478
 74
478
 0
VERTEX
 8
MANIGLIA_1
 10
0
 20
0
 30
0
 70
128
 71
531
 72
530
 73
532
 74
532
 0
VERTEX
 8
MANIGLIA_1
 10
0
 20
0
 30
0
 70
128
 71
532
 72
593
 73
586
 74
531
 0
VERTEX
 8
MANIGLIA_1
 10
0
 20
0
 30
0
 70
128
 71
532
 72
530
 73
533
 74
533
 0
VERTEX
 8
MANIGLIA_1
 10
0
 20
0
 30
0
 70
128
 71
533
 72
599
 73
593
 74
532
 0
VERTEX
 8
MANIGLIA_1
 10
0
 20
0
 30
0
 70
128
 71
533
 72
530
 73
534
 74
534
 0
VERTEX
 8
MANIGLIA_1
 10
0
 20
0
 30
0
 70
128
 71
534
 72
605
 73
599
 74
533
 0
VERTEX
 8
MANIGLIA_1
 10
0
 20
0
 30
0
 70
128
 71
534
 72
530
 73
535
 74
535
 0
VERTEX
 8
MANIGLIA_1
 10
0
 20
0
 30
0
 70
128
 71
535
 72
611
 73
605
 74
534
 0
VERTEX
 8
MANIGLIA_1
 10
0
 20
0
 30
0
 70
128
 71
535
 72
530
 73
536
 74
536
 0
VERTEX
 8
MANIGLIA_1
 10
0
 20
0
 30
0
 70
128
 71
536
 72
617
 73
611
 74
535
 0
VERTEX
 8
MANIGLIA_1
 10
0
 20
0
 30
0
 70
128
 71
536
 72
530
 73
537
 74
537
 0
VERTEX
 8
MANIGLIA_1
 10
0
 20
0
 30
0
 70
128
 71
537
 72
623
 73
617
 74
536
 0
VERTEX
 8
MANIGLIA_1
 10
0
 20
0
 30
0
 70
128
 71
537
 72
530
 73
538
 74
538
 0
VERTEX
 8
MANIGLIA_1
 10
0
 20
0
 30
0
 70
128
 71
538
 72
629
 73
623
 74
537
 0
VERTEX
 8
MANIGLIA_1
 10
0
 20
0
 30
0
 70
128
 71
538
 72
530
 73
539
 74
539
 0
VERTEX
 8
MANIGLIA_1
 10
0
 20
0
 30
0
 70
128
 71
539
 72
635
 73
629
 74
538
 0
VERTEX
 8
MANIGLIA_1
 10
0
 20
0
 30
0
 70
128
 71
539
 72
530
 73
540
 74
540
 0
VERTEX
 8
MANIGLIA_1
 10
0
 20
0
 30
0
 70
128
 71
540
 72
641
 73
635
 74
539
 0
VERTEX
 8
MANIGLIA_1
 10
0
 20
0
 30
0
 70
128
 71
540
 72
530
 73
541
 74
541
 0
VERTEX
 8
MANIGLIA_1
 10
0
 20
0
 30
0
 70
128
 71
541
 72
647
 73
641
 74
540
 0
VERTEX
 8
MANIGLIA_1
 10
0
 20
0
 30
0
 70
128
 71
541
 72
530
 73
542
 74
542
 0
VERTEX
 8
MANIGLIA_1
 10
0
 20
0
 30
0
 70
128
 71
542
 72
653
 73
647
 74
541
 0
VERTEX
 8
MANIGLIA_1
 10
0
 20
0
 30
0
 70
128
 71
542
 72
530
 73
543
 74
543
 0
VERTEX
 8
MANIGLIA_1
 10
0
 20
0
 30
0
 70
128
 71
543
 72
659
 73
653
 74
542
 0
VERTEX
 8
MANIGLIA_1
 10
0
 20
0
 30
0
 70
128
 71
543
 72
530
 73
544
 74
544
 0
VERTEX
 8
MANIGLIA_1
 10
0
 20
0
 30
0
 70
128
 71
544
 72
665
 73
659
 74
543
 0
VERTEX
 8
MANIGLIA_1
 10
0
 20
0
 30
0
 70
128
 71
544
 72
530
 73
545
 74
545
 0
VERTEX
 8
MANIGLIA_1
 10
0
 20
0
 30
0
 70
128
 71
545
 72
671
 73
665
 74
544
 0
VERTEX
 8
MANIGLIA_1
 10
0
 20
0
 30
0
 70
128
 71
545
 72
530
 73
546
 74
546
 0
VERTEX
 8
MANIGLIA_1
 10
0
 20
0
 30
0
 70
128
 71
546
 72
587
 73
671
 74
545
 0
VERTEX
 8
MANIGLIA_1
 10
0
 20
0
 30
0
 70
128
 71
546
 72
530
 73
547
 74
547
 0
VERTEX
 8
MANIGLIA_1
 10
0
 20
0
 30
0
 70
128
 71
547
 72
592
 73
587
 74
546
 0
VERTEX
 8
MANIGLIA_1
 10
0
 20
0
 30
0
 70
128
 71
547
 72
530
 73
548
 74
548
 0
VERTEX
 8
MANIGLIA_1
 10
0
 20
0
 30
0
 70
128
 71
548
 72
598
 73
592
 74
547
 0
VERTEX
 8
MANIGLIA_1
 10
0
 20
0
 30
0
 70
128
 71
548
 72
530
 73
549
 74
549
 0
VERTEX
 8
MANIGLIA_1
 10
0
 20
0
 30
0
 70
128
 71
549
 72
604
 73
598
 74
548
 0
VERTEX
 8
MANIGLIA_1
 10
0
 20
0
 30
0
 70
128
 71
549
 72
530
 73
550
 74
550
 0
VERTEX
 8
MANIGLIA_1
 10
0
 20
0
 30
0
 70
128
 71
550
 72
610
 73
604
 74
549
 0
VERTEX
 8
MANIGLIA_1
 10
0
 20
0
 30
0
 70
128
 71
550
 72
530
 73
551
 74
551
 0
VERTEX
 8
MANIGLIA_1
 10
0
 20
0
 30
0
 70
128
 71
551
 72
616
 73
610
 74
550
 0
VERTEX
 8
MANIGLIA_1
 10
0
 20
0
 30
0
 70
128
 71
551
 72
530
 73
552
 74
552
 0
VERTEX
 8
MANIGLIA_1
 10
0
 20
0
 30
0
 70
128
 71
552
 72
621
 73
616
 74
551
 0
VERTEX
 8
MANIGLIA_1
 10
0
 20
0
 30
0
 70
128
 71
552
 72
530
 73
553
 74
553
 0
VERTEX
 8
MANIGLIA_1
 10
0
 20
0
 30
0
 70
128
 71
553
 72
627
 73
621
 74
552
 0
VERTEX
 8
MANIGLIA_1
 10
0
 20
0
 30
0
 70
128
 71
553
 72
530
 73
554
 74
554
 0
VERTEX
 8
MANIGLIA_1
 10
0
 20
0
 30
0
 70
128
 71
554
 72
633
 73
627
 74
553
 0
VERTEX
 8
MANIGLIA_1
 10
0
 20
0
 30
0
 70
128
 71
554
 72
530
 73
555
 74
555
 0
VERTEX
 8
MANIGLIA_1
 10
0
 20
0
 30
0
 70
128
 71
555
 72
639
 73
633
 74
554
 0
VERTEX
 8
MANIGLIA_1
 10
0
 20
0
 30
0
 70
128
 71
555
 72
530
 73
556
 74
556
 0
VERTEX
 8
MANIGLIA_1
 10
0
 20
0
 30
0
 70
128
 71
556
 72
648
 73
639
 74
555
 0
VERTEX
 8
MANIGLIA_1
 10
0
 20
0
 30
0
 70
128
 71
556
 72
530
 73
557
 74
557
 0
VERTEX
 8
MANIGLIA_1
 10
0
 20
0
 30
0
 70
128
 71
557
 72
619
 73
648
 74
556
 0
VERTEX
 8
MANIGLIA_1
 10
0
 20
0
 30
0
 70
128
 71
557
 72
530
 73
558
 74
558
 0
VERTEX
 8
MANIGLIA_1
 10
0
 20
0
 30
0
 70
128
 71
558
 72
625
 73
619
 74
557
 0
VERTEX
 8
MANIGLIA_1
 10
0
 20
0
 30
0
 70
128
 71
558
 72
530
 73
559
 74
559
 0
VERTEX
 8
MANIGLIA_1
 10
0
 20
0
 30
0
 70
128
 71
559
 72
631
 73
625
 74
558
 0
VERTEX
 8
MANIGLIA_1
 10
0
 20
0
 30
0
 70
128
 71
559
 72
530
 73
560
 74
560
 0
VERTEX
 8
MANIGLIA_1
 10
0
 20
0
 30
0
 70
128
 71
560
 72
637
 73
631
 74
559
 0
VERTEX
 8
MANIGLIA_1
 10
0
 20
0
 30
0
 70
128
 71
560
 72
530
 73
561
 74
561
 0
VERTEX
 8
MANIGLIA_1
 10
0
 20
0
 30
0
 70
128
 71
561
 72
643
 73
637
 74
560
 0
VERTEX
 8
MANIGLIA_1
 10
0
 20
0
 30
0
 70
128
 71
561
 72
530
 73
562
 74
562
 0
VERTEX
 8
MANIGLIA_1
 10
0
 20
0
 30
0
 70
128
 71
562
 72
649
 73
643
 74
561
 0
VERTEX
 8
MANIGLIA_1
 10
0
 20
0
 30
0
 70
128
 71
562
 72
530
 73
563
 74
563
 0
VERTEX
 8
MANIGLIA_1
 10
0
 20
0
 30
0
 70
128
 71
563
 72
594
 73
649
 74
562
 0
VERTEX
 8
MANIGLIA_1
 10
0
 20
0
 30
0
 70
128
 71
563
 72
530
 73
564
 74
564
 0
VERTEX
 8
MANIGLIA_1
 10
0
 20
0
 30
0
 70
128
 71
564
 72
600
 73
594
 74
563
 0
VERTEX
 8
MANIGLIA_1
 10
0
 20
0
 30
0
 70
128
 71
564
 72
530
 73
565
 74
565
 0
VERTEX
 8
MANIGLIA_1
 10
0
 20
0
 30
0
 70
128
 71
565
 72
606
 73
600
 74
564
 0
VERTEX
 8
MANIGLIA_1
 10
0
 20
0
 30
0
 70
128
 71
565
 72
530
 73
566
 74
566
 0
VERTEX
 8
MANIGLIA_1
 10
0
 20
0
 30
0
 70
128
 71
566
 72
612
 73
606
 74
565
 0
VERTEX
 8
MANIGLIA_1
 10
0
 20
0
 30
0
 70
128
 71
566
 72
530
 73
567
 74
567
 0
VERTEX
 8
MANIGLIA_1
 10
0
 20
0
 30
0
 70
128
 71
567
 72
677
 73
612
 74
566
 0
VERTEX
 8
MANIGLIA_1
 10
0
 20
0
 30
0
 70
128
 71
567
 72
530
 73
568
 74
568
 0
VERTEX
 8
MANIGLIA_1
 10
0
 20
0
 30
0
 70
128
 71
568
 72
679
 73
677
 74
567
 0
VERTEX
 8
MANIGLIA_1
 10
0
 20
0
 30
0
 70
128
 71
568
 72
530
 73
569
 74
569
 0
VERTEX
 8
MANIGLIA_1
 10
0
 20
0
 30
0
 70
128
 71
569
 72
681
 73
679
 74
568
 0
VERTEX
 8
MANIGLIA_1
 10
0
 20
0
 30
0
 70
128
 71
569
 72
530
 73
570
 74
570
 0
VERTEX
 8
MANIGLIA_1
 10
0
 20
0
 30
0
 70
128
 71
570
 72
683
 73
681
 74
569
 0
VERTEX
 8
MANIGLIA_1
 10
0
 20
0
 30
0
 70
128
 71
570
 72
530
 73
571
 74
571
 0
VERTEX
 8
MANIGLIA_1
 10
0
 20
0
 30
0
 70
128
 71
571
 72
685
 73
683
 74
570
 0
VERTEX
 8
MANIGLIA_1
 10
0
 20
0
 30
0
 70
128
 71
571
 72
530
 73
572
 74
572
 0
VERTEX
 8
MANIGLIA_1
 10
0
 20
0
 30
0
 70
128
 71
572
 72
686
 73
685
 74
571
 0
VERTEX
 8
MANIGLIA_1
 10
0
 20
0
 30
0
 70
128
 71
572
 72
530
 73
573
 74
573
 0
VERTEX
 8
MANIGLIA_1
 10
0
 20
0
 30
0
 70
128
 71
573
 72
654
 73
686
 74
572
 0
VERTEX
 8
MANIGLIA_1
 10
0
 20
0
 30
0
 70
128
 71
573
 72
530
 73
574
 74
574
 0
VERTEX
 8
MANIGLIA_1
 10
0
 20
0
 30
0
 70
128
 71
574
 72
660
 73
654
 74
573
 0
VERTEX
 8
MANIGLIA_1
 10
0
 20
0
 30
0
 70
128
 71
574
 72
530
 73
575
 74
575
 0
VERTEX
 8
MANIGLIA_1
 10
0
 20
0
 30
0
 70
128
 71
575
 72
666
 73
660
 74
574
 0
VERTEX
 8
MANIGLIA_1
 10
0
 20
0
 30
0
 70
128
 71
575
 72
530
 73
576
 74
576
 0
VERTEX
 8
MANIGLIA_1
 10
0
 20
0
 30
0
 70
128
 71
576
 72
672
 73
666
 74
575
 0
VERTEX
 8
MANIGLIA_1
 10
0
 20
0
 30
0
 70
128
 71
576
 72
530
 73
577
 74
577
 0
VERTEX
 8
MANIGLIA_1
 10
0
 20
0
 30
0
 70
128
 71
577
 72
588
 73
672
 74
576
 0
VERTEX
 8
MANIGLIA_1
 10
0
 20
0
 30
0
 70
128
 71
577
 72
530
 73
578
 74
578
 0
VERTEX
 8
MANIGLIA_1
 10
0
 20
0
 30
0
 70
128
 71
578
 72
655
 73
588
 74
577
 0
VERTEX
 8
MANIGLIA_1
 10
0
 20
0
 30
0
 70
128
 71
578
 72
530
 73
579
 74
579
 0
VERTEX
 8
MANIGLIA_1
 10
0
 20
0
 30
0
 70
128
 71
579
 72
661
 73
655
 74
578
 0
VERTEX
 8
MANIGLIA_1
 10
0
 20
0
 30
0
 70
128
 71
579
 72
530
 73
580
 74
580
 0
VERTEX
 8
MANIGLIA_1
 10
0
 20
0
 30
0
 70
128
 71
580
 72
667
 73
661
 74
579
 0
VERTEX
 8
MANIGLIA_1
 10
0
 20
0
 30
0
 70
128
 71
580
 72
530
 73
581
 74
581
 0
VERTEX
 8
MANIGLIA_1
 10
0
 20
0
 30
0
 70
128
 71
581
 72
673
 73
667
 74
580
 0
VERTEX
 8
MANIGLIA_1
 10
0
 20
0
 30
0
 70
128
 71
581
 72
530
 73
582
 74
582
 0
VERTEX
 8
MANIGLIA_1
 10
0
 20
0
 30
0
 70
128
 71
582
 72
676
 73
673
 74
581
 0
VERTEX
 8
MANIGLIA_1
 10
0
 20
0
 30
0
 70
128
 71
582
 72
530
 73
531
 74
531
 0
VERTEX
 8
MANIGLIA_1
 10
0
 20
0
 30
0
 70
128
 71
531
 72
586
 73
676
 74
582
 0
SEQEND
 0
POLYLINE
 8
CUBO_1
 66
1
 10
0.0
 20
0.0
 30
0.0
 70
64
 71
90
 72
86
 0
VERTEX
 8
CUBO_1
 10
-34.83
 20
0.3299
 30
149.1441
 70
192
 0
VERTEX
 8
CUBO_1
 10
-34.83
 20
0.3299
 30
160.1341
 70
192
 0
VERTEX
 8
CUBO_1
 10
34.875
 20
0.3299
 30
149.1441
 70
192
 0
VERTEX
 8
CUBO_1
 10
34.875
 20
0.3299
 30
160.1341
 70
192
 0
VERTEX
 8
CUBO_1
 10
34.875
 20
2.0469
 30
149.1441
 70
192
 0
VERTEX
 8
CUBO_1
 10
34.875
 20
2.0469
 30
160.1341
 70
192
 0
VERTEX
 8
CUBO_1
 10
-34.83
 20
2.0469
 30
149.1441
 70
192
 0
VERTEX
 8
CUBO_1
 10
-34.83
 20
2.0469
 30
160.1341
 70
192
 0
VERTEX
 8
CUBO_1
 10
-37.485
 20
1.14
 30
149.1441
 70
192
 0
VERTEX
 8
CUBO_1
 10
-37.485
 20
2.0469
 30
160.1341
 70
192
 0
VERTEX
 8
CUBO_1
 10
-37.485
 20
2.0469
 30
149.1441
 70
192
 0
VERTEX
 8
CUBO_1
 10
-37.485
 20
0.3299
 30
160.1341
 70
192
 0
VERTEX
 8
CUBO_1
 10
-37.485
 20
0.3299
 30
149.1441
 70
192
 0
VERTEX
 8
CUBO_1
 10
37.46
 20
1.14
 30
149.1441
 70
192
 0
VERTEX
 8
CUBO_1
 10
37.46
 20
2.0469
 30
160.1341
 70
192
 0
VERTEX
 8
CUBO_1
 10
37.46
 20
2.0469
 30
149.1441
 70
192
 0
VERTEX
 8
CUBO_1
 10
37.46
 20
0.3299
 30
160.1341
 70
192
 0
VERTEX
 8
CUBO_1
 10
37.46
 20
0.3299
 30
149.1441
 70
192
 0
VERTEX
 8
CUBO_1
 10
37.46
 20
0.3299
 30
152.7542
 70
192
 0
VERTEX
 8
CUBO_1
 10
37.46
 20
2.0469
 30
152.7542
 70
192
 0
VERTEX
 8
CUBO_1
 10
-37.485
 20
2.0469
 30
152.7542
 70
192
 0
VERTEX
 8
CUBO_1
 10
-37.485
 20
0.3299
 30
152.7542
 70
192
 0
VERTEX
 8
CUBO_1
 10
-34.83
 20
0.3299
 30
152.7542
 70
192
 0
VERTEX
 8
CUBO_1
 10
-34.83
 20
2.0469
 30
152.7542
 70
192
 0
VERTEX
 8
CUBO_1
 10
34.875
 20
2.0469
 30
152.7542
 70
192
 0
VERTEX
 8
CUBO_1
 10
34.875
 20
0.3299
 30
152.7542
 70
192
 0
VERTEX
 8
CUBO_1
 10
34.875
 20
4.084
 30
149.1441
 70
192
 0
VERTEX
 8
CUBO_1
 10
-34.83
 20
4.084
 30
149.1441
 70
192
 0
VERTEX
 8
CUBO_1
 10
-34.83
 20
4.084
 30
152.7542
 70
192
 0
VERTEX
 8
CUBO_1
 10
34.875
 20
4.084
 30
152.7542
 70
192
 0
VERTEX
 8
CUBO_1
 10
37.46
 20
0.8299
 30
149.1441
 70
192
 0
VERTEX
 8
CUBO_1
 10
37.46
 20
0.8299
 30
152.7542
 70
192
 0
VERTEX
 8
CUBO_1
 10
-37.485
 20
0.8299
 30
149.1441
 70
192
 0
VERTEX
 8
CUBO_1
 10
-37.485
 20
0.8299
 30
152.7542
 70
192
 0
VERTEX
 8
CUBO_1
 10
37.46
 20
0.8299
 30
160.1341
 70
192
 0
VERTEX
 8
CUBO_1
 10
-37.485
 20
0.8299
 30
160.1341
 70
192
 0
VERTEX
 8
CUBO_1
 10
-34.83
 20
0.8299
 30
160.1341
 70
192
 0
VERTEX
 8
CUBO_1
 10
34.875
 20
0.8299
 30
160.1341
 70
192
 0
VERTEX
 8
CUBO_1
 10
37.46
 20
0.8299
 30
149.1441
 70
192
 0
VERTEX
 8
CUBO_1
 10
34.85
 20
0.8299
 30
149.1441
 70
192
 0
VERTEX
 8
CUBO_1
 10
-34.805
 20
0.8299
 30
149.1441
 70
192
 0
VERTEX
 8
CUBO_1
 10
-37.485
 20
0.8299
 30
149.1441
 70
192
 0
VERTEX
 8
CUBO_1
 10
34.875
 20
2.0469
 30
147.9941
 70
192
 0
VERTEX
 8
CUBO_1
 10
-34.83
 20
2.0469
 30
147.9941
 70
192
 0
VERTEX
 8
CUBO_1
 10
-37.485
 20
2.0469
 30
147.9941
 70
192
 0
VERTEX
 8
CUBO_1
 10
37.46
 20
2.0469
 30
147.9941
 70
192
 0
VERTEX
 8
CUBO_1
 10
34.875
 20
4.084
 30
147.9941
 70
192
 0
VERTEX
 8
CUBO_1
 10
-34.83
 20
4.084
 30
147.9941
 70
192
 0
VERTEX
 8
CUBO_1
 10
37.46
 20
0.8299
 30
147.9941
 70
192
 0
VERTEX
 8
CUBO_1
 10
34.85
 20
0.8299
 30
147.9941
 70
192
 0
VERTEX
 8
CUBO_1
 10
-34.805
 20
0.8299
 30
147.9941
 70
192
 0
VERTEX
 8
CUBO_1
 10
-37.485
 20
0.8299
 30
147.9941
 70
192
 0
VERTEX
 8
CUBO_1
 10
34.875
 20
2.0469
 30
103.9161
 70
192
 0
VERTEX
 8
CUBO_1
 10
-34.83
 20
2.0469
 30
103.9161
 70
192
 0
VERTEX
 8
CUBO_1
 10
-37.485
 20
2.0469
 30
103.9161
 70
192
 0
VERTEX
 8
CUBO_1
 10
37.46
 20
2.0469
 30
103.9161
 70
192
 0
VERTEX
 8
CUBO_1
 10
34.875
 20
4.084
 30
103.9161
 70
192
 0
VERTEX
 8
CUBO_1
 10
-34.83
 20
4.084
 30
103.9161
 70
192
 0
VERTEX
 8
CUBO_1
 10
37.46
 20
0.8299
 30
103.9161
 70
192
 0
VERTEX
 8
CUBO_1
 10
34.875
 20
0.8299
 30
103.9161
 70
192
 0
VERTEX
 8
CUBO_1
 10
-34.83
 20
0.8299
 30
103.9161
 70
192
 0
VERTEX
 8
CUBO_1
 10
-37.485
 20
0.8299
 30
103.9161
 70
192
 0
VERTEX
 8
CUBO_1
 10
34.85
 20
3.8232
 30
149.1441
 70
192
 0
VERTEX
 8
CUBO_1
 10
-34.805
 20
3.8232
 30
149.1441
 70
192
 0
VERTEX
 8
CUBO_1
 10
34.85
 20
3.8232
 30
147.9941
 70
192
 0
VERTEX
 8
CUBO_1
 10
-34.805
 20
3.8232
 30
147.9941
 70
192
 0
VERTEX
 8
CUBO_1
 10
34.875
 20
2.0469
 30
102.9441
 70
192
 0
VERTEX
 8
CUBO_1
 10
-34.83
 20
2.0469
 30
102.9441
 70
192
 0
VERTEX
 8
CUBO_1
 10
34.875
 20
4.084
 30
102.9441
 70
192
 0
VERTEX
 8
CUBO_1
 10
-34.83
 20
4.084
 30
102.9441
 70
192
 0
VERTEX
 8
CUBO_1
 10
34.875
 20
2.0469
 30
101.7042
 70
192
 0
VERTEX
 8
CUBO_1
 10
-34.83
 20
2.0469
 30
101.7042
 70
192
 0
VERTEX
 8
CUBO_1
 10
34.875
 20
4.084
 30
101.7042
 70
192
 0
VERTEX
 8
CUBO_1
 10
-34.83
 20
4.084
 30
101.7042
 70
192
 0
VERTEX
 8
CUBO_1
 10
34.875
 20
-0.0699
 30
102.9441
 70
192
 0
VERTEX
 8
CUBO_1
 10
-34.83
 20
-0.0699
 30
102.9441
 70
192
 0
VERTEX
 8
CUBO_1
 10
34.875
 20
-0.0699
 30
101.7042
 70
192
 0
VERTEX
 8
CUBO_1
 10
-34.83
 20
-0.0699
 30
101.7042
 70
192
 0
VERTEX
 8
CUBO_1
 10
37.46
 20
2.0469
 30
102.9441
 70
192
 0
VERTEX
 8
CUBO_1
 10
37.46
 20
2.0469
 30
101.7042
 70
192
 0
VERTEX
 8
CUBO_1
 10
37.46
 20
-0.0699
 30
102.9441
 70
192
 0
VERTEX
 8
CUBO_1
 10
37.46
 20
-0.0699
 30
101.7042
 70
192
 0
VERTEX
 8
CUBO_1
 10
-37.485
 20
2.0469
 30
102.9441
 70
192
 0
VERTEX
 8
CUBO_1
 10
-37.485
 20
2.0469
 30
101.7042
 70
192
 0
VERTEX
 8
CUBO_1
 10
-37.485
 20
-0.0699
 30
102.9441
 70
192
 0
VERTEX
 8
CUBO_1
 10
-37.485
 20
-0.0699
 30
101.7042
 70
192
 0
VERTEX
 8
CUBO_1
 10
34.875
 20
0.3301
 30
147.9941
 70
192
 0
VERTEX
 8
CUBO_1
 10
-34.83
 20
0.3301
 30
147.9941
 70
192
 0
VERTEX
 8
CUBO_1
 10
34.875
 20
0.3301
 30
103.9161
 70
192
 0
VERTEX
 8
CUBO_1
 10
-34.83
 20
0.3301
 30
103.9161
 70
192
 0
VERTEX
 8
CUBO_1
 10
0
 20
0
 30
0
 70
128
 71
14
 72
32
 73
20
 74
16
 0
VERTEX
 8
CUBO_1
 10
0
 20
0
 30
0
 70
128
 71
32
 72
14
 73
31
 74
31
 0
VERTEX
 8
CUBO_1
 10
0
 20
0
 30
0
 70
128
 71
33
 72
9
 73
34
 74
34
 0
VERTEX
 8
CUBO_1
 10
0
 20
0
 30
0
 70
128
 71
9
 72
11
 73
21
 74
34
 0
VERTEX
 8
CUBO_1
 10
0
 20
0
 30
0
 70
128
 71
31
 72
18
 73
19
 74
32
 0
VERTEX
 8
CUBO_1
 10
0
 20
0
 30
0
 70
128
 71
22
 72
13
 73
33
 74
34
 0
VERTEX
 8
CUBO_1
 10
0
 20
0
 30
0
 70
128
 71
19
 72
17
 73
35
 74
32
 0
VERTEX
 8
CUBO_1
 10
0
 20
0
 30
0
 70
128
 71
21
 72
10
 73
36
 74
34
 0
VERTEX
 8
CUBO_1
 10
0
 20
0
 30
0
 70
128
 71
12
 72
2
 73
23
 74
22
 0
VERTEX
 8
CUBO_1
 10
0
 20
0
 30
0
 70
128
 71
10
 72
8
 73
37
 74
36
 0
VERTEX
 8
CUBO_1
 10
0
 20
0
 30
0
 70
128
 71
11
 72
7
 73
24
 74
21
 0
VERTEX
 8
CUBO_1
 10
0
 20
0
 30
0
 70
128
 71
15
 72
6
 73
25
 74
20
 0
VERTEX
 8
CUBO_1
 10
0
 20
0
 30
0
 70
128
 71
1
 72
23
 73
26
 74
3
 0
VERTEX
 8
CUBO_1
 10
0
 20
0
 30
0
 70
128
 71
27
 72
30
 73
29
 74
28
 0
VERTEX
 8
CUBO_1
 10
0
 20
0
 30
0
 70
128
 71
2
 72
37
 73
38
 74
4
 0
VERTEX
 8
CUBO_1
 10
0
 20
0
 30
0
 70
128
 71
17
 72
4
 73
38
 74
35
 0
VERTEX
 8
CUBO_1
 10
0
 20
0
 30
0
 70
128
 71
18
 72
3
 73
26
 74
19
 0
VERTEX
 8
CUBO_1
 10
0
 20
0
 30
0
 70
128
 71
3
 72
18
 73
39
 74
40
 0
VERTEX
 8
CUBO_1
 10
0
 20
0
 30
0
 70
128
 71
1
 72
3
 73
40
 74
41
 0
VERTEX
 8
CUBO_1
 10
0
 20
0
 30
0
 70
128
 71
13
 72
1
 73
41
 74
42
 0
VERTEX
 8
CUBO_1
 10
0
 20
0
 30
0
 70
128
 71
23
 72
1
 73
13
 74
22
 0
VERTEX
 8
CUBO_1
 10
0
 20
0
 30
0
 70
128
 71
24
 72
8
 73
10
 74
21
 0
VERTEX
 8
CUBO_1
 10
0
 20
0
 30
0
 70
128
 71
25
 72
5
 73
16
 74
20
 0
VERTEX
 8
CUBO_1
 10
0
 20
0
 30
0
 70
128
 71
23
 72
2
 73
4
 74
26
 0
VERTEX
 8
CUBO_1
 10
0
 20
0
 30
0
 70
128
 71
25
 72
6
 73
8
 74
24
 0
VERTEX
 8
CUBO_1
 10
0
 20
0
 30
0
 70
128
 71
26
 72
4
 73
17
 74
19
 0
VERTEX
 8
CUBO_1
 10
0
 20
0
 30
0
 70
128
 71
27
 72
5
 73
25
 74
30
 0
VERTEX
 8
CUBO_1
 10
0
 20
0
 30
0
 70
128
 71
30
 72
25
 73
24
 74
29
 0
VERTEX
 8
CUBO_1
 10
0
 20
0
 30
0
 70
128
 71
29
 72
24
 73
7
 74
28
 0
VERTEX
 8
CUBO_1
 10
0
 20
0
 30
0
 70
128
 71
74
 72
72
 73
71
 74
73
 0
VERTEX
 8
CUBO_1
 10
0
 20
0
 30
0
 70
128
 71
35
 72
15
 73
20
 74
32
 0
VERTEX
 8
CUBO_1
 10
0
 20
0
 30
0
 70
128
 71
36
 72
12
 73
22
 74
34
 0
VERTEX
 8
CUBO_1
 10
0
 20
0
 30
0
 70
128
 71
37
 72
2
 73
12
 74
36
 0
VERTEX
 8
CUBO_1
 10
0
 20
0
 30
0
 70
128
 71
37
 72
8
 73
6
 74
38
 0
VERTEX
 8
CUBO_1
 10
0
 20
0
 30
0
 70
128
 71
38
 72
6
 73
15
 74
35
 0
VERTEX
 8
CUBO_1
 10
0
 20
0
 30
0
 70
128
 71
59
 72
56
 73
53
 74
60
 0
VERTEX
 8
CUBO_1
 10
0
 20
0
 30
0
 70
128
 71
60
 72
53
 73
54
 74
61
 0
VERTEX
 8
CUBO_1
 10
0
 20
0
 30
0
 70
128
 71
61
 72
54
 73
55
 74
62
 0
VERTEX
 8
CUBO_1
 10
0
 20
0
 30
0
 70
128
 71
48
 72
28
 73
7
 74
44
 0
VERTEX
 8
CUBO_1
 10
0
 20
0
 30
0
 70
128
 71
43
 72
5
 73
27
 74
47
 0
VERTEX
 8
CUBO_1
 10
0
 20
0
 30
0
 70
128
 71
47
 72
27
 73
28
 74
48
 0
VERTEX
 8
CUBO_1
 10
0
 20
0
 30
0
 70
128
 71
49
 72
39
 73
16
 74
46
 0
VERTEX
 8
CUBO_1
 10
0
 20
0
 30
0
 70
128
 71
46
 72
16
 73
5
 74
43
 0
VERTEX
 8
CUBO_1
 10
0
 20
0
 30
0
 70
128
 71
50
 72
40
 73
39
 74
49
 0
VERTEX
 8
CUBO_1
 10
0
 20
0
 30
0
 70
128
 71
66
 72
64
 73
63
 74
65
 0
VERTEX
 8
CUBO_1
 10
0
 20
0
 30
0
 70
128
 71
44
 72
7
 73
11
 74
45
 0
VERTEX
 8
CUBO_1
 10
0
 20
0
 30
0
 70
128
 71
45
 72
11
 73
42
 74
52
 0
VERTEX
 8
CUBO_1
 10
0
 20
0
 30
0
 70
128
 71
52
 72
42
 73
41
 74
51
 0
VERTEX
 8
CUBO_1
 10
0
 20
0
 30
0
 70
128
 71
58
 72
48
 73
44
 74
54
 0
VERTEX
 8
CUBO_1
 10
0
 20
0
 30
0
 70
128
 71
53
 72
43
 73
47
 74
57
 0
VERTEX
 8
CUBO_1
 10
0
 20
0
 30
0
 70
128
 71
57
 72
47
 73
48
 74
58
 0
VERTEX
 8
CUBO_1
 10
0
 20
0
 30
0
 70
128
 71
59
 72
49
 73
46
 74
56
 0
VERTEX
 8
CUBO_1
 10
0
 20
0
 30
0
 70
128
 71
56
 72
46
 73
43
 74
53
 0
VERTEX
 8
CUBO_1
 10
0
 20
0
 30
0
 70
128
 71
60
 72
50
 73
49
 74
59
 0
VERTEX
 8
CUBO_1
 10
0
 20
0
 30
0
 70
128
 71
90
 72
88
 73
87
 74
89
 0
VERTEX
 8
CUBO_1
 10
0
 20
0
 30
0
 70
128
 71
54
 72
44
 73
45
 74
55
 0
VERTEX
 8
CUBO_1
 10
0
 20
0
 30
0
 70
128
 71
55
 72
45
 73
52
 74
62
 0
VERTEX
 8
CUBO_1
 10
0
 20
0
 30
0
 70
128
 71
62
 72
52
 73
51
 74
61
 0
VERTEX
 8
CUBO_1
 10
0
 20
0
 30
0
 70
128
 71
66
 72
51
 73
41
 74
64
 0
VERTEX
 8
CUBO_1
 10
0
 20
0
 30
0
 70
128
 71
64
 72
41
 73
40
 74
63
 0
VERTEX
 8
CUBO_1
 10
0
 20
0
 30
0
 70
128
 71
63
 72
40
 73
50
 74
65
 0
VERTEX
 8
CUBO_1
 10
0
 20
0
 30
0
 70
128
 71
65
 72
50
 73
51
 74
66
 0
VERTEX
 8
CUBO_1
 10
0
 20
0
 30
0
 70
128
 71
70
 72
58
 73
54
 74
68
 0
VERTEX
 8
CUBO_1
 10
0
 20
0
 30
0
 70
128
 71
68
 72
54
 73
53
 74
67
 0
VERTEX
 8
CUBO_1
 10
0
 20
0
 30
0
 70
128
 71
67
 72
53
 73
57
 74
69
 0
VERTEX
 8
CUBO_1
 10
0
 20
0
 30
0
 70
128
 71
69
 72
57
 73
58
 74
70
 0
VERTEX
 8
CUBO_1
 10
0
 20
0
 30
0
 70
128
 71
74
 72
70
 73
68
 74
72
 0
VERTEX
 8
CUBO_1
 10
0
 20
0
 30
0
 70
128
 71
78
 72
76
 73
75
 74
77
 0
VERTEX
 8
CUBO_1
 10
0
 20
0
 30
0
 70
128
 71
71
 72
67
 73
69
 74
73
 0
VERTEX
 8
CUBO_1
 10
0
 20
0
 30
0
 70
128
 71
73
 72
69
 73
70
 74
74
 0
VERTEX
 8
CUBO_1
 10
0
 20
0
 30
0
 70
128
 71
86
 72
84
 73
83
 74
85
 0
VERTEX
 8
CUBO_1
 10
0
 20
0
 30
0
 70
128
 71
76
 72
68
 73
67
 74
75
 0
VERTEX
 8
CUBO_1
 10
0
 20
0
 30
0
 70
128
 71
81
 72
79
 73
80
 74
82
 0
VERTEX
 8
CUBO_1
 10
0
 20
0
 30
0
 70
128
 71
77
 72
71
 73
72
 74
78
 0
VERTEX
 8
CUBO_1
 10
0
 20
0
 30
0
 70
128
 71
81
 72
75
 73
67
 74
79
 0
VERTEX
 8
CUBO_1
 10
0
 20
0
 30
0
 70
128
 71
79
 72
67
 73
71
 74
80
 0
VERTEX
 8
CUBO_1
 10
0
 20
0
 30
0
 70
128
 71
80
 72
71
 73
77
 74
82
 0
VERTEX
 8
CUBO_1
 10
0
 20
0
 30
0
 70
128
 71
82
 72
77
 73
75
 74
81
 0
VERTEX
 8
CUBO_1
 10
0
 20
0
 30
0
 70
128
 71
86
 72
78
 73
72
 74
84
 0
VERTEX
 8
CUBO_1
 10
0
 20
0
 30
0
 70
128
 71
84
 72
72
 73
68
 74
83
 0
VERTEX
 8
CUBO_1
 10
0
 20
0
 30
0
 70
128
 71
83
 72
68
 73
76
 74
85
 0
VERTEX
 8
CUBO_1
 10
0
 20
0
 30
0
 70
128
 71
85
 72
76
 73
78
 74
86
 0
VERTEX
 8
CUBO_1
 10
0
 20
0
 30
0
 70
128
 71
90
 72
61
 73
51
 74
88
 0
VERTEX
 8
CUBO_1
 10
0
 20
0
 30
0
 70
128
 71
88
 72
51
 73
50
 74
87
 0
VERTEX
 8
CUBO_1
 10
0
 20
0
 30
0
 70
128
 71
87
 72
50
 73
60
 74
89
 0
VERTEX
 8
CUBO_1
 10
0
 20
0
 30
0
 70
128
 71
89
 72
60
 73
61
 74
90
 0
SEQEND
 0
POLYLINE
 8
FORNO
 66
1
 10
0.0
 20
0.0
 30
0.0
 70
64
 71
22
 72
21
 0
VERTEX
 8
FORNO
 10
-34.09
 20
3.7902
 30
101.5044
 70
192
 0
VERTEX
 8
FORNO
 10
-34.09
 20
0.8502
 30
157.8779
 70
192
 0
VERTEX
 8
FORNO
 10
34.11
 20
3.7902
 30
101.5044
 70
192
 0
VERTEX
 8
FORNO
 10
34.11
 20
0.8502
 30
157.8779
 70
192
 0
VERTEX
 8
FORNO
 10
34.11
 20
55.004
 30
101.5044
 70
192
 0
VERTEX
 8
FORNO
 10
34.11
 20
55.004
 30
150.3297
 70
192
 0
VERTEX
 8
FORNO
 10
-34.09
 20
55.004
 30
101.5044
 70
192
 0
VERTEX
 8
FORNO
 10
-34.09
 20
55.004
 30
150.3297
 70
192
 0
VERTEX
 8
FORNO
 10
-34.09
 20
0.8502
 30
149.2503
 70
192
 0
VERTEX
 8
FORNO
 10
34.11
 20
0.8502
 30
149.2503
 70
192
 0
VERTEX
 8
FORNO
 10
-34.09
 20
3.9003
 30
149.2485
 70
192
 0
VERTEX
 8
FORNO
 10
34.11
 20
3.9003
 30
149.2485
 70
192
 0
VERTEX
 8
FORNO
 10
-34.09
 20
42.4425
 30
157.8871
 70
192
 0
VERTEX
 8
FORNO
 10
34.11
 20
42.4425
 30
157.8871
 70
192
 0
VERTEX
 8
FORNO
 10
34.11
 20
7.2582
 30
157.8793
 70
192
 0
VERTEX
 8
FORNO
 10
34.11
 20
7.2582
 30
101.5044
 70
192
 0
VERTEX
 8
FORNO
 10
-34.09
 20
7.2582
 30
157.8793
 70
192
 0
VERTEX
 8
FORNO
 10
-34.09
 20
7.2582
 30
101.5044
 70
192
 0
VERTEX
 8
FORNO
 10
-34.09
 20
0.8498
 30
159.6876
 70
192
 0
VERTEX
 8
FORNO
 10
34.11
 20
0.8498
 30
159.6876
 70
192
 0
VERTEX
 8
FORNO
 10
34.11
 20
7.2578
 30
159.689
 70
192
 0
VERTEX
 8
FORNO
 10
-34.09
 20
7.2578
 30
159.689
 70
192
 0
VERTEX
 8
FORNO
 10
0
 20
0
 30
0
 70
128
 71
16
 72
15
 73
14
 74
5
 0
VERTEX
 8
FORNO
 10
0
 20
0
 30
0
 70
128
 71
14
 72
6
 73
5
 74
5
 0
VERTEX
 8
FORNO
 10
0
 20
0
 30
0
 70
128
 71
7
 72
8
 73
13
 74
13
 0
VERTEX
 8
FORNO
 10
0
 20
0
 30
0
 70
128
 71
18
 72
7
 73
13
 74
17
 0
VERTEX
 8
FORNO
 10
0
 20
0
 30
0
 70
128
 71
16
 72
3
 73
12
 74
15
 0
VERTEX
 8
FORNO
 10
0
 20
0
 30
0
 70
128
 71
12
 72
10
 73
4
 74
15
 0
VERTEX
 8
FORNO
 10
0
 20
0
 30
0
 70
128
 71
11
 72
17
 73
2
 74
9
 0
VERTEX
 8
FORNO
 10
0
 20
0
 30
0
 70
128
 71
18
 72
17
 73
11
 74
1
 0
VERTEX
 8
FORNO
 10
0
 20
0
 30
0
 70
128
 71
1
 72
11
 73
12
 74
3
 0
VERTEX
 8
FORNO
 10
0
 20
0
 30
0
 70
128
 71
5
 72
6
 73
8
 74
7
 0
VERTEX
 8
FORNO
 10
0
 20
0
 30
0
 70
128
 71
19
 72
22
 73
21
 74
20
 0
VERTEX
 8
FORNO
 10
0
 20
0
 30
0
 70
128
 71
7
 72
18
 73
16
 74
5
 0
VERTEX
 8
FORNO
 10
0
 20
0
 30
0
 70
128
 71
9
 72
2
 73
4
 74
10
 0
VERTEX
 8
FORNO
 10
0
 20
0
 30
0
 70
128
 71
11
 72
9
 73
10
 74
12
 0
VERTEX
 8
FORNO
 10
0
 20
0
 30
0
 70
128
 71
13
 72
8
 73
6
 74
14
 0
VERTEX
 8
FORNO
 10
0
 20
0
 30
0
 70
128
 71
17
 72
13
 73
14
 74
15
 0
VERTEX
 8
FORNO
 10
0
 20
0
 30
0
 70
128
 71
18
 72
1
 73
3
 74
16
 0
VERTEX
 8
FORNO
 10
0
 20
0
 30
0
 70
128
 71
19
 72
2
 73
17
 74
22
 0
VERTEX
 8
FORNO
 10
0
 20
0
 30
0
 70
128
 71
22
 72
17
 73
15
 74
21
 0
VERTEX
 8
FORNO
 10
0
 20
0
 30
0
 70
128
 71
21
 72
15
 73
4
 74
20
 0
VERTEX
 8
FORNO
 10
0
 20
0
 30
0
 70
128
 71
20
 72
4
 73
2
 74
19
 0
SEQEND
 0
ENDSEC
 0
EOF
