 0
SECTION
 2
HEADER
 9
$ACADVER
 1
AC1009
 0
ENDSEC
 0
SECTION
 2
TABLES
 0
TABLE
 2
LTYPE
 70
1
 0
LTYPE
 2
CONTINUOUS
 70
64
 3
solid line
 72
65
 73
0
 40
0.0
 0
ENDTAB
 0
TABLE
 2
LAYER
 70
6
 0
LAYER
 2
0
 70
0
 62
7
 6
CONTINUOUS
 0
LAYER
 2
FCPO_315_P_TEM_2F_X
 70
64
 62
7
 6
CONTINUOUS
 0
LAYER
 2
LOGO_FULGOR_MILANO
 70
64
 62
7
 6
CONTINUOUS
 0
LAYER
 2
FULGOR
 70
64
 62
39
 6
CONTINUOUS
 0
LAYER
 2
MILANO
 70
64
 62
39
 6
CONTINUOUS
 0
LAYER
 2
MANIGLIA
 70
64
 62
253
 6
CONTINUOUS
 0
LAYER
 2
CUBO_1
 70
64
 62
253
 6
CONTINUOUS
 0
LAYER
 2
CUBO_5
 70
64
 62
39
 6
CONTINUOUS
 0
LAYER
 2
CUBO_4
 70
64
 62
37
 6
CONTINUOUS
 0
LAYER
 2
CUBO
 70
64
 62
253
 6
CONTINUOUS
 0
LAYER
 2
CUBO_2
 70
64
 62
39
 6
CONTINUOUS
 0
LAYER
 2
CUBO_3
 70
64
 62
37
 6
CONTINUOUS
 0
LAYER
 2
FORNO
 70
64
 62
253
 6
CONTINUOUS
 0
LAYER
 2
FORNO_1
 70
64
 62
253
 6
CONTINUOUS
 0
ENDTAB
 0
ENDSEC
 0
SECTION
 2
BLOCKS
 0
ENDSEC
 0
SECTION
 2
ENTITIES
 0
POLYLINE
 8
FULGOR
 66
1
 10
0.0
 20
0.0
 30
0.0
 70
64
 71
363
 72
183
 0
VERTEX
 8
FULGOR
 10
0.2172
 20
-0.293
 30
98.7669
 70
192
 0
VERTEX
 8
FULGOR
 10
-2.5022
 20
-0.293
 30
98.6642
 70
192
 0
VERTEX
 8
FULGOR
 10
1.3381
 20
-0.293
 30
98.6902
 70
192
 0
VERTEX
 8
FULGOR
 10
-2.3475
 20
-0.293
 30
98.961
 70
192
 0
VERTEX
 8
FULGOR
 10
-2.3475
 20
-0.293
 30
99.0545
 70
192
 0
VERTEX
 8
FULGOR
 10
-1.9678
 20
-0.293
 30
99.0545
 70
192
 0
VERTEX
 8
FULGOR
 10
-1.9678
 20
-0.293
 30
99.1653
 70
192
 0
VERTEX
 8
FULGOR
 10
-2.5022
 20
-0.293
 30
99.1653
 70
192
 0
VERTEX
 8
FULGOR
 10
-1.8106
 20
-0.293
 30
98.882
 70
192
 0
VERTEX
 8
FULGOR
 10
-1.8094
 20
-0.293
 30
98.8586
 70
192
 0
VERTEX
 8
FULGOR
 10
-1.8058
 20
-0.293
 30
98.8369
 70
192
 0
VERTEX
 8
FULGOR
 10
-2.3475
 20
-0.293
 30
98.6642
 70
192
 0
VERTEX
 8
FULGOR
 10
-2.3475
 20
-0.293
 30
98.8719
 70
192
 0
VERTEX
 8
FULGOR
 10
-1.9678
 20
-0.293
 30
98.8719
 70
192
 0
VERTEX
 8
FULGOR
 10
-1.9678
 20
-0.293
 30
98.961
 70
192
 0
VERTEX
 8
FULGOR
 10
-1.8106
 20
-0.293
 30
99.1653
 70
192
 0
VERTEX
 8
FULGOR
 10
-1.8001
 20
-0.293
 30
98.817
 70
192
 0
VERTEX
 8
FULGOR
 10
-1.7924
 20
-0.293
 30
98.7987
 70
192
 0
VERTEX
 8
FULGOR
 10
-1.7827
 20
-0.293
 30
98.782
 70
192
 0
VERTEX
 8
FULGOR
 10
-1.7714
 20
-0.293
 30
98.7668
 70
192
 0
VERTEX
 8
FULGOR
 10
-1.6339
 20
-0.293
 30
98.6902
 70
192
 0
VERTEX
 8
FULGOR
 10
-1.5809
 20
-0.293
 30
98.6793
 70
192
 0
VERTEX
 8
FULGOR
 10
-1.4947
 20
-0.293
 30
98.6701
 70
192
 0
VERTEX
 8
FULGOR
 10
-1.4053
 20
-0.293
 30
98.6673
 70
192
 0
VERTEX
 8
FULGOR
 10
-1.3053
 20
-0.293
 30
98.6709
 70
192
 0
VERTEX
 8
FULGOR
 10
-1.2299
 20
-0.293
 30
98.6809
 70
192
 0
VERTEX
 8
FULGOR
 10
-1.7584
 20
-0.293
 30
98.753
 70
192
 0
VERTEX
 8
FULGOR
 10
-1.137
 20
-0.293
 30
98.7062
 70
192
 0
VERTEX
 8
FULGOR
 10
-1.7439
 20
-0.293
 30
98.7405
 70
192
 0
VERTEX
 8
FULGOR
 10
-1.7282
 20
-0.293
 30
98.7293
 70
192
 0
VERTEX
 8
FULGOR
 10
-1.7023
 20
-0.293
 30
98.7148
 70
192
 0
VERTEX
 8
FULGOR
 10
-1.6741
 20
-0.293
 30
98.7028
 70
192
 0
VERTEX
 8
FULGOR
 10
-1.0343
 20
-0.293
 30
98.7755
 70
192
 0
VERTEX
 8
FULGOR
 10
-1.177
 20
-0.293
 30
98.693
 70
192
 0
VERTEX
 8
FULGOR
 10
-1.1089
 20
-0.293
 30
98.7185
 70
192
 0
VERTEX
 8
FULGOR
 10
-1.0832
 20
-0.293
 30
98.7328
 70
192
 0
VERTEX
 8
FULGOR
 10
-1.0601
 20
-0.293
 30
98.7495
 70
192
 0
VERTEX
 8
FULGOR
 10
-1.0024
 20
-0.293
 30
98.8518
 70
192
 0
VERTEX
 8
FULGOR
 10
-1.0012
 20
-0.293
 30
98.8724
 70
192
 0
VERTEX
 8
FULGOR
 10
-1.001
 20
-0.293
 30
99.1653
 70
192
 0
VERTEX
 8
FULGOR
 10
-1.0464
 20
-0.293
 30
98.7619
 70
192
 0
VERTEX
 8
FULGOR
 10
-1.0238
 20
-0.293
 30
98.7903
 70
192
 0
VERTEX
 8
FULGOR
 10
-1.1557
 20
-0.293
 30
98.8739
 70
192
 0
VERTEX
 8
FULGOR
 10
-1.1566
 20
-0.293
 30
98.8669
 70
192
 0
VERTEX
 8
FULGOR
 10
-1.1582
 20
-0.293
 30
98.8599
 70
192
 0
VERTEX
 8
FULGOR
 10
-1.1605
 20
-0.293
 30
98.8529
 70
192
 0
VERTEX
 8
FULGOR
 10
-1.1636
 20
-0.293
 30
98.8461
 70
192
 0
VERTEX
 8
FULGOR
 10
-1.1674
 20
-0.293
 30
98.8394
 70
192
 0
VERTEX
 8
FULGOR
 10
-1.172
 20
-0.293
 30
98.8328
 70
192
 0
VERTEX
 8
FULGOR
 10
-1.1803
 20
-0.293
 30
98.8232
 70
192
 0
VERTEX
 8
FULGOR
 10
-1.1906
 20
-0.293
 30
98.8141
 70
192
 0
VERTEX
 8
FULGOR
 10
-1.2027
 20
-0.293
 30
98.8055
 70
192
 0
VERTEX
 8
FULGOR
 10
-1.2167
 20
-0.293
 30
98.7975
 70
192
 0
VERTEX
 8
FULGOR
 10
-1.0152
 20
-0.293
 30
98.8063
 70
192
 0
VERTEX
 8
FULGOR
 10
-1.0085
 20
-0.293
 30
98.8235
 70
192
 0
VERTEX
 8
FULGOR
 10
-1.0039
 20
-0.293
 30
98.8421
 70
192
 0
VERTEX
 8
FULGOR
 10
-1.1556
 20
-0.293
 30
99.1653
 70
192
 0
VERTEX
 8
FULGOR
 10
-1.1556
 20
-0.293
 30
98.881
 70
192
 0
VERTEX
 8
FULGOR
 10
-1.4934
 20
-0.293
 30
98.768
 70
192
 0
VERTEX
 8
FULGOR
 10
-1.2386
 20
-0.293
 30
98.7878
 70
192
 0
VERTEX
 8
FULGOR
 10
-1.5666
 20
-0.293
 30
98.7817
 70
192
 0
VERTEX
 8
FULGOR
 10
-1.5893
 20
-0.293
 30
98.7898
 70
192
 0
VERTEX
 8
FULGOR
 10
-1.2641
 20
-0.293
 30
98.7795
 70
192
 0
VERTEX
 8
FULGOR
 10
-1.3014
 20
-0.293
 30
98.7714
 70
192
 0
VERTEX
 8
FULGOR
 10
-1.345
 20
-0.293
 30
98.7661
 70
192
 0
VERTEX
 8
FULGOR
 10
-1.6337
 20
-0.293
 30
98.8201
 70
192
 0
VERTEX
 8
FULGOR
 10
-1.639
 20
-0.293
 30
98.8269
 70
192
 0
VERTEX
 8
FULGOR
 10
-1.6437
 20
-0.293
 30
98.834
 70
192
 0
VERTEX
 8
FULGOR
 10
-1.6475
 20
-0.293
 30
98.8415
 70
192
 0
VERTEX
 8
FULGOR
 10
-1.6506
 20
-0.293
 30
98.8494
 70
192
 0
VERTEX
 8
FULGOR
 10
-1.4058
 20
-0.293
 30
98.7638
 70
192
 0
VERTEX
 8
FULGOR
 10
-1.6553
 20
-0.293
 30
98.8708
 70
192
 0
VERTEX
 8
FULGOR
 10
-1.656
 20
-0.293
 30
98.8848
 70
192
 0
VERTEX
 8
FULGOR
 10
-1.656
 20
-0.293
 30
99.1653
 70
192
 0
VERTEX
 8
FULGOR
 10
-1.5402
 20
-0.293
 30
98.7751
 70
192
 0
VERTEX
 8
FULGOR
 10
-1.6039
 20
-0.293
 30
98.797
 70
192
 0
VERTEX
 8
FULGOR
 10
-1.6166
 20
-0.293
 30
98.8049
 70
192
 0
VERTEX
 8
FULGOR
 10
-1.6275
 20
-0.293
 30
98.8138
 70
192
 0
VERTEX
 8
FULGOR
 10
-0.6896
 20
-0.293
 30
98.7749
 70
192
 0
VERTEX
 8
FULGOR
 10
-0.6896
 20
-0.293
 30
99.1653
 70
192
 0
VERTEX
 8
FULGOR
 10
0.5393
 20
-0.293
 30
99.1191
 70
192
 0
VERTEX
 8
FULGOR
 10
-1.653
 20
-0.293
 30
98.8577
 70
192
 0
VERTEX
 8
FULGOR
 10
-0.8444
 20
-0.293
 30
99.1653
 70
192
 0
VERTEX
 8
FULGOR
 10
0.2333
 20
-0.293
 30
99.1649
 70
192
 0
VERTEX
 8
FULGOR
 10
-0.8444
 20
-0.293
 30
98.6642
 70
192
 0
VERTEX
 8
FULGOR
 10
-0.3099
 20
-0.293
 30
98.6642
 70
192
 0
VERTEX
 8
FULGOR
 10
-0.3099
 20
-0.293
 30
98.7749
 70
192
 0
VERTEX
 8
FULGOR
 10
0.452
 20
-0.293
 30
99.1389
 70
192
 0
VERTEX
 8
FULGOR
 10
0.3594
 20
-0.293
 30
99.1536
 70
192
 0
VERTEX
 8
FULGOR
 10
0.163
 20
-0.293
 30
99.1647
 70
192
 0
VERTEX
 8
FULGOR
 10
-0.1085
 20
-0.293
 30
99.0889
 70
192
 0
VERTEX
 8
FULGOR
 10
-0.1348
 20
-0.293
 30
99.0717
 70
192
 0
VERTEX
 8
FULGOR
 10
-0.1571
 20
-0.293
 30
99.0539
 70
192
 0
VERTEX
 8
FULGOR
 10
-0.176
 20
-0.293
 30
99.0355
 70
192
 0
VERTEX
 8
FULGOR
 10
0.0992
 20
-0.293
 30
99.1583
 70
192
 0
VERTEX
 8
FULGOR
 10
0.0425
 20
-0.293
 30
99.1474
 70
192
 0
VERTEX
 8
FULGOR
 10
-0.0132
 20
-0.293
 30
99.1314
 70
192
 0
VERTEX
 8
FULGOR
 10
-0.2184
 20
-0.293
 30
98.9676
 70
192
 0
VERTEX
 8
FULGOR
 10
-0.2229
 20
-0.293
 30
98.9532
 70
192
 0
VERTEX
 8
FULGOR
 10
-0.0635
 20
-0.293
 30
99.1118
 70
192
 0
VERTEX
 8
FULGOR
 10
-0.0892
 20
-0.293
 30
99.0994
 70
192
 0
VERTEX
 8
FULGOR
 10
-0.1907
 20
-0.293
 30
99.018
 70
192
 0
VERTEX
 8
FULGOR
 10
-0.2272
 20
-0.293
 30
98.8945
 70
192
 0
VERTEX
 8
FULGOR
 10
-0.2014
 20
-0.293
 30
99.0025
 70
192
 0
VERTEX
 8
FULGOR
 10
-0.2108
 20
-0.293
 30
98.9857
 70
192
 0
VERTEX
 8
FULGOR
 10
-0.2261
 20
-0.293
 30
98.938
 70
192
 0
VERTEX
 8
FULGOR
 10
-0.2274
 20
-0.293
 30
98.9275
 70
192
 0
VERTEX
 8
FULGOR
 10
-0.2282
 20
-0.293
 30
98.9111
 70
192
 0
VERTEX
 8
FULGOR
 10
-0.2243
 20
-0.293
 30
98.8783
 70
192
 0
VERTEX
 8
FULGOR
 10
-0.1593
 20
-0.293
 30
98.7781
 70
192
 0
VERTEX
 8
FULGOR
 10
-0.1347
 20
-0.293
 30
98.7583
 70
192
 0
VERTEX
 8
FULGOR
 10
-0.2196
 20
-0.293
 30
98.8625
 70
192
 0
VERTEX
 8
FULGOR
 10
-0.0668
 20
-0.293
 30
98.7184
 70
192
 0
VERTEX
 8
FULGOR
 10
-0.0296
 20
-0.293
 30
98.7029
 70
192
 0
VERTEX
 8
FULGOR
 10
-0.2132
 20
-0.293
 30
98.8472
 70
192
 0
VERTEX
 8
FULGOR
 10
-0.2052
 20
-0.293
 30
98.8323
 70
192
 0
VERTEX
 8
FULGOR
 10
0.1454
 20
-0.293
 30
98.6667
 70
192
 0
VERTEX
 8
FULGOR
 10
0.1937
 20
-0.293
 30
98.6644
 70
192
 0
VERTEX
 8
FULGOR
 10
0.2333
 20
-0.293
 30
98.6646
 70
192
 0
VERTEX
 8
FULGOR
 10
0.2961
 20
-0.293
 30
98.6683
 70
192
 0
VERTEX
 8
FULGOR
 10
-0.1922
 20
-0.293
 30
98.8133
 70
192
 0
VERTEX
 8
FULGOR
 10
-0.1768
 20
-0.293
 30
98.7952
 70
192
 0
VERTEX
 8
FULGOR
 10
-0.1021
 20
-0.293
 30
98.7369
 70
192
 0
VERTEX
 8
FULGOR
 10
0.3616
 20
-0.293
 30
98.9243
 70
192
 0
VERTEX
 8
FULGOR
 10
0.021
 20
-0.293
 30
98.6871
 70
192
 0
VERTEX
 8
FULGOR
 10
0.0768
 20
-0.293
 30
98.6751
 70
192
 0
VERTEX
 8
FULGOR
 10
0.374
 20
-0.293
 30
98.6785
 70
192
 0
VERTEX
 8
FULGOR
 10
0.5393
 20
-0.293
 30
98.7103
 70
192
 0
VERTEX
 8
FULGOR
 10
0.1881
 20
-0.293
 30
98.7672
 70
192
 0
VERTEX
 8
FULGOR
 10
0.1541
 20
-0.293
 30
98.7699
 70
192
 0
VERTEX
 8
FULGOR
 10
0.5393
 20
-0.293
 30
98.9243
 70
192
 0
VERTEX
 8
FULGOR
 10
0.0905
 20
-0.293
 30
98.7841
 70
192
 0
VERTEX
 8
FULGOR
 10
0.0674
 20
-0.293
 30
98.7931
 70
192
 0
VERTEX
 8
FULGOR
 10
0.3615
 20
-0.293
 30
98.7776
 70
192
 0
VERTEX
 8
FULGOR
 10
0.3413
 20
-0.293
 30
98.7739
 70
192
 0
VERTEX
 8
FULGOR
 10
0.014
 20
-0.293
 30
98.827
 70
192
 0
VERTEX
 8
FULGOR
 10
0.2856
 20
-0.293
 30
98.7682
 70
192
 0
VERTEX
 8
FULGOR
 10
0.2446
 20
-0.293
 30
98.7666
 70
192
 0
VERTEX
 8
FULGOR
 10
0.1214
 20
-0.293
 30
98.7755
 70
192
 0
VERTEX
 8
FULGOR
 10
0.0461
 20
-0.293
 30
98.8039
 70
192
 0
VERTEX
 8
FULGOR
 10
-0.0252
 20
-0.293
 30
98.8893
 70
192
 0
VERTEX
 8
FULGOR
 10
-0.0276
 20
-0.293
 30
98.8999
 70
192
 0
VERTEX
 8
FULGOR
 10
-0.029
 20
-0.293
 30
98.9109
 70
192
 0
VERTEX
 8
FULGOR
 10
-0.0295
 20
-0.293
 30
98.9223
 70
192
 0
VERTEX
 8
FULGOR
 10
-0.0289
 20
-0.293
 30
98.9336
 70
192
 0
VERTEX
 8
FULGOR
 10
0.0269
 20
-0.293
 30
98.8164
 70
192
 0
VERTEX
 8
FULGOR
 10
0.0026
 20
-0.293
 30
98.8386
 70
192
 0
VERTEX
 8
FULGOR
 10
-0.0073
 20
-0.293
 30
98.8511
 70
192
 0
VERTEX
 8
FULGOR
 10
-0.0148
 20
-0.293
 30
98.9739
 70
192
 0
VERTEX
 8
FULGOR
 10
-0.0087
 20
-0.293
 30
98.9827
 70
192
 0
VERTEX
 8
FULGOR
 10
-0.0018
 20
-0.293
 30
98.9911
 70
192
 0
VERTEX
 8
FULGOR
 10
-0.0155
 20
-0.293
 30
98.8646
 70
192
 0
VERTEX
 8
FULGOR
 10
0.0233
 20
-0.293
 30
99.0131
 70
192
 0
VERTEX
 8
FULGOR
 10
0.038
 20
-0.293
 30
99.0225
 70
192
 0
VERTEX
 8
FULGOR
 10
-0.022
 20
-0.293
 30
98.8791
 70
192
 0
VERTEX
 8
FULGOR
 10
0.0873
 20
-0.293
 30
99.0446
 70
192
 0
VERTEX
 8
FULGOR
 10
0.1164
 20
-0.293
 30
99.0528
 70
192
 0
VERTEX
 8
FULGOR
 10
-0.027
 20
-0.293
 30
98.9444
 70
192
 0
VERTEX
 8
FULGOR
 10
0.1674
 20
-0.293
 30
99.0609
 70
192
 0
VERTEX
 8
FULGOR
 10
-0.024
 20
-0.293
 30
98.9548
 70
192
 0
VERTEX
 8
FULGOR
 10
0.2919
 20
-0.293
 30
99.0567
 70
192
 0
VERTEX
 8
FULGOR
 10
-0.0199
 20
-0.293
 30
98.9646
 70
192
 0
VERTEX
 8
FULGOR
 10
0.5393
 20
-0.293
 30
99.0122
 70
192
 0
VERTEX
 8
FULGOR
 10
0.6965
 20
-0.293
 30
98.9147
 70
192
 0
VERTEX
 8
FULGOR
 10
0.6978
 20
-0.293
 30
98.8924
 70
192
 0
VERTEX
 8
FULGOR
 10
0.01
 20
-0.293
 30
99.0026
 70
192
 0
VERTEX
 8
FULGOR
 10
0.0591
 20
-0.293
 30
99.0335
 70
192
 0
VERTEX
 8
FULGOR
 10
0.7162
 20
-0.293
 30
98.8329
 70
192
 0
VERTEX
 8
FULGOR
 10
0.7266
 20
-0.293
 30
98.8154
 70
192
 0
VERTEX
 8
FULGOR
 10
0.739
 20
-0.293
 30
98.7991
 70
192
 0
VERTEX
 8
FULGOR
 10
0.7531
 20
-0.293
 30
98.7839
 70
192
 0
VERTEX
 8
FULGOR
 10
0.7773
 20
-0.293
 30
98.763
 70
192
 0
VERTEX
 8
FULGOR
 10
0.1509
 20
-0.293
 30
99.0591
 70
192
 0
VERTEX
 8
FULGOR
 10
0.1881
 20
-0.293
 30
99.0617
 70
192
 0
VERTEX
 8
FULGOR
 10
0.3884
 20
-0.293
 30
99.0429
 70
192
 0
VERTEX
 8
FULGOR
 10
0.7016
 20
-0.293
 30
98.8714
 70
192
 0
VERTEX
 8
FULGOR
 10
0.7078
 20
-0.293
 30
98.8515
 70
192
 0
VERTEX
 8
FULGOR
 10
1.0768
 20
-0.293
 30
98.6682
 70
192
 0
VERTEX
 8
FULGOR
 10
1.1415
 20
-0.293
 30
98.6656
 70
192
 0
VERTEX
 8
FULGOR
 10
0.8046
 20
-0.293
 30
98.7445
 70
192
 0
VERTEX
 8
FULGOR
 10
1.3001
 20
-0.293
 30
98.6809
 70
192
 0
VERTEX
 8
FULGOR
 10
0.8345
 20
-0.293
 30
98.7282
 70
192
 0
VERTEX
 8
FULGOR
 10
0.8778
 20
-0.293
 30
98.7098
 70
192
 0
VERTEX
 8
FULGOR
 10
0.9354
 20
-0.293
 30
98.6917
 70
192
 0
VERTEX
 8
FULGOR
 10
1.0067
 20
-0.293
 30
98.6767
 70
192
 0
VERTEX
 8
FULGOR
 10
1.2177
 20
-0.293
 30
98.6692
 70
192
 0
VERTEX
 8
FULGOR
 10
1.5371
 20
-0.293
 30
98.7914
 70
192
 0
VERTEX
 8
FULGOR
 10
1.371
 20
-0.293
 30
98.6983
 70
192
 0
VERTEX
 8
FULGOR
 10
1.4272
 20
-0.293
 30
98.7186
 70
192
 0
VERTEX
 8
FULGOR
 10
1.4686
 20
-0.293
 30
98.7389
 70
192
 0
VERTEX
 8
FULGOR
 10
1.4969
 20
-0.293
 30
98.7566
 70
192
 0
VERTEX
 8
FULGOR
 10
1.5222
 20
-0.293
 30
98.7767
 70
192
 0
VERTEX
 8
FULGOR
 10
1.5852
 20
-0.293
 30
98.8923
 70
192
 0
VERTEX
 8
FULGOR
 10
1.5865
 20
-0.293
 30
98.9146
 70
192
 0
VERTEX
 8
FULGOR
 10
1.5852
 20
-0.293
 30
98.9368
 70
192
 0
VERTEX
 8
FULGOR
 10
1.5815
 20
-0.293
 30
98.9578
 70
192
 0
VERTEX
 8
FULGOR
 10
1.5504
 20
-0.293
 30
98.8071
 70
192
 0
VERTEX
 8
FULGOR
 10
1.5618
 20
-0.293
 30
98.824
 70
192
 0
VERTEX
 8
FULGOR
 10
1.5712
 20
-0.293
 30
98.842
 70
192
 0
VERTEX
 8
FULGOR
 10
1.5442
 20
-0.293
 30
99.03
 70
192
 0
VERTEX
 8
FULGOR
 10
1.5301
 20
-0.293
 30
99.0453
 70
192
 0
VERTEX
 8
FULGOR
 10
1.5059
 20
-0.293
 30
99.0661
 70
192
 0
VERTEX
 8
FULGOR
 10
1.4786
 20
-0.293
 30
99.0847
 70
192
 0
VERTEX
 8
FULGOR
 10
1.4486
 20
-0.293
 30
99.101
 70
192
 0
VERTEX
 8
FULGOR
 10
1.4054
 20
-0.293
 30
99.1195
 70
192
 0
VERTEX
 8
FULGOR
 10
1.5785
 20
-0.293
 30
98.8612
 70
192
 0
VERTEX
 8
FULGOR
 10
1.5836
 20
-0.293
 30
98.8816
 70
192
 0
VERTEX
 8
FULGOR
 10
1.5753
 20
-0.293
 30
98.9776
 70
192
 0
VERTEX
 8
FULGOR
 10
1.567
 20
-0.293
 30
98.9962
 70
192
 0
VERTEX
 8
FULGOR
 10
1.0654
 20
-0.293
 30
99.1602
 70
192
 0
VERTEX
 8
FULGOR
 10
1.5565
 20
-0.293
 30
99.0137
 70
192
 0
VERTEX
 8
FULGOR
 10
1.3478
 20
-0.293
 30
99.1376
 70
192
 0
VERTEX
 8
FULGOR
 10
1.2764
 20
-0.293
 30
99.1527
 70
192
 0
VERTEX
 8
FULGOR
 10
1.2063
 20
-0.293
 30
99.1612
 70
192
 0
VERTEX
 8
FULGOR
 10
0.7859
 20
-0.293
 30
99.0728
 70
192
 0
VERTEX
 8
FULGOR
 10
0.7606
 20
-0.293
 30
99.0528
 70
192
 0
VERTEX
 8
FULGOR
 10
0.7457
 20
-0.293
 30
99.0381
 70
192
 0
VERTEX
 8
FULGOR
 10
0.7324
 20
-0.293
 30
99.0223
 70
192
 0
VERTEX
 8
FULGOR
 10
0.721
 20
-0.293
 30
99.0054
 70
192
 0
VERTEX
 8
FULGOR
 10
0.7116
 20
-0.293
 30
98.9873
 70
192
 0
VERTEX
 8
FULGOR
 10
0.7043
 20
-0.293
 30
98.9681
 70
192
 0
VERTEX
 8
FULGOR
 10
1.1415
 20
-0.293
 30
99.1638
 70
192
 0
VERTEX
 8
FULGOR
 10
0.6977
 20
-0.293
 30
98.937
 70
192
 0
VERTEX
 8
FULGOR
 10
0.8964
 20
-0.293
 30
98.9146
 70
192
 0
VERTEX
 8
FULGOR
 10
0.8969
 20
-0.293
 30
98.9025
 70
192
 0
VERTEX
 8
FULGOR
 10
0.9829
 20
-0.293
 30
99.1485
 70
192
 0
VERTEX
 8
FULGOR
 10
0.9119
 20
-0.293
 30
99.1312
 70
192
 0
VERTEX
 8
FULGOR
 10
0.8556
 20
-0.293
 30
99.1109
 70
192
 0
VERTEX
 8
FULGOR
 10
0.8142
 20
-0.293
 30
99.0906
 70
192
 0
VERTEX
 8
FULGOR
 10
0.6993
 20
-0.293
 30
98.9477
 70
192
 0
VERTEX
 8
FULGOR
 10
0.9209
 20
-0.293
 30
98.8416
 70
192
 0
VERTEX
 8
FULGOR
 10
0.9281
 20
-0.293
 30
98.8333
 70
192
 0
VERTEX
 8
FULGOR
 10
0.8985
 20
-0.293
 30
98.891
 70
192
 0
VERTEX
 8
FULGOR
 10
0.9011
 20
-0.293
 30
98.88
 70
192
 0
VERTEX
 8
FULGOR
 10
0.9047
 20
-0.293
 30
98.8696
 70
192
 0
VERTEX
 8
FULGOR
 10
0.9092
 20
-0.293
 30
98.8597
 70
192
 0
VERTEX
 8
FULGOR
 10
1.0171
 20
-0.293
 30
98.7833
 70
192
 0
VERTEX
 8
FULGOR
 10
1.051
 20
-0.293
 30
98.7752
 70
192
 0
VERTEX
 8
FULGOR
 10
0.9146
 20
-0.293
 30
98.8504
 70
192
 0
VERTEX
 8
FULGOR
 10
1.1415
 20
-0.293
 30
98.7673
 70
192
 0
VERTEX
 8
FULGOR
 10
1.1956
 20
-0.293
 30
98.77
 70
192
 0
VERTEX
 8
FULGOR
 10
0.9402
 20
-0.293
 30
98.8218
 70
192
 0
VERTEX
 8
FULGOR
 10
1.2724
 20
-0.293
 30
98.7853
 70
192
 0
VERTEX
 8
FULGOR
 10
1.2968
 20
-0.293
 30
98.7943
 70
192
 0
VERTEX
 8
FULGOR
 10
1.319
 20
-0.293
 30
98.8053
 70
192
 0
VERTEX
 8
FULGOR
 10
0.9541
 20
-0.293
 30
98.8115
 70
192
 0
VERTEX
 8
FULGOR
 10
1.3472
 20
-0.293
 30
98.8256
 70
192
 0
VERTEX
 8
FULGOR
 10
0.9694
 20
-0.293
 30
98.8023
 70
192
 0
VERTEX
 8
FULGOR
 10
0.9922
 20
-0.293
 30
98.7918
 70
192
 0
VERTEX
 8
FULGOR
 10
1.3713
 20
-0.293
 30
98.855
 70
192
 0
VERTEX
 8
FULGOR
 10
1.095
 20
-0.293
 30
98.7693
 70
192
 0
VERTEX
 8
FULGOR
 10
1.239
 20
-0.293
 30
98.7766
 70
192
 0
VERTEX
 8
FULGOR
 10
1.3339
 20
-0.293
 30
98.8149
 70
192
 0
VERTEX
 8
FULGOR
 10
1.3856
 20
-0.293
 30
98.8967
 70
192
 0
VERTEX
 8
FULGOR
 10
1.3862
 20
-0.293
 30
98.9025
 70
192
 0
VERTEX
 8
FULGOR
 10
1.3868
 20
-0.293
 30
98.9146
 70
192
 0
VERTEX
 8
FULGOR
 10
1.3862
 20
-0.293
 30
98.9266
 70
192
 0
VERTEX
 8
FULGOR
 10
1.3588
 20
-0.293
 30
98.8374
 70
192
 0
VERTEX
 8
FULGOR
 10
1.3655
 20
-0.293
 30
98.846
 70
192
 0
VERTEX
 8
FULGOR
 10
1.3784
 20
-0.293
 30
98.9594
 70
192
 0
VERTEX
 8
FULGOR
 10
1.3739
 20
-0.293
 30
98.9693
 70
192
 0
VERTEX
 8
FULGOR
 10
1.3763
 20
-0.293
 30
98.8646
 70
192
 0
VERTEX
 8
FULGOR
 10
1.3804
 20
-0.293
 30
98.8748
 70
192
 0
VERTEX
 8
FULGOR
 10
1.355
 20
-0.293
 30
98.9956
 70
192
 0
VERTEX
 8
FULGOR
 10
1.3835
 20
-0.293
 30
98.8855
 70
192
 0
VERTEX
 8
FULGOR
 10
1.3846
 20
-0.293
 30
98.9381
 70
192
 0
VERTEX
 8
FULGOR
 10
1.3136
 20
-0.293
 30
99.0265
 70
192
 0
VERTEX
 8
FULGOR
 10
1.2909
 20
-0.293
 30
99.0369
 70
192
 0
VERTEX
 8
FULGOR
 10
1.382
 20
-0.293
 30
98.949
 70
192
 0
VERTEX
 8
FULGOR
 10
1.3685
 20
-0.293
 30
98.9786
 70
192
 0
VERTEX
 8
FULGOR
 10
1.3622
 20
-0.293
 30
98.9874
 70
192
 0
VERTEX
 8
FULGOR
 10
1.3429
 20
-0.293
 30
99.0071
 70
192
 0
VERTEX
 8
FULGOR
 10
1.0875
 20
-0.293
 30
99.0587
 70
192
 0
VERTEX
 8
FULGOR
 10
1.0441
 20
-0.293
 30
99.0522
 70
192
 0
VERTEX
 8
FULGOR
 10
1.0108
 20
-0.293
 30
99.0436
 70
192
 0
VERTEX
 8
FULGOR
 10
1.329
 20
-0.293
 30
99.0173
 70
192
 0
VERTEX
 8
FULGOR
 10
1.2659
 20
-0.293
 30
99.0455
 70
192
 0
VERTEX
 8
FULGOR
 10
1.232
 20
-0.293
 30
99.0535
 70
192
 0
VERTEX
 8
FULGOR
 10
1.188
 20
-0.293
 30
99.0594
 70
192
 0
VERTEX
 8
FULGOR
 10
1.1415
 20
-0.293
 30
99.0613
 70
192
 0
VERTEX
 8
FULGOR
 10
0.9863
 20
-0.293
 30
99.0346
 70
192
 0
VERTEX
 8
FULGOR
 10
0.9642
 20
-0.293
 30
99.0236
 70
192
 0
VERTEX
 8
FULGOR
 10
0.9493
 20
-0.293
 30
99.0141
 70
192
 0
VERTEX
 8
FULGOR
 10
0.936
 20
-0.293
 30
99.0035
 70
192
 0
VERTEX
 8
FULGOR
 10
0.9244
 20
-0.293
 30
98.9917
 70
192
 0
VERTEX
 8
FULGOR
 10
0.9177
 20
-0.293
 30
98.9831
 70
192
 0
VERTEX
 8
FULGOR
 10
0.9118
 20
-0.293
 30
98.9741
 70
192
 0
VERTEX
 8
FULGOR
 10
0.9069
 20
-0.293
 30
98.9645
 70
192
 0
VERTEX
 8
FULGOR
 10
0.9028
 20
-0.293
 30
98.9544
 70
192
 0
VERTEX
 8
FULGOR
 10
0.8997
 20
-0.293
 30
98.9437
 70
192
 0
VERTEX
 8
FULGOR
 10
1.9925
 20
-0.293
 30
98.876
 70
192
 0
VERTEX
 8
FULGOR
 10
0.8976
 20
-0.293
 30
98.9324
 70
192
 0
VERTEX
 8
FULGOR
 10
0.8969
 20
-0.293
 30
98.9266
 70
192
 0
VERTEX
 8
FULGOR
 10
1.7436
 20
-0.293
 30
98.6641
 70
192
 0
VERTEX
 8
FULGOR
 10
1.8983
 20
-0.293
 30
98.6641
 70
192
 0
VERTEX
 8
FULGOR
 10
1.8983
 20
-0.293
 30
98.876
 70
192
 0
VERTEX
 8
FULGOR
 10
2.1017
 20
-0.293
 30
98.8258
 70
192
 0
VERTEX
 8
FULGOR
 10
2.1137
 20
-0.293
 30
98.813
 70
192
 0
VERTEX
 8
FULGOR
 10
2.2224
 20
-0.293
 30
98.6641
 70
192
 0
VERTEX
 8
FULGOR
 10
2.4985
 20
-0.293
 30
98.6641
 70
192
 0
VERTEX
 8
FULGOR
 10
2.4614
 20
-0.293
 30
98.6835
 70
192
 0
VERTEX
 8
FULGOR
 10
2.0437
 20
-0.293
 30
98.8656
 70
192
 0
VERTEX
 8
FULGOR
 10
2.0564
 20
-0.293
 30
98.8597
 70
192
 0
VERTEX
 8
FULGOR
 10
2.4076
 20
-0.293
 30
98.7206
 70
192
 0
VERTEX
 8
FULGOR
 10
2.3673
 20
-0.293
 30
98.7582
 70
192
 0
VERTEX
 8
FULGOR
 10
1.7436
 20
-0.293
 30
98.965
 70
192
 0
VERTEX
 8
FULGOR
 10
2.3161
 20
-0.293
 30
98.8273
 70
192
 0
VERTEX
 8
FULGOR
 10
2.2912
 20
-0.293
 30
98.8555
 70
192
 0
VERTEX
 8
FULGOR
 10
2.2675
 20
-0.293
 30
98.8756
 70
192
 0
VERTEX
 8
FULGOR
 10
2.0865
 20
-0.293
 30
98.8395
 70
192
 0
VERTEX
 8
FULGOR
 10
1.2601
 20
-0.293
 30
98.6752
 70
192
 0
VERTEX
 8
FULGOR
 10
2.2108
 20
-0.293
 30
98.9062
 70
192
 0
VERTEX
 8
FULGOR
 10
2.4302
 20
-0.293
 30
98.7031
 70
192
 0
VERTEX
 8
FULGOR
 10
2.2857
 20
-0.293
 30
98.9376
 70
192
 0
VERTEX
 8
FULGOR
 10
2.2448
 20
-0.293
 30
98.8905
 70
192
 0
VERTEX
 8
FULGOR
 10
2.3122
 20
-0.293
 30
98.9593
 70
192
 0
VERTEX
 8
FULGOR
 10
2.2273
 20
-0.293
 30
98.8998
 70
192
 0
VERTEX
 8
FULGOR
 10
2.337
 20
-0.293
 30
98.9978
 70
192
 0
VERTEX
 8
FULGOR
 10
2.3425
 20
-0.293
 30
99.0191
 70
192
 0
VERTEX
 8
FULGOR
 10
2.2468
 20
-0.293
 30
98.9175
 70
192
 0
VERTEX
 8
FULGOR
 10
2.3402
 20
-0.293
 30
99.0604
 70
192
 0
VERTEX
 8
FULGOR
 10
2.331
 20
-0.293
 30
99.0809
 70
192
 0
VERTEX
 8
FULGOR
 10
2.3169
 20
-0.293
 30
99.0988
 70
192
 0
VERTEX
 8
FULGOR
 10
2.2934
 20
-0.293
 30
99.1174
 70
192
 0
VERTEX
 8
FULGOR
 10
2.3278
 20
-0.293
 30
98.9791
 70
192
 0
VERTEX
 8
FULGOR
 10
2.18
 20
-0.293
 30
99.157
 70
192
 0
VERTEX
 8
FULGOR
 10
2.1346
 20
-0.293
 30
99.163
 70
192
 0
VERTEX
 8
FULGOR
 10
2.3437
 20
-0.293
 30
99.037
 70
192
 0
VERTEX
 8
FULGOR
 10
1.8983
 20
-0.293
 30
99.0761
 70
192
 0
VERTEX
 8
FULGOR
 10
2.2528
 20
-0.293
 30
99.1376
 70
192
 0
VERTEX
 8
FULGOR
 10
2.0903
 20
-0.293
 30
99.1653
 70
192
 0
VERTEX
 8
FULGOR
 10
1.7436
 20
-0.293
 30
99.1653
 70
192
 0
VERTEX
 8
FULGOR
 10
1.8983
 20
-0.293
 30
98.9652
 70
192
 0
VERTEX
 8
FULGOR
 10
2.0394
 20
-0.293
 30
98.965
 70
192
 0
VERTEX
 8
FULGOR
 10
2.0796
 20
-0.293
 30
98.9683
 70
192
 0
VERTEX
 8
FULGOR
 10
2.125
 20
-0.293
 30
98.9846
 70
192
 0
VERTEX
 8
FULGOR
 10
2.135
 20
-0.293
 30
98.9927
 70
192
 0
VERTEX
 8
FULGOR
 10
2.1411
 20
-0.293
 30
99.0005
 70
192
 0
VERTEX
 8
FULGOR
 10
2.1466
 20
-0.293
 30
99.0278
 70
192
 0
VERTEX
 8
FULGOR
 10
2.144
 20
-0.293
 30
99.0376
 70
192
 0
VERTEX
 8
FULGOR
 10
2.0714
 20
-0.293
 30
99.0744
 70
192
 0
VERTEX
 8
FULGOR
 10
2.1217
 20
-0.293
 30
99.0604
 70
192
 0
VERTEX
 8
FULGOR
 10
2.0537
 20
-0.293
 30
99.0758
 70
192
 0
VERTEX
 8
FULGOR
 10
2.1036
 20
-0.293
 30
99.0679
 70
192
 0
VERTEX
 8
FULGOR
 10
2.0892
 20
-0.293
 30
99.0715
 70
192
 0
VERTEX
 8
FULGOR
 10
0.9706
 20
-0.293
 30
98.6843
 70
192
 0
VERTEX
 8
FULGOR
 10
0.9095
 20
-0.293
 30
98.6998
 70
192
 0
VERTEX
 8
FULGOR
 10
2.0347
 20
-0.293
 30
99.0761
 70
192
 0
VERTEX
 8
FULGOR
 10
2.0316
 20
-0.293
 30
99.1653
 70
192
 0
VERTEX
 8
FULGOR
 10
2.1388
 20
-0.293
 30
99.046
 70
192
 0
VERTEX
 8
FULGOR
 10
2.132
 20
-0.293
 30
99.0531
 70
192
 0
VERTEX
 8
FULGOR
 10
2.1469
 20
-0.293
 30
99.0184
 70
192
 0
VERTEX
 8
FULGOR
 10
2.1451
 20
-0.293
 30
99.0093
 70
192
 0
VERTEX
 8
FULGOR
 10
1.9924
 20
-0.293
 30
98.9651
 70
192
 0
VERTEX
 8
FULGOR
 10
2.2167
 20
-0.293
 30
98.6719
 70
192
 0
VERTEX
 8
FULGOR
 10
2.2088
 20
-0.293
 30
98.6829
 70
192
 0
VERTEX
 8
FULGOR
 10
0.1373
 20
-0.293
 30
98.7728
 70
192
 0
VERTEX
 8
FULGOR
 10
2.1946
 20
-0.293
 30
98.7025
 70
192
 0
VERTEX
 8
FULGOR
 10
2.1814
 20
-0.293
 30
98.7208
 70
192
 0
VERTEX
 8
FULGOR
 10
0.1705
 20
-0.293
 30
98.7686
 70
192
 0
VERTEX
 8
FULGOR
 10
1.7436
 20
-0.293
 30
98.8758
 70
192
 0
VERTEX
 8
FULGOR
 10
2.1459
 20
-0.293
 30
98.7698
 70
192
 0
VERTEX
 8
FULGOR
 10
2.1326
 20
-0.293
 30
98.7882
 70
192
 0
VERTEX
 8
FULGOR
 10
0
 20
0
 30
0
 70
128
 71
244
 72
245
 73
188
 74
3
 0
VERTEX
 8
FULGOR
 10
0
 20
0
 30
0
 70
128
 71
137
 72
135
 73
127
 74
120
 0
VERTEX
 8
FULGOR
 10
0
 20
0
 30
0
 70
128
 71
287
 72
288
 73
220
 74
219
 0
VERTEX
 8
FULGOR
 10
0
 20
0
 30
0
 70
128
 71
135
 72
134
 73
128
 74
127
 0
VERTEX
 8
FULGOR
 10
0
 20
0
 30
0
 70
128
 71
145
 72
144
 73
106
 74
99
 0
VERTEX
 8
FULGOR
 10
0
 20
0
 30
0
 70
128
 71
152
 72
148
 73
115
 74
112
 0
VERTEX
 8
FULGOR
 10
0
 20
0
 30
0
 70
128
 71
288
 72
289
 73
221
 74
220
 0
VERTEX
 8
FULGOR
 10
0
 20
0
 30
0
 70
128
 71
155
 72
152
 73
112
 74
109
 0
VERTEX
 8
FULGOR
 10
0
 20
0
 30
0
 70
128
 71
141
 72
155
 73
109
 74
103
 0
VERTEX
 8
FULGOR
 10
0
 20
0
 30
0
 70
128
 71
289
 72
290
 73
230
 74
221
 0
VERTEX
 8
FULGOR
 10
0
 20
0
 30
0
 70
128
 71
290
 72
292
 73
223
 74
230
 0
VERTEX
 8
FULGOR
 10
0
 20
0
 30
0
 70
128
 71
142
 72
141
 73
103
 74
108
 0
VERTEX
 8
FULGOR
 10
0
 20
0
 30
0
 70
128
 71
143
 72
142
 73
108
 74
107
 0
VERTEX
 8
FULGOR
 10
0
 20
0
 30
0
 70
128
 71
144
 72
143
 73
107
 74
106
 0
VERTEX
 8
FULGOR
 10
0
 20
0
 30
0
 70
128
 71
254
 72
255
 73
207
 74
206
 0
VERTEX
 8
FULGOR
 10
0
 20
0
 30
0
 70
128
 71
265
 72
254
 73
206
 74
199
 0
VERTEX
 8
FULGOR
 10
0
 20
0
 30
0
 70
128
 71
263
 72
265
 73
199
 74
198
 0
VERTEX
 8
FULGOR
 10
0
 20
0
 30
0
 70
128
 71
251
 72
240
 73
179
 74
178
 0
VERTEX
 8
FULGOR
 10
0
 20
0
 30
0
 70
128
 71
5
 72
8
 73
7
 74
6
 0
VERTEX
 8
FULGOR
 10
0
 20
0
 30
0
 70
128
 71
8
 72
5
 73
4
 74
4
 0
VERTEX
 8
FULGOR
 10
0
 20
0
 30
0
 70
128
 71
8
 72
4
 73
13
 74
2
 0
VERTEX
 8
FULGOR
 10
0
 20
0
 30
0
 70
128
 71
237
 72
238
 73
185
 74
346
 0
VERTEX
 8
FULGOR
 10
0
 20
0
 30
0
 70
128
 71
339
 72
340
 73
321
 74
328
 0
VERTEX
 8
FULGOR
 10
0
 20
0
 30
0
 70
128
 71
161
 72
174
 73
84
 74
89
 0
VERTEX
 8
FULGOR
 10
0
 20
0
 30
0
 70
128
 71
174
 72
159
 73
90
 74
84
 0
VERTEX
 8
FULGOR
 10
0
 20
0
 30
0
 70
128
 71
249
 72
237
 73
346
 74
184
 0
VERTEX
 8
FULGOR
 10
0
 20
0
 30
0
 70
128
 71
248
 72
249
 73
184
 74
347
 0
VERTEX
 8
FULGOR
 10
0
 20
0
 30
0
 70
128
 71
159
 72
173
 73
95
 74
90
 0
VERTEX
 8
FULGOR
 10
0
 20
0
 30
0
 70
128
 71
173
 72
157
 73
96
 74
95
 0
VERTEX
 8
FULGOR
 10
0
 20
0
 30
0
 70
128
 71
246
 72
248
 73
347
 74
183
 0
VERTEX
 8
FULGOR
 10
0
 20
0
 30
0
 70
128
 71
362
 72
307
 73
305
 74
359
 0
VERTEX
 8
FULGOR
 10
0
 20
0
 30
0
 70
128
 71
151
 72
150
 73
94
 74
93
 0
VERTEX
 8
FULGOR
 10
0
 20
0
 30
0
 70
128
 71
353
 72
352
 73
319
 74
318
 0
VERTEX
 8
FULGOR
 10
0
 20
0
 30
0
 70
128
 71
175
 72
161
 73
89
 74
88
 0
VERTEX
 8
FULGOR
 10
0
 20
0
 30
0
 70
128
 71
253
 72
247
 73
190
 74
189
 0
VERTEX
 8
FULGOR
 10
0
 20
0
 30
0
 70
128
 71
153
 72
166
 73
92
 74
91
 0
VERTEX
 8
FULGOR
 10
0
 20
0
 30
0
 70
128
 71
166
 72
151
 73
93
 74
92
 0
VERTEX
 8
FULGOR
 10
0
 20
0
 30
0
 70
128
 71
273
 72
274
 73
226
 74
210
 0
VERTEX
 8
FULGOR
 10
0
 20
0
 30
0
 70
128
 71
163
 72
175
 73
88
 74
81
 0
VERTEX
 8
FULGOR
 10
0
 20
0
 30
0
 70
128
 71
167
 72
154
 73
101
 74
100
 0
VERTEX
 8
FULGOR
 10
0
 20
0
 30
0
 70
128
 71
154
 72
153
 73
91
 74
101
 0
VERTEX
 8
FULGOR
 10
0
 20
0
 30
0
 70
128
 71
274
 72
275
 73
227
 74
226
 0
VERTEX
 8
FULGOR
 10
0
 20
0
 30
0
 70
128
 71
13
 72
12
 73
2
 74
2
 0
VERTEX
 8
FULGOR
 10
0
 20
0
 30
0
 70
128
 71
13
 72
4
 73
15
 74
14
 0
VERTEX
 8
FULGOR
 10
0
 20
0
 30
0
 70
128
 71
16
 72
74
 73
73
 74
9
 0
VERTEX
 8
FULGOR
 10
0
 20
0
 30
0
 70
128
 71
73
 72
72
 73
10
 74
9
 0
VERTEX
 8
FULGOR
 10
0
 20
0
 30
0
 70
128
 71
72
 72
82
 73
11
 74
10
 0
VERTEX
 8
FULGOR
 10
0
 20
0
 30
0
 70
128
 71
82
 72
70
 73
18
 74
17
 0
VERTEX
 8
FULGOR
 10
0
 20
0
 30
0
 70
128
 71
58
 72
57
 73
40
 74
39
 0
VERTEX
 8
FULGOR
 10
0
 20
0
 30
0
 70
128
 71
82
 72
17
 73
11
 74
11
 0
VERTEX
 8
FULGOR
 10
0
 20
0
 30
0
 70
128
 71
43
 72
58
 73
39
 74
38
 0
VERTEX
 8
FULGOR
 10
0
 20
0
 30
0
 70
128
 71
70
 72
69
 73
20
 74
19
 0
VERTEX
 8
FULGOR
 10
0
 20
0
 30
0
 70
128
 71
70
 72
19
 73
18
 74
18
 0
VERTEX
 8
FULGOR
 10
0
 20
0
 30
0
 70
128
 71
69
 72
68
 73
27
 74
20
 0
VERTEX
 8
FULGOR
 10
0
 20
0
 30
0
 70
128
 71
68
 72
67
 73
29
 74
27
 0
VERTEX
 8
FULGOR
 10
0
 20
0
 30
0
 70
128
 71
67
 72
66
 73
30
 74
29
 0
VERTEX
 8
FULGOR
 10
0
 20
0
 30
0
 70
128
 71
66
 72
78
 73
31
 74
30
 0
VERTEX
 8
FULGOR
 10
0
 20
0
 30
0
 70
128
 71
78
 72
77
 73
32
 74
31
 0
VERTEX
 8
FULGOR
 10
0
 20
0
 30
0
 70
128
 71
32
 72
77
 73
76
 74
21
 0
VERTEX
 8
FULGOR
 10
0
 20
0
 30
0
 70
128
 71
76
 72
62
 73
21
 74
21
 0
VERTEX
 8
FULGOR
 10
0
 20
0
 30
0
 70
128
 71
62
 72
61
 73
22
 74
21
 0
VERTEX
 8
FULGOR
 10
0
 20
0
 30
0
 70
128
 71
61
 72
75
 73
22
 74
22
 0
VERTEX
 8
FULGOR
 10
0
 20
0
 30
0
 70
128
 71
75
 72
59
 73
23
 74
22
 0
VERTEX
 8
FULGOR
 10
0
 20
0
 30
0
 70
128
 71
23
 72
59
 73
71
 74
24
 0
VERTEX
 8
FULGOR
 10
0
 20
0
 30
0
 70
128
 71
275
 72
281
 73
228
 74
227
 0
VERTEX
 8
FULGOR
 10
0
 20
0
 30
0
 70
128
 71
157
 72
156
 73
97
 74
96
 0
VERTEX
 8
FULGOR
 10
0
 20
0
 30
0
 70
128
 71
291
 72
296
 73
333
 74
354
 0
VERTEX
 8
FULGOR
 10
0
 20
0
 30
0
 70
128
 71
281
 72
282
 73
229
 74
228
 0
VERTEX
 8
FULGOR
 10
0
 20
0
 30
0
 70
128
 71
282
 72
283
 73
215
 74
229
 0
VERTEX
 8
FULGOR
 10
0
 20
0
 30
0
 70
128
 71
283
 72
284
 73
216
 74
215
 0
VERTEX
 8
FULGOR
 10
0
 20
0
 30
0
 70
128
 71
129
 72
1
 73
118
 74
117
 0
VERTEX
 8
FULGOR
 10
0
 20
0
 30
0
 70
128
 71
238
 72
251
 73
178
 74
185
 0
VERTEX
 8
FULGOR
 10
0
 20
0
 30
0
 70
128
 71
245
 72
253
 73
189
 74
188
 0
VERTEX
 8
FULGOR
 10
0
 20
0
 30
0
 70
128
 71
337
 72
338
 73
325
 74
316
 0
VERTEX
 8
FULGOR
 10
0
 20
0
 30
0
 70
128
 71
336
 72
337
 73
316
 74
314
 0
VERTEX
 8
FULGOR
 10
0
 20
0
 30
0
 70
128
 71
241
 72
252
 73
311
 74
186
 0
VERTEX
 8
FULGOR
 10
0
 20
0
 30
0
 70
128
 71
24
 72
71
 73
65
 74
25
 0
VERTEX
 8
FULGOR
 10
0
 20
0
 30
0
 70
128
 71
65
 72
64
 73
25
 74
25
 0
VERTEX
 8
FULGOR
 10
0
 20
0
 30
0
 70
128
 71
156
 72
167
 73
100
 74
97
 0
VERTEX
 8
FULGOR
 10
0
 20
0
 30
0
 70
128
 71
149
 72
162
 73
104
 74
102
 0
VERTEX
 8
FULGOR
 10
0
 20
0
 30
0
 70
128
 71
64
 72
63
 73
26
 74
25
 0
VERTEX
 8
FULGOR
 10
0
 20
0
 30
0
 70
128
 71
162
 72
160
 73
105
 74
104
 0
VERTEX
 8
FULGOR
 10
0
 20
0
 30
0
 70
128
 71
63
 72
60
 73
26
 74
26
 0
VERTEX
 8
FULGOR
 10
0
 20
0
 30
0
 70
128
 71
266
 72
269
 73
196
 74
195
 0
VERTEX
 8
FULGOR
 10
0
 20
0
 30
0
 70
128
 71
360
 72
129
 73
117
 74
126
 0
VERTEX
 8
FULGOR
 10
0
 20
0
 30
0
 70
128
 71
60
 72
53
 73
34
 74
26
 0
VERTEX
 8
FULGOR
 10
0
 20
0
 30
0
 70
128
 71
53
 72
52
 73
34
 74
34
 0
VERTEX
 8
FULGOR
 10
0
 20
0
 30
0
 70
128
 71
52
 72
51
 73
28
 74
34
 0
VERTEX
 8
FULGOR
 10
0
 20
0
 30
0
 70
128
 71
51
 72
50
 73
35
 74
28
 0
VERTEX
 8
FULGOR
 10
0
 20
0
 30
0
 70
128
 71
50
 72
49
 73
36
 74
35
 0
VERTEX
 8
FULGOR
 10
0
 20
0
 30
0
 70
128
 71
36
 72
49
 73
48
 74
37
 0
VERTEX
 8
FULGOR
 10
0
 20
0
 30
0
 70
128
 71
44
 72
43
 73
38
 74
56
 0
VERTEX
 8
FULGOR
 10
0
 20
0
 30
0
 70
128
 71
37
 72
48
 73
47
 74
41
 0
VERTEX
 8
FULGOR
 10
0
 20
0
 30
0
 70
128
 71
33
 72
47
 73
46
 74
42
 0
VERTEX
 8
FULGOR
 10
0
 20
0
 30
0
 70
128
 71
45
 72
55
 73
54
 74
54
 0
VERTEX
 8
FULGOR
 10
0
 20
0
 30
0
 70
128
 71
47
 72
33
 73
41
 74
41
 0
VERTEX
 8
FULGOR
 10
0
 20
0
 30
0
 70
128
 71
42
 72
46
 73
45
 74
54
 0
VERTEX
 8
FULGOR
 10
0
 20
0
 30
0
 70
128
 71
55
 72
45
 73
44
 74
56
 0
VERTEX
 8
FULGOR
 10
0
 20
0
 30
0
 70
128
 71
83
 72
80
 73
79
 74
85
 0
VERTEX
 8
FULGOR
 10
0
 20
0
 30
0
 70
128
 71
79
 72
87
 73
86
 74
85
 0
VERTEX
 8
FULGOR
 10
0
 20
0
 30
0
 70
128
 71
134
 72
124
 73
131
 74
128
 0
VERTEX
 8
FULGOR
 10
0
 20
0
 30
0
 70
128
 71
334
 72
335
 73
320
 74
312
 0
VERTEX
 8
FULGOR
 10
0
 20
0
 30
0
 70
128
 71
308
 72
307
 73
362
 74
363
 0
VERTEX
 8
FULGOR
 10
0
 20
0
 30
0
 70
128
 71
139
 72
357
 73
114
 74
113
 0
VERTEX
 8
FULGOR
 10
0
 20
0
 30
0
 70
128
 71
305
 72
304
 73
358
 74
359
 0
VERTEX
 8
FULGOR
 10
0
 20
0
 30
0
 70
128
 71
335
 72
336
 73
314
 74
320
 0
VERTEX
 8
FULGOR
 10
0
 20
0
 30
0
 70
128
 71
355
 72
356
 73
313
 74
301
 0
VERTEX
 8
FULGOR
 10
0
 20
0
 30
0
 70
128
 71
301
 72
300
 73
299
 74
355
 0
VERTEX
 8
FULGOR
 10
0
 20
0
 30
0
 70
128
 71
352
 72
339
 73
328
 74
319
 0
VERTEX
 8
FULGOR
 10
0
 20
0
 30
0
 70
128
 71
343
 72
348
 73
349
 74
331
 0
VERTEX
 8
FULGOR
 10
0
 20
0
 30
0
 70
128
 71
342
 72
344
 73
330
 74
324
 0
VERTEX
 8
FULGOR
 10
0
 20
0
 30
0
 70
128
 71
262
 72
263
 73
198
 74
197
 0
VERTEX
 8
FULGOR
 10
0
 20
0
 30
0
 70
128
 71
303
 72
312
 73
317
 74
310
 0
VERTEX
 8
FULGOR
 10
0
 20
0
 30
0
 70
128
 71
250
 72
262
 73
197
 74
187
 0
VERTEX
 8
FULGOR
 10
0
 20
0
 30
0
 70
128
 71
291
 72
354
 73
334
 74
302
 0
VERTEX
 8
FULGOR
 10
0
 20
0
 30
0
 70
128
 71
341
 72
343
 73
331
 74
327
 0
VERTEX
 8
FULGOR
 10
0
 20
0
 30
0
 70
128
 71
150
 72
149
 73
102
 74
94
 0
VERTEX
 8
FULGOR
 10
0
 20
0
 30
0
 70
128
 71
1
 72
138
 73
119
 74
118
 0
VERTEX
 8
FULGOR
 10
0
 20
0
 30
0
 70
128
 71
338
 72
353
 73
318
 74
325
 0
VERTEX
 8
FULGOR
 10
0
 20
0
 30
0
 70
128
 71
280
 72
273
 73
210
 74
222
 0
VERTEX
 8
FULGOR
 10
0
 20
0
 30
0
 70
128
 71
285
 72
286
 73
218
 74
217
 0
VERTEX
 8
FULGOR
 10
0
 20
0
 30
0
 70
128
 71
160
 72
158
 73
98
 74
105
 0
VERTEX
 8
FULGOR
 10
0
 20
0
 30
0
 70
128
 71
138
 72
137
 73
120
 74
119
 0
VERTEX
 8
FULGOR
 10
0
 20
0
 30
0
 70
128
 71
286
 72
287
 73
219
 74
218
 0
VERTEX
 8
FULGOR
 10
0
 20
0
 30
0
 70
128
 71
261
 72
270
 73
211
 74
209
 0
VERTEX
 8
FULGOR
 10
0
 20
0
 30
0
 70
128
 71
348
 72
329
 73
332
 74
349
 0
VERTEX
 8
FULGOR
 10
0
 20
0
 30
0
 70
128
 71
329
 72
333
 73
306
 74
332
 0
VERTEX
 8
FULGOR
 10
0
 20
0
 30
0
 70
128
 71
333
 72
296
 73
361
 74
306
 0
VERTEX
 8
FULGOR
 10
0
 20
0
 30
0
 70
128
 71
296
 72
295
 73
294
 74
361
 0
VERTEX
 8
FULGOR
 10
0
 20
0
 30
0
 70
128
 71
358
 72
304
 73
313
 74
356
 0
VERTEX
 8
FULGOR
 10
0
 20
0
 30
0
 70
128
 71
148
 72
147
 73
116
 74
115
 0
VERTEX
 8
FULGOR
 10
0
 20
0
 30
0
 70
128
 71
158
 72
145
 73
99
 74
98
 0
VERTEX
 8
FULGOR
 10
0
 20
0
 30
0
 70
128
 71
260
 72
261
 73
209
 74
208
 0
VERTEX
 8
FULGOR
 10
0
 20
0
 30
0
 70
128
 71
269
 72
260
 73
208
 74
196
 0
VERTEX
 8
FULGOR
 10
0
 20
0
 30
0
 70
128
 71
276
 72
267
 73
204
 74
203
 0
VERTEX
 8
FULGOR
 10
0
 20
0
 30
0
 70
128
 71
232
 72
242
 73
182
 74
180
 0
VERTEX
 8
FULGOR
 10
0
 20
0
 30
0
 70
128
 71
242
 72
246
 73
183
 74
182
 0
VERTEX
 8
FULGOR
 10
0
 20
0
 30
0
 70
128
 71
272
 72
276
 73
203
 74
202
 0
VERTEX
 8
FULGOR
 10
0
 20
0
 30
0
 70
128
 71
264
 72
272
 73
202
 74
201
 0
VERTEX
 8
FULGOR
 10
0
 20
0
 30
0
 70
128
 71
240
 72
241
 73
186
 74
179
 0
VERTEX
 8
FULGOR
 10
0
 20
0
 30
0
 70
128
 71
147
 72
136
 73
121
 74
116
 0
VERTEX
 8
FULGOR
 10
0
 20
0
 30
0
 70
128
 71
340
 72
350
 73
322
 74
321
 0
VERTEX
 8
FULGOR
 10
0
 20
0
 30
0
 70
128
 71
303
 72
302
 73
334
 74
312
 0
VERTEX
 8
FULGOR
 10
0
 20
0
 30
0
 70
128
 71
345
 72
341
 73
327
 74
326
 0
VERTEX
 8
FULGOR
 10
0
 20
0
 30
0
 70
128
 71
252
 72
243
 73
181
 74
311
 0
VERTEX
 8
FULGOR
 10
0
 20
0
 30
0
 70
128
 71
344
 72
345
 73
326
 74
330
 0
VERTEX
 8
FULGOR
 10
0
 20
0
 30
0
 70
128
 71
231
 72
232
 73
180
 74
172
 0
VERTEX
 8
FULGOR
 10
0
 20
0
 30
0
 70
128
 71
257
 72
266
 73
195
 74
194
 0
VERTEX
 8
FULGOR
 10
0
 20
0
 30
0
 70
128
 71
256
 72
257
 73
194
 74
193
 0
VERTEX
 8
FULGOR
 10
0
 20
0
 30
0
 70
128
 71
297
 72
310
 73
317
 74
315
 0
VERTEX
 8
FULGOR
 10
0
 20
0
 30
0
 70
128
 71
357
 72
130
 73
125
 74
114
 0
VERTEX
 8
FULGOR
 10
0
 20
0
 30
0
 70
128
 71
255
 72
256
 73
193
 74
207
 0
VERTEX
 8
FULGOR
 10
0
 20
0
 30
0
 70
128
 71
298
 72
297
 73
315
 74
309
 0
VERTEX
 8
FULGOR
 10
0
 20
0
 30
0
 70
128
 71
298
 72
309
 73
308
 74
363
 0
VERTEX
 8
FULGOR
 10
0
 20
0
 30
0
 70
128
 71
243
 72
244
 73
3
 74
181
 0
VERTEX
 8
FULGOR
 10
0
 20
0
 30
0
 70
128
 71
259
 72
250
 73
187
 74
192
 0
VERTEX
 8
FULGOR
 10
0
 20
0
 30
0
 70
128
 71
279
 72
280
 73
222
 74
214
 0
VERTEX
 8
FULGOR
 10
0
 20
0
 30
0
 70
128
 71
278
 72
279
 73
214
 74
213
 0
VERTEX
 8
FULGOR
 10
0
 20
0
 30
0
 70
128
 71
258
 72
259
 73
192
 74
191
 0
VERTEX
 8
FULGOR
 10
0
 20
0
 30
0
 70
128
 71
247
 72
258
 73
191
 74
190
 0
VERTEX
 8
FULGOR
 10
0
 20
0
 30
0
 70
128
 71
351
 72
342
 73
324
 74
323
 0
VERTEX
 8
FULGOR
 10
0
 20
0
 30
0
 70
128
 71
350
 72
351
 73
323
 74
322
 0
VERTEX
 8
FULGOR
 10
0
 20
0
 30
0
 70
128
 71
284
 72
285
 73
217
 74
216
 0
VERTEX
 8
FULGOR
 10
0
 20
0
 30
0
 70
128
 71
136
 72
146
 73
122
 74
121
 0
VERTEX
 8
FULGOR
 10
0
 20
0
 30
0
 70
128
 71
146
 72
140
 73
110
 74
122
 0
VERTEX
 8
FULGOR
 10
0
 20
0
 30
0
 70
128
 71
130
 72
360
 73
126
 74
125
 0
VERTEX
 8
FULGOR
 10
0
 20
0
 30
0
 70
128
 71
140
 72
133
 73
111
 74
110
 0
VERTEX
 8
FULGOR
 10
0
 20
0
 30
0
 70
128
 71
133
 72
132
 73
123
 74
111
 0
VERTEX
 8
FULGOR
 10
0
 20
0
 30
0
 70
128
 71
132
 72
139
 73
113
 74
123
 0
VERTEX
 8
FULGOR
 10
0
 20
0
 30
0
 70
128
 71
292
 72
293
 73
164
 74
223
 0
VERTEX
 8
FULGOR
 10
0
 20
0
 30
0
 70
128
 71
293
 72
224
 73
165
 74
164
 0
VERTEX
 8
FULGOR
 10
0
 20
0
 30
0
 70
128
 71
224
 72
225
 73
176
 74
165
 0
VERTEX
 8
FULGOR
 10
0
 20
0
 30
0
 70
128
 71
225
 72
233
 73
177
 74
176
 0
VERTEX
 8
FULGOR
 10
0
 20
0
 30
0
 70
128
 71
233
 72
234
 73
168
 74
177
 0
VERTEX
 8
FULGOR
 10
0
 20
0
 30
0
 70
128
 71
234
 72
235
 73
169
 74
168
 0
VERTEX
 8
FULGOR
 10
0
 20
0
 30
0
 70
128
 71
235
 72
236
 73
170
 74
169
 0
VERTEX
 8
FULGOR
 10
0
 20
0
 30
0
 70
128
 71
236
 72
239
 73
171
 74
170
 0
VERTEX
 8
FULGOR
 10
0
 20
0
 30
0
 70
128
 71
239
 72
231
 73
172
 74
171
 0
VERTEX
 8
FULGOR
 10
0
 20
0
 30
0
 70
128
 71
213
 72
212
 73
277
 74
278
 0
VERTEX
 8
FULGOR
 10
0
 20
0
 30
0
 70
128
 71
212
 72
205
 73
268
 74
277
 0
VERTEX
 8
FULGOR
 10
0
 20
0
 30
0
 70
128
 71
267
 72
268
 73
205
 74
204
 0
VERTEX
 8
FULGOR
 10
0
 20
0
 30
0
 70
128
 71
270
 72
271
 73
200
 74
211
 0
VERTEX
 8
FULGOR
 10
0
 20
0
 30
0
 70
128
 71
271
 72
264
 73
201
 74
200
 0
SEQEND
 0
POLYLINE
 8
MILANO
 66
1
 10
0.0
 20
0.0
 30
0.0
 70
64
 71
93
 72
47
 0
VERTEX
 8
MILANO
 10
0.245
 20
-0.2931
 30
98.329
 70
192
 0
VERTEX
 8
MILANO
 10
0.677
 20
-0.2931
 30
98.1595
 70
192
 0
VERTEX
 8
MILANO
 10
0.6816
 20
-0.2931
 30
98.1206
 70
192
 0
VERTEX
 8
MILANO
 10
0.698
 20
-0.2931
 30
98.0851
 70
192
 0
VERTEX
 8
MILANO
 10
0.7255
 20
-0.2931
 30
98.0574
 70
192
 0
VERTEX
 8
MILANO
 10
0.7596
 20
-0.2931
 30
98.0385
 70
192
 0
VERTEX
 8
MILANO
 10
0.7971
 20
-0.2931
 30
98.0275
 70
192
 0
VERTEX
 8
MILANO
 10
0.836
 20
-0.2931
 30
98.0233
 70
192
 0
VERTEX
 8
MILANO
 10
0.514
 20
-0.2931
 30
98.0752
 70
192
 0
VERTEX
 8
MILANO
 10
0.8749
 20
-0.2931
 30
98.0263
 70
192
 0
VERTEX
 8
MILANO
 10
0.9125
 20
-0.2931
 30
98.0367
 70
192
 0
VERTEX
 8
MILANO
 10
0.9466
 20
-0.2931
 30
98.0558
 70
192
 0
VERTEX
 8
MILANO
 10
0.0815
 20
-0.2931
 30
98.0976
 70
192
 0
VERTEX
 8
MILANO
 10
0.1429
 20
-0.2931
 30
97.9871
 70
192
 0
VERTEX
 8
MILANO
 10
0.1934
 20
-0.2931
 30
97.9871
 70
192
 0
VERTEX
 8
MILANO
 10
0.9732
 20
-0.2931
 30
98.0844
 70
192
 0
VERTEX
 8
MILANO
 10
0.9904
 20
-0.2931
 30
98.1195
 70
192
 0
VERTEX
 8
MILANO
 10
-0.1967
 20
-0.2931
 30
97.9871
 70
192
 0
VERTEX
 8
MILANO
 10
-0.0617
 20
-0.2931
 30
98.1356
 70
192
 0
VERTEX
 8
MILANO
 10
0.0609
 20
-0.2931
 30
98.1356
 70
192
 0
VERTEX
 8
MILANO
 10
0.9959
 20
-0.2931
 30
98.1582
 70
192
 0
VERTEX
 8
MILANO
 10
0.9909
 20
-0.2931
 30
98.1971
 70
192
 0
VERTEX
 8
MILANO
 10
0.9744
 20
-0.2931
 30
98.2325
 70
192
 0
VERTEX
 8
MILANO
 10
-0.3651
 20
-0.2931
 30
98.329
 70
192
 0
VERTEX
 8
MILANO
 10
-0.3651
 20
-0.2931
 30
98.0243
 70
192
 0
VERTEX
 8
MILANO
 10
0.9476
 20
-0.2931
 30
98.2609
 70
192
 0
VERTEX
 8
MILANO
 10
0.9136
 20
-0.2931
 30
98.28
 70
192
 0
VERTEX
 8
MILANO
 10
0.8759
 20
-0.2931
 30
98.2904
 70
192
 0
VERTEX
 8
MILANO
 10
-0.5365
 20
-0.2931
 30
98.329
 70
192
 0
VERTEX
 8
MILANO
 10
-0.494
 20
-0.2931
 30
98.329
 70
192
 0
VERTEX
 8
MILANO
 10
-0.494
 20
-0.2931
 30
97.9871
 70
192
 0
VERTEX
 8
MILANO
 10
-0.5365
 20
-0.2931
 30
97.9871
 70
192
 0
VERTEX
 8
MILANO
 10
-1.0484
 20
-0.2931
 30
97.9871
 70
192
 0
VERTEX
 8
MILANO
 10
-0.9954
 20
-0.2931
 30
98.3311
 70
192
 0
VERTEX
 8
MILANO
 10
-0.6727
 20
-0.2931
 30
98.3311
 70
192
 0
VERTEX
 8
MILANO
 10
-0.6569
 20
-0.2931
 30
98.3311
 70
192
 0
VERTEX
 8
MILANO
 10
-0.601
 20
-0.2931
 30
97.9871
 70
192
 0
VERTEX
 8
MILANO
 10
-0.6471
 20
-0.2931
 30
97.9871
 70
192
 0
VERTEX
 8
MILANO
 10
-0.8343
 20
-0.2931
 30
97.9871
 70
192
 0
VERTEX
 8
MILANO
 10
-0.9692
 20
-0.2931
 30
98.2179
 70
192
 0
VERTEX
 8
MILANO
 10
-0.2138
 20
-0.2931
 30
98.0243
 70
192
 0
VERTEX
 8
MILANO
 10
-0.2138
 20
-0.2931
 30
97.9871
 70
192
 0
VERTEX
 8
MILANO
 10
-0.4071
 20
-0.2931
 30
97.9871
 70
192
 0
VERTEX
 8
MILANO
 10
-0.9851
 20
-0.2931
 30
98.3311
 70
192
 0
VERTEX
 8
MILANO
 10
-0.8258
 20
-0.2931
 30
98.0573
 70
192
 0
VERTEX
 8
MILANO
 10
-0.6842
 20
-0.2931
 30
98.2179
 70
192
 0
VERTEX
 8
MILANO
 10
-0.8137
 20
-0.2931
 30
97.9871
 70
192
 0
VERTEX
 8
MILANO
 10
-1.0027
 20
-0.2931
 30
97.9871
 70
192
 0
VERTEX
 8
MILANO
 10
0.8371
 20
-0.2931
 30
98.3348
 70
192
 0
VERTEX
 8
MILANO
 10
0.7861
 20
-0.2931
 30
98.332
 70
192
 0
VERTEX
 8
MILANO
 10
0.7366
 20
-0.2931
 30
98.3196
 70
192
 0
VERTEX
 8
MILANO
 10
0.6929
 20
-0.2931
 30
98.2935
 70
192
 0
VERTEX
 8
MILANO
 10
0.6578
 20
-0.2931
 30
98.2562
 70
192
 0
VERTEX
 8
MILANO
 10
0.635
 20
-0.2931
 30
98.2105
 70
192
 0
VERTEX
 8
MILANO
 10
0.6279
 20
-0.2931
 30
98.1598
 70
192
 0
VERTEX
 8
MILANO
 10
0.6339
 20
-0.2931
 30
98.1089
 70
192
 0
VERTEX
 8
MILANO
 10
0.6554
 20
-0.2931
 30
98.0626
 70
192
 0
VERTEX
 8
MILANO
 10
0.6913
 20
-0.2931
 30
98.0264
 70
192
 0
VERTEX
 8
MILANO
 10
0.736
 20
-0.2931
 30
98.0017
 70
192
 0
VERTEX
 8
MILANO
 10
0.785
 20
-0.2931
 30
97.9873
 70
192
 0
VERTEX
 8
MILANO
 10
0.8358
 20
-0.2931
 30
97.9818
 70
192
 0
VERTEX
 8
MILANO
 10
0.8867
 20
-0.2931
 30
97.9856
 70
192
 0
VERTEX
 8
MILANO
 10
0.9359
 20
-0.2931
 30
97.9993
 70
192
 0
VERTEX
 8
MILANO
 10
0.9804
 20
-0.2931
 30
98.0243
 70
192
 0
VERTEX
 8
MILANO
 10
1.0152
 20
-0.2931
 30
98.0616
 70
192
 0
VERTEX
 8
MILANO
 10
1.0377
 20
-0.2931
 30
98.1075
 70
192
 0
VERTEX
 8
MILANO
 10
1.045
 20
-0.2931
 30
98.1582
 70
192
 0
VERTEX
 8
MILANO
 10
1.0384
 20
-0.2931
 30
98.209
 70
192
 0
VERTEX
 8
MILANO
 10
1.0168
 20
-0.2931
 30
98.2553
 70
192
 0
VERTEX
 8
MILANO
 10
0.9818
 20
-0.2931
 30
98.2925
 70
192
 0
VERTEX
 8
MILANO
 10
0.245
 20
-0.2931
 30
97.9871
 70
192
 0
VERTEX
 8
MILANO
 10
0.2897
 20
-0.2931
 30
97.9871
 70
192
 0
VERTEX
 8
MILANO
 10
0.2897
 20
-0.2931
 30
98.2364
 70
192
 0
VERTEX
 8
MILANO
 10
0.5436
 20
-0.2931
 30
97.9871
 70
192
 0
VERTEX
 8
MILANO
 10
0.5582
 20
-0.2931
 30
97.9871
 70
192
 0
VERTEX
 8
MILANO
 10
0.5582
 20
-0.2931
 30
98.329
 70
192
 0
VERTEX
 8
MILANO
 10
0.5134
 20
-0.2931
 30
98.329
 70
192
 0
VERTEX
 8
MILANO
 10
0.9373
 20
-0.2931
 30
98.3175
 70
192
 0
VERTEX
 8
MILANO
 10
0.2616
 20
-0.2931
 30
98.329
 70
192
 0
VERTEX
 8
MILANO
 10
-0.1407
 20
-0.2931
 30
97.9871
 70
192
 0
VERTEX
 8
MILANO
 10
-0.0838
 20
-0.2931
 30
98.0976
 70
192
 0
VERTEX
 8
MILANO
 10
0.8881
 20
-0.2931
 30
98.331
 70
192
 0
VERTEX
 8
MILANO
 10
0.837
 20
-0.2931
 30
98.2933
 70
192
 0
VERTEX
 8
MILANO
 10
0.798
 20
-0.2931
 30
98.2911
 70
192
 0
VERTEX
 8
MILANO
 10
0.0065
 20
-0.2931
 30
98.329
 70
192
 0
VERTEX
 8
MILANO
 10
-0.008
 20
-0.2931
 30
98.329
 70
192
 0
VERTEX
 8
MILANO
 10
0.7601
 20
-0.2931
 30
98.2816
 70
192
 0
VERTEX
 8
MILANO
 10
0.7267
 20
-0.2931
 30
98.2617
 70
192
 0
VERTEX
 8
MILANO
 10
0.6999
 20
-0.2931
 30
98.2332
 70
192
 0
VERTEX
 8
MILANO
 10
0.0039
 20
-0.2931
 30
98.2451
 70
192
 0
VERTEX
 8
MILANO
 10
-0.0061
 20
-0.2931
 30
98.2451
 70
192
 0
VERTEX
 8
MILANO
 10
-0.4107
 20
-0.2931
 30
98.329
 70
192
 0
VERTEX
 8
MILANO
 10
0.6824
 20
-0.2931
 30
98.1982
 70
192
 0
VERTEX
 8
MILANO
 10
0
 20
0
 30
0
 70
128
 71
71
 72
1
 73
73
 74
72
 0
VERTEX
 8
MILANO
 10
0
 20
0
 30
0
 70
128
 71
1
 72
79
 73
73
 74
73
 0
VERTEX
 8
MILANO
 10
0
 20
0
 30
0
 70
128
 71
73
 72
79
 73
9
 74
74
 0
VERTEX
 8
MILANO
 10
0
 20
0
 30
0
 70
128
 71
76
 72
75
 73
9
 74
77
 0
VERTEX
 8
MILANO
 10
0
 20
0
 30
0
 70
128
 71
9
 72
75
 73
74
 74
74
 0
VERTEX
 8
MILANO
 10
0
 20
0
 30
0
 70
128
 71
18
 72
86
 73
19
 74
81
 0
VERTEX
 8
MILANO
 10
0
 20
0
 30
0
 70
128
 71
80
 72
18
 73
81
 74
81
 0
VERTEX
 8
MILANO
 10
0
 20
0
 30
0
 70
128
 71
86
 72
85
 73
90
 74
91
 0
VERTEX
 8
MILANO
 10
0
 20
0
 30
0
 70
128
 71
15
 72
13
 73
20
 74
20
 0
VERTEX
 8
MILANO
 10
0
 20
0
 30
0
 70
128
 71
86
 72
91
 73
19
 74
19
 0
VERTEX
 8
MILANO
 10
0
 20
0
 30
0
 70
128
 71
85
 72
15
 73
20
 74
90
 0
VERTEX
 8
MILANO
 10
0
 20
0
 30
0
 70
128
 71
13
 72
81
 73
19
 74
20
 0
VERTEX
 8
MILANO
 10
0
 20
0
 30
0
 70
128
 71
15
 72
14
 73
13
 74
13
 0
VERTEX
 8
MILANO
 10
0
 20
0
 30
0
 70
128
 71
92
 72
24
 73
25
 74
43
 0
VERTEX
 8
MILANO
 10
0
 20
0
 30
0
 70
128
 71
25
 72
41
 73
42
 74
43
 0
VERTEX
 8
MILANO
 10
0
 20
0
 30
0
 70
128
 71
29
 72
30
 73
31
 74
32
 0
VERTEX
 8
MILANO
 10
0
 20
0
 30
0
 70
128
 71
33
 72
34
 73
40
 74
48
 0
VERTEX
 8
MILANO
 10
0
 20
0
 30
0
 70
128
 71
34
 72
44
 73
40
 74
40
 0
VERTEX
 8
MILANO
 10
0
 20
0
 30
0
 70
128
 71
40
 72
44
 73
45
 74
39
 0
VERTEX
 8
MILANO
 10
0
 20
0
 30
0
 70
128
 71
45
 72
35
 73
46
 74
47
 0
VERTEX
 8
MILANO
 10
0
 20
0
 30
0
 70
128
 71
46
 72
36
 73
37
 74
38
 0
VERTEX
 8
MILANO
 10
0
 20
0
 30
0
 70
128
 71
45
 72
47
 73
39
 74
39
 0
VERTEX
 8
MILANO
 10
0
 20
0
 30
0
 70
128
 71
35
 72
36
 73
46
 74
46
 0
VERTEX
 8
MILANO
 10
0
 20
0
 30
0
 70
128
 71
50
 72
49
 73
83
 74
84
 0
VERTEX
 8
MILANO
 10
0
 20
0
 30
0
 70
128
 71
51
 72
50
 73
84
 74
87
 0
VERTEX
 8
MILANO
 10
0
 20
0
 30
0
 70
128
 71
5
 72
6
 73
59
 74
58
 0
VERTEX
 8
MILANO
 10
0
 20
0
 30
0
 70
128
 71
28
 72
83
 73
49
 74
82
 0
VERTEX
 8
MILANO
 10
0
 20
0
 30
0
 70
128
 71
27
 72
28
 73
82
 74
78
 0
VERTEX
 8
MILANO
 10
0
 20
0
 30
0
 70
128
 71
26
 72
27
 73
78
 74
70
 0
VERTEX
 8
MILANO
 10
0
 20
0
 30
0
 70
128
 71
23
 72
26
 73
70
 74
69
 0
VERTEX
 8
MILANO
 10
0
 20
0
 30
0
 70
128
 71
6
 72
7
 73
60
 74
59
 0
VERTEX
 8
MILANO
 10
0
 20
0
 30
0
 70
128
 71
7
 72
8
 73
61
 74
60
 0
VERTEX
 8
MILANO
 10
0
 20
0
 30
0
 70
128
 71
22
 72
23
 73
69
 74
68
 0
VERTEX
 8
MILANO
 10
0
 20
0
 30
0
 70
128
 71
21
 72
22
 73
68
 74
67
 0
VERTEX
 8
MILANO
 10
0
 20
0
 30
0
 70
128
 71
17
 72
21
 73
67
 74
66
 0
VERTEX
 8
MILANO
 10
0
 20
0
 30
0
 70
128
 71
16
 72
17
 73
66
 74
65
 0
VERTEX
 8
MILANO
 10
0
 20
0
 30
0
 70
128
 71
12
 72
16
 73
65
 74
64
 0
VERTEX
 8
MILANO
 10
0
 20
0
 30
0
 70
128
 71
11
 72
12
 73
64
 74
63
 0
VERTEX
 8
MILANO
 10
0
 20
0
 30
0
 70
128
 71
10
 72
11
 73
63
 74
62
 0
VERTEX
 8
MILANO
 10
0
 20
0
 30
0
 70
128
 71
4
 72
5
 73
58
 74
57
 0
VERTEX
 8
MILANO
 10
0
 20
0
 30
0
 70
128
 71
57
 72
56
 73
3
 74
4
 0
VERTEX
 8
MILANO
 10
0
 20
0
 30
0
 70
128
 71
56
 72
55
 73
2
 74
3
 0
VERTEX
 8
MILANO
 10
0
 20
0
 30
0
 70
128
 71
55
 72
54
 73
93
 74
2
 0
VERTEX
 8
MILANO
 10
0
 20
0
 30
0
 70
128
 71
54
 72
53
 73
89
 74
93
 0
VERTEX
 8
MILANO
 10
0
 20
0
 30
0
 70
128
 71
53
 72
52
 73
88
 74
89
 0
VERTEX
 8
MILANO
 10
0
 20
0
 30
0
 70
128
 71
52
 72
51
 73
87
 74
88
 0
VERTEX
 8
MILANO
 10
0
 20
0
 30
0
 70
128
 71
8
 72
10
 73
62
 74
61
 0
SEQEND
 0
POLYLINE
 8
MANIGLIA
 66
1
 10
0.0
 20
0.0
 30
0.0
 70
64
 71
190
 72
223
 0
VERTEX
 8
MANIGLIA
 10
-32.3499
 20
-4.54
 30
143.09
 70
192
 0
VERTEX
 8
MANIGLIA
 10
32.3499
 20
-4.54
 30
143.09
 70
192
 0
VERTEX
 8
MANIGLIA
 10
-32.3499
 20
-5.79
 30
143.09
 70
192
 0
VERTEX
 8
MANIGLIA
 10
-28.386
 20
-5.79
 30
143.09
 70
192
 0
VERTEX
 8
MANIGLIA
 10
28.3859
 20
-5.79
 30
143.09
 70
192
 0
VERTEX
 8
MANIGLIA
 10
32.3499
 20
-5.79
 30
143.09
 70
192
 0
VERTEX
 8
MANIGLIA
 10
-32.3499
 20
-5.7699
 30
142.8668
 70
192
 0
VERTEX
 8
MANIGLIA
 10
-28.386
 20
-5.7699
 30
142.8668
 70
192
 0
VERTEX
 8
MANIGLIA
 10
28.3859
 20
-5.7699
 30
142.8668
 70
192
 0
VERTEX
 8
MANIGLIA
 10
32.3499
 20
-5.7699
 30
142.8668
 70
192
 0
VERTEX
 8
MANIGLIA
 10
-32.3499
 20
-5.7103
 30
142.6508
 70
192
 0
VERTEX
 8
MANIGLIA
 10
-28.386
 20
-5.7103
 30
142.6508
 70
192
 0
VERTEX
 8
MANIGLIA
 10
28.3859
 20
-5.7103
 30
142.6508
 70
192
 0
VERTEX
 8
MANIGLIA
 10
32.3499
 20
-5.7103
 30
142.6508
 70
192
 0
VERTEX
 8
MANIGLIA
 10
-32.3499
 20
-5.6131
 30
142.4489
 70
192
 0
VERTEX
 8
MANIGLIA
 10
-28.386
 20
-5.6131
 30
142.4489
 70
192
 0
VERTEX
 8
MANIGLIA
 10
28.3859
 20
-5.6131
 30
142.4489
 70
192
 0
VERTEX
 8
MANIGLIA
 10
32.3499
 20
-5.6131
 30
142.4489
 70
192
 0
VERTEX
 8
MANIGLIA
 10
-32.3499
 20
-5.4813
 30
142.2676
 70
192
 0
VERTEX
 8
MANIGLIA
 10
-28.386
 20
-5.4813
 30
142.2676
 70
192
 0
VERTEX
 8
MANIGLIA
 10
28.3859
 20
-5.4813
 30
142.2676
 70
192
 0
VERTEX
 8
MANIGLIA
 10
32.3499
 20
-5.4813
 30
142.2676
 70
192
 0
VERTEX
 8
MANIGLIA
 10
-32.3499
 20
-5.3194
 30
142.1127
 70
192
 0
VERTEX
 8
MANIGLIA
 10
-28.386
 20
-5.3194
 30
142.1127
 70
192
 0
VERTEX
 8
MANIGLIA
 10
28.3859
 20
-5.3194
 30
142.1127
 70
192
 0
VERTEX
 8
MANIGLIA
 10
32.3499
 20
-5.3194
 30
142.1127
 70
192
 0
VERTEX
 8
MANIGLIA
 10
-32.3499
 20
-5.1323
 30
141.9893
 70
192
 0
VERTEX
 8
MANIGLIA
 10
-28.386
 20
-5.1323
 30
141.9893
 70
192
 0
VERTEX
 8
MANIGLIA
 10
28.3859
 20
-5.1323
 30
141.9893
 70
192
 0
VERTEX
 8
MANIGLIA
 10
32.3499
 20
-5.1323
 30
141.9893
 70
192
 0
VERTEX
 8
MANIGLIA
 10
-32.3499
 20
-4.9263
 30
141.9012
 70
192
 0
VERTEX
 8
MANIGLIA
 10
-28.386
 20
-4.9263
 30
141.9012
 70
192
 0
VERTEX
 8
MANIGLIA
 10
28.3859
 20
-4.9263
 30
141.9012
 70
192
 0
VERTEX
 8
MANIGLIA
 10
32.3499
 20
-4.9263
 30
141.9012
 70
192
 0
VERTEX
 8
MANIGLIA
 10
-32.3499
 20
-4.7078
 30
141.8513
 70
192
 0
VERTEX
 8
MANIGLIA
 10
-28.386
 20
-4.7078
 30
141.8513
 70
192
 0
VERTEX
 8
MANIGLIA
 10
28.3859
 20
-4.7078
 30
141.8513
 70
192
 0
VERTEX
 8
MANIGLIA
 10
32.3499
 20
-4.7078
 30
141.8513
 70
192
 0
VERTEX
 8
MANIGLIA
 10
-32.3499
 20
-4.4839
 30
141.8413
 70
192
 0
VERTEX
 8
MANIGLIA
 10
-28.386
 20
-4.4839
 30
141.8413
 70
192
 0
VERTEX
 8
MANIGLIA
 10
28.3859
 20
-4.4839
 30
141.8413
 70
192
 0
VERTEX
 8
MANIGLIA
 10
32.3499
 20
-4.4839
 30
141.8413
 70
192
 0
VERTEX
 8
MANIGLIA
 10
-32.3499
 20
-4.2618
 30
141.8713
 70
192
 0
VERTEX
 8
MANIGLIA
 10
-28.386
 20
-4.2618
 30
141.8713
 70
192
 0
VERTEX
 8
MANIGLIA
 10
28.3859
 20
-4.2618
 30
141.8713
 70
192
 0
VERTEX
 8
MANIGLIA
 10
32.3499
 20
-4.2618
 30
141.8713
 70
192
 0
VERTEX
 8
MANIGLIA
 10
-32.3499
 20
-4.0487
 30
141.9406
 70
192
 0
VERTEX
 8
MANIGLIA
 10
-28.386
 20
-4.0487
 30
141.9406
 70
192
 0
VERTEX
 8
MANIGLIA
 10
28.3859
 20
-4.0487
 30
141.9406
 70
192
 0
VERTEX
 8
MANIGLIA
 10
32.3499
 20
-4.0487
 30
141.9406
 70
192
 0
VERTEX
 8
MANIGLIA
 10
-32.3499
 20
-3.8514
 30
142.0468
 70
192
 0
VERTEX
 8
MANIGLIA
 10
-28.386
 20
-3.8514
 30
142.0468
 70
192
 0
VERTEX
 8
MANIGLIA
 10
28.3859
 20
-3.8514
 30
142.0468
 70
192
 0
VERTEX
 8
MANIGLIA
 10
32.3499
 20
-3.8514
 30
142.0468
 70
192
 0
VERTEX
 8
MANIGLIA
 10
-32.3499
 20
-3.6762
 30
142.1865
 70
192
 0
VERTEX
 8
MANIGLIA
 10
-28.386
 20
-3.6762
 30
142.1865
 70
192
 0
VERTEX
 8
MANIGLIA
 10
28.3859
 20
-3.6762
 30
142.1865
 70
192
 0
VERTEX
 8
MANIGLIA
 10
32.3499
 20
-3.6762
 30
142.1865
 70
192
 0
VERTEX
 8
MANIGLIA
 10
-32.3499
 20
-3.5287
 30
142.3553
 70
192
 0
VERTEX
 8
MANIGLIA
 10
-28.386
 20
-3.5287
 30
142.3553
 70
192
 0
VERTEX
 8
MANIGLIA
 10
28.3859
 20
-3.5287
 30
142.3553
 70
192
 0
VERTEX
 8
MANIGLIA
 10
32.3499
 20
-3.5287
 30
142.3553
 70
192
 0
VERTEX
 8
MANIGLIA
 10
-32.3499
 20
-3.4138
 30
142.5476
 70
192
 0
VERTEX
 8
MANIGLIA
 10
-28.386
 20
-3.4138
 30
142.5476
 70
192
 0
VERTEX
 8
MANIGLIA
 10
28.3859
 20
-3.4138
 30
142.5476
 70
192
 0
VERTEX
 8
MANIGLIA
 10
32.3499
 20
-3.4138
 30
142.5476
 70
192
 0
VERTEX
 8
MANIGLIA
 10
-32.3499
 20
-3.335
 30
142.7575
 70
192
 0
VERTEX
 8
MANIGLIA
 10
-28.386
 20
-3.335
 30
142.7575
 70
192
 0
VERTEX
 8
MANIGLIA
 10
28.3859
 20
-3.335
 30
142.7575
 70
192
 0
VERTEX
 8
MANIGLIA
 10
32.3499
 20
-3.335
 30
142.7575
 70
192
 0
VERTEX
 8
MANIGLIA
 10
-32.3499
 20
-3.295
 30
142.978
 70
192
 0
VERTEX
 8
MANIGLIA
 10
-28.386
 20
-3.295
 30
142.978
 70
192
 0
VERTEX
 8
MANIGLIA
 10
28.3859
 20
-3.295
 30
142.978
 70
192
 0
VERTEX
 8
MANIGLIA
 10
32.3499
 20
-3.295
 30
142.978
 70
192
 0
VERTEX
 8
MANIGLIA
 10
-32.3499
 20
-3.295
 30
143.202
 70
192
 0
VERTEX
 8
MANIGLIA
 10
-28.386
 20
-3.295
 30
143.202
 70
192
 0
VERTEX
 8
MANIGLIA
 10
28.3859
 20
-3.295
 30
143.202
 70
192
 0
VERTEX
 8
MANIGLIA
 10
32.3499
 20
-3.295
 30
143.202
 70
192
 0
VERTEX
 8
MANIGLIA
 10
-32.3499
 20
-3.335
 30
143.4225
 70
192
 0
VERTEX
 8
MANIGLIA
 10
-28.386
 20
-3.335
 30
143.4225
 70
192
 0
VERTEX
 8
MANIGLIA
 10
28.3859
 20
-3.335
 30
143.4225
 70
192
 0
VERTEX
 8
MANIGLIA
 10
32.3499
 20
-3.335
 30
143.4225
 70
192
 0
VERTEX
 8
MANIGLIA
 10
-32.3499
 20
-3.4138
 30
143.6324
 70
192
 0
VERTEX
 8
MANIGLIA
 10
-28.386
 20
-3.4138
 30
143.6324
 70
192
 0
VERTEX
 8
MANIGLIA
 10
28.3859
 20
-3.4138
 30
143.6324
 70
192
 0
VERTEX
 8
MANIGLIA
 10
32.3499
 20
-3.4138
 30
143.6324
 70
192
 0
VERTEX
 8
MANIGLIA
 10
-32.3499
 20
-3.5287
 30
143.8247
 70
192
 0
VERTEX
 8
MANIGLIA
 10
-28.386
 20
-3.5287
 30
143.8247
 70
192
 0
VERTEX
 8
MANIGLIA
 10
28.3859
 20
-3.5287
 30
143.8247
 70
192
 0
VERTEX
 8
MANIGLIA
 10
32.3499
 20
-3.5287
 30
143.8247
 70
192
 0
VERTEX
 8
MANIGLIA
 10
-32.3499
 20
-3.6762
 30
143.9935
 70
192
 0
VERTEX
 8
MANIGLIA
 10
-28.386
 20
-3.6762
 30
143.9935
 70
192
 0
VERTEX
 8
MANIGLIA
 10
28.3859
 20
-3.6762
 30
143.9935
 70
192
 0
VERTEX
 8
MANIGLIA
 10
32.3499
 20
-3.6762
 30
143.9935
 70
192
 0
VERTEX
 8
MANIGLIA
 10
-32.3499
 20
-3.8514
 30
144.1332
 70
192
 0
VERTEX
 8
MANIGLIA
 10
-28.386
 20
-3.8514
 30
144.1332
 70
192
 0
VERTEX
 8
MANIGLIA
 10
28.3859
 20
-3.8514
 30
144.1332
 70
192
 0
VERTEX
 8
MANIGLIA
 10
32.3499
 20
-3.8514
 30
144.1332
 70
192
 0
VERTEX
 8
MANIGLIA
 10
-32.3499
 20
-4.0487
 30
144.2394
 70
192
 0
VERTEX
 8
MANIGLIA
 10
-28.386
 20
-4.0487
 30
144.2394
 70
192
 0
VERTEX
 8
MANIGLIA
 10
28.3859
 20
-4.0487
 30
144.2394
 70
192
 0
VERTEX
 8
MANIGLIA
 10
32.3499
 20
-4.0487
 30
144.2394
 70
192
 0
VERTEX
 8
MANIGLIA
 10
-32.3499
 20
-4.2618
 30
144.3087
 70
192
 0
VERTEX
 8
MANIGLIA
 10
-28.386
 20
-4.2618
 30
144.3087
 70
192
 0
VERTEX
 8
MANIGLIA
 10
28.3859
 20
-4.2618
 30
144.3087
 70
192
 0
VERTEX
 8
MANIGLIA
 10
32.3499
 20
-4.2618
 30
144.3087
 70
192
 0
VERTEX
 8
MANIGLIA
 10
-32.3499
 20
-4.4839
 30
144.3387
 70
192
 0
VERTEX
 8
MANIGLIA
 10
-28.386
 20
-4.4839
 30
144.3387
 70
192
 0
VERTEX
 8
MANIGLIA
 10
28.3859
 20
-4.4839
 30
144.3387
 70
192
 0
VERTEX
 8
MANIGLIA
 10
32.3499
 20
-4.4839
 30
144.3387
 70
192
 0
VERTEX
 8
MANIGLIA
 10
-32.3499
 20
-4.7078
 30
144.3287
 70
192
 0
VERTEX
 8
MANIGLIA
 10
-28.386
 20
-4.7078
 30
144.3287
 70
192
 0
VERTEX
 8
MANIGLIA
 10
28.3859
 20
-4.7078
 30
144.3287
 70
192
 0
VERTEX
 8
MANIGLIA
 10
32.3499
 20
-4.7078
 30
144.3287
 70
192
 0
VERTEX
 8
MANIGLIA
 10
-32.3499
 20
-4.9263
 30
144.2788
 70
192
 0
VERTEX
 8
MANIGLIA
 10
-28.386
 20
-4.9263
 30
144.2788
 70
192
 0
VERTEX
 8
MANIGLIA
 10
28.3859
 20
-4.9263
 30
144.2788
 70
192
 0
VERTEX
 8
MANIGLIA
 10
32.3499
 20
-4.9263
 30
144.2788
 70
192
 0
VERTEX
 8
MANIGLIA
 10
-32.3499
 20
-5.1323
 30
144.1907
 70
192
 0
VERTEX
 8
MANIGLIA
 10
-28.386
 20
-5.1323
 30
144.1907
 70
192
 0
VERTEX
 8
MANIGLIA
 10
28.3859
 20
-5.1323
 30
144.1907
 70
192
 0
VERTEX
 8
MANIGLIA
 10
32.3499
 20
-5.1323
 30
144.1907
 70
192
 0
VERTEX
 8
MANIGLIA
 10
-32.3499
 20
-5.3194
 30
144.0673
 70
192
 0
VERTEX
 8
MANIGLIA
 10
-28.386
 20
-5.3194
 30
144.0673
 70
192
 0
VERTEX
 8
MANIGLIA
 10
28.3859
 20
-5.3194
 30
144.0673
 70
192
 0
VERTEX
 8
MANIGLIA
 10
32.3499
 20
-5.3194
 30
144.0673
 70
192
 0
VERTEX
 8
MANIGLIA
 10
-32.3499
 20
-5.4813
 30
143.9124
 70
192
 0
VERTEX
 8
MANIGLIA
 10
-28.386
 20
-5.4813
 30
143.9124
 70
192
 0
VERTEX
 8
MANIGLIA
 10
28.3859
 20
-5.4813
 30
143.9124
 70
192
 0
VERTEX
 8
MANIGLIA
 10
32.3499
 20
-5.4813
 30
143.9124
 70
192
 0
VERTEX
 8
MANIGLIA
 10
-32.3499
 20
-5.6131
 30
143.7311
 70
192
 0
VERTEX
 8
MANIGLIA
 10
-28.386
 20
-5.6131
 30
143.7311
 70
192
 0
VERTEX
 8
MANIGLIA
 10
28.3859
 20
-5.6131
 30
143.7311
 70
192
 0
VERTEX
 8
MANIGLIA
 10
32.3499
 20
-5.6131
 30
143.7311
 70
192
 0
VERTEX
 8
MANIGLIA
 10
-32.3499
 20
-5.7103
 30
143.5292
 70
192
 0
VERTEX
 8
MANIGLIA
 10
-28.386
 20
-5.7103
 30
143.5292
 70
192
 0
VERTEX
 8
MANIGLIA
 10
28.3859
 20
-5.7103
 30
143.5292
 70
192
 0
VERTEX
 8
MANIGLIA
 10
32.3499
 20
-5.7103
 30
143.5292
 70
192
 0
VERTEX
 8
MANIGLIA
 10
-32.3499
 20
-5.7699
 30
143.3132
 70
192
 0
VERTEX
 8
MANIGLIA
 10
-28.386
 20
-5.7699
 30
143.3132
 70
192
 0
VERTEX
 8
MANIGLIA
 10
28.3859
 20
-5.7699
 30
143.3132
 70
192
 0
VERTEX
 8
MANIGLIA
 10
32.3499
 20
-5.7699
 30
143.3132
 70
192
 0
VERTEX
 8
MANIGLIA
 10
-32.3499
 20
-0.29
 30
142.0468
 70
192
 0
VERTEX
 8
MANIGLIA
 10
-28.386
 20
-0.29
 30
142.0468
 70
192
 0
VERTEX
 8
MANIGLIA
 10
-32.3499
 20
-0.29
 30
142.1865
 70
192
 0
VERTEX
 8
MANIGLIA
 10
-28.386
 20
-0.29
 30
142.1865
 70
192
 0
VERTEX
 8
MANIGLIA
 10
-32.3499
 20
-0.29
 30
142.3553
 70
192
 0
VERTEX
 8
MANIGLIA
 10
-28.386
 20
-0.29
 30
142.3553
 70
192
 0
VERTEX
 8
MANIGLIA
 10
-32.3499
 20
-0.29
 30
142.5476
 70
192
 0
VERTEX
 8
MANIGLIA
 10
-28.386
 20
-0.29
 30
142.5476
 70
192
 0
VERTEX
 8
MANIGLIA
 10
-32.3499
 20
-0.29
 30
142.7575
 70
192
 0
VERTEX
 8
MANIGLIA
 10
-28.386
 20
-0.29
 30
142.7575
 70
192
 0
VERTEX
 8
MANIGLIA
 10
-32.3499
 20
-0.29
 30
142.978
 70
192
 0
VERTEX
 8
MANIGLIA
 10
-28.386
 20
-0.29
 30
142.978
 70
192
 0
VERTEX
 8
MANIGLIA
 10
-32.3499
 20
-0.29
 30
143.202
 70
192
 0
VERTEX
 8
MANIGLIA
 10
-28.386
 20
-0.29
 30
143.202
 70
192
 0
VERTEX
 8
MANIGLIA
 10
-32.3499
 20
-0.29
 30
143.4225
 70
192
 0
VERTEX
 8
MANIGLIA
 10
-28.386
 20
-0.29
 30
143.4225
 70
192
 0
VERTEX
 8
MANIGLIA
 10
-32.3499
 20
-0.29
 30
143.6324
 70
192
 0
VERTEX
 8
MANIGLIA
 10
-28.386
 20
-0.29
 30
143.6324
 70
192
 0
VERTEX
 8
MANIGLIA
 10
-32.3499
 20
-0.29
 30
143.8247
 70
192
 0
VERTEX
 8
MANIGLIA
 10
-28.386
 20
-0.29
 30
143.8247
 70
192
 0
VERTEX
 8
MANIGLIA
 10
-32.3499
 20
-0.29
 30
143.9935
 70
192
 0
VERTEX
 8
MANIGLIA
 10
-28.386
 20
-0.29
 30
143.9935
 70
192
 0
VERTEX
 8
MANIGLIA
 10
-32.3499
 20
-0.29
 30
144.1332
 70
192
 0
VERTEX
 8
MANIGLIA
 10
-28.386
 20
-0.29
 30
144.1332
 70
192
 0
VERTEX
 8
MANIGLIA
 10
28.3859
 20
-0.29
 30
142.0468
 70
192
 0
VERTEX
 8
MANIGLIA
 10
32.3499
 20
-0.29
 30
142.0468
 70
192
 0
VERTEX
 8
MANIGLIA
 10
28.3859
 20
-0.29
 30
142.1865
 70
192
 0
VERTEX
 8
MANIGLIA
 10
32.3499
 20
-0.29
 30
142.1865
 70
192
 0
VERTEX
 8
MANIGLIA
 10
28.3859
 20
-0.29
 30
142.3553
 70
192
 0
VERTEX
 8
MANIGLIA
 10
32.3499
 20
-0.29
 30
142.3553
 70
192
 0
VERTEX
 8
MANIGLIA
 10
28.3859
 20
-0.29
 30
142.5476
 70
192
 0
VERTEX
 8
MANIGLIA
 10
32.3499
 20
-0.29
 30
142.5476
 70
192
 0
VERTEX
 8
MANIGLIA
 10
28.3859
 20
-0.29
 30
142.7575
 70
192
 0
VERTEX
 8
MANIGLIA
 10
32.3499
 20
-0.29
 30
142.7575
 70
192
 0
VERTEX
 8
MANIGLIA
 10
28.3859
 20
-0.29
 30
142.978
 70
192
 0
VERTEX
 8
MANIGLIA
 10
32.3499
 20
-0.29
 30
142.978
 70
192
 0
VERTEX
 8
MANIGLIA
 10
28.3859
 20
-0.29
 30
143.202
 70
192
 0
VERTEX
 8
MANIGLIA
 10
32.3499
 20
-0.29
 30
143.202
 70
192
 0
VERTEX
 8
MANIGLIA
 10
28.3859
 20
-0.29
 30
143.4225
 70
192
 0
VERTEX
 8
MANIGLIA
 10
32.3499
 20
-0.29
 30
143.4225
 70
192
 0
VERTEX
 8
MANIGLIA
 10
28.3859
 20
-0.29
 30
143.6324
 70
192
 0
VERTEX
 8
MANIGLIA
 10
32.3499
 20
-0.29
 30
143.6324
 70
192
 0
VERTEX
 8
MANIGLIA
 10
28.3859
 20
-0.29
 30
143.8247
 70
192
 0
VERTEX
 8
MANIGLIA
 10
32.3499
 20
-0.29
 30
143.8247
 70
192
 0
VERTEX
 8
MANIGLIA
 10
28.3859
 20
-0.29
 30
143.9935
 70
192
 0
VERTEX
 8
MANIGLIA
 10
32.3499
 20
-0.29
 30
143.9935
 70
192
 0
VERTEX
 8
MANIGLIA
 10
28.3859
 20
-0.29
 30
144.1332
 70
192
 0
VERTEX
 8
MANIGLIA
 10
32.3499
 20
-0.29
 30
144.1332
 70
192
 0
VERTEX
 8
MANIGLIA
 10
0
 20
0
 30
0
 70
128
 71
1
 72
3
 73
7
 74
7
 0
VERTEX
 8
MANIGLIA
 10
0
 20
0
 30
0
 70
128
 71
3
 72
4
 73
8
 74
7
 0
VERTEX
 8
MANIGLIA
 10
0
 20
0
 30
0
 70
128
 71
4
 72
5
 73
9
 74
8
 0
VERTEX
 8
MANIGLIA
 10
0
 20
0
 30
0
 70
128
 71
5
 72
6
 73
10
 74
9
 0
VERTEX
 8
MANIGLIA
 10
0
 20
0
 30
0
 70
128
 71
6
 72
2
 73
10
 74
10
 0
VERTEX
 8
MANIGLIA
 10
0
 20
0
 30
0
 70
128
 71
1
 72
7
 73
11
 74
11
 0
VERTEX
 8
MANIGLIA
 10
0
 20
0
 30
0
 70
128
 71
7
 72
8
 73
12
 74
11
 0
VERTEX
 8
MANIGLIA
 10
0
 20
0
 30
0
 70
128
 71
8
 72
9
 73
13
 74
12
 0
VERTEX
 8
MANIGLIA
 10
0
 20
0
 30
0
 70
128
 71
9
 72
10
 73
14
 74
13
 0
VERTEX
 8
MANIGLIA
 10
0
 20
0
 30
0
 70
128
 71
10
 72
2
 73
14
 74
14
 0
VERTEX
 8
MANIGLIA
 10
0
 20
0
 30
0
 70
128
 71
1
 72
11
 73
15
 74
15
 0
VERTEX
 8
MANIGLIA
 10
0
 20
0
 30
0
 70
128
 71
11
 72
12
 73
16
 74
15
 0
VERTEX
 8
MANIGLIA
 10
0
 20
0
 30
0
 70
128
 71
12
 72
13
 73
17
 74
16
 0
VERTEX
 8
MANIGLIA
 10
0
 20
0
 30
0
 70
128
 71
13
 72
14
 73
18
 74
17
 0
VERTEX
 8
MANIGLIA
 10
0
 20
0
 30
0
 70
128
 71
14
 72
2
 73
18
 74
18
 0
VERTEX
 8
MANIGLIA
 10
0
 20
0
 30
0
 70
128
 71
1
 72
15
 73
19
 74
19
 0
VERTEX
 8
MANIGLIA
 10
0
 20
0
 30
0
 70
128
 71
15
 72
16
 73
20
 74
19
 0
VERTEX
 8
MANIGLIA
 10
0
 20
0
 30
0
 70
128
 71
16
 72
17
 73
21
 74
20
 0
VERTEX
 8
MANIGLIA
 10
0
 20
0
 30
0
 70
128
 71
17
 72
18
 73
22
 74
21
 0
VERTEX
 8
MANIGLIA
 10
0
 20
0
 30
0
 70
128
 71
18
 72
2
 73
22
 74
22
 0
VERTEX
 8
MANIGLIA
 10
0
 20
0
 30
0
 70
128
 71
1
 72
19
 73
23
 74
23
 0
VERTEX
 8
MANIGLIA
 10
0
 20
0
 30
0
 70
128
 71
19
 72
20
 73
24
 74
23
 0
VERTEX
 8
MANIGLIA
 10
0
 20
0
 30
0
 70
128
 71
20
 72
21
 73
25
 74
24
 0
VERTEX
 8
MANIGLIA
 10
0
 20
0
 30
0
 70
128
 71
21
 72
22
 73
26
 74
25
 0
VERTEX
 8
MANIGLIA
 10
0
 20
0
 30
0
 70
128
 71
22
 72
2
 73
26
 74
26
 0
VERTEX
 8
MANIGLIA
 10
0
 20
0
 30
0
 70
128
 71
1
 72
23
 73
27
 74
27
 0
VERTEX
 8
MANIGLIA
 10
0
 20
0
 30
0
 70
128
 71
23
 72
24
 73
28
 74
27
 0
VERTEX
 8
MANIGLIA
 10
0
 20
0
 30
0
 70
128
 71
24
 72
25
 73
29
 74
28
 0
VERTEX
 8
MANIGLIA
 10
0
 20
0
 30
0
 70
128
 71
25
 72
26
 73
30
 74
29
 0
VERTEX
 8
MANIGLIA
 10
0
 20
0
 30
0
 70
128
 71
26
 72
2
 73
30
 74
30
 0
VERTEX
 8
MANIGLIA
 10
0
 20
0
 30
0
 70
128
 71
1
 72
27
 73
31
 74
31
 0
VERTEX
 8
MANIGLIA
 10
0
 20
0
 30
0
 70
128
 71
27
 72
28
 73
32
 74
31
 0
VERTEX
 8
MANIGLIA
 10
0
 20
0
 30
0
 70
128
 71
28
 72
29
 73
33
 74
32
 0
VERTEX
 8
MANIGLIA
 10
0
 20
0
 30
0
 70
128
 71
29
 72
30
 73
34
 74
33
 0
VERTEX
 8
MANIGLIA
 10
0
 20
0
 30
0
 70
128
 71
30
 72
2
 73
34
 74
34
 0
VERTEX
 8
MANIGLIA
 10
0
 20
0
 30
0
 70
128
 71
1
 72
31
 73
35
 74
35
 0
VERTEX
 8
MANIGLIA
 10
0
 20
0
 30
0
 70
128
 71
31
 72
32
 73
36
 74
35
 0
VERTEX
 8
MANIGLIA
 10
0
 20
0
 30
0
 70
128
 71
32
 72
33
 73
37
 74
36
 0
VERTEX
 8
MANIGLIA
 10
0
 20
0
 30
0
 70
128
 71
33
 72
34
 73
38
 74
37
 0
VERTEX
 8
MANIGLIA
 10
0
 20
0
 30
0
 70
128
 71
34
 72
2
 73
38
 74
38
 0
VERTEX
 8
MANIGLIA
 10
0
 20
0
 30
0
 70
128
 71
1
 72
35
 73
39
 74
39
 0
VERTEX
 8
MANIGLIA
 10
0
 20
0
 30
0
 70
128
 71
35
 72
36
 73
40
 74
39
 0
VERTEX
 8
MANIGLIA
 10
0
 20
0
 30
0
 70
128
 71
36
 72
37
 73
41
 74
40
 0
VERTEX
 8
MANIGLIA
 10
0
 20
0
 30
0
 70
128
 71
37
 72
38
 73
42
 74
41
 0
VERTEX
 8
MANIGLIA
 10
0
 20
0
 30
0
 70
128
 71
38
 72
2
 73
42
 74
42
 0
VERTEX
 8
MANIGLIA
 10
0
 20
0
 30
0
 70
128
 71
1
 72
39
 73
43
 74
43
 0
VERTEX
 8
MANIGLIA
 10
0
 20
0
 30
0
 70
128
 71
39
 72
40
 73
44
 74
43
 0
VERTEX
 8
MANIGLIA
 10
0
 20
0
 30
0
 70
128
 71
40
 72
41
 73
45
 74
44
 0
VERTEX
 8
MANIGLIA
 10
0
 20
0
 30
0
 70
128
 71
41
 72
42
 73
46
 74
45
 0
VERTEX
 8
MANIGLIA
 10
0
 20
0
 30
0
 70
128
 71
42
 72
2
 73
46
 74
46
 0
VERTEX
 8
MANIGLIA
 10
0
 20
0
 30
0
 70
128
 71
1
 72
43
 73
47
 74
47
 0
VERTEX
 8
MANIGLIA
 10
0
 20
0
 30
0
 70
128
 71
43
 72
44
 73
48
 74
47
 0
VERTEX
 8
MANIGLIA
 10
0
 20
0
 30
0
 70
128
 71
44
 72
45
 73
49
 74
48
 0
VERTEX
 8
MANIGLIA
 10
0
 20
0
 30
0
 70
128
 71
45
 72
46
 73
50
 74
49
 0
VERTEX
 8
MANIGLIA
 10
0
 20
0
 30
0
 70
128
 71
46
 72
2
 73
50
 74
50
 0
VERTEX
 8
MANIGLIA
 10
0
 20
0
 30
0
 70
128
 71
1
 72
47
 73
51
 74
51
 0
VERTEX
 8
MANIGLIA
 10
0
 20
0
 30
0
 70
128
 71
47
 72
48
 73
52
 74
51
 0
VERTEX
 8
MANIGLIA
 10
0
 20
0
 30
0
 70
128
 71
48
 72
49
 73
53
 74
52
 0
VERTEX
 8
MANIGLIA
 10
0
 20
0
 30
0
 70
128
 71
49
 72
50
 73
54
 74
53
 0
VERTEX
 8
MANIGLIA
 10
0
 20
0
 30
0
 70
128
 71
50
 72
2
 73
54
 74
54
 0
VERTEX
 8
MANIGLIA
 10
0
 20
0
 30
0
 70
128
 71
1
 72
51
 73
55
 74
55
 0
VERTEX
 8
MANIGLIA
 10
0
 20
0
 30
0
 70
128
 71
143
 72
144
 73
146
 74
145
 0
VERTEX
 8
MANIGLIA
 10
0
 20
0
 30
0
 70
128
 71
52
 72
53
 73
57
 74
56
 0
VERTEX
 8
MANIGLIA
 10
0
 20
0
 30
0
 70
128
 71
167
 72
168
 73
170
 74
169
 0
VERTEX
 8
MANIGLIA
 10
0
 20
0
 30
0
 70
128
 71
54
 72
2
 73
58
 74
58
 0
VERTEX
 8
MANIGLIA
 10
0
 20
0
 30
0
 70
128
 71
1
 72
55
 73
59
 74
59
 0
VERTEX
 8
MANIGLIA
 10
0
 20
0
 30
0
 70
128
 71
145
 72
146
 73
148
 74
147
 0
VERTEX
 8
MANIGLIA
 10
0
 20
0
 30
0
 70
128
 71
56
 72
57
 73
61
 74
60
 0
VERTEX
 8
MANIGLIA
 10
0
 20
0
 30
0
 70
128
 71
169
 72
170
 73
172
 74
171
 0
VERTEX
 8
MANIGLIA
 10
0
 20
0
 30
0
 70
128
 71
58
 72
2
 73
62
 74
62
 0
VERTEX
 8
MANIGLIA
 10
0
 20
0
 30
0
 70
128
 71
1
 72
59
 73
63
 74
63
 0
VERTEX
 8
MANIGLIA
 10
0
 20
0
 30
0
 70
128
 71
147
 72
148
 73
150
 74
149
 0
VERTEX
 8
MANIGLIA
 10
0
 20
0
 30
0
 70
128
 71
60
 72
61
 73
65
 74
64
 0
VERTEX
 8
MANIGLIA
 10
0
 20
0
 30
0
 70
128
 71
171
 72
172
 73
174
 74
173
 0
VERTEX
 8
MANIGLIA
 10
0
 20
0
 30
0
 70
128
 71
62
 72
2
 73
66
 74
66
 0
VERTEX
 8
MANIGLIA
 10
0
 20
0
 30
0
 70
128
 71
1
 72
63
 73
67
 74
67
 0
VERTEX
 8
MANIGLIA
 10
0
 20
0
 30
0
 70
128
 71
149
 72
150
 73
152
 74
151
 0
VERTEX
 8
MANIGLIA
 10
0
 20
0
 30
0
 70
128
 71
64
 72
65
 73
69
 74
68
 0
VERTEX
 8
MANIGLIA
 10
0
 20
0
 30
0
 70
128
 71
173
 72
174
 73
176
 74
175
 0
VERTEX
 8
MANIGLIA
 10
0
 20
0
 30
0
 70
128
 71
66
 72
2
 73
70
 74
70
 0
VERTEX
 8
MANIGLIA
 10
0
 20
0
 30
0
 70
128
 71
1
 72
67
 73
71
 74
71
 0
VERTEX
 8
MANIGLIA
 10
0
 20
0
 30
0
 70
128
 71
151
 72
152
 73
154
 74
153
 0
VERTEX
 8
MANIGLIA
 10
0
 20
0
 30
0
 70
128
 71
68
 72
69
 73
73
 74
72
 0
VERTEX
 8
MANIGLIA
 10
0
 20
0
 30
0
 70
128
 71
175
 72
176
 73
178
 74
177
 0
VERTEX
 8
MANIGLIA
 10
0
 20
0
 30
0
 70
128
 71
70
 72
2
 73
74
 74
74
 0
VERTEX
 8
MANIGLIA
 10
0
 20
0
 30
0
 70
128
 71
1
 72
71
 73
75
 74
75
 0
VERTEX
 8
MANIGLIA
 10
0
 20
0
 30
0
 70
128
 71
153
 72
154
 73
156
 74
155
 0
VERTEX
 8
MANIGLIA
 10
0
 20
0
 30
0
 70
128
 71
72
 72
73
 73
77
 74
76
 0
VERTEX
 8
MANIGLIA
 10
0
 20
0
 30
0
 70
128
 71
177
 72
178
 73
180
 74
179
 0
VERTEX
 8
MANIGLIA
 10
0
 20
0
 30
0
 70
128
 71
74
 72
2
 73
78
 74
78
 0
VERTEX
 8
MANIGLIA
 10
0
 20
0
 30
0
 70
128
 71
1
 72
75
 73
79
 74
79
 0
VERTEX
 8
MANIGLIA
 10
0
 20
0
 30
0
 70
128
 71
155
 72
156
 73
158
 74
157
 0
VERTEX
 8
MANIGLIA
 10
0
 20
0
 30
0
 70
128
 71
76
 72
77
 73
81
 74
80
 0
VERTEX
 8
MANIGLIA
 10
0
 20
0
 30
0
 70
128
 71
179
 72
180
 73
182
 74
181
 0
VERTEX
 8
MANIGLIA
 10
0
 20
0
 30
0
 70
128
 71
78
 72
2
 73
82
 74
82
 0
VERTEX
 8
MANIGLIA
 10
0
 20
0
 30
0
 70
128
 71
1
 72
79
 73
83
 74
83
 0
VERTEX
 8
MANIGLIA
 10
0
 20
0
 30
0
 70
128
 71
157
 72
158
 73
160
 74
159
 0
VERTEX
 8
MANIGLIA
 10
0
 20
0
 30
0
 70
128
 71
80
 72
81
 73
85
 74
84
 0
VERTEX
 8
MANIGLIA
 10
0
 20
0
 30
0
 70
128
 71
181
 72
182
 73
184
 74
183
 0
VERTEX
 8
MANIGLIA
 10
0
 20
0
 30
0
 70
128
 71
82
 72
2
 73
86
 74
86
 0
VERTEX
 8
MANIGLIA
 10
0
 20
0
 30
0
 70
128
 71
1
 72
83
 73
87
 74
87
 0
VERTEX
 8
MANIGLIA
 10
0
 20
0
 30
0
 70
128
 71
159
 72
160
 73
162
 74
161
 0
VERTEX
 8
MANIGLIA
 10
0
 20
0
 30
0
 70
128
 71
84
 72
85
 73
89
 74
88
 0
VERTEX
 8
MANIGLIA
 10
0
 20
0
 30
0
 70
128
 71
183
 72
184
 73
186
 74
185
 0
VERTEX
 8
MANIGLIA
 10
0
 20
0
 30
0
 70
128
 71
86
 72
2
 73
90
 74
90
 0
VERTEX
 8
MANIGLIA
 10
0
 20
0
 30
0
 70
128
 71
1
 72
87
 73
91
 74
91
 0
VERTEX
 8
MANIGLIA
 10
0
 20
0
 30
0
 70
128
 71
161
 72
162
 73
164
 74
163
 0
VERTEX
 8
MANIGLIA
 10
0
 20
0
 30
0
 70
128
 71
88
 72
89
 73
93
 74
92
 0
VERTEX
 8
MANIGLIA
 10
0
 20
0
 30
0
 70
128
 71
185
 72
186
 73
188
 74
187
 0
VERTEX
 8
MANIGLIA
 10
0
 20
0
 30
0
 70
128
 71
90
 72
2
 73
94
 74
94
 0
VERTEX
 8
MANIGLIA
 10
0
 20
0
 30
0
 70
128
 71
1
 72
91
 73
95
 74
95
 0
VERTEX
 8
MANIGLIA
 10
0
 20
0
 30
0
 70
128
 71
163
 72
164
 73
166
 74
165
 0
VERTEX
 8
MANIGLIA
 10
0
 20
0
 30
0
 70
128
 71
92
 72
93
 73
97
 74
96
 0
VERTEX
 8
MANIGLIA
 10
0
 20
0
 30
0
 70
128
 71
187
 72
188
 73
190
 74
189
 0
VERTEX
 8
MANIGLIA
 10
0
 20
0
 30
0
 70
128
 71
94
 72
2
 73
98
 74
98
 0
VERTEX
 8
MANIGLIA
 10
0
 20
0
 30
0
 70
128
 71
1
 72
95
 73
99
 74
99
 0
VERTEX
 8
MANIGLIA
 10
0
 20
0
 30
0
 70
128
 71
95
 72
96
 73
100
 74
99
 0
VERTEX
 8
MANIGLIA
 10
0
 20
0
 30
0
 70
128
 71
96
 72
97
 73
101
 74
100
 0
VERTEX
 8
MANIGLIA
 10
0
 20
0
 30
0
 70
128
 71
97
 72
98
 73
102
 74
101
 0
VERTEX
 8
MANIGLIA
 10
0
 20
0
 30
0
 70
128
 71
98
 72
2
 73
102
 74
102
 0
VERTEX
 8
MANIGLIA
 10
0
 20
0
 30
0
 70
128
 71
1
 72
99
 73
103
 74
103
 0
VERTEX
 8
MANIGLIA
 10
0
 20
0
 30
0
 70
128
 71
99
 72
100
 73
104
 74
103
 0
VERTEX
 8
MANIGLIA
 10
0
 20
0
 30
0
 70
128
 71
100
 72
101
 73
105
 74
104
 0
VERTEX
 8
MANIGLIA
 10
0
 20
0
 30
0
 70
128
 71
101
 72
102
 73
106
 74
105
 0
VERTEX
 8
MANIGLIA
 10
0
 20
0
 30
0
 70
128
 71
102
 72
2
 73
106
 74
106
 0
VERTEX
 8
MANIGLIA
 10
0
 20
0
 30
0
 70
128
 71
1
 72
103
 73
107
 74
107
 0
VERTEX
 8
MANIGLIA
 10
0
 20
0
 30
0
 70
128
 71
103
 72
104
 73
108
 74
107
 0
VERTEX
 8
MANIGLIA
 10
0
 20
0
 30
0
 70
128
 71
104
 72
105
 73
109
 74
108
 0
VERTEX
 8
MANIGLIA
 10
0
 20
0
 30
0
 70
128
 71
105
 72
106
 73
110
 74
109
 0
VERTEX
 8
MANIGLIA
 10
0
 20
0
 30
0
 70
128
 71
106
 72
2
 73
110
 74
110
 0
VERTEX
 8
MANIGLIA
 10
0
 20
0
 30
0
 70
128
 71
1
 72
107
 73
111
 74
111
 0
VERTEX
 8
MANIGLIA
 10
0
 20
0
 30
0
 70
128
 71
107
 72
108
 73
112
 74
111
 0
VERTEX
 8
MANIGLIA
 10
0
 20
0
 30
0
 70
128
 71
108
 72
109
 73
113
 74
112
 0
VERTEX
 8
MANIGLIA
 10
0
 20
0
 30
0
 70
128
 71
109
 72
110
 73
114
 74
113
 0
VERTEX
 8
MANIGLIA
 10
0
 20
0
 30
0
 70
128
 71
110
 72
2
 73
114
 74
114
 0
VERTEX
 8
MANIGLIA
 10
0
 20
0
 30
0
 70
128
 71
1
 72
111
 73
115
 74
115
 0
VERTEX
 8
MANIGLIA
 10
0
 20
0
 30
0
 70
128
 71
111
 72
112
 73
116
 74
115
 0
VERTEX
 8
MANIGLIA
 10
0
 20
0
 30
0
 70
128
 71
112
 72
113
 73
117
 74
116
 0
VERTEX
 8
MANIGLIA
 10
0
 20
0
 30
0
 70
128
 71
113
 72
114
 73
118
 74
117
 0
VERTEX
 8
MANIGLIA
 10
0
 20
0
 30
0
 70
128
 71
114
 72
2
 73
118
 74
118
 0
VERTEX
 8
MANIGLIA
 10
0
 20
0
 30
0
 70
128
 71
1
 72
115
 73
119
 74
119
 0
VERTEX
 8
MANIGLIA
 10
0
 20
0
 30
0
 70
128
 71
115
 72
116
 73
120
 74
119
 0
VERTEX
 8
MANIGLIA
 10
0
 20
0
 30
0
 70
128
 71
116
 72
117
 73
121
 74
120
 0
VERTEX
 8
MANIGLIA
 10
0
 20
0
 30
0
 70
128
 71
117
 72
118
 73
122
 74
121
 0
VERTEX
 8
MANIGLIA
 10
0
 20
0
 30
0
 70
128
 71
118
 72
2
 73
122
 74
122
 0
VERTEX
 8
MANIGLIA
 10
0
 20
0
 30
0
 70
128
 71
1
 72
119
 73
123
 74
123
 0
VERTEX
 8
MANIGLIA
 10
0
 20
0
 30
0
 70
128
 71
119
 72
120
 73
124
 74
123
 0
VERTEX
 8
MANIGLIA
 10
0
 20
0
 30
0
 70
128
 71
120
 72
121
 73
125
 74
124
 0
VERTEX
 8
MANIGLIA
 10
0
 20
0
 30
0
 70
128
 71
121
 72
122
 73
126
 74
125
 0
VERTEX
 8
MANIGLIA
 10
0
 20
0
 30
0
 70
128
 71
122
 72
2
 73
126
 74
126
 0
VERTEX
 8
MANIGLIA
 10
0
 20
0
 30
0
 70
128
 71
1
 72
123
 73
127
 74
127
 0
VERTEX
 8
MANIGLIA
 10
0
 20
0
 30
0
 70
128
 71
123
 72
124
 73
128
 74
127
 0
VERTEX
 8
MANIGLIA
 10
0
 20
0
 30
0
 70
128
 71
124
 72
125
 73
129
 74
128
 0
VERTEX
 8
MANIGLIA
 10
0
 20
0
 30
0
 70
128
 71
125
 72
126
 73
130
 74
129
 0
VERTEX
 8
MANIGLIA
 10
0
 20
0
 30
0
 70
128
 71
126
 72
2
 73
130
 74
130
 0
VERTEX
 8
MANIGLIA
 10
0
 20
0
 30
0
 70
128
 71
1
 72
127
 73
131
 74
131
 0
VERTEX
 8
MANIGLIA
 10
0
 20
0
 30
0
 70
128
 71
127
 72
128
 73
132
 74
131
 0
VERTEX
 8
MANIGLIA
 10
0
 20
0
 30
0
 70
128
 71
128
 72
129
 73
133
 74
132
 0
VERTEX
 8
MANIGLIA
 10
0
 20
0
 30
0
 70
128
 71
129
 72
130
 73
134
 74
133
 0
VERTEX
 8
MANIGLIA
 10
0
 20
0
 30
0
 70
128
 71
130
 72
2
 73
134
 74
134
 0
VERTEX
 8
MANIGLIA
 10
0
 20
0
 30
0
 70
128
 71
1
 72
131
 73
135
 74
135
 0
VERTEX
 8
MANIGLIA
 10
0
 20
0
 30
0
 70
128
 71
131
 72
132
 73
136
 74
135
 0
VERTEX
 8
MANIGLIA
 10
0
 20
0
 30
0
 70
128
 71
132
 72
133
 73
137
 74
136
 0
VERTEX
 8
MANIGLIA
 10
0
 20
0
 30
0
 70
128
 71
133
 72
134
 73
138
 74
137
 0
VERTEX
 8
MANIGLIA
 10
0
 20
0
 30
0
 70
128
 71
134
 72
2
 73
138
 74
138
 0
VERTEX
 8
MANIGLIA
 10
0
 20
0
 30
0
 70
128
 71
1
 72
135
 73
139
 74
139
 0
VERTEX
 8
MANIGLIA
 10
0
 20
0
 30
0
 70
128
 71
135
 72
136
 73
140
 74
139
 0
VERTEX
 8
MANIGLIA
 10
0
 20
0
 30
0
 70
128
 71
136
 72
137
 73
141
 74
140
 0
VERTEX
 8
MANIGLIA
 10
0
 20
0
 30
0
 70
128
 71
137
 72
138
 73
142
 74
141
 0
VERTEX
 8
MANIGLIA
 10
0
 20
0
 30
0
 70
128
 71
138
 72
2
 73
142
 74
142
 0
VERTEX
 8
MANIGLIA
 10
0
 20
0
 30
0
 70
128
 71
1
 72
139
 73
3
 74
3
 0
VERTEX
 8
MANIGLIA
 10
0
 20
0
 30
0
 70
128
 71
139
 72
140
 73
4
 74
3
 0
VERTEX
 8
MANIGLIA
 10
0
 20
0
 30
0
 70
128
 71
140
 72
141
 73
5
 74
4
 0
VERTEX
 8
MANIGLIA
 10
0
 20
0
 30
0
 70
128
 71
141
 72
142
 73
6
 74
5
 0
VERTEX
 8
MANIGLIA
 10
0
 20
0
 30
0
 70
128
 71
142
 72
2
 73
6
 74
6
 0
VERTEX
 8
MANIGLIA
 10
0
 20
0
 30
0
 70
128
 71
143
 72
51
 73
52
 74
144
 0
VERTEX
 8
MANIGLIA
 10
0
 20
0
 30
0
 70
128
 71
144
 72
52
 73
56
 74
146
 0
VERTEX
 8
MANIGLIA
 10
0
 20
0
 30
0
 70
128
 71
145
 72
55
 73
51
 74
143
 0
VERTEX
 8
MANIGLIA
 10
0
 20
0
 30
0
 70
128
 71
146
 72
56
 73
60
 74
148
 0
VERTEX
 8
MANIGLIA
 10
0
 20
0
 30
0
 70
128
 71
147
 72
59
 73
55
 74
145
 0
VERTEX
 8
MANIGLIA
 10
0
 20
0
 30
0
 70
128
 71
148
 72
60
 73
64
 74
150
 0
VERTEX
 8
MANIGLIA
 10
0
 20
0
 30
0
 70
128
 71
149
 72
63
 73
59
 74
147
 0
VERTEX
 8
MANIGLIA
 10
0
 20
0
 30
0
 70
128
 71
150
 72
64
 73
68
 74
152
 0
VERTEX
 8
MANIGLIA
 10
0
 20
0
 30
0
 70
128
 71
151
 72
67
 73
63
 74
149
 0
VERTEX
 8
MANIGLIA
 10
0
 20
0
 30
0
 70
128
 71
152
 72
68
 73
72
 74
154
 0
VERTEX
 8
MANIGLIA
 10
0
 20
0
 30
0
 70
128
 71
153
 72
71
 73
67
 74
151
 0
VERTEX
 8
MANIGLIA
 10
0
 20
0
 30
0
 70
128
 71
154
 72
72
 73
76
 74
156
 0
VERTEX
 8
MANIGLIA
 10
0
 20
0
 30
0
 70
128
 71
155
 72
75
 73
71
 74
153
 0
VERTEX
 8
MANIGLIA
 10
0
 20
0
 30
0
 70
128
 71
156
 72
76
 73
80
 74
158
 0
VERTEX
 8
MANIGLIA
 10
0
 20
0
 30
0
 70
128
 71
157
 72
79
 73
75
 74
155
 0
VERTEX
 8
MANIGLIA
 10
0
 20
0
 30
0
 70
128
 71
158
 72
80
 73
84
 74
160
 0
VERTEX
 8
MANIGLIA
 10
0
 20
0
 30
0
 70
128
 71
159
 72
83
 73
79
 74
157
 0
VERTEX
 8
MANIGLIA
 10
0
 20
0
 30
0
 70
128
 71
160
 72
84
 73
88
 74
162
 0
VERTEX
 8
MANIGLIA
 10
0
 20
0
 30
0
 70
128
 71
161
 72
87
 73
83
 74
159
 0
VERTEX
 8
MANIGLIA
 10
0
 20
0
 30
0
 70
128
 71
162
 72
88
 73
92
 74
164
 0
VERTEX
 8
MANIGLIA
 10
0
 20
0
 30
0
 70
128
 71
163
 72
91
 73
87
 74
161
 0
VERTEX
 8
MANIGLIA
 10
0
 20
0
 30
0
 70
128
 71
164
 72
92
 73
96
 74
166
 0
VERTEX
 8
MANIGLIA
 10
0
 20
0
 30
0
 70
128
 71
166
 72
96
 73
95
 74
165
 0
VERTEX
 8
MANIGLIA
 10
0
 20
0
 30
0
 70
128
 71
165
 72
95
 73
91
 74
163
 0
VERTEX
 8
MANIGLIA
 10
0
 20
0
 30
0
 70
128
 71
167
 72
53
 73
54
 74
168
 0
VERTEX
 8
MANIGLIA
 10
0
 20
0
 30
0
 70
128
 71
168
 72
54
 73
58
 74
170
 0
VERTEX
 8
MANIGLIA
 10
0
 20
0
 30
0
 70
128
 71
169
 72
57
 73
53
 74
167
 0
VERTEX
 8
MANIGLIA
 10
0
 20
0
 30
0
 70
128
 71
170
 72
58
 73
62
 74
172
 0
VERTEX
 8
MANIGLIA
 10
0
 20
0
 30
0
 70
128
 71
171
 72
61
 73
57
 74
169
 0
VERTEX
 8
MANIGLIA
 10
0
 20
0
 30
0
 70
128
 71
172
 72
62
 73
66
 74
174
 0
VERTEX
 8
MANIGLIA
 10
0
 20
0
 30
0
 70
128
 71
173
 72
65
 73
61
 74
171
 0
VERTEX
 8
MANIGLIA
 10
0
 20
0
 30
0
 70
128
 71
174
 72
66
 73
70
 74
176
 0
VERTEX
 8
MANIGLIA
 10
0
 20
0
 30
0
 70
128
 71
175
 72
69
 73
65
 74
173
 0
VERTEX
 8
MANIGLIA
 10
0
 20
0
 30
0
 70
128
 71
176
 72
70
 73
74
 74
178
 0
VERTEX
 8
MANIGLIA
 10
0
 20
0
 30
0
 70
128
 71
177
 72
73
 73
69
 74
175
 0
VERTEX
 8
MANIGLIA
 10
0
 20
0
 30
0
 70
128
 71
178
 72
74
 73
78
 74
180
 0
VERTEX
 8
MANIGLIA
 10
0
 20
0
 30
0
 70
128
 71
179
 72
77
 73
73
 74
177
 0
VERTEX
 8
MANIGLIA
 10
0
 20
0
 30
0
 70
128
 71
180
 72
78
 73
82
 74
182
 0
VERTEX
 8
MANIGLIA
 10
0
 20
0
 30
0
 70
128
 71
181
 72
81
 73
77
 74
179
 0
VERTEX
 8
MANIGLIA
 10
0
 20
0
 30
0
 70
128
 71
182
 72
82
 73
86
 74
184
 0
VERTEX
 8
MANIGLIA
 10
0
 20
0
 30
0
 70
128
 71
183
 72
85
 73
81
 74
181
 0
VERTEX
 8
MANIGLIA
 10
0
 20
0
 30
0
 70
128
 71
184
 72
86
 73
90
 74
186
 0
VERTEX
 8
MANIGLIA
 10
0
 20
0
 30
0
 70
128
 71
185
 72
89
 73
85
 74
183
 0
VERTEX
 8
MANIGLIA
 10
0
 20
0
 30
0
 70
128
 71
186
 72
90
 73
94
 74
188
 0
VERTEX
 8
MANIGLIA
 10
0
 20
0
 30
0
 70
128
 71
187
 72
93
 73
89
 74
185
 0
VERTEX
 8
MANIGLIA
 10
0
 20
0
 30
0
 70
128
 71
188
 72
94
 73
98
 74
190
 0
VERTEX
 8
MANIGLIA
 10
0
 20
0
 30
0
 70
128
 71
190
 72
98
 73
97
 74
189
 0
VERTEX
 8
MANIGLIA
 10
0
 20
0
 30
0
 70
128
 71
189
 72
97
 73
93
 74
187
 0
SEQEND
 0
POLYLINE
 8
CUBO_1
 66
1
 10
0.0
 20
0.0
 30
0.0
 70
64
 71
120
 72
124
 0
VERTEX
 8
CUBO_1
 10
-37.7
 20
-0.29
 30
161.5149
 70
192
 0
VERTEX
 8
CUBO_1
 10
-37.7
 20
0.35
 30
161.5149
 70
192
 0
VERTEX
 8
CUBO_1
 10
37.7
 20
-0.29
 30
161.5149
 70
192
 0
VERTEX
 8
CUBO_1
 10
37.7
 20
0.35
 30
161.5149
 70
192
 0
VERTEX
 8
CUBO_1
 10
37.7
 20
-0.29
 30
148.2151
 70
192
 0
VERTEX
 8
CUBO_1
 10
37.7
 20
0.35
 30
148.2151
 70
192
 0
VERTEX
 8
CUBO_1
 10
-37.7
 20
-0.29
 30
148.2151
 70
192
 0
VERTEX
 8
CUBO_1
 10
-37.7
 20
0.35
 30
148.2151
 70
192
 0
VERTEX
 8
CUBO_1
 10
28.0953
 20
0.35
 30
161.5149
 70
192
 0
VERTEX
 8
CUBO_1
 10
28.0953
 20
-0.29
 30
161.5149
 70
192
 0
VERTEX
 8
CUBO_1
 10
28.0953
 20
0.35
 30
148.2151
 70
192
 0
VERTEX
 8
CUBO_1
 10
28.0953
 20
-0.29
 30
148.2151
 70
192
 0
VERTEX
 8
CUBO_1
 10
27.9
 20
0.35
 30
161.5149
 70
192
 0
VERTEX
 8
CUBO_1
 10
27.9
 20
-0.29
 30
161.5149
 70
192
 0
VERTEX
 8
CUBO_1
 10
27.9
 20
0.35
 30
148.2151
 70
192
 0
VERTEX
 8
CUBO_1
 10
27.9
 20
-0.29
 30
148.2151
 70
192
 0
VERTEX
 8
CUBO_1
 10
37.7
 20
0.35
 30
160.6104
 70
192
 0
VERTEX
 8
CUBO_1
 10
37.7
 20
-0.29
 30
160.6104
 70
192
 0
VERTEX
 8
CUBO_1
 10
-37.7
 20
0.35
 30
160.6104
 70
192
 0
VERTEX
 8
CUBO_1
 10
-37.7
 20
-0.29
 30
160.6104
 70
192
 0
VERTEX
 8
CUBO_1
 10
27.9
 20
0.35
 30
160.6104
 70
192
 0
VERTEX
 8
CUBO_1
 10
27.9
 20
-0.29
 30
160.6104
 70
192
 0
VERTEX
 8
CUBO_1
 10
28.0953
 20
0.35
 30
160.6104
 70
192
 0
VERTEX
 8
CUBO_1
 10
28.0953
 20
-0.29
 30
160.6104
 70
192
 0
VERTEX
 8
CUBO_1
 10
-37.7
 20
0.35
 30
160.4151
 70
192
 0
VERTEX
 8
CUBO_1
 10
-37.7
 20
-0.29
 30
160.4151
 70
192
 0
VERTEX
 8
CUBO_1
 10
27.9
 20
-0.15
 30
160.4151
 70
192
 0
VERTEX
 8
CUBO_1
 10
37.7
 20
0.35
 30
160.4151
 70
192
 0
VERTEX
 8
CUBO_1
 10
28.0953
 20
0.35
 30
160.4151
 70
192
 0
VERTEX
 8
CUBO_1
 10
27.9
 20
0.35
 30
160.4151
 70
192
 0
VERTEX
 8
CUBO_1
 10
37.7
 20
-0.29
 30
160.4151
 70
192
 0
VERTEX
 8
CUBO_1
 10
28.0953
 20
-0.29
 30
160.4151
 70
192
 0
VERTEX
 8
CUBO_1
 10
-27.9
 20
0.35
 30
161.5149
 70
192
 0
VERTEX
 8
CUBO_1
 10
-27.9
 20
-0.29
 30
161.5149
 70
192
 0
VERTEX
 8
CUBO_1
 10
-27.9
 20
0.35
 30
160.6104
 70
192
 0
VERTEX
 8
CUBO_1
 10
-27.9
 20
-0.15
 30
160.4151
 70
192
 0
VERTEX
 8
CUBO_1
 10
-27.9
 20
-0.29
 30
148.2151
 70
192
 0
VERTEX
 8
CUBO_1
 10
-27.9
 20
0.35
 30
148.2151
 70
192
 0
VERTEX
 8
CUBO_1
 10
-27.9
 20
0.35
 30
160.4151
 70
192
 0
VERTEX
 8
CUBO_1
 10
-27.9
 20
-0.29
 30
160.6104
 70
192
 0
VERTEX
 8
CUBO_1
 10
-37.7
 20
0.35
 30
149.3151
 70
192
 0
VERTEX
 8
CUBO_1
 10
-37.7
 20
-0.29
 30
149.3151
 70
192
 0
VERTEX
 8
CUBO_1
 10
-27.9
 20
-0.15
 30
149.3151
 70
192
 0
VERTEX
 8
CUBO_1
 10
37.7
 20
0.35
 30
149.3151
 70
192
 0
VERTEX
 8
CUBO_1
 10
28.0953
 20
0.35
 30
149.3151
 70
192
 0
VERTEX
 8
CUBO_1
 10
27.9
 20
0.35
 30
149.3151
 70
192
 0
VERTEX
 8
CUBO_1
 10
37.7
 20
-0.29
 30
149.3151
 70
192
 0
VERTEX
 8
CUBO_1
 10
-27.9
 20
0.35
 30
149.3151
 70
192
 0
VERTEX
 8
CUBO_1
 10
28.0953
 20
-0.29
 30
149.3151
 70
192
 0
VERTEX
 8
CUBO_1
 10
27.9
 20
-0.15
 30
149.3151
 70
192
 0
VERTEX
 8
CUBO_1
 10
-37.7
 20
0.35
 30
149.1197
 70
192
 0
VERTEX
 8
CUBO_1
 10
-37.7
 20
-0.29
 30
149.1197
 70
192
 0
VERTEX
 8
CUBO_1
 10
-27.9
 20
-0.29
 30
149.1197
 70
192
 0
VERTEX
 8
CUBO_1
 10
37.7
 20
0.35
 30
149.1197
 70
192
 0
VERTEX
 8
CUBO_1
 10
28.0953
 20
0.35
 30
149.1197
 70
192
 0
VERTEX
 8
CUBO_1
 10
27.9
 20
0.35
 30
149.1197
 70
192
 0
VERTEX
 8
CUBO_1
 10
-27.9
 20
0.35
 30
149.1197
 70
192
 0
VERTEX
 8
CUBO_1
 10
37.7
 20
-0.29
 30
149.1197
 70
192
 0
VERTEX
 8
CUBO_1
 10
28.0953
 20
-0.29
 30
149.1197
 70
192
 0
VERTEX
 8
CUBO_1
 10
27.9
 20
-0.29
 30
149.1197
 70
192
 0
VERTEX
 8
CUBO_1
 10
-28.0954
 20
0.35
 30
161.5149
 70
192
 0
VERTEX
 8
CUBO_1
 10
-28.0954
 20
-0.29
 30
161.5149
 70
192
 0
VERTEX
 8
CUBO_1
 10
-28.0954
 20
0.35
 30
160.6104
 70
192
 0
VERTEX
 8
CUBO_1
 10
-28.0954
 20
-0.29
 30
149.1197
 70
192
 0
VERTEX
 8
CUBO_1
 10
-28.0954
 20
-0.29
 30
148.2151
 70
192
 0
VERTEX
 8
CUBO_1
 10
-28.0954
 20
0.35
 30
160.4151
 70
192
 0
VERTEX
 8
CUBO_1
 10
-28.0954
 20
-0.29
 30
160.6104
 70
192
 0
VERTEX
 8
CUBO_1
 10
-28.0954
 20
-0.29
 30
160.4151
 70
192
 0
VERTEX
 8
CUBO_1
 10
-28.0954
 20
0.35
 30
149.3151
 70
192
 0
VERTEX
 8
CUBO_1
 10
-28.0954
 20
0.35
 30
148.2151
 70
192
 0
VERTEX
 8
CUBO_1
 10
-28.0954
 20
-0.29
 30
149.3151
 70
192
 0
VERTEX
 8
CUBO_1
 10
-28.0954
 20
0.35
 30
149.1197
 70
192
 0
VERTEX
 8
CUBO_1
 10
-3.5991
 20
0.35
 30
148.2151
 70
192
 0
VERTEX
 8
CUBO_1
 10
-3.5991
 20
-0.29
 30
148.2151
 70
192
 0
VERTEX
 8
CUBO_1
 10
-3.5991
 20
0.35
 30
161.5149
 70
192
 0
VERTEX
 8
CUBO_1
 10
-3.5991
 20
-0.29
 30
161.5149
 70
192
 0
VERTEX
 8
CUBO_1
 10
-3.5991
 20
0.35
 30
160.6104
 70
192
 0
VERTEX
 8
CUBO_1
 10
-3.5991
 20
-0.15
 30
160.4151
 70
192
 0
VERTEX
 8
CUBO_1
 10
-3.5991
 20
-0.15
 30
149.3151
 70
192
 0
VERTEX
 8
CUBO_1
 10
-3.5991
 20
0.35
 30
160.4151
 70
192
 0
VERTEX
 8
CUBO_1
 10
-3.5991
 20
-0.29
 30
160.6104
 70
192
 0
VERTEX
 8
CUBO_1
 10
-3.5991
 20
0.35
 30
149.1197
 70
192
 0
VERTEX
 8
CUBO_1
 10
-3.5991
 20
-0.29
 30
149.1197
 70
192
 0
VERTEX
 8
CUBO_1
 10
-3.5991
 20
0.35
 30
149.3151
 70
192
 0
VERTEX
 8
CUBO_1
 10
3.599
 20
0.35
 30
148.2151
 70
192
 0
VERTEX
 8
CUBO_1
 10
3.599
 20
-0.29
 30
148.2151
 70
192
 0
VERTEX
 8
CUBO_1
 10
3.599
 20
-0.29
 30
149.1197
 70
192
 0
VERTEX
 8
CUBO_1
 10
3.599
 20
-0.15
 30
149.3151
 70
192
 0
VERTEX
 8
CUBO_1
 10
3.599
 20
0.35
 30
160.4151
 70
192
 0
VERTEX
 8
CUBO_1
 10
3.599
 20
0.35
 30
149.3151
 70
192
 0
VERTEX
 8
CUBO_1
 10
3.599
 20
0.35
 30
149.1197
 70
192
 0
VERTEX
 8
CUBO_1
 10
3.599
 20
0.35
 30
161.5149
 70
192
 0
VERTEX
 8
CUBO_1
 10
3.599
 20
-0.29
 30
161.5149
 70
192
 0
VERTEX
 8
CUBO_1
 10
3.599
 20
0.35
 30
160.6104
 70
192
 0
VERTEX
 8
CUBO_1
 10
3.599
 20
-0.15
 30
160.4151
 70
192
 0
VERTEX
 8
CUBO_1
 10
3.599
 20
-0.29
 30
160.6104
 70
192
 0
VERTEX
 8
CUBO_1
 10
37.7
 20
0.35
 30
157.464
 70
192
 0
VERTEX
 8
CUBO_1
 10
37.7
 20
-0.29
 30
157.464
 70
192
 0
VERTEX
 8
CUBO_1
 10
-37.7
 20
0.35
 30
157.464
 70
192
 0
VERTEX
 8
CUBO_1
 10
-28.0954
 20
0.35
 30
157.464
 70
192
 0
VERTEX
 8
CUBO_1
 10
-27.9
 20
-0.15
 30
152.0661
 70
192
 0
VERTEX
 8
CUBO_1
 10
27.9
 20
-0.15
 30
152.0661
 70
192
 0
VERTEX
 8
CUBO_1
 10
28.0953
 20
-0.29
 30
157.464
 70
192
 0
VERTEX
 8
CUBO_1
 10
27.9
 20
-0.15
 30
157.464
 70
192
 0
VERTEX
 8
CUBO_1
 10
28.0953
 20
-0.29
 30
152.0661
 70
192
 0
VERTEX
 8
CUBO_1
 10
-27.9
 20
-0.15
 30
157.464
 70
192
 0
VERTEX
 8
CUBO_1
 10
-37.7
 20
-0.29
 30
157.464
 70
192
 0
VERTEX
 8
CUBO_1
 10
-28.0954
 20
-0.29
 30
157.464
 70
192
 0
VERTEX
 8
CUBO_1
 10
28.0953
 20
0.35
 30
157.464
 70
192
 0
VERTEX
 8
CUBO_1
 10
27.9
 20
0.35
 30
157.464
 70
192
 0
VERTEX
 8
CUBO_1
 10
-27.9
 20
0.35
 30
157.464
 70
192
 0
VERTEX
 8
CUBO_1
 10
-27.9
 20
0.35
 30
152.0661
 70
192
 0
VERTEX
 8
CUBO_1
 10
37.7
 20
0.35
 30
152.0661
 70
192
 0
VERTEX
 8
CUBO_1
 10
37.7
 20
-0.29
 30
152.0661
 70
192
 0
VERTEX
 8
CUBO_1
 10
-37.7
 20
0.35
 30
152.0661
 70
192
 0
VERTEX
 8
CUBO_1
 10
-37.7
 20
-0.29
 30
152.0661
 70
192
 0
VERTEX
 8
CUBO_1
 10
-28.0954
 20
0.35
 30
152.0661
 70
192
 0
VERTEX
 8
CUBO_1
 10
-28.0954
 20
-0.29
 30
152.0661
 70
192
 0
VERTEX
 8
CUBO_1
 10
28.0953
 20
0.35
 30
152.0661
 70
192
 0
VERTEX
 8
CUBO_1
 10
27.9
 20
0.35
 30
152.0661
 70
192
 0
VERTEX
 8
CUBO_1
 10
0
 20
0
 30
0
 70
128
 71
1
 72
2
 73
61
 74
62
 0
VERTEX
 8
CUBO_1
 10
0
 20
0
 30
0
 70
128
 71
3
 72
4
 73
17
 74
18
 0
VERTEX
 8
CUBO_1
 10
0
 20
0
 30
0
 70
128
 71
5
 72
6
 73
11
 74
12
 0
VERTEX
 8
CUBO_1
 10
0
 20
0
 30
0
 70
128
 71
7
 72
8
 73
51
 74
52
 0
VERTEX
 8
CUBO_1
 10
0
 20
0
 30
0
 70
128
 71
2
 72
19
 73
63
 74
61
 0
VERTEX
 8
CUBO_1
 10
0
 20
0
 30
0
 70
128
 71
7
 72
52
 73
64
 74
65
 0
VERTEX
 8
CUBO_1
 10
0
 20
0
 30
0
 70
128
 71
9
 72
4
 73
3
 74
10
 0
VERTEX
 8
CUBO_1
 10
0
 20
0
 30
0
 70
128
 71
11
 72
15
 73
16
 74
12
 0
VERTEX
 8
CUBO_1
 10
0
 20
0
 30
0
 70
128
 71
11
 72
6
 73
54
 74
55
 0
VERTEX
 8
CUBO_1
 10
0
 20
0
 30
0
 70
128
 71
10
 72
3
 73
18
 74
24
 0
VERTEX
 8
CUBO_1
 10
0
 20
0
 30
0
 70
128
 71
13
 72
9
 73
10
 74
14
 0
VERTEX
 8
CUBO_1
 10
0
 20
0
 30
0
 70
128
 71
15
 72
11
 73
55
 74
56
 0
VERTEX
 8
CUBO_1
 10
0
 20
0
 30
0
 70
128
 71
14
 72
10
 73
24
 74
22
 0
VERTEX
 8
CUBO_1
 10
0
 20
0
 30
0
 70
128
 71
15
 72
85
 73
86
 74
16
 0
VERTEX
 8
CUBO_1
 10
0
 20
0
 30
0
 70
128
 71
17
 72
28
 73
31
 74
18
 0
VERTEX
 8
CUBO_1
 10
0
 20
0
 30
0
 70
128
 71
19
 72
2
 73
1
 74
20
 0
VERTEX
 8
CUBO_1
 10
0
 20
0
 30
0
 70
128
 71
19
 72
25
 73
66
 74
63
 0
VERTEX
 8
CUBO_1
 10
0
 20
0
 30
0
 70
128
 71
20
 72
1
 73
62
 74
67
 0
VERTEX
 8
CUBO_1
 10
0
 20
0
 30
0
 70
128
 71
17
 72
4
 73
9
 74
23
 0
VERTEX
 8
CUBO_1
 10
0
 20
0
 30
0
 70
128
 71
18
 72
31
 73
32
 74
24
 0
VERTEX
 8
CUBO_1
 10
0
 20
0
 30
0
 70
128
 71
23
 72
9
 73
13
 74
21
 0
VERTEX
 8
CUBO_1
 10
0
 20
0
 30
0
 70
128
 71
24
 72
32
 73
22
 74
22
 0
VERTEX
 8
CUBO_1
 10
0
 20
0
 30
0
 70
128
 71
25
 72
19
 73
20
 74
26
 0
VERTEX
 8
CUBO_1
 10
0
 20
0
 30
0
 70
128
 71
26
 72
20
 73
67
 74
68
 0
VERTEX
 8
CUBO_1
 10
0
 20
0
 30
0
 70
128
 71
28
 72
17
 73
23
 74
29
 0
VERTEX
 8
CUBO_1
 10
0
 20
0
 30
0
 70
128
 71
29
 72
23
 73
21
 74
30
 0
VERTEX
 8
CUBO_1
 10
0
 20
0
 30
0
 70
128
 71
28
 72
97
 73
98
 74
31
 0
VERTEX
 8
CUBO_1
 10
0
 20
0
 30
0
 70
128
 71
25
 72
99
 73
100
 74
66
 0
VERTEX
 8
CUBO_1
 10
0
 20
0
 30
0
 70
128
 71
31
 72
98
 73
103
 74
32
 0
VERTEX
 8
CUBO_1
 10
0
 20
0
 30
0
 70
128
 71
32
 72
103
 73
104
 74
27
 0
VERTEX
 8
CUBO_1
 10
0
 20
0
 30
0
 70
128
 71
33
 72
75
 73
76
 74
34
 0
VERTEX
 8
CUBO_1
 10
0
 20
0
 30
0
 70
128
 71
35
 72
77
 73
75
 74
33
 0
VERTEX
 8
CUBO_1
 10
0
 20
0
 30
0
 70
128
 71
115
 72
99
 73
107
 74
116
 0
VERTEX
 8
CUBO_1
 10
0
 20
0
 30
0
 70
128
 71
38
 72
70
 73
65
 74
37
 0
VERTEX
 8
CUBO_1
 10
0
 20
0
 30
0
 70
128
 71
39
 72
80
 73
77
 74
35
 0
VERTEX
 8
CUBO_1
 10
0
 20
0
 30
0
 70
128
 71
34
 72
76
 73
81
 74
40
 0
VERTEX
 8
CUBO_1
 10
0
 20
0
 30
0
 70
128
 71
40
 72
81
 73
78
 74
36
 0
VERTEX
 8
CUBO_1
 10
0
 20
0
 30
0
 70
128
 71
38
 72
73
 73
82
 74
57
 0
VERTEX
 8
CUBO_1
 10
0
 20
0
 30
0
 70
128
 71
41
 72
115
 73
116
 74
42
 0
VERTEX
 8
CUBO_1
 10
0
 20
0
 30
0
 70
128
 71
42
 72
116
 73
118
 74
71
 0
VERTEX
 8
CUBO_1
 10
0
 20
0
 30
0
 70
128
 71
44
 72
113
 73
119
 74
45
 0
VERTEX
 8
CUBO_1
 10
0
 20
0
 30
0
 70
128
 71
45
 72
119
 73
120
 74
46
 0
VERTEX
 8
CUBO_1
 10
0
 20
0
 30
0
 70
128
 71
44
 72
54
 73
58
 74
47
 0
VERTEX
 8
CUBO_1
 10
0
 20
0
 30
0
 70
128
 71
41
 72
51
 73
72
 74
69
 0
VERTEX
 8
CUBO_1
 10
0
 20
0
 30
0
 70
128
 71
47
 72
58
 73
59
 74
49
 0
VERTEX
 8
CUBO_1
 10
0
 20
0
 30
0
 70
128
 71
49
 72
60
 73
50
 74
50
 0
VERTEX
 8
CUBO_1
 10
0
 20
0
 30
0
 70
128
 71
50
 72
60
 73
87
 74
88
 0
VERTEX
 8
CUBO_1
 10
0
 20
0
 30
0
 70
128
 71
113
 72
44
 73
47
 74
114
 0
VERTEX
 8
CUBO_1
 10
0
 20
0
 30
0
 70
128
 71
51
 72
41
 73
42
 74
52
 0
VERTEX
 8
CUBO_1
 10
0
 20
0
 30
0
 70
128
 71
52
 72
42
 73
71
 74
64
 0
VERTEX
 8
CUBO_1
 10
0
 20
0
 30
0
 70
128
 71
54
 72
44
 73
45
 74
55
 0
VERTEX
 8
CUBO_1
 10
0
 20
0
 30
0
 70
128
 71
55
 72
45
 73
46
 74
56
 0
VERTEX
 8
CUBO_1
 10
0
 20
0
 30
0
 70
128
 71
56
 72
46
 73
90
 74
91
 0
VERTEX
 8
CUBO_1
 10
0
 20
0
 30
0
 70
128
 71
54
 72
6
 73
5
 74
58
 0
VERTEX
 8
CUBO_1
 10
0
 20
0
 30
0
 70
128
 71
51
 72
8
 73
70
 74
72
 0
VERTEX
 8
CUBO_1
 10
0
 20
0
 30
0
 70
128
 71
58
 72
5
 73
12
 74
59
 0
VERTEX
 8
CUBO_1
 10
0
 20
0
 30
0
 70
128
 71
59
 72
12
 73
16
 74
60
 0
VERTEX
 8
CUBO_1
 10
0
 20
0
 30
0
 70
128
 71
60
 72
16
 73
86
 74
87
 0
VERTEX
 8
CUBO_1
 10
0
 20
0
 30
0
 70
128
 71
61
 72
33
 73
34
 74
62
 0
VERTEX
 8
CUBO_1
 10
0
 20
0
 30
0
 70
128
 71
63
 72
35
 73
33
 74
61
 0
VERTEX
 8
CUBO_1
 10
0
 20
0
 30
0
 70
128
 71
64
 72
53
 73
37
 74
65
 0
VERTEX
 8
CUBO_1
 10
0
 20
0
 30
0
 70
128
 71
66
 72
39
 73
35
 74
63
 0
VERTEX
 8
CUBO_1
 10
0
 20
0
 30
0
 70
128
 71
62
 72
34
 73
40
 74
67
 0
VERTEX
 8
CUBO_1
 10
0
 20
0
 30
0
 70
128
 71
67
 72
40
 73
68
 74
68
 0
VERTEX
 8
CUBO_1
 10
0
 20
0
 30
0
 70
128
 71
69
 72
48
 73
112
 74
117
 0
VERTEX
 8
CUBO_1
 10
0
 20
0
 30
0
 70
128
 71
70
 72
8
 73
7
 74
65
 0
VERTEX
 8
CUBO_1
 10
0
 20
0
 30
0
 70
128
 71
68
 72
36
 73
106
 74
108
 0
VERTEX
 8
CUBO_1
 10
0
 20
0
 30
0
 70
128
 71
72
 72
57
 73
48
 74
69
 0
VERTEX
 8
CUBO_1
 10
0
 20
0
 30
0
 70
128
 71
71
 72
43
 73
53
 74
53
 0
VERTEX
 8
CUBO_1
 10
0
 20
0
 30
0
 70
128
 71
70
 72
38
 73
57
 74
72
 0
VERTEX
 8
CUBO_1
 10
0
 20
0
 30
0
 70
128
 71
32
 72
27
 73
22
 74
22
 0
VERTEX
 8
CUBO_1
 10
0
 20
0
 30
0
 70
128
 71
40
 72
36
 73
68
 74
68
 0
VERTEX
 8
CUBO_1
 10
0
 20
0
 30
0
 70
128
 71
53
 72
64
 73
71
 74
71
 0
VERTEX
 8
CUBO_1
 10
0
 20
0
 30
0
 70
128
 71
49
 72
59
 73
60
 74
60
 0
VERTEX
 8
CUBO_1
 10
0
 20
0
 30
0
 70
128
 71
73
 72
38
 73
37
 74
74
 0
VERTEX
 8
CUBO_1
 10
0
 20
0
 30
0
 70
128
 71
75
 72
92
 73
93
 74
76
 0
VERTEX
 8
CUBO_1
 10
0
 20
0
 30
0
 70
128
 71
77
 72
94
 73
92
 74
75
 0
VERTEX
 8
CUBO_1
 10
0
 20
0
 30
0
 70
128
 71
115
 72
41
 73
69
 74
117
 0
VERTEX
 8
CUBO_1
 10
0
 20
0
 30
0
 70
128
 71
80
 72
89
 73
94
 74
77
 0
VERTEX
 8
CUBO_1
 10
0
 20
0
 30
0
 70
128
 71
76
 72
93
 73
96
 74
81
 0
VERTEX
 8
CUBO_1
 10
0
 20
0
 30
0
 70
128
 71
81
 72
96
 73
95
 74
78
 0
VERTEX
 8
CUBO_1
 10
0
 20
0
 30
0
 70
128
 71
73
 72
85
 73
91
 74
82
 0
VERTEX
 8
CUBO_1
 10
0
 20
0
 30
0
 70
128
 71
83
 72
53
 73
43
 74
79
 0
VERTEX
 8
CUBO_1
 10
0
 20
0
 30
0
 70
128
 71
116
 72
107
 73
108
 74
118
 0
VERTEX
 8
CUBO_1
 10
0
 20
0
 30
0
 70
128
 71
84
 72
48
 73
57
 74
82
 0
VERTEX
 8
CUBO_1
 10
0
 20
0
 30
0
 70
128
 71
74
 72
37
 73
53
 74
83
 0
VERTEX
 8
CUBO_1
 10
0
 20
0
 30
0
 70
128
 71
85
 72
73
 73
74
 74
86
 0
VERTEX
 8
CUBO_1
 10
0
 20
0
 30
0
 70
128
 71
87
 72
83
 73
79
 74
88
 0
VERTEX
 8
CUBO_1
 10
0
 20
0
 30
0
 70
128
 71
101
 72
43
 73
71
 74
118
 0
VERTEX
 8
CUBO_1
 10
0
 20
0
 30
0
 70
128
 71
90
 72
84
 73
82
 74
91
 0
VERTEX
 8
CUBO_1
 10
0
 20
0
 30
0
 70
128
 71
86
 72
74
 73
83
 74
87
 0
VERTEX
 8
CUBO_1
 10
0
 20
0
 30
0
 70
128
 71
92
 72
13
 73
14
 74
93
 0
VERTEX
 8
CUBO_1
 10
0
 20
0
 30
0
 70
128
 71
94
 72
21
 73
13
 74
92
 0
VERTEX
 8
CUBO_1
 10
0
 20
0
 30
0
 70
128
 71
105
 72
49
 73
50
 74
102
 0
VERTEX
 8
CUBO_1
 10
0
 20
0
 30
0
 70
128
 71
89
 72
30
 73
21
 74
94
 0
VERTEX
 8
CUBO_1
 10
0
 20
0
 30
0
 70
128
 71
93
 72
14
 73
22
 74
96
 0
VERTEX
 8
CUBO_1
 10
0
 20
0
 30
0
 70
128
 71
96
 72
22
 73
27
 74
95
 0
VERTEX
 8
CUBO_1
 10
0
 20
0
 30
0
 70
128
 71
85
 72
15
 73
56
 74
91
 0
VERTEX
 8
CUBO_1
 10
0
 20
0
 30
0
 70
128
 71
97
 72
113
 73
114
 74
98
 0
VERTEX
 8
CUBO_1
 10
0
 20
0
 30
0
 70
128
 71
99
 72
115
 73
117
 74
100
 0
VERTEX
 8
CUBO_1
 10
0
 20
0
 30
0
 70
128
 71
114
 72
47
 73
49
 74
105
 0
VERTEX
 8
CUBO_1
 10
0
 20
0
 30
0
 70
128
 71
98
 72
114
 73
105
 74
103
 0
VERTEX
 8
CUBO_1
 10
0
 20
0
 30
0
 70
128
 71
103
 72
105
 73
102
 74
104
 0
VERTEX
 8
CUBO_1
 10
0
 20
0
 30
0
 70
128
 71
112
 72
111
 73
100
 74
117
 0
VERTEX
 8
CUBO_1
 10
0
 20
0
 30
0
 70
128
 71
99
 72
25
 73
26
 74
107
 0
VERTEX
 8
CUBO_1
 10
0
 20
0
 30
0
 70
128
 71
107
 72
26
 73
68
 74
108
 0
VERTEX
 8
CUBO_1
 10
0
 20
0
 30
0
 70
128
 71
97
 72
28
 73
29
 74
109
 0
VERTEX
 8
CUBO_1
 10
0
 20
0
 30
0
 70
128
 71
109
 72
29
 73
30
 74
110
 0
VERTEX
 8
CUBO_1
 10
0
 20
0
 30
0
 70
128
 71
119
 72
109
 73
110
 74
120
 0
VERTEX
 8
CUBO_1
 10
0
 20
0
 30
0
 70
128
 71
111
 72
39
 73
66
 74
100
 0
VERTEX
 8
CUBO_1
 10
0
 20
0
 30
0
 70
128
 71
106
 72
101
 73
118
 74
108
 0
VERTEX
 8
CUBO_1
 10
0
 20
0
 30
0
 70
128
 71
113
 72
97
 73
109
 74
119
 0
VERTEX
 8
CUBO_1
 10
0
 20
0
 30
0
 70
128
 71
39
 72
111
 73
106
 74
36
 0
VERTEX
 8
CUBO_1
 10
0
 20
0
 30
0
 70
128
 71
111
 72
112
 73
101
 74
106
 0
VERTEX
 8
CUBO_1
 10
0
 20
0
 30
0
 70
128
 71
112
 72
48
 73
43
 74
101
 0
VERTEX
 8
CUBO_1
 10
0
 20
0
 30
0
 70
128
 71
48
 72
84
 73
79
 74
43
 0
VERTEX
 8
CUBO_1
 10
0
 20
0
 30
0
 70
128
 71
84
 72
90
 73
88
 74
79
 0
VERTEX
 8
CUBO_1
 10
0
 20
0
 30
0
 70
128
 71
90
 72
46
 73
50
 74
88
 0
VERTEX
 8
CUBO_1
 10
0
 20
0
 30
0
 70
128
 71
102
 72
50
 73
46
 74
120
 0
VERTEX
 8
CUBO_1
 10
0
 20
0
 30
0
 70
128
 71
104
 72
102
 73
120
 74
110
 0
VERTEX
 8
CUBO_1
 10
0
 20
0
 30
0
 70
128
 71
27
 72
104
 73
110
 74
30
 0
VERTEX
 8
CUBO_1
 10
0
 20
0
 30
0
 70
128
 71
95
 72
27
 73
30
 74
89
 0
VERTEX
 8
CUBO_1
 10
0
 20
0
 30
0
 70
128
 71
89
 72
80
 73
78
 74
95
 0
VERTEX
 8
CUBO_1
 10
0
 20
0
 30
0
 70
128
 71
80
 72
39
 73
36
 74
78
 0
SEQEND
 0
POLYLINE
 8
CUBO_5
 66
1
 10
0.0
 20
0.0
 30
0.0
 70
64
 71
32
 72
28
 0
VERTEX
 8
CUBO_5
 10
27.9
 20
-0.15
 30
160.4151
 70
192
 0
VERTEX
 8
CUBO_5
 10
27.9
 20
0.35
 30
160.4151
 70
192
 0
VERTEX
 8
CUBO_5
 10
-27.9
 20
-0.15
 30
160.4151
 70
192
 0
VERTEX
 8
CUBO_5
 10
-27.9
 20
0.35
 30
160.4151
 70
192
 0
VERTEX
 8
CUBO_5
 10
-27.9
 20
-0.15
 30
149.3151
 70
192
 0
VERTEX
 8
CUBO_5
 10
27.9
 20
0.35
 30
149.3151
 70
192
 0
VERTEX
 8
CUBO_5
 10
-27.9
 20
0.35
 30
149.3151
 70
192
 0
VERTEX
 8
CUBO_5
 10
27.9
 20
-0.15
 30
149.3151
 70
192
 0
VERTEX
 8
CUBO_5
 10
-3.5991
 20
-0.15
 30
160.4151
 70
192
 0
VERTEX
 8
CUBO_5
 10
-3.5991
 20
-0.15
 30
149.3151
 70
192
 0
VERTEX
 8
CUBO_5
 10
-3.5991
 20
0.35
 30
160.4151
 70
192
 0
VERTEX
 8
CUBO_5
 10
-3.5991
 20
0.35
 30
149.3151
 70
192
 0
VERTEX
 8
CUBO_5
 10
3.599
 20
-0.15
 30
149.3151
 70
192
 0
VERTEX
 8
CUBO_5
 10
3.599
 20
0.35
 30
160.4151
 70
192
 0
VERTEX
 8
CUBO_5
 10
3.599
 20
0.35
 30
149.3151
 70
192
 0
VERTEX
 8
CUBO_5
 10
3.599
 20
-0.15
 30
160.4151
 70
192
 0
VERTEX
 8
CUBO_5
 10
-3.5991
 20
0.35
 30
157.464
 70
192
 0
VERTEX
 8
CUBO_5
 10
3.599
 20
0.35
 30
157.464
 70
192
 0
VERTEX
 8
CUBO_5
 10
27.9
 20
-0.15
 30
157.464
 70
192
 0
VERTEX
 8
CUBO_5
 10
-3.5991
 20
-0.15
 30
157.464
 70
192
 0
VERTEX
 8
CUBO_5
 10
-27.9
 20
-0.15
 30
157.464
 70
192
 0
VERTEX
 8
CUBO_5
 10
27.9
 20
0.35
 30
157.464
 70
192
 0
VERTEX
 8
CUBO_5
 10
-27.9
 20
0.35
 30
157.464
 70
192
 0
VERTEX
 8
CUBO_5
 10
3.599
 20
-0.15
 30
157.464
 70
192
 0
VERTEX
 8
CUBO_5
 10
27.9
 20
0.35
 30
152.0661
 70
192
 0
VERTEX
 8
CUBO_5
 10
3.599
 20
0.35
 30
152.0661
 70
192
 0
VERTEX
 8
CUBO_5
 10
-27.9
 20
0.35
 30
152.0661
 70
192
 0
VERTEX
 8
CUBO_5
 10
-3.5991
 20
0.35
 30
152.0661
 70
192
 0
VERTEX
 8
CUBO_5
 10
27.9
 20
-0.15
 30
152.0661
 70
192
 0
VERTEX
 8
CUBO_5
 10
-3.5991
 20
-0.15
 30
152.0661
 70
192
 0
VERTEX
 8
CUBO_5
 10
-27.9
 20
-0.15
 30
152.0661
 70
192
 0
VERTEX
 8
CUBO_5
 10
3.599
 20
-0.15
 30
152.0661
 70
192
 0
VERTEX
 8
CUBO_5
 10
0
 20
0
 30
0
 70
128
 71
3
 72
9
 73
20
 74
21
 0
VERTEX
 8
CUBO_5
 10
0
 20
0
 30
0
 70
128
 71
6
 72
25
 73
26
 74
15
 0
VERTEX
 8
CUBO_5
 10
0
 20
0
 30
0
 70
128
 71
9
 72
16
 73
24
 74
20
 0
VERTEX
 8
CUBO_5
 10
0
 20
0
 30
0
 70
128
 71
11
 72
4
 73
23
 74
17
 0
VERTEX
 8
CUBO_5
 10
0
 20
0
 30
0
 70
128
 71
14
 72
11
 73
17
 74
18
 0
VERTEX
 8
CUBO_5
 10
0
 20
0
 30
0
 70
128
 71
16
 72
1
 73
19
 74
24
 0
VERTEX
 8
CUBO_5
 10
0
 20
0
 30
0
 70
128
 71
29
 72
8
 73
13
 74
32
 0
VERTEX
 8
CUBO_5
 10
0
 20
0
 30
0
 70
128
 71
20
 72
30
 73
31
 74
21
 0
VERTEX
 8
CUBO_5
 10
0
 20
0
 30
0
 70
128
 71
22
 72
2
 73
14
 74
18
 0
VERTEX
 8
CUBO_5
 10
0
 20
0
 30
0
 70
128
 71
27
 72
7
 73
12
 74
28
 0
VERTEX
 8
CUBO_5
 10
0
 20
0
 30
0
 70
128
 71
23
 72
27
 73
28
 74
17
 0
VERTEX
 8
CUBO_5
 10
0
 20
0
 30
0
 70
128
 71
19
 72
29
 73
32
 74
24
 0
VERTEX
 8
CUBO_5
 10
0
 20
0
 30
0
 70
128
 71
25
 72
22
 73
18
 74
26
 0
VERTEX
 8
CUBO_5
 10
0
 20
0
 30
0
 70
128
 71
28
 72
12
 73
15
 74
26
 0
VERTEX
 8
CUBO_5
 10
0
 20
0
 30
0
 70
128
 71
30
 72
10
 73
5
 74
31
 0
VERTEX
 8
CUBO_5
 10
0
 20
0
 30
0
 70
128
 71
32
 72
13
 73
10
 74
30
 0
VERTEX
 8
CUBO_5
 10
0
 20
0
 30
0
 70
128
 71
2
 72
22
 73
19
 74
1
 0
VERTEX
 8
CUBO_5
 10
0
 20
0
 30
0
 70
128
 71
22
 72
25
 73
29
 74
19
 0
VERTEX
 8
CUBO_5
 10
0
 20
0
 30
0
 70
128
 71
25
 72
6
 73
8
 74
29
 0
VERTEX
 8
CUBO_5
 10
0
 20
0
 30
0
 70
128
 71
14
 72
2
 73
1
 74
16
 0
VERTEX
 8
CUBO_5
 10
0
 20
0
 30
0
 70
128
 71
11
 72
14
 73
16
 74
9
 0
VERTEX
 8
CUBO_5
 10
0
 20
0
 30
0
 70
128
 71
4
 72
11
 73
9
 74
3
 0
VERTEX
 8
CUBO_5
 10
0
 20
0
 30
0
 70
128
 71
6
 72
15
 73
13
 74
8
 0
VERTEX
 8
CUBO_5
 10
0
 20
0
 30
0
 70
128
 71
15
 72
12
 73
10
 74
13
 0
VERTEX
 8
CUBO_5
 10
0
 20
0
 30
0
 70
128
 71
12
 72
7
 73
5
 74
10
 0
VERTEX
 8
CUBO_5
 10
0
 20
0
 30
0
 70
128
 71
3
 72
21
 73
23
 74
4
 0
VERTEX
 8
CUBO_5
 10
0
 20
0
 30
0
 70
128
 71
21
 72
31
 73
27
 74
23
 0
VERTEX
 8
CUBO_5
 10
0
 20
0
 30
0
 70
128
 71
31
 72
5
 73
7
 74
27
 0
SEQEND
 0
POLYLINE
 8
CUBO_4
 66
1
 10
0.0
 20
0.0
 30
0.0
 70
64
 71
8
 72
6
 0
VERTEX
 8
CUBO_4
 10
-3.5991
 20
0.35
 30
157.464
 70
192
 0
VERTEX
 8
CUBO_4
 10
3.599
 20
0.35
 30
157.464
 70
192
 0
VERTEX
 8
CUBO_4
 10
-3.5991
 20
-0.15
 30
157.464
 70
192
 0
VERTEX
 8
CUBO_4
 10
3.599
 20
-0.15
 30
157.464
 70
192
 0
VERTEX
 8
CUBO_4
 10
3.599
 20
0.35
 30
152.0661
 70
192
 0
VERTEX
 8
CUBO_4
 10
-3.5991
 20
0.35
 30
152.0661
 70
192
 0
VERTEX
 8
CUBO_4
 10
-3.5991
 20
-0.15
 30
152.0661
 70
192
 0
VERTEX
 8
CUBO_4
 10
3.599
 20
-0.15
 30
152.0661
 70
192
 0
VERTEX
 8
CUBO_4
 10
0
 20
0
 30
0
 70
128
 71
2
 72
4
 73
3
 74
1
 0
VERTEX
 8
CUBO_4
 10
0
 20
0
 30
0
 70
128
 71
1
 72
3
 73
7
 74
6
 0
VERTEX
 8
CUBO_4
 10
0
 20
0
 30
0
 70
128
 71
6
 72
7
 73
8
 74
5
 0
VERTEX
 8
CUBO_4
 10
0
 20
0
 30
0
 70
128
 71
5
 72
8
 73
4
 74
2
 0
VERTEX
 8
CUBO_4
 10
0
 20
0
 30
0
 70
128
 71
8
 72
7
 73
3
 74
4
 0
VERTEX
 8
CUBO_4
 10
0
 20
0
 30
0
 70
128
 71
2
 72
1
 73
6
 74
5
 0
SEQEND
 0
POLYLINE
 8
CUBO
 66
1
 10
0.0
 20
0.0
 30
0.0
 70
64
 71
120
 72
124
 0
VERTEX
 8
CUBO
 10
-37.7
 20
-0.29
 30
146.9501
 70
192
 0
VERTEX
 8
CUBO
 10
-37.7
 20
0.35
 30
146.9501
 70
192
 0
VERTEX
 8
CUBO
 10
37.7
 20
-0.29
 30
146.9501
 70
192
 0
VERTEX
 8
CUBO
 10
37.7
 20
0.35
 30
146.9501
 70
192
 0
VERTEX
 8
CUBO
 10
37.7
 20
-0.29
 30
92.76
 70
192
 0
VERTEX
 8
CUBO
 10
37.7
 20
0.35
 30
92.76
 70
192
 0
VERTEX
 8
CUBO
 10
-37.7
 20
-0.29
 30
92.76
 70
192
 0
VERTEX
 8
CUBO
 10
-37.7
 20
0.35
 30
92.76
 70
192
 0
VERTEX
 8
CUBO
 10
35.4454
 20
0.35
 30
146.9501
 70
192
 0
VERTEX
 8
CUBO
 10
35.4454
 20
-0.29
 30
146.9501
 70
192
 0
VERTEX
 8
CUBO
 10
35.4454
 20
0.35
 30
92.76
 70
192
 0
VERTEX
 8
CUBO
 10
35.4454
 20
-0.29
 30
92.76
 70
192
 0
VERTEX
 8
CUBO
 10
35.25
 20
0.35
 30
146.9501
 70
192
 0
VERTEX
 8
CUBO
 10
35.25
 20
-0.29
 30
146.9501
 70
192
 0
VERTEX
 8
CUBO
 10
35.25
 20
0.35
 30
92.76
 70
192
 0
VERTEX
 8
CUBO
 10
35.25
 20
-0.29
 30
92.76
 70
192
 0
VERTEX
 8
CUBO
 10
37.7
 20
0.35
 30
136.8901
 70
192
 0
VERTEX
 8
CUBO
 10
37.7
 20
-0.29
 30
136.8901
 70
192
 0
VERTEX
 8
CUBO
 10
-37.7
 20
0.35
 30
136.8901
 70
192
 0
VERTEX
 8
CUBO
 10
-37.7
 20
-0.29
 30
136.8901
 70
192
 0
VERTEX
 8
CUBO
 10
35.25
 20
0.35
 30
136.8901
 70
192
 0
VERTEX
 8
CUBO
 10
35.25
 20
-0.15
 30
136.8901
 70
192
 0
VERTEX
 8
CUBO
 10
35.4454
 20
0.35
 30
136.8901
 70
192
 0
VERTEX
 8
CUBO
 10
35.4454
 20
-0.29
 30
136.8901
 70
192
 0
VERTEX
 8
CUBO
 10
37.7
 20
0.35
 30
137.0854
 70
192
 0
VERTEX
 8
CUBO
 10
37.7
 20
-0.29
 30
137.0854
 70
192
 0
VERTEX
 8
CUBO
 10
-37.7
 20
0.35
 30
137.0854
 70
192
 0
VERTEX
 8
CUBO
 10
35.25
 20
0.35
 30
137.0854
 70
192
 0
VERTEX
 8
CUBO
 10
35.4454
 20
-0.29
 30
137.0854
 70
192
 0
VERTEX
 8
CUBO
 10
35.25
 20
-0.29
 30
137.0854
 70
192
 0
VERTEX
 8
CUBO
 10
-37.7
 20
-0.29
 30
137.0854
 70
192
 0
VERTEX
 8
CUBO
 10
35.4454
 20
0.35
 30
137.0854
 70
192
 0
VERTEX
 8
CUBO
 10
-35.2501
 20
0.35
 30
146.9501
 70
192
 0
VERTEX
 8
CUBO
 10
-35.2501
 20
-0.29
 30
146.9501
 70
192
 0
VERTEX
 8
CUBO
 10
-35.2501
 20
0.35
 30
137.0854
 70
192
 0
VERTEX
 8
CUBO
 10
-35.2501
 20
-0.15
 30
136.8901
 70
192
 0
VERTEX
 8
CUBO
 10
-35.2501
 20
-0.29
 30
92.76
 70
192
 0
VERTEX
 8
CUBO
 10
-35.2501
 20
0.35
 30
92.76
 70
192
 0
VERTEX
 8
CUBO
 10
-35.2501
 20
0.35
 30
136.8901
 70
192
 0
VERTEX
 8
CUBO
 10
-35.2501
 20
-0.29
 30
137.0854
 70
192
 0
VERTEX
 8
CUBO
 10
-35.4453
 20
0.35
 30
146.9501
 70
192
 0
VERTEX
 8
CUBO
 10
-35.4453
 20
-0.29
 30
146.9501
 70
192
 0
VERTEX
 8
CUBO
 10
-35.4453
 20
0.35
 30
137.0854
 70
192
 0
VERTEX
 8
CUBO
 10
-35.4453
 20
-0.29
 30
136.8901
 70
192
 0
VERTEX
 8
CUBO
 10
-35.4453
 20
-0.29
 30
92.76
 70
192
 0
VERTEX
 8
CUBO
 10
-35.4453
 20
0.35
 30
92.76
 70
192
 0
VERTEX
 8
CUBO
 10
-35.4453
 20
0.35
 30
136.8901
 70
192
 0
VERTEX
 8
CUBO
 10
-35.4453
 20
-0.29
 30
137.0854
 70
192
 0
VERTEX
 8
CUBO
 10
-37.7
 20
0.35
 30
104.5601
 70
192
 0
VERTEX
 8
CUBO
 10
-37.7
 20
-0.29
 30
104.5601
 70
192
 0
VERTEX
 8
CUBO
 10
-35.4453
 20
-0.29
 30
104.5601
 70
192
 0
VERTEX
 8
CUBO
 10
37.7
 20
0.35
 30
104.5601
 70
192
 0
VERTEX
 8
CUBO
 10
35.4454
 20
0.35
 30
104.5601
 70
192
 0
VERTEX
 8
CUBO
 10
35.25
 20
0.35
 30
104.5601
 70
192
 0
VERTEX
 8
CUBO
 10
37.7
 20
-0.29
 30
104.5601
 70
192
 0
VERTEX
 8
CUBO
 10
-35.4453
 20
0.35
 30
104.5601
 70
192
 0
VERTEX
 8
CUBO
 10
35.4454
 20
-0.29
 30
104.5601
 70
192
 0
VERTEX
 8
CUBO
 10
35.25
 20
-0.15
 30
104.5601
 70
192
 0
VERTEX
 8
CUBO
 10
-35.2501
 20
-0.15
 30
104.5601
 70
192
 0
VERTEX
 8
CUBO
 10
-35.2501
 20
0.35
 30
104.5601
 70
192
 0
VERTEX
 8
CUBO
 10
-37.7
 20
0.35
 30
104.3648
 70
192
 0
VERTEX
 8
CUBO
 10
-37.7
 20
-0.29
 30
104.3648
 70
192
 0
VERTEX
 8
CUBO
 10
-35.4453
 20
-0.29
 30
104.3648
 70
192
 0
VERTEX
 8
CUBO
 10
37.7
 20
0.35
 30
104.3648
 70
192
 0
VERTEX
 8
CUBO
 10
35.4454
 20
0.35
 30
104.3648
 70
192
 0
VERTEX
 8
CUBO
 10
35.25
 20
0.35
 30
104.3648
 70
192
 0
VERTEX
 8
CUBO
 10
-35.2501
 20
0.35
 30
104.3648
 70
192
 0
VERTEX
 8
CUBO
 10
-35.4453
 20
0.35
 30
104.3648
 70
192
 0
VERTEX
 8
CUBO
 10
37.7
 20
-0.29
 30
104.3648
 70
192
 0
VERTEX
 8
CUBO
 10
35.4454
 20
-0.29
 30
104.3648
 70
192
 0
VERTEX
 8
CUBO
 10
35.25
 20
-0.29
 30
104.3648
 70
192
 0
VERTEX
 8
CUBO
 10
-35.2501
 20
-0.29
 30
104.3648
 70
192
 0
VERTEX
 8
CUBO
 10
25.5001
 20
0.35
 30
92.76
 70
192
 0
VERTEX
 8
CUBO
 10
25.5001
 20
-0.29
 30
92.76
 70
192
 0
VERTEX
 8
CUBO
 10
25.5001
 20
0.35
 30
146.9501
 70
192
 0
VERTEX
 8
CUBO
 10
25.5001
 20
-0.29
 30
146.9501
 70
192
 0
VERTEX
 8
CUBO
 10
25.5001
 20
0.35
 30
137.0854
 70
192
 0
VERTEX
 8
CUBO
 10
25.5001
 20
-0.15
 30
136.8901
 70
192
 0
VERTEX
 8
CUBO
 10
25.5001
 20
-0.15
 30
104.5601
 70
192
 0
VERTEX
 8
CUBO
 10
25.5001
 20
0.35
 30
104.3648
 70
192
 0
VERTEX
 8
CUBO
 10
25.5001
 20
-0.29
 30
137.0854
 70
192
 0
VERTEX
 8
CUBO
 10
25.5001
 20
0.35
 30
136.8901
 70
192
 0
VERTEX
 8
CUBO
 10
25.5001
 20
-0.29
 30
104.3648
 70
192
 0
VERTEX
 8
CUBO
 10
25.5001
 20
0.35
 30
104.5601
 70
192
 0
VERTEX
 8
CUBO
 10
37.7
 20
0.35
 30
135.14
 70
192
 0
VERTEX
 8
CUBO
 10
37.7
 20
-0.29
 30
135.14
 70
192
 0
VERTEX
 8
CUBO
 10
-37.7
 20
0.35
 30
135.14
 70
192
 0
VERTEX
 8
CUBO
 10
-35.4453
 20
0.35
 30
135.14
 70
192
 0
VERTEX
 8
CUBO
 10
35.4454
 20
-0.29
 30
135.14
 70
192
 0
VERTEX
 8
CUBO
 10
35.25
 20
-0.15
 30
135.14
 70
192
 0
VERTEX
 8
CUBO
 10
-35.2501
 20
-0.15
 30
105.14
 70
192
 0
VERTEX
 8
CUBO
 10
-35.2501
 20
-0.15
 30
135.14
 70
192
 0
VERTEX
 8
CUBO
 10
-35.4453
 20
-0.29
 30
135.14
 70
192
 0
VERTEX
 8
CUBO
 10
-37.7
 20
-0.29
 30
135.14
 70
192
 0
VERTEX
 8
CUBO
 10
35.4454
 20
0.35
 30
135.14
 70
192
 0
VERTEX
 8
CUBO
 10
35.25
 20
0.35
 30
135.14
 70
192
 0
VERTEX
 8
CUBO
 10
35.25
 20
-0.15
 30
105.14
 70
192
 0
VERTEX
 8
CUBO
 10
-35.2501
 20
0.35
 30
135.14
 70
192
 0
VERTEX
 8
CUBO
 10
-25.4999
 20
-0.15
 30
104.5601
 70
192
 0
VERTEX
 8
CUBO
 10
35.4454
 20
-0.29
 30
105.14
 70
192
 0
VERTEX
 8
CUBO
 10
-25.4999
 20
0.35
 30
146.9501
 70
192
 0
VERTEX
 8
CUBO
 10
-25.4999
 20
-0.29
 30
146.9501
 70
192
 0
VERTEX
 8
CUBO
 10
-25.4999
 20
0.35
 30
137.0854
 70
192
 0
VERTEX
 8
CUBO
 10
-25.4999
 20
-0.15
 30
136.8901
 70
192
 0
VERTEX
 8
CUBO
 10
-25.4999
 20
0.35
 30
92.76
 70
192
 0
VERTEX
 8
CUBO
 10
-25.4999
 20
0.35
 30
104.3648
 70
192
 0
VERTEX
 8
CUBO
 10
-25.4999
 20
-0.29
 30
137.0854
 70
192
 0
VERTEX
 8
CUBO
 10
-25.4999
 20
0.35
 30
136.8901
 70
192
 0
VERTEX
 8
CUBO
 10
-25.4999
 20
-0.29
 30
92.76
 70
192
 0
VERTEX
 8
CUBO
 10
-25.4999
 20
-0.29
 30
104.3648
 70
192
 0
VERTEX
 8
CUBO
 10
37.7
 20
-0.29
 30
105.14
 70
192
 0
VERTEX
 8
CUBO
 10
-25.4999
 20
0.35
 30
104.5601
 70
192
 0
VERTEX
 8
CUBO
 10
-37.7
 20
0.35
 30
105.14
 70
192
 0
VERTEX
 8
CUBO
 10
-37.7
 20
-0.29
 30
105.14
 70
192
 0
VERTEX
 8
CUBO
 10
-35.4453
 20
-0.29
 30
105.14
 70
192
 0
VERTEX
 8
CUBO
 10
37.7
 20
0.35
 30
105.14
 70
192
 0
VERTEX
 8
CUBO
 10
35.4454
 20
0.35
 30
105.14
 70
192
 0
VERTEX
 8
CUBO
 10
35.25
 20
0.35
 30
105.14
 70
192
 0
VERTEX
 8
CUBO
 10
-35.4453
 20
0.35
 30
105.14
 70
192
 0
VERTEX
 8
CUBO
 10
-35.2501
 20
0.35
 30
105.14
 70
192
 0
VERTEX
 8
CUBO
 10
0
 20
0
 30
0
 70
128
 71
1
 72
2
 73
41
 74
42
 0
VERTEX
 8
CUBO
 10
0
 20
0
 30
0
 70
128
 71
3
 72
4
 73
25
 74
26
 0
VERTEX
 8
CUBO
 10
0
 20
0
 30
0
 70
128
 71
5
 72
6
 73
11
 74
12
 0
VERTEX
 8
CUBO
 10
0
 20
0
 30
0
 70
128
 71
7
 72
8
 73
61
 74
62
 0
VERTEX
 8
CUBO
 10
0
 20
0
 30
0
 70
128
 71
2
 72
27
 73
43
 74
41
 0
VERTEX
 8
CUBO
 10
0
 20
0
 30
0
 70
128
 71
7
 72
62
 73
63
 74
45
 0
VERTEX
 8
CUBO
 10
0
 20
0
 30
0
 70
128
 71
9
 72
4
 73
3
 74
10
 0
VERTEX
 8
CUBO
 10
0
 20
0
 30
0
 70
128
 71
11
 72
15
 73
16
 74
12
 0
VERTEX
 8
CUBO
 10
0
 20
0
 30
0
 70
128
 71
11
 72
6
 73
64
 74
65
 0
VERTEX
 8
CUBO
 10
0
 20
0
 30
0
 70
128
 71
10
 72
3
 73
26
 74
29
 0
VERTEX
 8
CUBO
 10
0
 20
0
 30
0
 70
128
 71
13
 72
9
 73
10
 74
14
 0
VERTEX
 8
CUBO
 10
0
 20
0
 30
0
 70
128
 71
15
 72
11
 73
65
 74
66
 0
VERTEX
 8
CUBO
 10
0
 20
0
 30
0
 70
128
 71
14
 72
10
 73
29
 74
30
 0
VERTEX
 8
CUBO
 10
0
 20
0
 30
0
 70
128
 71
15
 72
73
 73
74
 74
16
 0
VERTEX
 8
CUBO
 10
0
 20
0
 30
0
 70
128
 71
17
 72
85
 73
86
 74
18
 0
VERTEX
 8
CUBO
 10
0
 20
0
 30
0
 70
128
 71
19
 72
27
 73
31
 74
20
 0
VERTEX
 8
CUBO
 10
0
 20
0
 30
0
 70
128
 71
19
 72
87
 73
88
 74
47
 0
VERTEX
 8
CUBO
 10
0
 20
0
 30
0
 70
128
 71
20
 72
31
 73
48
 74
44
 0
VERTEX
 8
CUBO
 10
0
 20
0
 30
0
 70
128
 71
17
 72
25
 73
32
 74
23
 0
VERTEX
 8
CUBO
 10
0
 20
0
 30
0
 70
128
 71
18
 72
86
 73
89
 74
24
 0
VERTEX
 8
CUBO
 10
0
 20
0
 30
0
 70
128
 71
23
 72
32
 73
28
 74
21
 0
VERTEX
 8
CUBO
 10
0
 20
0
 30
0
 70
128
 71
24
 72
89
 73
90
 74
22
 0
VERTEX
 8
CUBO
 10
0
 20
0
 30
0
 70
128
 71
25
 72
17
 73
18
 74
26
 0
VERTEX
 8
CUBO
 10
0
 20
0
 30
0
 70
128
 71
27
 72
19
 73
47
 74
43
 0
VERTEX
 8
CUBO
 10
0
 20
0
 30
0
 70
128
 71
26
 72
18
 73
24
 74
29
 0
VERTEX
 8
CUBO
 10
0
 20
0
 30
0
 70
128
 71
29
 72
24
 73
30
 74
30
 0
VERTEX
 8
CUBO
 10
0
 20
0
 30
0
 70
128
 71
27
 72
2
 73
1
 74
31
 0
VERTEX
 8
CUBO
 10
0
 20
0
 30
0
 70
128
 71
31
 72
1
 73
42
 74
48
 0
VERTEX
 8
CUBO
 10
0
 20
0
 30
0
 70
128
 71
25
 72
4
 73
9
 74
32
 0
VERTEX
 8
CUBO
 10
0
 20
0
 30
0
 70
128
 71
32
 72
9
 73
13
 74
28
 0
VERTEX
 8
CUBO
 10
0
 20
0
 30
0
 70
128
 71
33
 72
101
 73
102
 74
34
 0
VERTEX
 8
CUBO
 10
0
 20
0
 30
0
 70
128
 71
35
 72
103
 73
101
 74
33
 0
VERTEX
 8
CUBO
 10
0
 20
0
 30
0
 70
128
 71
91
 72
59
 73
51
 74
115
 0
VERTEX
 8
CUBO
 10
0
 20
0
 30
0
 70
128
 71
38
 72
46
 73
45
 74
37
 0
VERTEX
 8
CUBO
 10
0
 20
0
 30
0
 70
128
 71
38
 72
105
 73
106
 74
67
 0
VERTEX
 8
CUBO
 10
0
 20
0
 30
0
 70
128
 71
40
 72
107
 73
104
 74
36
 0
VERTEX
 8
CUBO
 10
0
 20
0
 30
0
 70
128
 71
39
 72
108
 73
103
 74
35
 0
VERTEX
 8
CUBO
 10
0
 20
0
 30
0
 70
128
 71
34
 72
102
 73
107
 74
40
 0
VERTEX
 8
CUBO
 10
0
 20
0
 30
0
 70
128
 71
41
 72
33
 73
34
 74
42
 0
VERTEX
 8
CUBO
 10
0
 20
0
 30
0
 70
128
 71
43
 72
35
 73
33
 74
41
 0
VERTEX
 8
CUBO
 10
0
 20
0
 30
0
 70
128
 71
44
 72
36
 73
92
 74
93
 0
VERTEX
 8
CUBO
 10
0
 20
0
 30
0
 70
128
 71
46
 72
38
 73
67
 74
68
 0
VERTEX
 8
CUBO
 10
0
 20
0
 30
0
 70
128
 71
48
 72
40
 73
44
 74
44
 0
VERTEX
 8
CUBO
 10
0
 20
0
 30
0
 70
128
 71
47
 72
39
 73
35
 74
43
 0
VERTEX
 8
CUBO
 10
0
 20
0
 30
0
 70
128
 71
42
 72
34
 73
40
 74
48
 0
VERTEX
 8
CUBO
 10
0
 20
0
 30
0
 70
128
 71
46
 72
8
 73
7
 74
45
 0
VERTEX
 8
CUBO
 10
0
 20
0
 30
0
 70
128
 71
49
 72
113
 73
114
 74
50
 0
VERTEX
 8
CUBO
 10
0
 20
0
 30
0
 70
128
 71
50
 72
114
 73
115
 74
51
 0
VERTEX
 8
CUBO
 10
0
 20
0
 30
0
 70
128
 71
52
 72
116
 73
117
 74
53
 0
VERTEX
 8
CUBO
 10
0
 20
0
 30
0
 70
128
 71
53
 72
117
 73
118
 74
54
 0
VERTEX
 8
CUBO
 10
0
 20
0
 30
0
 70
128
 71
52
 72
64
 73
69
 74
55
 0
VERTEX
 8
CUBO
 10
0
 20
0
 30
0
 70
128
 71
49
 72
61
 73
68
 74
56
 0
VERTEX
 8
CUBO
 10
0
 20
0
 30
0
 70
128
 71
55
 72
69
 73
70
 74
57
 0
VERTEX
 8
CUBO
 10
0
 20
0
 30
0
 70
128
 71
57
 72
70
 73
71
 74
71
 0
VERTEX
 8
CUBO
 10
0
 20
0
 30
0
 70
128
 71
58
 72
71
 73
83
 74
79
 0
VERTEX
 8
CUBO
 10
0
 20
0
 30
0
 70
128
 71
100
 72
57
 73
58
 74
97
 0
VERTEX
 8
CUBO
 10
0
 20
0
 30
0
 70
128
 71
59
 72
72
 73
51
 74
51
 0
VERTEX
 8
CUBO
 10
0
 20
0
 30
0
 70
128
 71
60
 72
120
 73
119
 74
56
 0
VERTEX
 8
CUBO
 10
0
 20
0
 30
0
 70
128
 71
61
 72
49
 73
50
 74
62
 0
VERTEX
 8
CUBO
 10
0
 20
0
 30
0
 70
128
 71
62
 72
50
 73
51
 74
63
 0
VERTEX
 8
CUBO
 10
0
 20
0
 30
0
 70
128
 71
64
 72
52
 73
53
 74
65
 0
VERTEX
 8
CUBO
 10
0
 20
0
 30
0
 70
128
 71
65
 72
53
 73
54
 74
66
 0
VERTEX
 8
CUBO
 10
0
 20
0
 30
0
 70
128
 71
66
 72
54
 73
84
 74
80
 0
VERTEX
 8
CUBO
 10
0
 20
0
 30
0
 70
128
 71
67
 72
60
 73
56
 74
68
 0
VERTEX
 8
CUBO
 10
0
 20
0
 30
0
 70
128
 71
64
 72
6
 73
5
 74
69
 0
VERTEX
 8
CUBO
 10
0
 20
0
 30
0
 70
128
 71
61
 72
8
 73
46
 74
68
 0
VERTEX
 8
CUBO
 10
0
 20
0
 30
0
 70
128
 71
69
 72
5
 73
12
 74
70
 0
VERTEX
 8
CUBO
 10
0
 20
0
 30
0
 70
128
 71
70
 72
12
 73
16
 74
71
 0
VERTEX
 8
CUBO
 10
0
 20
0
 30
0
 70
128
 71
71
 72
16
 73
74
 74
83
 0
VERTEX
 8
CUBO
 10
0
 20
0
 30
0
 70
128
 71
72
 72
37
 73
45
 74
63
 0
VERTEX
 8
CUBO
 10
0
 20
0
 30
0
 70
128
 71
24
 72
22
 73
30
 74
30
 0
VERTEX
 8
CUBO
 10
0
 20
0
 30
0
 70
128
 71
71
 72
58
 73
57
 74
57
 0
VERTEX
 8
CUBO
 10
0
 20
0
 30
0
 70
128
 71
72
 72
63
 73
51
 74
51
 0
VERTEX
 8
CUBO
 10
0
 20
0
 30
0
 70
128
 71
40
 72
36
 73
44
 74
44
 0
VERTEX
 8
CUBO
 10
0
 20
0
 30
0
 70
128
 71
73
 72
105
 73
109
 74
74
 0
VERTEX
 8
CUBO
 10
0
 20
0
 30
0
 70
128
 71
75
 72
13
 73
14
 74
76
 0
VERTEX
 8
CUBO
 10
0
 20
0
 30
0
 70
128
 71
77
 72
28
 73
13
 74
75
 0
VERTEX
 8
CUBO
 10
0
 20
0
 30
0
 70
128
 71
111
 72
55
 73
57
 74
100
 0
VERTEX
 8
CUBO
 10
0
 20
0
 30
0
 70
128
 71
73
 72
15
 73
66
 74
80
 0
VERTEX
 8
CUBO
 10
0
 20
0
 30
0
 70
128
 71
81
 72
30
 73
22
 74
78
 0
VERTEX
 8
CUBO
 10
0
 20
0
 30
0
 70
128
 71
82
 72
21
 73
28
 74
77
 0
VERTEX
 8
CUBO
 10
0
 20
0
 30
0
 70
128
 71
76
 72
14
 73
30
 74
81
 0
VERTEX
 8
CUBO
 10
0
 20
0
 30
0
 70
128
 71
83
 72
110
 73
99
 74
79
 0
VERTEX
 8
CUBO
 10
0
 20
0
 30
0
 70
128
 71
113
 72
49
 73
56
 74
119
 0
VERTEX
 8
CUBO
 10
0
 20
0
 30
0
 70
128
 71
84
 72
112
 73
106
 74
80
 0
VERTEX
 8
CUBO
 10
0
 20
0
 30
0
 70
128
 71
74
 72
109
 73
110
 74
83
 0
VERTEX
 8
CUBO
 10
0
 20
0
 30
0
 70
128
 71
85
 72
116
 73
111
 74
86
 0
VERTEX
 8
CUBO
 10
0
 20
0
 30
0
 70
128
 71
87
 72
113
 73
119
 74
88
 0
VERTEX
 8
CUBO
 10
0
 20
0
 30
0
 70
128
 71
86
 72
111
 73
100
 74
89
 0
VERTEX
 8
CUBO
 10
0
 20
0
 30
0
 70
128
 71
89
 72
100
 73
97
 74
90
 0
VERTEX
 8
CUBO
 10
0
 20
0
 30
0
 70
128
 71
116
 72
52
 73
55
 74
111
 0
VERTEX
 8
CUBO
 10
0
 20
0
 30
0
 70
128
 71
92
 72
91
 73
115
 74
93
 0
VERTEX
 8
CUBO
 10
0
 20
0
 30
0
 70
128
 71
87
 72
19
 73
20
 74
94
 0
VERTEX
 8
CUBO
 10
0
 20
0
 30
0
 70
128
 71
94
 72
20
 73
44
 74
93
 0
VERTEX
 8
CUBO
 10
0
 20
0
 30
0
 70
128
 71
85
 72
17
 73
23
 74
95
 0
VERTEX
 8
CUBO
 10
0
 20
0
 30
0
 70
128
 71
95
 72
23
 73
21
 74
96
 0
VERTEX
 8
CUBO
 10
0
 20
0
 30
0
 70
128
 71
120
 72
98
 73
88
 74
119
 0
VERTEX
 8
CUBO
 10
0
 20
0
 30
0
 70
128
 71
98
 72
39
 73
47
 74
88
 0
VERTEX
 8
CUBO
 10
0
 20
0
 30
0
 70
128
 71
117
 72
95
 73
96
 74
118
 0
VERTEX
 8
CUBO
 10
0
 20
0
 30
0
 70
128
 71
116
 72
85
 73
95
 74
117
 0
VERTEX
 8
CUBO
 10
0
 20
0
 30
0
 70
128
 71
114
 72
94
 73
93
 74
115
 0
VERTEX
 8
CUBO
 10
0
 20
0
 30
0
 70
128
 71
101
 72
75
 73
76
 74
102
 0
VERTEX
 8
CUBO
 10
0
 20
0
 30
0
 70
128
 71
103
 72
77
 73
75
 74
101
 0
VERTEX
 8
CUBO
 10
0
 20
0
 30
0
 70
128
 71
113
 72
87
 73
94
 74
114
 0
VERTEX
 8
CUBO
 10
0
 20
0
 30
0
 70
128
 71
105
 72
73
 73
80
 74
106
 0
VERTEX
 8
CUBO
 10
0
 20
0
 30
0
 70
128
 71
107
 72
81
 73
78
 74
104
 0
VERTEX
 8
CUBO
 10
0
 20
0
 30
0
 70
128
 71
108
 72
82
 73
77
 74
103
 0
VERTEX
 8
CUBO
 10
0
 20
0
 30
0
 70
128
 71
102
 72
76
 73
81
 74
107
 0
VERTEX
 8
CUBO
 10
0
 20
0
 30
0
 70
128
 71
105
 72
38
 73
37
 74
109
 0
VERTEX
 8
CUBO
 10
0
 20
0
 30
0
 70
128
 71
110
 72
72
 73
59
 74
99
 0
VERTEX
 8
CUBO
 10
0
 20
0
 30
0
 70
128
 71
109
 72
37
 73
72
 74
110
 0
VERTEX
 8
CUBO
 10
0
 20
0
 30
0
 70
128
 71
112
 72
60
 73
67
 74
106
 0
VERTEX
 8
CUBO
 10
0
 20
0
 30
0
 70
128
 71
39
 72
98
 73
92
 74
36
 0
VERTEX
 8
CUBO
 10
0
 20
0
 30
0
 70
128
 71
98
 72
120
 73
91
 74
92
 0
VERTEX
 8
CUBO
 10
0
 20
0
 30
0
 70
128
 71
108
 72
39
 73
36
 74
104
 0
VERTEX
 8
CUBO
 10
0
 20
0
 30
0
 70
128
 71
120
 72
60
 73
59
 74
91
 0
VERTEX
 8
CUBO
 10
0
 20
0
 30
0
 70
128
 71
60
 72
112
 73
99
 74
59
 0
VERTEX
 8
CUBO
 10
0
 20
0
 30
0
 70
128
 71
112
 72
84
 73
79
 74
99
 0
VERTEX
 8
CUBO
 10
0
 20
0
 30
0
 70
128
 71
84
 72
54
 73
58
 74
79
 0
VERTEX
 8
CUBO
 10
0
 20
0
 30
0
 70
128
 71
54
 72
118
 73
97
 74
58
 0
VERTEX
 8
CUBO
 10
0
 20
0
 30
0
 70
128
 71
118
 72
96
 73
90
 74
97
 0
VERTEX
 8
CUBO
 10
0
 20
0
 30
0
 70
128
 71
96
 72
21
 73
22
 74
90
 0
VERTEX
 8
CUBO
 10
0
 20
0
 30
0
 70
128
 71
21
 72
82
 73
78
 74
22
 0
VERTEX
 8
CUBO
 10
0
 20
0
 30
0
 70
128
 71
82
 72
108
 73
104
 74
78
 0
SEQEND
 0
POLYLINE
 8
CUBO_2
 66
1
 10
0.0
 20
0.0
 30
0.0
 70
64
 71
32
 72
32
 0
VERTEX
 8
CUBO_2
 10
35.25
 20
0.35
 30
136.8901
 70
192
 0
VERTEX
 8
CUBO_2
 10
35.25
 20
-0.15
 30
136.8901
 70
192
 0
VERTEX
 8
CUBO_2
 10
-35.2501
 20
-0.15
 30
136.8901
 70
192
 0
VERTEX
 8
CUBO_2
 10
-35.2501
 20
0.35
 30
136.8901
 70
192
 0
VERTEX
 8
CUBO_2
 10
35.25
 20
0.35
 30
104.5601
 70
192
 0
VERTEX
 8
CUBO_2
 10
35.25
 20
-0.15
 30
104.5601
 70
192
 0
VERTEX
 8
CUBO_2
 10
-35.2501
 20
-0.15
 30
104.5601
 70
192
 0
VERTEX
 8
CUBO_2
 10
-35.2501
 20
0.35
 30
104.5601
 70
192
 0
VERTEX
 8
CUBO_2
 10
25.5001
 20
-0.15
 30
136.8901
 70
192
 0
VERTEX
 8
CUBO_2
 10
25.5001
 20
-0.15
 30
104.5601
 70
192
 0
VERTEX
 8
CUBO_2
 10
25.5001
 20
0.35
 30
136.8901
 70
192
 0
VERTEX
 8
CUBO_2
 10
25.5001
 20
0.35
 30
104.5601
 70
192
 0
VERTEX
 8
CUBO_2
 10
35.25
 20
-0.15
 30
135.14
 70
192
 0
VERTEX
 8
CUBO_2
 10
25.5001
 20
-0.15
 30
135.14
 70
192
 0
VERTEX
 8
CUBO_2
 10
-35.2501
 20
-0.15
 30
135.14
 70
192
 0
VERTEX
 8
CUBO_2
 10
35.25
 20
0.35
 30
135.14
 70
192
 0
VERTEX
 8
CUBO_2
 10
25.5001
 20
0.35
 30
135.14
 70
192
 0
VERTEX
 8
CUBO_2
 10
-35.2501
 20
0.35
 30
135.14
 70
192
 0
VERTEX
 8
CUBO_2
 10
-25.4999
 20
-0.15
 30
104.5601
 70
192
 0
VERTEX
 8
CUBO_2
 10
-25.4999
 20
-0.15
 30
135.14
 70
192
 0
VERTEX
 8
CUBO_2
 10
-25.4999
 20
-0.15
 30
136.8901
 70
192
 0
VERTEX
 8
CUBO_2
 10
-25.4999
 20
0.35
 30
136.8901
 70
192
 0
VERTEX
 8
CUBO_2
 10
-25.4999
 20
0.35
 30
135.14
 70
192
 0
VERTEX
 8
CUBO_2
 10
-25.4999
 20
0.35
 30
104.5601
 70
192
 0
VERTEX
 8
CUBO_2
 10
35.25
 20
0.35
 30
105.14
 70
192
 0
VERTEX
 8
CUBO_2
 10
25.5001
 20
0.35
 30
105.14
 70
192
 0
VERTEX
 8
CUBO_2
 10
-35.2501
 20
0.35
 30
105.14
 70
192
 0
VERTEX
 8
CUBO_2
 10
35.25
 20
-0.15
 30
105.14
 70
192
 0
VERTEX
 8
CUBO_2
 10
25.5001
 20
-0.15
 30
105.14
 70
192
 0
VERTEX
 8
CUBO_2
 10
-25.4999
 20
-0.15
 30
105.14
 70
192
 0
VERTEX
 8
CUBO_2
 10
-35.2501
 20
-0.15
 30
105.14
 70
192
 0
VERTEX
 8
CUBO_2
 10
-25.4999
 20
0.35
 30
105.14
 70
192
 0
VERTEX
 8
CUBO_2
 10
0
 20
0
 30
0
 70
128
 71
3
 72
21
 73
20
 74
15
 0
VERTEX
 8
CUBO_2
 10
0
 20
0
 30
0
 70
128
 71
5
 72
25
 73
26
 74
12
 0
VERTEX
 8
CUBO_2
 10
0
 20
0
 30
0
 70
128
 71
9
 72
2
 73
13
 74
14
 0
VERTEX
 8
CUBO_2
 10
0
 20
0
 30
0
 70
128
 71
11
 72
22
 73
23
 74
17
 0
VERTEX
 8
CUBO_2
 10
0
 20
0
 30
0
 70
128
 71
2
 72
9
 73
11
 74
1
 0
VERTEX
 8
CUBO_2
 10
0
 20
0
 30
0
 70
128
 71
16
 72
1
 73
11
 74
17
 0
VERTEX
 8
CUBO_2
 10
0
 20
0
 30
0
 70
128
 71
13
 72
28
 73
29
 74
14
 0
VERTEX
 8
CUBO_2
 10
0
 20
0
 30
0
 70
128
 71
18
 72
27
 73
32
 74
23
 0
VERTEX
 8
CUBO_2
 10
0
 20
0
 30
0
 70
128
 71
19
 72
7
 73
31
 74
30
 0
VERTEX
 8
CUBO_2
 10
0
 20
0
 30
0
 70
128
 71
21
 72
9
 73
14
 74
20
 0
VERTEX
 8
CUBO_2
 10
0
 20
0
 30
0
 70
128
 71
22
 72
4
 73
18
 74
23
 0
VERTEX
 8
CUBO_2
 10
0
 20
0
 30
0
 70
128
 71
24
 72
12
 73
26
 74
32
 0
VERTEX
 8
CUBO_2
 10
0
 20
0
 30
0
 70
128
 71
25
 72
16
 73
17
 74
26
 0
VERTEX
 8
CUBO_2
 10
0
 20
0
 30
0
 70
128
 71
29
 72
10
 73
19
 74
30
 0
VERTEX
 8
CUBO_2
 10
0
 20
0
 30
0
 70
128
 71
28
 72
6
 73
10
 74
29
 0
VERTEX
 8
CUBO_2
 10
0
 20
0
 30
0
 70
128
 71
27
 72
8
 73
24
 74
32
 0
VERTEX
 8
CUBO_2
 10
0
 20
0
 30
0
 70
128
 71
31
 72
15
 73
20
 74
30
 0
VERTEX
 8
CUBO_2
 10
0
 20
0
 30
0
 70
128
 71
9
 72
21
 73
22
 74
11
 0
VERTEX
 8
CUBO_2
 10
0
 20
0
 30
0
 70
128
 71
1
 72
16
 73
13
 74
2
 0
VERTEX
 8
CUBO_2
 10
0
 20
0
 30
0
 70
128
 71
16
 72
25
 73
28
 74
13
 0
VERTEX
 8
CUBO_2
 10
0
 20
0
 30
0
 70
128
 71
25
 72
5
 73
6
 74
28
 0
VERTEX
 8
CUBO_2
 10
0
 20
0
 30
0
 70
128
 71
10
 72
6
 73
5
 74
12
 0
VERTEX
 8
CUBO_2
 10
0
 20
0
 30
0
 70
128
 71
19
 72
10
 73
12
 74
24
 0
VERTEX
 8
CUBO_2
 10
0
 20
0
 30
0
 70
128
 71
7
 72
19
 73
24
 74
8
 0
VERTEX
 8
CUBO_2
 10
0
 20
0
 30
0
 70
128
 71
31
 72
7
 73
8
 74
27
 0
VERTEX
 8
CUBO_2
 10
0
 20
0
 30
0
 70
128
 71
15
 72
31
 73
27
 74
18
 0
VERTEX
 8
CUBO_2
 10
0
 20
0
 30
0
 70
128
 71
3
 72
15
 73
18
 74
4
 0
VERTEX
 8
CUBO_2
 10
0
 20
0
 30
0
 70
128
 71
21
 72
3
 73
4
 74
22
 0
VERTEX
 8
CUBO_2
 10
0
 20
0
 30
0
 70
128
 71
14
 72
29
 73
26
 74
17
 0
VERTEX
 8
CUBO_2
 10
0
 20
0
 30
0
 70
128
 71
29
 72
30
 73
32
 74
26
 0
VERTEX
 8
CUBO_2
 10
0
 20
0
 30
0
 70
128
 71
20
 72
14
 73
17
 74
23
 0
VERTEX
 8
CUBO_2
 10
0
 20
0
 30
0
 70
128
 71
30
 72
20
 73
23
 74
32
 0
SEQEND
 0
POLYLINE
 8
CUBO_3
 66
1
 10
0.0
 20
0.0
 30
0.0
 70
64
 71
8
 72
6
 0
VERTEX
 8
CUBO_3
 10
25.5001
 20
-0.15
 30
135.14
 70
192
 0
VERTEX
 8
CUBO_3
 10
25.5001
 20
0.35
 30
135.14
 70
192
 0
VERTEX
 8
CUBO_3
 10
-25.4999
 20
-0.15
 30
135.14
 70
192
 0
VERTEX
 8
CUBO_3
 10
-25.4999
 20
0.35
 30
135.14
 70
192
 0
VERTEX
 8
CUBO_3
 10
25.5001
 20
0.35
 30
105.14
 70
192
 0
VERTEX
 8
CUBO_3
 10
25.5001
 20
-0.15
 30
105.14
 70
192
 0
VERTEX
 8
CUBO_3
 10
-25.4999
 20
-0.15
 30
105.14
 70
192
 0
VERTEX
 8
CUBO_3
 10
-25.4999
 20
0.35
 30
105.14
 70
192
 0
VERTEX
 8
CUBO_3
 10
0
 20
0
 30
0
 70
128
 71
1
 72
6
 73
7
 74
3
 0
VERTEX
 8
CUBO_3
 10
0
 20
0
 30
0
 70
128
 71
5
 72
2
 73
4
 74
8
 0
VERTEX
 8
CUBO_3
 10
0
 20
0
 30
0
 70
128
 71
3
 72
7
 73
8
 74
4
 0
VERTEX
 8
CUBO_3
 10
0
 20
0
 30
0
 70
128
 71
4
 72
2
 73
1
 74
3
 0
VERTEX
 8
CUBO_3
 10
0
 20
0
 30
0
 70
128
 71
7
 72
6
 73
5
 74
8
 0
VERTEX
 8
CUBO_3
 10
0
 20
0
 30
0
 70
128
 71
2
 72
5
 73
6
 74
1
 0
SEQEND
 0
POLYLINE
 8
FORNO
 66
1
 10
0.0
 20
0.0
 30
0.0
 70
64
 71
40
 72
38
 0
VERTEX
 8
FORNO
 10
-35.6
 20
1.85
 30
91.0899
 70
192
 0
VERTEX
 8
FORNO
 10
-35.6
 20
1.85
 30
159.4399
 70
192
 0
VERTEX
 8
FORNO
 10
35.6
 20
1.85
 30
91.0899
 70
192
 0
VERTEX
 8
FORNO
 10
35.6
 20
1.85
 30
159.4399
 70
192
 0
VERTEX
 8
FORNO
 10
35.6
 20
60.0499
 30
91.0899
 70
192
 0
VERTEX
 8
FORNO
 10
35.6
 20
60.0499
 30
159.4399
 70
192
 0
VERTEX
 8
FORNO
 10
-35.6
 20
60.0499
 30
91.0899
 70
192
 0
VERTEX
 8
FORNO
 10
-35.6
 20
60.0499
 30
159.4399
 70
192
 0
VERTEX
 8
FORNO
 10
-35.6
 20
1.85
 30
146.9404
 70
192
 0
VERTEX
 8
FORNO
 10
35.6
 20
1.85
 30
146.9404
 70
192
 0
VERTEX
 8
FORNO
 10
35.6
 20
60.0499
 30
146.9404
 70
192
 0
VERTEX
 8
FORNO
 10
-35.6
 20
60.0499
 30
146.9404
 70
192
 0
VERTEX
 8
FORNO
 10
-35.6
 20
1.85
 30
148.2255
 70
192
 0
VERTEX
 8
FORNO
 10
35.6
 20
1.85
 30
148.2255
 70
192
 0
VERTEX
 8
FORNO
 10
35.6
 20
60.0499
 30
148.2255
 70
192
 0
VERTEX
 8
FORNO
 10
-35.6
 20
60.0499
 30
148.2255
 70
192
 0
VERTEX
 8
FORNO
 10
-35.5009
 20
1.85
 30
146.9404
 70
192
 0
VERTEX
 8
FORNO
 10
-35.5009
 20
1.85
 30
91.0899
 70
192
 0
VERTEX
 8
FORNO
 10
-35.5009
 20
60.0499
 30
146.9404
 70
192
 0
VERTEX
 8
FORNO
 10
-35.5009
 20
60.0499
 30
91.0899
 70
192
 0
VERTEX
 8
FORNO
 10
-35.5009
 20
60.0499
 30
159.4399
 70
192
 0
VERTEX
 8
FORNO
 10
-35.5009
 20
1.85
 30
159.4399
 70
192
 0
VERTEX
 8
FORNO
 10
-35.5009
 20
1.85
 30
148.2255
 70
192
 0
VERTEX
 8
FORNO
 10
-35.5009
 20
60.0499
 30
148.2255
 70
192
 0
VERTEX
 8
FORNO
 10
35.5006
 20
60.0499
 30
146.9404
 70
192
 0
VERTEX
 8
FORNO
 10
35.5006
 20
60.0499
 30
91.0899
 70
192
 0
VERTEX
 8
FORNO
 10
35.5006
 20
60.0499
 30
148.2255
 70
192
 0
VERTEX
 8
FORNO
 10
35.5006
 20
60.0499
 30
159.4399
 70
192
 0
VERTEX
 8
FORNO
 10
35.5006
 20
1.85
 30
146.9404
 70
192
 0
VERTEX
 8
FORNO
 10
35.5006
 20
1.85
 30
91.0899
 70
192
 0
VERTEX
 8
FORNO
 10
35.5006
 20
1.85
 30
159.4399
 70
192
 0
VERTEX
 8
FORNO
 10
35.5006
 20
1.85
 30
148.2255
 70
192
 0
VERTEX
 8
FORNO
 10
-35.5009
 20
2.9498
 30
146.9404
 70
192
 0
VERTEX
 8
FORNO
 10
-35.5009
 20
2.9498
 30
148.2255
 70
192
 0
VERTEX
 8
FORNO
 10
35.5006
 20
2.9498
 30
146.9404
 70
192
 0
VERTEX
 8
FORNO
 10
35.5006
 20
2.9498
 30
148.2255
 70
192
 0
VERTEX
 8
FORNO
 10
-35.5009
 20
5.4286
 30
146.9404
 70
192
 0
VERTEX
 8
FORNO
 10
-35.5009
 20
5.4286
 30
148.2255
 70
192
 0
VERTEX
 8
FORNO
 10
35.5006
 20
5.4286
 30
146.9404
 70
192
 0
VERTEX
 8
FORNO
 10
35.5006
 20
5.4286
 30
148.2255
 70
192
 0
VERTEX
 8
FORNO
 10
0
 20
0
 30
0
 70
128
 71
1
 72
9
 73
17
 74
18
 0
VERTEX
 8
FORNO
 10
0
 20
0
 30
0
 70
128
 71
3
 72
10
 73
11
 74
5
 0
VERTEX
 8
FORNO
 10
0
 20
0
 30
0
 70
128
 71
5
 72
11
 73
25
 74
26
 0
VERTEX
 8
FORNO
 10
0
 20
0
 30
0
 70
128
 71
7
 72
12
 73
9
 74
1
 0
VERTEX
 8
FORNO
 10
0
 20
0
 30
0
 70
128
 71
2
 72
8
 73
21
 74
22
 0
VERTEX
 8
FORNO
 10
0
 20
0
 30
0
 70
128
 71
7
 72
1
 73
18
 74
20
 0
VERTEX
 8
FORNO
 10
0
 20
0
 30
0
 70
128
 71
9
 72
13
 73
23
 74
17
 0
VERTEX
 8
FORNO
 10
0
 20
0
 30
0
 70
128
 71
10
 72
14
 73
15
 74
11
 0
VERTEX
 8
FORNO
 10
0
 20
0
 30
0
 70
128
 71
11
 72
15
 73
27
 74
25
 0
VERTEX
 8
FORNO
 10
0
 20
0
 30
0
 70
128
 71
12
 72
16
 73
13
 74
9
 0
VERTEX
 8
FORNO
 10
0
 20
0
 30
0
 70
128
 71
13
 72
2
 73
22
 74
23
 0
VERTEX
 8
FORNO
 10
0
 20
0
 30
0
 70
128
 71
14
 72
4
 73
6
 74
15
 0
VERTEX
 8
FORNO
 10
0
 20
0
 30
0
 70
128
 71
15
 72
6
 73
28
 74
27
 0
VERTEX
 8
FORNO
 10
0
 20
0
 30
0
 70
128
 71
16
 72
8
 73
2
 74
13
 0
VERTEX
 8
FORNO
 10
0
 20
0
 30
0
 70
128
 71
17
 72
29
 73
30
 74
18
 0
VERTEX
 8
FORNO
 10
0
 20
0
 30
0
 70
128
 71
19
 72
12
 73
7
 74
20
 0
VERTEX
 8
FORNO
 10
0
 20
0
 30
0
 70
128
 71
21
 72
28
 73
31
 74
22
 0
VERTEX
 8
FORNO
 10
0
 20
0
 30
0
 70
128
 71
18
 72
30
 73
26
 74
20
 0
VERTEX
 8
FORNO
 10
0
 20
0
 30
0
 70
128
 71
38
 72
40
 73
39
 74
37
 0
VERTEX
 8
FORNO
 10
0
 20
0
 30
0
 70
128
 71
24
 72
16
 73
12
 74
19
 0
VERTEX
 8
FORNO
 10
0
 20
0
 30
0
 70
128
 71
22
 72
31
 73
32
 74
23
 0
VERTEX
 8
FORNO
 10
0
 20
0
 30
0
 70
128
 71
21
 72
8
 73
16
 74
24
 0
VERTEX
 8
FORNO
 10
0
 20
0
 30
0
 70
128
 71
25
 72
19
 73
20
 74
26
 0
VERTEX
 8
FORNO
 10
0
 20
0
 30
0
 70
128
 71
27
 72
24
 73
19
 74
25
 0
VERTEX
 8
FORNO
 10
0
 20
0
 30
0
 70
128
 71
28
 72
21
 73
24
 74
27
 0
VERTEX
 8
FORNO
 10
0
 20
0
 30
0
 70
128
 71
29
 72
10
 73
3
 74
30
 0
VERTEX
 8
FORNO
 10
0
 20
0
 30
0
 70
128
 71
28
 72
6
 73
4
 74
31
 0
VERTEX
 8
FORNO
 10
0
 20
0
 30
0
 70
128
 71
30
 72
3
 73
5
 74
26
 0
VERTEX
 8
FORNO
 10
0
 20
0
 30
0
 70
128
 71
32
 72
14
 73
10
 74
29
 0
VERTEX
 8
FORNO
 10
0
 20
0
 30
0
 70
128
 71
31
 72
4
 73
14
 74
32
 0
VERTEX
 8
FORNO
 10
0
 20
0
 30
0
 70
128
 71
34
 72
23
 73
32
 74
36
 0
VERTEX
 8
FORNO
 10
0
 20
0
 30
0
 70
128
 71
36
 72
32
 73
29
 74
35
 0
VERTEX
 8
FORNO
 10
0
 20
0
 30
0
 70
128
 71
35
 72
29
 73
17
 74
33
 0
VERTEX
 8
FORNO
 10
0
 20
0
 30
0
 70
128
 71
33
 72
17
 73
23
 74
34
 0
VERTEX
 8
FORNO
 10
0
 20
0
 30
0
 70
128
 71
38
 72
34
 73
36
 74
40
 0
VERTEX
 8
FORNO
 10
0
 20
0
 30
0
 70
128
 71
40
 72
36
 73
35
 74
39
 0
VERTEX
 8
FORNO
 10
0
 20
0
 30
0
 70
128
 71
39
 72
35
 73
33
 74
37
 0
VERTEX
 8
FORNO
 10
0
 20
0
 30
0
 70
128
 71
37
 72
33
 73
34
 74
38
 0
SEQEND
 0
POLYLINE
 8
FORNO_1
 66
1
 10
0.0
 20
0.0
 30
0.0
 70
64
 71
128
 72
126
 0
VERTEX
 8
FORNO_1
 10
-37.5
 20
0.6
 30
92.08
 70
192
 0
VERTEX
 8
FORNO_1
 10
-37.5
 20
0.6
 30
161.24
 70
192
 0
VERTEX
 8
FORNO_1
 10
37.5
 20
0.6
 30
92.08
 70
192
 0
VERTEX
 8
FORNO_1
 10
37.5
 20
0.6
 30
161.24
 70
192
 0
VERTEX
 8
FORNO_1
 10
37.5
 20
1.85
 30
92.08
 70
192
 0
VERTEX
 8
FORNO_1
 10
37.5
 20
1.85
 30
161.24
 70
192
 0
VERTEX
 8
FORNO_1
 10
-37.5
 20
1.85
 30
92.08
 70
192
 0
VERTEX
 8
FORNO_1
 10
-37.5
 20
1.85
 30
161.24
 70
192
 0
VERTEX
 8
FORNO_1
 10
-37.5
 20
0.6
 30
146.95
 70
192
 0
VERTEX
 8
FORNO_1
 10
37.5
 20
0.6
 30
146.95
 70
192
 0
VERTEX
 8
FORNO_1
 10
37.5
 20
1.85
 30
146.95
 70
192
 0
VERTEX
 8
FORNO_1
 10
-37.5
 20
1.85
 30
146.95
 70
192
 0
VERTEX
 8
FORNO_1
 10
-37.5
 20
0.6
 30
148.215
 70
192
 0
VERTEX
 8
FORNO_1
 10
37.5
 20
0.6
 30
148.215
 70
192
 0
VERTEX
 8
FORNO_1
 10
37.5
 20
1.85
 30
148.215
 70
192
 0
VERTEX
 8
FORNO_1
 10
-37.5
 20
1.85
 30
148.215
 70
192
 0
VERTEX
 8
FORNO_1
 10
37.2018
 20
0.6
 30
146.95
 70
192
 0
VERTEX
 8
FORNO_1
 10
37.2018
 20
0.6
 30
92.08
 70
192
 0
VERTEX
 8
FORNO_1
 10
37.2018
 20
1.85
 30
146.95
 70
192
 0
VERTEX
 8
FORNO_1
 10
37.2018
 20
1.85
 30
92.08
 70
192
 0
VERTEX
 8
FORNO_1
 10
37.2018
 20
1.85
 30
161.24
 70
192
 0
VERTEX
 8
FORNO_1
 10
37.2018
 20
0.6
 30
161.24
 70
192
 0
VERTEX
 8
FORNO_1
 10
37.2018
 20
0.6
 30
148.215
 70
192
 0
VERTEX
 8
FORNO_1
 10
37.2018
 20
1.85
 30
148.215
 70
192
 0
VERTEX
 8
FORNO_1
 10
-37.2018
 20
0.6
 30
146.95
 70
192
 0
VERTEX
 8
FORNO_1
 10
-37.2018
 20
0.6
 30
92.08
 70
192
 0
VERTEX
 8
FORNO_1
 10
-37.2018
 20
1.85
 30
161.24
 70
192
 0
VERTEX
 8
FORNO_1
 10
-37.2018
 20
0.6
 30
161.24
 70
192
 0
VERTEX
 8
FORNO_1
 10
-37.2018
 20
1.85
 30
92.08
 70
192
 0
VERTEX
 8
FORNO_1
 10
-37.2018
 20
0.6
 30
148.215
 70
192
 0
VERTEX
 8
FORNO_1
 10
-37.2018
 20
1.85
 30
146.95
 70
192
 0
VERTEX
 8
FORNO_1
 10
-37.2018
 20
1.85
 30
148.215
 70
192
 0
VERTEX
 8
FORNO_1
 10
-35.4502
 20
1.85
 30
146.925
 70
192
 0
VERTEX
 8
FORNO_1
 10
-35.4502
 20
1.85
 30
92.08
 70
192
 0
VERTEX
 8
FORNO_1
 10
-35.4502
 20
1.85
 30
148.24
 70
192
 0
VERTEX
 8
FORNO_1
 10
-35.4502
 20
1.85
 30
161.24
 70
192
 0
VERTEX
 8
FORNO_1
 10
-35.4502
 20
0.6
 30
146.95
 70
192
 0
VERTEX
 8
FORNO_1
 10
-35.4502
 20
0.6
 30
92.08
 70
192
 0
VERTEX
 8
FORNO_1
 10
-35.4502
 20
0.6
 30
161.24
 70
192
 0
VERTEX
 8
FORNO_1
 10
-35.4502
 20
0.6
 30
148.215
 70
192
 0
VERTEX
 8
FORNO_1
 10
35.4501
 20
1.85
 30
146.925
 70
192
 0
VERTEX
 8
FORNO_1
 10
35.4501
 20
1.85
 30
92.08
 70
192
 0
VERTEX
 8
FORNO_1
 10
35.4501
 20
1.85
 30
148.24
 70
192
 0
VERTEX
 8
FORNO_1
 10
35.4501
 20
1.85
 30
161.24
 70
192
 0
VERTEX
 8
FORNO_1
 10
35.4501
 20
0.6
 30
146.95
 70
192
 0
VERTEX
 8
FORNO_1
 10
35.4501
 20
0.6
 30
92.08
 70
192
 0
VERTEX
 8
FORNO_1
 10
35.4501
 20
0.6
 30
161.24
 70
192
 0
VERTEX
 8
FORNO_1
 10
35.4501
 20
0.6
 30
148.215
 70
192
 0
VERTEX
 8
FORNO_1
 10
37.2018
 20
1.6999
 30
146.95
 70
192
 0
VERTEX
 8
FORNO_1
 10
37.2018
 20
1.6999
 30
148.215
 70
192
 0
VERTEX
 8
FORNO_1
 10
-37.2018
 20
1.6999
 30
146.95
 70
192
 0
VERTEX
 8
FORNO_1
 10
-37.2018
 20
1.6999
 30
148.215
 70
192
 0
VERTEX
 8
FORNO_1
 10
-35.425
 20
1.6999
 30
146.95
 70
192
 0
VERTEX
 8
FORNO_1
 10
-35.425
 20
1.6999
 30
148.215
 70
192
 0
VERTEX
 8
FORNO_1
 10
35.425
 20
1.6999
 30
146.95
 70
192
 0
VERTEX
 8
FORNO_1
 10
35.425
 20
1.6999
 30
148.215
 70
192
 0
VERTEX
 8
FORNO_1
 10
-35.4502
 20
2.9499
 30
146.925
 70
192
 0
VERTEX
 8
FORNO_1
 10
-35.4502
 20
2.9499
 30
148.24
 70
192
 0
VERTEX
 8
FORNO_1
 10
35.4501
 20
2.9499
 30
146.925
 70
192
 0
VERTEX
 8
FORNO_1
 10
35.4501
 20
2.9499
 30
148.24
 70
192
 0
VERTEX
 8
FORNO_1
 10
-35.425
 20
4.1786
 30
146.95
 70
192
 0
VERTEX
 8
FORNO_1
 10
-35.425
 20
4.1786
 30
148.215
 70
192
 0
VERTEX
 8
FORNO_1
 10
35.425
 20
4.1786
 30
146.95
 70
192
 0
VERTEX
 8
FORNO_1
 10
35.425
 20
4.1786
 30
148.215
 70
192
 0
VERTEX
 8
FORNO_1
 10
-35.4502
 20
5.4287
 30
146.95
 70
192
 0
VERTEX
 8
FORNO_1
 10
-35.4502
 20
5.4287
 30
148.215
 70
192
 0
VERTEX
 8
FORNO_1
 10
35.4501
 20
5.4287
 30
146.95
 70
192
 0
VERTEX
 8
FORNO_1
 10
35.4501
 20
5.4287
 30
148.215
 70
192
 0
VERTEX
 8
FORNO_1
 10
-37.5
 20
0.6
 30
148.3907
 70
192
 0
VERTEX
 8
FORNO_1
 10
-37.2018
 20
0.6
 30
148.3907
 70
192
 0
VERTEX
 8
FORNO_1
 10
37.5
 20
0.6
 30
148.3907
 70
192
 0
VERTEX
 8
FORNO_1
 10
37.5
 20
1.85
 30
148.3907
 70
192
 0
VERTEX
 8
FORNO_1
 10
37.2018
 20
1.85
 30
148.3907
 70
192
 0
VERTEX
 8
FORNO_1
 10
-37.5
 20
1.85
 30
148.3907
 70
192
 0
VERTEX
 8
FORNO_1
 10
37.2018
 20
0.6
 30
148.3907
 70
192
 0
VERTEX
 8
FORNO_1
 10
35.4501
 20
1.85
 30
148.3907
 70
192
 0
VERTEX
 8
FORNO_1
 10
-35.4502
 20
0.6
 30
148.3907
 70
192
 0
VERTEX
 8
FORNO_1
 10
-37.2018
 20
1.85
 30
148.3907
 70
192
 0
VERTEX
 8
FORNO_1
 10
-35.4502
 20
1.85
 30
148.3907
 70
192
 0
VERTEX
 8
FORNO_1
 10
35.4501
 20
0.6
 30
148.3907
 70
192
 0
VERTEX
 8
FORNO_1
 10
37.5
 20
0.6
 30
161.0903
 70
192
 0
VERTEX
 8
FORNO_1
 10
37.2018
 20
0.6
 30
161.0903
 70
192
 0
VERTEX
 8
FORNO_1
 10
35.4501
 20
1.85
 30
161.0903
 70
192
 0
VERTEX
 8
FORNO_1
 10
37.2018
 20
1.85
 30
161.0903
 70
192
 0
VERTEX
 8
FORNO_1
 10
-35.4502
 20
0.6
 30
161.0903
 70
192
 0
VERTEX
 8
FORNO_1
 10
-37.2018
 20
0.6
 30
161.0903
 70
192
 0
VERTEX
 8
FORNO_1
 10
-37.5
 20
1.85
 30
161.0903
 70
192
 0
VERTEX
 8
FORNO_1
 10
-37.2018
 20
1.85
 30
161.0903
 70
192
 0
VERTEX
 8
FORNO_1
 10
-35.4502
 20
1.85
 30
161.0903
 70
192
 0
VERTEX
 8
FORNO_1
 10
35.4501
 20
0.6
 30
161.0903
 70
192
 0
VERTEX
 8
FORNO_1
 10
-37.5
 20
0.6
 30
161.0903
 70
192
 0
VERTEX
 8
FORNO_1
 10
37.5
 20
1.85
 30
161.0903
 70
192
 0
VERTEX
 8
FORNO_1
 10
-37.2018
 20
0.3499
 30
148.3907
 70
192
 0
VERTEX
 8
FORNO_1
 10
37.2018
 20
0.3499
 30
148.3907
 70
192
 0
VERTEX
 8
FORNO_1
 10
-35.4502
 20
0.3499
 30
148.3907
 70
192
 0
VERTEX
 8
FORNO_1
 10
35.4501
 20
0.3499
 30
148.3907
 70
192
 0
VERTEX
 8
FORNO_1
 10
37.2018
 20
0.3499
 30
161.0903
 70
192
 0
VERTEX
 8
FORNO_1
 10
-35.4502
 20
0.3499
 30
161.0903
 70
192
 0
VERTEX
 8
FORNO_1
 10
-37.2018
 20
0.3499
 30
161.0903
 70
192
 0
VERTEX
 8
FORNO_1
 10
35.4501
 20
0.3499
 30
161.0903
 70
192
 0
VERTEX
 8
FORNO_1
 10
-37.5
 20
0.6
 30
146.6503
 70
192
 0
VERTEX
 8
FORNO_1
 10
-37.2018
 20
0.6
 30
146.6503
 70
192
 0
VERTEX
 8
FORNO_1
 10
37.5
 20
0.6
 30
146.6503
 70
192
 0
VERTEX
 8
FORNO_1
 10
37.5
 20
1.85
 30
146.6503
 70
192
 0
VERTEX
 8
FORNO_1
 10
37.2018
 20
1.85
 30
146.6503
 70
192
 0
VERTEX
 8
FORNO_1
 10
-37.5
 20
1.85
 30
146.6503
 70
192
 0
VERTEX
 8
FORNO_1
 10
37.2018
 20
0.6
 30
146.6503
 70
192
 0
VERTEX
 8
FORNO_1
 10
35.4501
 20
1.85
 30
146.6503
 70
192
 0
VERTEX
 8
FORNO_1
 10
-35.4502
 20
0.6
 30
146.6503
 70
192
 0
VERTEX
 8
FORNO_1
 10
-37.2018
 20
1.85
 30
146.6503
 70
192
 0
VERTEX
 8
FORNO_1
 10
-35.4502
 20
1.85
 30
146.6503
 70
192
 0
VERTEX
 8
FORNO_1
 10
35.4501
 20
0.6
 30
146.6503
 70
192
 0
VERTEX
 8
FORNO_1
 10
-37.5
 20
0.6
 30
92.76
 70
192
 0
VERTEX
 8
FORNO_1
 10
-37.2018
 20
0.6
 30
92.76
 70
192
 0
VERTEX
 8
FORNO_1
 10
37.5
 20
0.6
 30
92.76
 70
192
 0
VERTEX
 8
FORNO_1
 10
37.5
 20
1.85
 30
92.76
 70
192
 0
VERTEX
 8
FORNO_1
 10
37.2018
 20
1.85
 30
92.76
 70
192
 0
VERTEX
 8
FORNO_1
 10
-37.5
 20
1.85
 30
92.76
 70
192
 0
VERTEX
 8
FORNO_1
 10
37.2018
 20
0.6
 30
92.76
 70
192
 0
VERTEX
 8
FORNO_1
 10
35.4501
 20
1.85
 30
92.76
 70
192
 0
VERTEX
 8
FORNO_1
 10
-35.4502
 20
0.6
 30
92.76
 70
192
 0
VERTEX
 8
FORNO_1
 10
-37.2018
 20
1.85
 30
92.76
 70
192
 0
VERTEX
 8
FORNO_1
 10
-35.4502
 20
1.85
 30
92.76
 70
192
 0
VERTEX
 8
FORNO_1
 10
35.4501
 20
0.6
 30
92.76
 70
192
 0
VERTEX
 8
FORNO_1
 10
-35.4502
 20
0.35
 30
146.6503
 70
192
 0
VERTEX
 8
FORNO_1
 10
35.4501
 20
0.35
 30
146.6503
 70
192
 0
VERTEX
 8
FORNO_1
 10
-35.4502
 20
0.35
 30
92.76
 70
192
 0
VERTEX
 8
FORNO_1
 10
35.4501
 20
0.35
 30
92.76
 70
192
 0
VERTEX
 8
FORNO_1
 10
0
 20
0
 30
0
 70
128
 71
1
 72
113
 73
114
 74
26
 0
VERTEX
 8
FORNO_1
 10
0
 20
0
 30
0
 70
128
 71
3
 72
115
 73
116
 74
5
 0
VERTEX
 8
FORNO_1
 10
0
 20
0
 30
0
 70
128
 71
5
 72
116
 73
117
 74
20
 0
VERTEX
 8
FORNO_1
 10
0
 20
0
 30
0
 70
128
 71
7
 72
118
 73
113
 74
1
 0
VERTEX
 8
FORNO_1
 10
0
 20
0
 30
0
 70
128
 71
2
 72
8
 73
27
 74
28
 0
VERTEX
 8
FORNO_1
 10
0
 20
0
 30
0
 70
128
 71
7
 72
1
 73
26
 74
29
 0
VERTEX
 8
FORNO_1
 10
0
 20
0
 30
0
 70
128
 71
9
 72
13
 73
30
 74
25
 0
VERTEX
 8
FORNO_1
 10
0
 20
0
 30
0
 70
128
 71
10
 72
14
 73
15
 74
11
 0
VERTEX
 8
FORNO_1
 10
0
 20
0
 30
0
 70
128
 71
11
 72
15
 73
24
 74
19
 0
VERTEX
 8
FORNO_1
 10
0
 20
0
 30
0
 70
128
 71
12
 72
16
 73
13
 74
9
 0
VERTEX
 8
FORNO_1
 10
0
 20
0
 30
0
 70
128
 71
13
 72
69
 73
70
 74
30
 0
VERTEX
 8
FORNO_1
 10
0
 20
0
 30
0
 70
128
 71
14
 72
71
 73
72
 74
15
 0
VERTEX
 8
FORNO_1
 10
0
 20
0
 30
0
 70
128
 71
15
 72
72
 73
73
 74
24
 0
VERTEX
 8
FORNO_1
 10
0
 20
0
 30
0
 70
128
 71
16
 72
74
 73
69
 74
13
 0
VERTEX
 8
FORNO_1
 10
0
 20
0
 30
0
 70
128
 71
17
 72
10
 73
103
 74
107
 0
VERTEX
 8
FORNO_1
 10
0
 20
0
 30
0
 70
128
 71
19
 72
41
 73
108
 74
105
 0
VERTEX
 8
FORNO_1
 10
0
 20
0
 30
0
 70
128
 71
21
 72
6
 73
4
 74
22
 0
VERTEX
 8
FORNO_1
 10
0
 20
0
 30
0
 70
128
 71
18
 72
3
 73
5
 74
20
 0
VERTEX
 8
FORNO_1
 10
0
 20
0
 30
0
 70
128
 71
23
 72
14
 73
10
 74
17
 0
VERTEX
 8
FORNO_1
 10
0
 20
0
 30
0
 70
128
 71
24
 72
43
 73
41
 74
19
 0
VERTEX
 8
FORNO_1
 10
0
 20
0
 30
0
 70
128
 71
22
 72
4
 73
81
 74
82
 0
VERTEX
 8
FORNO_1
 10
0
 20
0
 30
0
 70
128
 71
21
 72
44
 73
83
 74
84
 0
VERTEX
 8
FORNO_1
 10
0
 20
0
 30
0
 70
128
 71
25
 72
37
 73
109
 74
102
 0
VERTEX
 8
FORNO_1
 10
0
 20
0
 30
0
 70
128
 71
27
 72
36
 73
39
 74
28
 0
VERTEX
 8
FORNO_1
 10
0
 20
0
 30
0
 70
128
 71
26
 72
38
 73
34
 74
29
 0
VERTEX
 8
FORNO_1
 10
0
 20
0
 30
0
 70
128
 71
52
 72
54
 73
53
 74
51
 0
VERTEX
 8
FORNO_1
 10
0
 20
0
 30
0
 70
128
 71
28
 72
39
 73
85
 74
86
 0
VERTEX
 8
FORNO_1
 10
0
 20
0
 30
0
 70
128
 71
31
 72
12
 73
106
 74
110
 0
VERTEX
 8
FORNO_1
 10
0
 20
0
 30
0
 70
128
 71
32
 72
16
 73
12
 74
31
 0
VERTEX
 8
FORNO_1
 10
0
 20
0
 30
0
 70
128
 71
27
 72
8
 73
87
 74
88
 0
VERTEX
 8
FORNO_1
 10
0
 20
0
 30
0
 70
128
 71
33
 72
31
 73
110
 74
111
 0
VERTEX
 8
FORNO_1
 10
0
 20
0
 30
0
 70
128
 71
35
 72
32
 73
31
 74
33
 0
VERTEX
 8
FORNO_1
 10
0
 20
0
 30
0
 70
128
 71
36
 72
27
 73
88
 74
89
 0
VERTEX
 8
FORNO_1
 10
0
 20
0
 30
0
 70
128
 71
37
 72
45
 73
112
 74
109
 0
VERTEX
 8
FORNO_1
 10
0
 20
0
 30
0
 70
128
 71
36
 72
44
 73
47
 74
39
 0
VERTEX
 8
FORNO_1
 10
0
 20
0
 30
0
 70
128
 71
38
 72
46
 73
42
 74
34
 0
VERTEX
 8
FORNO_1
 10
0
 20
0
 30
0
 70
128
 71
62
 72
64
 73
63
 74
61
 0
VERTEX
 8
FORNO_1
 10
0
 20
0
 30
0
 70
128
 71
39
 72
47
 73
90
 74
85
 0
VERTEX
 8
FORNO_1
 10
0
 20
0
 30
0
 70
128
 71
41
 72
33
 73
111
 74
108
 0
VERTEX
 8
FORNO_1
 10
0
 20
0
 30
0
 70
128
 71
68
 72
66
 73
65
 74
67
 0
VERTEX
 8
FORNO_1
 10
0
 20
0
 30
0
 70
128
 71
44
 72
36
 73
89
 74
83
 0
VERTEX
 8
FORNO_1
 10
0
 20
0
 30
0
 70
128
 71
45
 72
17
 73
107
 74
112
 0
VERTEX
 8
FORNO_1
 10
0
 20
0
 30
0
 70
128
 71
44
 72
21
 73
22
 74
47
 0
VERTEX
 8
FORNO_1
 10
0
 20
0
 30
0
 70
128
 71
46
 72
18
 73
20
 74
42
 0
VERTEX
 8
FORNO_1
 10
0
 20
0
 30
0
 70
128
 71
56
 72
50
 73
49
 74
55
 0
VERTEX
 8
FORNO_1
 10
0
 20
0
 30
0
 70
128
 71
47
 72
22
 73
82
 74
90
 0
VERTEX
 8
FORNO_1
 10
0
 20
0
 30
0
 70
128
 71
52
 72
30
 73
40
 74
54
 0
VERTEX
 8
FORNO_1
 10
0
 20
0
 30
0
 70
128
 71
53
 72
37
 73
25
 74
51
 0
VERTEX
 8
FORNO_1
 10
0
 20
0
 30
0
 70
128
 71
51
 72
25
 73
30
 74
52
 0
VERTEX
 8
FORNO_1
 10
0
 20
0
 30
0
 70
128
 71
54
 72
40
 73
48
 74
56
 0
VERTEX
 8
FORNO_1
 10
0
 20
0
 30
0
 70
128
 71
55
 72
45
 73
37
 74
53
 0
VERTEX
 8
FORNO_1
 10
0
 20
0
 30
0
 70
128
 71
56
 72
48
 73
23
 74
50
 0
VERTEX
 8
FORNO_1
 10
0
 20
0
 30
0
 70
128
 71
50
 72
23
 73
17
 74
49
 0
VERTEX
 8
FORNO_1
 10
0
 20
0
 30
0
 70
128
 71
49
 72
17
 73
45
 74
55
 0
VERTEX
 8
FORNO_1
 10
0
 20
0
 30
0
 70
128
 71
60
 72
43
 73
35
 74
58
 0
VERTEX
 8
FORNO_1
 10
0
 20
0
 30
0
 70
128
 71
58
 72
35
 73
33
 74
57
 0
VERTEX
 8
FORNO_1
 10
0
 20
0
 30
0
 70
128
 71
57
 72
33
 73
41
 74
59
 0
VERTEX
 8
FORNO_1
 10
0
 20
0
 30
0
 70
128
 71
59
 72
41
 73
43
 74
60
 0
VERTEX
 8
FORNO_1
 10
0
 20
0
 30
0
 70
128
 71
62
 72
54
 73
56
 74
64
 0
VERTEX
 8
FORNO_1
 10
0
 20
0
 30
0
 70
128
 71
64
 72
56
 73
55
 74
63
 0
VERTEX
 8
FORNO_1
 10
0
 20
0
 30
0
 70
128
 71
63
 72
55
 73
53
 74
61
 0
VERTEX
 8
FORNO_1
 10
0
 20
0
 30
0
 70
128
 71
61
 72
53
 73
54
 74
62
 0
VERTEX
 8
FORNO_1
 10
0
 20
0
 30
0
 70
128
 71
68
 72
60
 73
58
 74
66
 0
VERTEX
 8
FORNO_1
 10
0
 20
0
 30
0
 70
128
 71
66
 72
58
 73
57
 74
65
 0
VERTEX
 8
FORNO_1
 10
0
 20
0
 30
0
 70
128
 71
65
 72
57
 73
59
 74
67
 0
VERTEX
 8
FORNO_1
 10
0
 20
0
 30
0
 70
128
 71
67
 72
59
 73
60
 74
68
 0
VERTEX
 8
FORNO_1
 10
0
 20
0
 30
0
 70
128
 71
69
 72
91
 73
86
 74
70
 0
VERTEX
 8
FORNO_1
 10
0
 20
0
 30
0
 70
128
 71
71
 72
81
 73
92
 74
72
 0
VERTEX
 8
FORNO_1
 10
0
 20
0
 30
0
 70
128
 71
72
 72
92
 73
84
 74
73
 0
VERTEX
 8
FORNO_1
 10
0
 20
0
 30
0
 70
128
 71
74
 72
87
 73
91
 74
69
 0
VERTEX
 8
FORNO_1
 10
0
 20
0
 30
0
 70
128
 71
71
 72
14
 73
23
 74
75
 0
VERTEX
 8
FORNO_1
 10
0
 20
0
 30
0
 70
128
 71
76
 72
43
 73
24
 74
73
 0
VERTEX
 8
FORNO_1
 10
0
 20
0
 30
0
 70
128
 71
77
 72
40
 73
30
 74
70
 0
VERTEX
 8
FORNO_1
 10
0
 20
0
 30
0
 70
128
 71
74
 72
16
 73
32
 74
78
 0
VERTEX
 8
FORNO_1
 10
0
 20
0
 30
0
 70
128
 71
78
 72
32
 73
35
 74
79
 0
VERTEX
 8
FORNO_1
 10
0
 20
0
 30
0
 70
128
 71
80
 72
48
 73
40
 74
77
 0
VERTEX
 8
FORNO_1
 10
0
 20
0
 30
0
 70
128
 71
79
 72
35
 73
43
 74
76
 0
VERTEX
 8
FORNO_1
 10
0
 20
0
 30
0
 70
128
 71
75
 72
23
 73
48
 74
80
 0
VERTEX
 8
FORNO_1
 10
0
 20
0
 30
0
 70
128
 71
81
 72
71
 73
75
 74
82
 0
VERTEX
 8
FORNO_1
 10
0
 20
0
 30
0
 70
128
 71
83
 72
76
 73
73
 74
84
 0
VERTEX
 8
FORNO_1
 10
0
 20
0
 30
0
 70
128
 71
98
 72
95
 73
93
 74
99
 0
VERTEX
 8
FORNO_1
 10
0
 20
0
 30
0
 70
128
 71
87
 72
74
 73
78
 74
88
 0
VERTEX
 8
FORNO_1
 10
0
 20
0
 30
0
 70
128
 71
88
 72
78
 73
79
 74
89
 0
VERTEX
 8
FORNO_1
 10
0
 20
0
 30
0
 70
128
 71
100
 72
96
 73
95
 74
98
 0
VERTEX
 8
FORNO_1
 10
0
 20
0
 30
0
 70
128
 71
89
 72
79
 73
76
 74
83
 0
VERTEX
 8
FORNO_1
 10
0
 20
0
 30
0
 70
128
 71
97
 72
94
 73
96
 74
100
 0
VERTEX
 8
FORNO_1
 10
0
 20
0
 30
0
 70
128
 71
91
 72
2
 73
28
 74
86
 0
VERTEX
 8
FORNO_1
 10
0
 20
0
 30
0
 70
128
 71
81
 72
4
 73
6
 74
92
 0
VERTEX
 8
FORNO_1
 10
0
 20
0
 30
0
 70
128
 71
92
 72
6
 73
21
 74
84
 0
VERTEX
 8
FORNO_1
 10
0
 20
0
 30
0
 70
128
 71
87
 72
8
 73
2
 74
91
 0
VERTEX
 8
FORNO_1
 10
0
 20
0
 30
0
 70
128
 71
95
 72
77
 73
70
 74
93
 0
VERTEX
 8
FORNO_1
 10
0
 20
0
 30
0
 70
128
 71
93
 72
70
 73
86
 74
99
 0
VERTEX
 8
FORNO_1
 10
0
 20
0
 30
0
 70
128
 71
99
 72
86
 73
85
 74
98
 0
VERTEX
 8
FORNO_1
 10
0
 20
0
 30
0
 70
128
 71
96
 72
80
 73
77
 74
95
 0
VERTEX
 8
FORNO_1
 10
0
 20
0
 30
0
 70
128
 71
98
 72
85
 73
90
 74
100
 0
VERTEX
 8
FORNO_1
 10
0
 20
0
 30
0
 70
128
 71
97
 72
82
 73
75
 74
94
 0
VERTEX
 8
FORNO_1
 10
0
 20
0
 30
0
 70
128
 71
94
 72
75
 73
80
 74
96
 0
VERTEX
 8
FORNO_1
 10
0
 20
0
 30
0
 70
128
 71
100
 72
90
 73
82
 74
97
 0
VERTEX
 8
FORNO_1
 10
0
 20
0
 30
0
 70
128
 71
101
 72
9
 73
25
 74
102
 0
VERTEX
 8
FORNO_1
 10
0
 20
0
 30
0
 70
128
 71
103
 72
10
 73
11
 74
104
 0
VERTEX
 8
FORNO_1
 10
0
 20
0
 30
0
 70
128
 71
104
 72
11
 73
19
 74
105
 0
VERTEX
 8
FORNO_1
 10
0
 20
0
 30
0
 70
128
 71
106
 72
12
 73
9
 74
101
 0
VERTEX
 8
FORNO_1
 10
0
 20
0
 30
0
 70
128
 71
103
 72
115
 73
119
 74
107
 0
VERTEX
 8
FORNO_1
 10
0
 20
0
 30
0
 70
128
 71
108
 72
120
 73
117
 74
105
 0
VERTEX
 8
FORNO_1
 10
0
 20
0
 30
0
 70
128
 71
109
 72
121
 73
114
 74
102
 0
VERTEX
 8
FORNO_1
 10
0
 20
0
 30
0
 70
128
 71
106
 72
118
 73
122
 74
110
 0
VERTEX
 8
FORNO_1
 10
0
 20
0
 30
0
 70
128
 71
110
 72
122
 73
123
 74
111
 0
VERTEX
 8
FORNO_1
 10
0
 20
0
 30
0
 70
128
 71
126
 72
128
 73
127
 74
125
 0
VERTEX
 8
FORNO_1
 10
0
 20
0
 30
0
 70
128
 71
111
 72
123
 73
120
 74
108
 0
VERTEX
 8
FORNO_1
 10
0
 20
0
 30
0
 70
128
 71
107
 72
119
 73
124
 74
112
 0
VERTEX
 8
FORNO_1
 10
0
 20
0
 30
0
 70
128
 71
113
 72
101
 73
102
 74
114
 0
VERTEX
 8
FORNO_1
 10
0
 20
0
 30
0
 70
128
 71
115
 72
103
 73
104
 74
116
 0
VERTEX
 8
FORNO_1
 10
0
 20
0
 30
0
 70
128
 71
116
 72
104
 73
105
 74
117
 0
VERTEX
 8
FORNO_1
 10
0
 20
0
 30
0
 70
128
 71
118
 72
106
 73
101
 74
113
 0
VERTEX
 8
FORNO_1
 10
0
 20
0
 30
0
 70
128
 71
115
 72
3
 73
18
 74
119
 0
VERTEX
 8
FORNO_1
 10
0
 20
0
 30
0
 70
128
 71
120
 72
42
 73
20
 74
117
 0
VERTEX
 8
FORNO_1
 10
0
 20
0
 30
0
 70
128
 71
121
 72
38
 73
26
 74
114
 0
VERTEX
 8
FORNO_1
 10
0
 20
0
 30
0
 70
128
 71
118
 72
7
 73
29
 74
122
 0
VERTEX
 8
FORNO_1
 10
0
 20
0
 30
0
 70
128
 71
122
 72
29
 73
34
 74
123
 0
VERTEX
 8
FORNO_1
 10
0
 20
0
 30
0
 70
128
 71
124
 72
46
 73
38
 74
121
 0
VERTEX
 8
FORNO_1
 10
0
 20
0
 30
0
 70
128
 71
123
 72
34
 73
42
 74
120
 0
VERTEX
 8
FORNO_1
 10
0
 20
0
 30
0
 70
128
 71
119
 72
18
 73
46
 74
124
 0
VERTEX
 8
FORNO_1
 10
0
 20
0
 30
0
 70
128
 71
126
 72
112
 73
124
 74
128
 0
VERTEX
 8
FORNO_1
 10
0
 20
0
 30
0
 70
128
 71
128
 72
124
 73
121
 74
127
 0
VERTEX
 8
FORNO_1
 10
0
 20
0
 30
0
 70
128
 71
127
 72
121
 73
109
 74
125
 0
VERTEX
 8
FORNO_1
 10
0
 20
0
 30
0
 70
128
 71
125
 72
109
 73
112
 74
126
 0
SEQEND
 0
ENDSEC
 0
EOF
