 0
SECTION
 2
HEADER
 9
$ACADVER
 1
AC1009
 0
ENDSEC
 0
SECTION
 2
TABLES
 0
TABLE
 2
LTYPE
 70
1
 0
LTYPE
 2
CONTINUOUS
 70
64
 3
solid line
 72
65
 73
0
 40
0.0
 0
ENDTAB
 0
TABLE
 2
LAYER
 70
6
 0
LAYER
 2
0
 70
0
 62
7
 6
CONTINUOUS
 0
LAYER
 2
FOBQ_LL_1000_X
 70
64
 62
7
 6
CONTINUOUS
 0
LAYER
 2
COPERCHIO
 70
64
 62
253
 6
CONTINUOUS
 0
LAYER
 2
MANIGLIA
 70
64
 62
253
 6
CONTINUOUS
 0
LAYER
 2
PIASTRINA
 70
64
 62
7
 6
CONTINUOUS
 0
LAYER
 2
FULGOR
 70
64
 62
39
 6
CONTINUOUS
 0
LAYER
 2
MILANO
 70
64
 62
39
 6
CONTINUOUS
 0
LAYER
 2
CUBO
 70
64
 62
253
 6
CONTINUOUS
 0
LAYER
 2
MANOPOLA_4
 70
64
 62
253
 6
CONTINUOUS
 0
LAYER
 2
MANOPOLA_3
 70
64
 62
253
 6
CONTINUOUS
 0
LAYER
 2
MANOPOLA_2
 70
64
 62
253
 6
CONTINUOUS
 0
LAYER
 2
MANOPOLA
 70
64
 62
253
 6
CONTINUOUS
 0
LAYER
 2
PIANO
 70
64
 62
253
 6
CONTINUOUS
 0
ENDTAB
 0
ENDSEC
 0
SECTION
 2
BLOCKS
 0
ENDSEC
 0
SECTION
 2
ENTITIES
 0
POLYLINE
 8
COPERCHIO
 66
1
 10
0.0
 20
0.0
 30
0.0
 70
64
 71
8
 72
6
 0
VERTEX
 8
COPERCHIO
 10
-52.073
 20
-34.5
 30
23.02
 70
192
 0
VERTEX
 8
COPERCHIO
 10
-52.073
 20
-32
 30
23.02
 70
192
 0
VERTEX
 8
COPERCHIO
 10
39.527
 20
-34.5
 30
23.02
 70
192
 0
VERTEX
 8
COPERCHIO
 10
39.527
 20
-32
 30
23.02
 70
192
 0
VERTEX
 8
COPERCHIO
 10
39.527
 20
-34.5
 30
22.22
 70
192
 0
VERTEX
 8
COPERCHIO
 10
39.527
 20
-32
 30
22.22
 70
192
 0
VERTEX
 8
COPERCHIO
 10
-52.073
 20
-34.5
 30
22.22
 70
192
 0
VERTEX
 8
COPERCHIO
 10
-52.073
 20
-32
 30
22.22
 70
192
 0
VERTEX
 8
COPERCHIO
 10
0
 20
0
 30
0
 70
128
 71
1
 72
2
 73
4
 74
3
 0
VERTEX
 8
COPERCHIO
 10
0
 20
0
 30
0
 70
128
 71
3
 72
4
 73
6
 74
5
 0
VERTEX
 8
COPERCHIO
 10
0
 20
0
 30
0
 70
128
 71
5
 72
6
 73
8
 74
7
 0
VERTEX
 8
COPERCHIO
 10
0
 20
0
 30
0
 70
128
 71
7
 72
8
 73
2
 74
1
 0
VERTEX
 8
COPERCHIO
 10
0
 20
0
 30
0
 70
128
 71
2
 72
8
 73
6
 74
4
 0
VERTEX
 8
COPERCHIO
 10
0
 20
0
 30
0
 70
128
 71
7
 72
1
 73
3
 74
5
 0
SEQEND
 0
POLYLINE
 8
MANIGLIA
 66
1
 10
0.0
 20
0.0
 30
0.0
 70
64
 71
8
 72
6
 0
VERTEX
 8
MANIGLIA
 10
-52.173
 20
21.4
 30
23.4
 70
192
 0
VERTEX
 8
MANIGLIA
 10
39.627
 20
21.4
 30
23.4
 70
192
 0
VERTEX
 8
MANIGLIA
 10
-52.173
 20
-32
 30
23.4
 70
192
 0
VERTEX
 8
MANIGLIA
 10
39.627
 20
-32
 30
23.4
 70
192
 0
VERTEX
 8
MANIGLIA
 10
-52.173
 20
-32
 30
19.4
 70
192
 0
VERTEX
 8
MANIGLIA
 10
39.627
 20
-32
 30
19.4
 70
192
 0
VERTEX
 8
MANIGLIA
 10
-52.173
 20
21.4
 30
19.4
 70
192
 0
VERTEX
 8
MANIGLIA
 10
39.627
 20
21.4
 30
19.4
 70
192
 0
VERTEX
 8
MANIGLIA
 10
0
 20
0
 30
0
 70
128
 71
1
 72
2
 73
4
 74
3
 0
VERTEX
 8
MANIGLIA
 10
0
 20
0
 30
0
 70
128
 71
3
 72
4
 73
6
 74
5
 0
VERTEX
 8
MANIGLIA
 10
0
 20
0
 30
0
 70
128
 71
5
 72
6
 73
8
 74
7
 0
VERTEX
 8
MANIGLIA
 10
0
 20
0
 30
0
 70
128
 71
7
 72
8
 73
2
 74
1
 0
VERTEX
 8
MANIGLIA
 10
0
 20
0
 30
0
 70
128
 71
2
 72
8
 73
6
 74
4
 0
VERTEX
 8
MANIGLIA
 10
0
 20
0
 30
0
 70
128
 71
7
 72
1
 73
3
 74
5
 0
SEQEND
 0
POLYLINE
 8
FULGOR
 66
1
 10
0.0
 20
0.0
 30
0.0
 70
64
 71
367
 72
183
 0
VERTEX
 8
FULGOR
 10
45.549
 20
14.5291
 30
19.4396
 70
192
 0
VERTEX
 8
FULGOR
 10
42.8296
 20
14.4259
 30
19.4396
 70
192
 0
VERTEX
 8
FULGOR
 10
46.67
 20
14.4522
 30
19.4396
 70
192
 0
VERTEX
 8
FULGOR
 10
42.9843
 20
14.724
 30
19.4396
 70
192
 0
VERTEX
 8
FULGOR
 10
42.9843
 20
14.8179
 30
19.4396
 70
192
 0
VERTEX
 8
FULGOR
 10
43.364
 20
14.8179
 30
19.4396
 70
192
 0
VERTEX
 8
FULGOR
 10
43.364
 20
14.9291
 30
19.4396
 70
192
 0
VERTEX
 8
FULGOR
 10
42.8296
 20
14.9291
 30
19.4396
 70
192
 0
VERTEX
 8
FULGOR
 10
43.5212
 20
14.6446
 30
19.4396
 70
192
 0
VERTEX
 8
FULGOR
 10
43.5224
 20
14.6211
 30
19.4396
 70
192
 0
VERTEX
 8
FULGOR
 10
43.526
 20
14.5994
 30
19.4396
 70
192
 0
VERTEX
 8
FULGOR
 10
42.9843
 20
14.4259
 30
19.4396
 70
192
 0
VERTEX
 8
FULGOR
 10
42.9843
 20
14.6345
 30
19.4396
 70
192
 0
VERTEX
 8
FULGOR
 10
43.364
 20
14.6345
 30
19.4396
 70
192
 0
VERTEX
 8
FULGOR
 10
43.364
 20
14.724
 30
19.4396
 70
192
 0
VERTEX
 8
FULGOR
 10
43.5212
 20
14.9291
 30
19.4396
 70
192
 0
VERTEX
 8
FULGOR
 10
43.5317
 20
14.5794
 30
19.4396
 70
192
 0
VERTEX
 8
FULGOR
 10
43.5394
 20
14.5611
 30
19.4396
 70
192
 0
VERTEX
 8
FULGOR
 10
43.549
 20
14.5443
 30
19.4396
 70
192
 0
VERTEX
 8
FULGOR
 10
43.5604
 20
14.529
 30
19.4396
 70
192
 0
VERTEX
 8
FULGOR
 10
43.6979
 20
14.4521
 30
19.4396
 70
192
 0
VERTEX
 8
FULGOR
 10
43.7509
 20
14.4411
 30
19.4396
 70
192
 0
VERTEX
 8
FULGOR
 10
43.8371
 20
14.4319
 30
19.4396
 70
192
 0
VERTEX
 8
FULGOR
 10
43.9265
 20
14.4291
 30
19.4396
 70
192
 0
VERTEX
 8
FULGOR
 10
44.0265
 20
14.4327
 30
19.4396
 70
192
 0
VERTEX
 8
FULGOR
 10
44.1019
 20
14.4427
 30
19.4396
 70
192
 0
VERTEX
 8
FULGOR
 10
43.5734
 20
14.5151
 30
19.4396
 70
192
 0
VERTEX
 8
FULGOR
 10
44.1948
 20
14.4682
 30
19.4396
 70
192
 0
VERTEX
 8
FULGOR
 10
43.5878
 20
14.5026
 30
19.4396
 70
192
 0
VERTEX
 8
FULGOR
 10
43.6036
 20
14.4914
 30
19.4396
 70
192
 0
VERTEX
 8
FULGOR
 10
43.6295
 20
14.4768
 30
19.4396
 70
192
 0
VERTEX
 8
FULGOR
 10
43.6577
 20
14.4648
 30
19.4396
 70
192
 0
VERTEX
 8
FULGOR
 10
44.2975
 20
14.5378
 30
19.4396
 70
192
 0
VERTEX
 8
FULGOR
 10
44.1548
 20
14.4549
 30
19.4396
 70
192
 0
VERTEX
 8
FULGOR
 10
44.2229
 20
14.4805
 30
19.4396
 70
192
 0
VERTEX
 8
FULGOR
 10
44.2486
 20
14.4949
 30
19.4396
 70
192
 0
VERTEX
 8
FULGOR
 10
44.2717
 20
14.5116
 30
19.4396
 70
192
 0
VERTEX
 8
FULGOR
 10
44.3294
 20
14.6144
 30
19.4396
 70
192
 0
VERTEX
 8
FULGOR
 10
44.3306
 20
14.6351
 30
19.4396
 70
192
 0
VERTEX
 8
FULGOR
 10
44.3308
 20
14.9291
 30
19.4396
 70
192
 0
VERTEX
 8
FULGOR
 10
44.2854
 20
14.5241
 30
19.4396
 70
192
 0
VERTEX
 8
FULGOR
 10
44.308
 20
14.5526
 30
19.4396
 70
192
 0
VERTEX
 8
FULGOR
 10
44.1761
 20
14.6365
 30
19.4396
 70
192
 0
VERTEX
 8
FULGOR
 10
44.1752
 20
14.6295
 30
19.4396
 70
192
 0
VERTEX
 8
FULGOR
 10
44.1736
 20
14.6224
 30
19.4396
 70
192
 0
VERTEX
 8
FULGOR
 10
44.1713
 20
14.6155
 30
19.4396
 70
192
 0
VERTEX
 8
FULGOR
 10
44.1682
 20
14.6086
 30
19.4396
 70
192
 0
VERTEX
 8
FULGOR
 10
44.1644
 20
14.6019
 30
19.4396
 70
192
 0
VERTEX
 8
FULGOR
 10
44.1598
 20
14.5953
 30
19.4396
 70
192
 0
VERTEX
 8
FULGOR
 10
44.1515
 20
14.5857
 30
19.4396
 70
192
 0
VERTEX
 8
FULGOR
 10
44.1412
 20
14.5765
 30
19.4396
 70
192
 0
VERTEX
 8
FULGOR
 10
44.1291
 20
14.5678
 30
19.4396
 70
192
 0
VERTEX
 8
FULGOR
 10
44.1151
 20
14.5598
 30
19.4396
 70
192
 0
VERTEX
 8
FULGOR
 10
44.3166
 20
14.5686
 30
19.4396
 70
192
 0
VERTEX
 8
FULGOR
 10
44.3233
 20
14.5859
 30
19.4396
 70
192
 0
VERTEX
 8
FULGOR
 10
44.3279
 20
14.6046
 30
19.4396
 70
192
 0
VERTEX
 8
FULGOR
 10
44.1762
 20
14.9291
 30
19.4396
 70
192
 0
VERTEX
 8
FULGOR
 10
44.1762
 20
14.6436
 30
19.4396
 70
192
 0
VERTEX
 8
FULGOR
 10
43.8384
 20
14.5302
 30
19.4396
 70
192
 0
VERTEX
 8
FULGOR
 10
44.0932
 20
14.5501
 30
19.4396
 70
192
 0
VERTEX
 8
FULGOR
 10
43.7652
 20
14.544
 30
19.4396
 70
192
 0
VERTEX
 8
FULGOR
 10
43.7425
 20
14.5521
 30
19.4396
 70
192
 0
VERTEX
 8
FULGOR
 10
44.0677
 20
14.5418
 30
19.4396
 70
192
 0
VERTEX
 8
FULGOR
 10
44.0304
 20
14.5336
 30
19.4396
 70
192
 0
VERTEX
 8
FULGOR
 10
43.9868
 20
14.5283
 30
19.4396
 70
192
 0
VERTEX
 8
FULGOR
 10
43.6981
 20
14.5825
 30
19.4396
 70
192
 0
VERTEX
 8
FULGOR
 10
43.6928
 20
14.5893
 30
19.4396
 70
192
 0
VERTEX
 8
FULGOR
 10
43.6881
 20
14.5965
 30
19.4396
 70
192
 0
VERTEX
 8
FULGOR
 10
43.6843
 20
14.604
 30
19.4396
 70
192
 0
VERTEX
 8
FULGOR
 10
43.6812
 20
14.6119
 30
19.4396
 70
192
 0
VERTEX
 8
FULGOR
 10
43.926
 20
14.526
 30
19.4396
 70
192
 0
VERTEX
 8
FULGOR
 10
43.6765
 20
14.6334
 30
19.4396
 70
192
 0
VERTEX
 8
FULGOR
 10
43.6758
 20
14.6475
 30
19.4396
 70
192
 0
VERTEX
 8
FULGOR
 10
43.6758
 20
14.9291
 30
19.4396
 70
192
 0
VERTEX
 8
FULGOR
 10
43.7916
 20
14.5373
 30
19.4396
 70
192
 0
VERTEX
 8
FULGOR
 10
43.7279
 20
14.5593
 30
19.4396
 70
192
 0
VERTEX
 8
FULGOR
 10
43.7151
 20
14.5673
 30
19.4396
 70
192
 0
VERTEX
 8
FULGOR
 10
43.7043
 20
14.5761
 30
19.4396
 70
192
 0
VERTEX
 8
FULGOR
 10
44.6422
 20
14.5371
 30
19.4396
 70
192
 0
VERTEX
 8
FULGOR
 10
44.6422
 20
14.9291
 30
19.4396
 70
192
 0
VERTEX
 8
FULGOR
 10
45.8712
 20
14.8828
 30
19.4396
 70
192
 0
VERTEX
 8
FULGOR
 10
43.6788
 20
14.6203
 30
19.4396
 70
192
 0
VERTEX
 8
FULGOR
 10
44.4874
 20
14.9291
 30
19.4396
 70
192
 0
VERTEX
 8
FULGOR
 10
45.5652
 20
14.9287
 30
19.4396
 70
192
 0
VERTEX
 8
FULGOR
 10
44.4874
 20
14.4259
 30
19.4396
 70
192
 0
VERTEX
 8
FULGOR
 10
45.0219
 20
14.4259
 30
19.4396
 70
192
 0
VERTEX
 8
FULGOR
 10
45.0219
 20
14.5371
 30
19.4396
 70
192
 0
VERTEX
 8
FULGOR
 10
45.7707
 20
14.9026
 30
19.4396
 70
192
 0
VERTEX
 8
FULGOR
 10
45.6712
 20
14.9194
 30
19.4396
 70
192
 0
VERTEX
 8
FULGOR
 10
45.4948
 20
14.9285
 30
19.4396
 70
192
 0
VERTEX
 8
FULGOR
 10
45.2233
 20
14.8524
 30
19.4396
 70
192
 0
VERTEX
 8
FULGOR
 10
45.197
 20
14.8351
 30
19.4396
 70
192
 0
VERTEX
 8
FULGOR
 10
45.1747
 20
14.8172
 30
19.4396
 70
192
 0
VERTEX
 8
FULGOR
 10
45.1558
 20
14.7988
 30
19.4396
 70
192
 0
VERTEX
 8
FULGOR
 10
45.431
 20
14.9221
 30
19.4396
 70
192
 0
VERTEX
 8
FULGOR
 10
45.3743
 20
14.9111
 30
19.4396
 70
192
 0
VERTEX
 8
FULGOR
 10
45.3186
 20
14.895
 30
19.4396
 70
192
 0
VERTEX
 8
FULGOR
 10
45.1134
 20
14.7306
 30
19.4396
 70
192
 0
VERTEX
 8
FULGOR
 10
45.1089
 20
14.7162
 30
19.4396
 70
192
 0
VERTEX
 8
FULGOR
 10
45.2684
 20
14.8754
 30
19.4396
 70
192
 0
VERTEX
 8
FULGOR
 10
45.2426
 20
14.863
 30
19.4396
 70
192
 0
VERTEX
 8
FULGOR
 10
45.1411
 20
14.7812
 30
19.4396
 70
192
 0
VERTEX
 8
FULGOR
 10
45.1046
 20
14.6572
 30
19.4396
 70
192
 0
VERTEX
 8
FULGOR
 10
45.1304
 20
14.7656
 30
19.4396
 70
192
 0
VERTEX
 8
FULGOR
 10
45.1211
 20
14.7488
 30
19.4396
 70
192
 0
VERTEX
 8
FULGOR
 10
45.1057
 20
14.7009
 30
19.4396
 70
192
 0
VERTEX
 8
FULGOR
 10
45.1044
 20
14.6904
 30
19.4396
 70
192
 0
VERTEX
 8
FULGOR
 10
45.1036
 20
14.6739
 30
19.4396
 70
192
 0
VERTEX
 8
FULGOR
 10
45.1075
 20
14.641
 30
19.4396
 70
192
 0
VERTEX
 8
FULGOR
 10
45.1725
 20
14.5404
 30
19.4396
 70
192
 0
VERTEX
 8
FULGOR
 10
45.1971
 20
14.5205
 30
19.4396
 70
192
 0
VERTEX
 8
FULGOR
 10
45.1122
 20
14.6251
 30
19.4396
 70
192
 0
VERTEX
 8
FULGOR
 10
45.2651
 20
14.4804
 30
19.4396
 70
192
 0
VERTEX
 8
FULGOR
 10
45.3022
 20
14.4648
 30
19.4396
 70
192
 0
VERTEX
 8
FULGOR
 10
45.1186
 20
14.6097
 30
19.4396
 70
192
 0
VERTEX
 8
FULGOR
 10
45.1266
 20
14.5948
 30
19.4396
 70
192
 0
VERTEX
 8
FULGOR
 10
45.4772
 20
14.4285
 30
19.4396
 70
192
 0
VERTEX
 8
FULGOR
 10
45.5256
 20
14.4262
 30
19.4396
 70
192
 0
VERTEX
 8
FULGOR
 10
45.5652
 20
14.4264
 30
19.4396
 70
192
 0
VERTEX
 8
FULGOR
 10
45.628
 20
14.4301
 30
19.4396
 70
192
 0
VERTEX
 8
FULGOR
 10
45.1396
 20
14.5757
 30
19.4396
 70
192
 0
VERTEX
 8
FULGOR
 10
45.155
 20
14.5575
 30
19.4396
 70
192
 0
VERTEX
 8
FULGOR
 10
45.2297
 20
14.499
 30
19.4396
 70
192
 0
VERTEX
 8
FULGOR
 10
45.6934
 20
14.6872
 30
19.4396
 70
192
 0
VERTEX
 8
FULGOR
 10
45.3528
 20
14.449
 30
19.4396
 70
192
 0
VERTEX
 8
FULGOR
 10
45.4086
 20
14.437
 30
19.4396
 70
192
 0
VERTEX
 8
FULGOR
 10
45.7059
 20
14.4403
 30
19.4396
 70
192
 0
VERTEX
 8
FULGOR
 10
45.8712
 20
14.4723
 30
19.4396
 70
192
 0
VERTEX
 8
FULGOR
 10
45.5199
 20
14.5294
 30
19.4396
 70
192
 0
VERTEX
 8
FULGOR
 10
45.4859
 20
14.5321
 30
19.4396
 70
192
 0
VERTEX
 8
FULGOR
 10
45.8712
 20
14.6872
 30
19.4396
 70
192
 0
VERTEX
 8
FULGOR
 10
45.4223
 20
14.5464
 30
19.4396
 70
192
 0
VERTEX
 8
FULGOR
 10
45.3992
 20
14.5554
 30
19.4396
 70
192
 0
VERTEX
 8
FULGOR
 10
45.6934
 20
14.5399
 30
19.4396
 70
192
 0
VERTEX
 8
FULGOR
 10
45.6731
 20
14.5362
 30
19.4396
 70
192
 0
VERTEX
 8
FULGOR
 10
45.3459
 20
14.5895
 30
19.4396
 70
192
 0
VERTEX
 8
FULGOR
 10
45.6174
 20
14.5304
 30
19.4396
 70
192
 0
VERTEX
 8
FULGOR
 10
45.5764
 20
14.5288
 30
19.4396
 70
192
 0
VERTEX
 8
FULGOR
 10
45.4532
 20
14.5378
 30
19.4396
 70
192
 0
VERTEX
 8
FULGOR
 10
45.378
 20
14.5662
 30
19.4396
 70
192
 0
VERTEX
 8
FULGOR
 10
45.3066
 20
14.652
 30
19.4396
 70
192
 0
VERTEX
 8
FULGOR
 10
45.3043
 20
14.6626
 30
19.4396
 70
192
 0
VERTEX
 8
FULGOR
 10
45.3028
 20
14.6736
 30
19.4396
 70
192
 0
VERTEX
 8
FULGOR
 10
45.3023
 20
14.6851
 30
19.4396
 70
192
 0
VERTEX
 8
FULGOR
 10
45.303
 20
14.6965
 30
19.4396
 70
192
 0
VERTEX
 8
FULGOR
 10
45.3588
 20
14.5788
 30
19.4396
 70
192
 0
VERTEX
 8
FULGOR
 10
45.3344
 20
14.6011
 30
19.4396
 70
192
 0
VERTEX
 8
FULGOR
 10
45.3245
 20
14.6137
 30
19.4396
 70
192
 0
VERTEX
 8
FULGOR
 10
45.317
 20
14.7369
 30
19.4396
 70
192
 0
VERTEX
 8
FULGOR
 10
45.3231
 20
14.7458
 30
19.4396
 70
192
 0
VERTEX
 8
FULGOR
 10
45.33
 20
14.7542
 30
19.4396
 70
192
 0
VERTEX
 8
FULGOR
 10
45.3163
 20
14.6272
 30
19.4396
 70
192
 0
VERTEX
 8
FULGOR
 10
45.3552
 20
14.7763
 30
19.4396
 70
192
 0
VERTEX
 8
FULGOR
 10
45.3698
 20
14.7858
 30
19.4396
 70
192
 0
VERTEX
 8
FULGOR
 10
45.3099
 20
14.6418
 30
19.4396
 70
192
 0
VERTEX
 8
FULGOR
 10
45.4191
 20
14.8079
 30
19.4396
 70
192
 0
VERTEX
 8
FULGOR
 10
45.4482
 20
14.8162
 30
19.4396
 70
192
 0
VERTEX
 8
FULGOR
 10
45.3048
 20
14.7074
 30
19.4396
 70
192
 0
VERTEX
 8
FULGOR
 10
45.4992
 20
14.8242
 30
19.4396
 70
192
 0
VERTEX
 8
FULGOR
 10
45.3078
 20
14.7177
 30
19.4396
 70
192
 0
VERTEX
 8
FULGOR
 10
45.6498
 20
14.8161
 30
19.4396
 70
192
 0
VERTEX
 8
FULGOR
 10
45.3119
 20
14.7276
 30
19.4396
 70
192
 0
VERTEX
 8
FULGOR
 10
45.8712
 20
14.7754
 30
19.4396
 70
192
 0
VERTEX
 8
FULGOR
 10
46.0283
 20
14.6775
 30
19.4396
 70
192
 0
VERTEX
 8
FULGOR
 10
46.0296
 20
14.6551
 30
19.4396
 70
192
 0
VERTEX
 8
FULGOR
 10
45.3418
 20
14.7658
 30
19.4396
 70
192
 0
VERTEX
 8
FULGOR
 10
45.3909
 20
14.7968
 30
19.4396
 70
192
 0
VERTEX
 8
FULGOR
 10
46.048
 20
14.5954
 30
19.4396
 70
192
 0
VERTEX
 8
FULGOR
 10
46.0584
 20
14.5778
 30
19.4396
 70
192
 0
VERTEX
 8
FULGOR
 10
46.0708
 20
14.5614
 30
19.4396
 70
192
 0
VERTEX
 8
FULGOR
 10
46.0849
 20
14.5461
 30
19.4396
 70
192
 0
VERTEX
 8
FULGOR
 10
46.1091
 20
14.5252
 30
19.4396
 70
192
 0
VERTEX
 8
FULGOR
 10
45.4827
 20
14.8225
 30
19.4396
 70
192
 0
VERTEX
 8
FULGOR
 10
45.5608
 20
14.8251
 30
19.4396
 70
192
 0
VERTEX
 8
FULGOR
 10
45.7399
 20
14.8013
 30
19.4396
 70
192
 0
VERTEX
 8
FULGOR
 10
46.0334
 20
14.634
 30
19.4396
 70
192
 0
VERTEX
 8
FULGOR
 10
46.0396
 20
14.6141
 30
19.4396
 70
192
 0
VERTEX
 8
FULGOR
 10
46.4086
 20
14.4301
 30
19.4396
 70
192
 0
VERTEX
 8
FULGOR
 10
46.4734
 20
14.4274
 30
19.4396
 70
192
 0
VERTEX
 8
FULGOR
 10
46.1364
 20
14.5066
 30
19.4396
 70
192
 0
VERTEX
 8
FULGOR
 10
46.632
 20
14.4428
 30
19.4396
 70
192
 0
VERTEX
 8
FULGOR
 10
46.1664
 20
14.4902
 30
19.4396
 70
192
 0
VERTEX
 8
FULGOR
 10
46.2096
 20
14.4717
 30
19.4396
 70
192
 0
VERTEX
 8
FULGOR
 10
46.2672
 20
14.4536
 30
19.4396
 70
192
 0
VERTEX
 8
FULGOR
 10
46.3386
 20
14.4385
 30
19.4396
 70
192
 0
VERTEX
 8
FULGOR
 10
46.5495
 20
14.431
 30
19.4396
 70
192
 0
VERTEX
 8
FULGOR
 10
46.869
 20
14.5537
 30
19.4396
 70
192
 0
VERTEX
 8
FULGOR
 10
46.7029
 20
14.4602
 30
19.4396
 70
192
 0
VERTEX
 8
FULGOR
 10
46.7591
 20
14.4806
 30
19.4396
 70
192
 0
VERTEX
 8
FULGOR
 10
46.8005
 20
14.501
 30
19.4396
 70
192
 0
VERTEX
 8
FULGOR
 10
46.8287
 20
14.5188
 30
19.4396
 70
192
 0
VERTEX
 8
FULGOR
 10
46.854
 20
14.5389
 30
19.4396
 70
192
 0
VERTEX
 8
FULGOR
 10
46.917
 20
14.655
 30
19.4396
 70
192
 0
VERTEX
 8
FULGOR
 10
46.9183
 20
14.6774
 30
19.4396
 70
192
 0
VERTEX
 8
FULGOR
 10
46.9171
 20
14.6997
 30
19.4396
 70
192
 0
VERTEX
 8
FULGOR
 10
46.9133
 20
14.7208
 30
19.4396
 70
192
 0
VERTEX
 8
FULGOR
 10
46.8822
 20
14.5695
 30
19.4396
 70
192
 0
VERTEX
 8
FULGOR
 10
46.8936
 20
14.5865
 30
19.4396
 70
192
 0
VERTEX
 8
FULGOR
 10
46.9031
 20
14.6046
 30
19.4396
 70
192
 0
VERTEX
 8
FULGOR
 10
46.8761
 20
14.7933
 30
19.4396
 70
192
 0
VERTEX
 8
FULGOR
 10
46.8619
 20
14.8086
 30
19.4396
 70
192
 0
VERTEX
 8
FULGOR
 10
46.8378
 20
14.8295
 30
19.4396
 70
192
 0
VERTEX
 8
FULGOR
 10
46.8105
 20
14.8482
 30
19.4396
 70
192
 0
VERTEX
 8
FULGOR
 10
46.7805
 20
14.8646
 30
19.4396
 70
192
 0
VERTEX
 8
FULGOR
 10
46.7372
 20
14.8831
 30
19.4396
 70
192
 0
VERTEX
 8
FULGOR
 10
46.9104
 20
14.6238
 30
19.4396
 70
192
 0
VERTEX
 8
FULGOR
 10
46.9154
 20
14.6443
 30
19.4396
 70
192
 0
VERTEX
 8
FULGOR
 10
46.9072
 20
14.7407
 30
19.4396
 70
192
 0
VERTEX
 8
FULGOR
 10
46.8988
 20
14.7594
 30
19.4396
 70
192
 0
VERTEX
 8
FULGOR
 10
46.3972
 20
14.924
 30
19.4396
 70
192
 0
VERTEX
 8
FULGOR
 10
46.8884
 20
14.7769
 30
19.4396
 70
192
 0
VERTEX
 8
FULGOR
 10
46.6796
 20
14.9013
 30
19.4396
 70
192
 0
VERTEX
 8
FULGOR
 10
46.6082
 20
14.9164
 30
19.4396
 70
192
 0
VERTEX
 8
FULGOR
 10
46.5381
 20
14.925
 30
19.4396
 70
192
 0
VERTEX
 8
FULGOR
 10
46.1177
 20
14.8363
 30
19.4396
 70
192
 0
VERTEX
 8
FULGOR
 10
46.0925
 20
14.8161
 30
19.4396
 70
192
 0
VERTEX
 8
FULGOR
 10
46.0775
 20
14.8014
 30
19.4396
 70
192
 0
VERTEX
 8
FULGOR
 10
46.0643
 20
14.7855
 30
19.4396
 70
192
 0
VERTEX
 8
FULGOR
 10
46.0528
 20
14.7686
 30
19.4396
 70
192
 0
VERTEX
 8
FULGOR
 10
46.0434
 20
14.7504
 30
19.4396
 70
192
 0
VERTEX
 8
FULGOR
 10
46.0362
 20
14.7311
 30
19.4396
 70
192
 0
VERTEX
 8
FULGOR
 10
46.4734
 20
14.9276
 30
19.4396
 70
192
 0
VERTEX
 8
FULGOR
 10
46.0296
 20
14.6999
 30
19.4396
 70
192
 0
VERTEX
 8
FULGOR
 10
46.2282
 20
14.6774
 30
19.4396
 70
192
 0
VERTEX
 8
FULGOR
 10
46.2288
 20
14.6652
 30
19.4396
 70
192
 0
VERTEX
 8
FULGOR
 10
46.3147
 20
14.9123
 30
19.4396
 70
192
 0
VERTEX
 8
FULGOR
 10
46.2437
 20
14.8948
 30
19.4396
 70
192
 0
VERTEX
 8
FULGOR
 10
46.1875
 20
14.8745
 30
19.4396
 70
192
 0
VERTEX
 8
FULGOR
 10
46.146
 20
14.8541
 30
19.4396
 70
192
 0
VERTEX
 8
FULGOR
 10
46.0312
 20
14.7106
 30
19.4396
 70
192
 0
VERTEX
 8
FULGOR
 10
46.2528
 20
14.6041
 30
19.4396
 70
192
 0
VERTEX
 8
FULGOR
 10
46.2599
 20
14.5958
 30
19.4396
 70
192
 0
VERTEX
 8
FULGOR
 10
46.2304
 20
14.6537
 30
19.4396
 70
192
 0
VERTEX
 8
FULGOR
 10
46.233
 20
14.6427
 30
19.4396
 70
192
 0
VERTEX
 8
FULGOR
 10
46.2365
 20
14.6322
 30
19.4396
 70
192
 0
VERTEX
 8
FULGOR
 10
46.2411
 20
14.6223
 30
19.4396
 70
192
 0
VERTEX
 8
FULGOR
 10
46.349
 20
14.5455
 30
19.4396
 70
192
 0
VERTEX
 8
FULGOR
 10
46.3829
 20
14.5374
 30
19.4396
 70
192
 0
VERTEX
 8
FULGOR
 10
46.2465
 20
14.6129
 30
19.4396
 70
192
 0
VERTEX
 8
FULGOR
 10
46.4734
 20
14.5296
 30
19.4396
 70
192
 0
VERTEX
 8
FULGOR
 10
46.5275
 20
14.5322
 30
19.4396
 70
192
 0
VERTEX
 8
FULGOR
 10
46.2721
 20
14.5843
 30
19.4396
 70
192
 0
VERTEX
 8
FULGOR
 10
46.6043
 20
14.5476
 30
19.4396
 70
192
 0
VERTEX
 8
FULGOR
 10
46.6287
 20
14.5567
 30
19.4396
 70
192
 0
VERTEX
 8
FULGOR
 10
46.6508
 20
14.5677
 30
19.4396
 70
192
 0
VERTEX
 8
FULGOR
 10
46.2859
 20
14.5739
 30
19.4396
 70
192
 0
VERTEX
 8
FULGOR
 10
46.679
 20
14.588
 30
19.4396
 70
192
 0
VERTEX
 8
FULGOR
 10
46.3013
 20
14.5647
 30
19.4396
 70
192
 0
VERTEX
 8
FULGOR
 10
46.324
 20
14.5541
 30
19.4396
 70
192
 0
VERTEX
 8
FULGOR
 10
46.7032
 20
14.6176
 30
19.4396
 70
192
 0
VERTEX
 8
FULGOR
 10
46.4268
 20
14.5315
 30
19.4396
 70
192
 0
VERTEX
 8
FULGOR
 10
46.5709
 20
14.5389
 30
19.4396
 70
192
 0
VERTEX
 8
FULGOR
 10
46.6657
 20
14.5773
 30
19.4396
 70
192
 0
VERTEX
 8
FULGOR
 10
46.7174
 20
14.6594
 30
19.4396
 70
192
 0
VERTEX
 8
FULGOR
 10
46.7181
 20
14.6653
 30
19.4396
 70
192
 0
VERTEX
 8
FULGOR
 10
46.7186
 20
14.6774
 30
19.4396
 70
192
 0
VERTEX
 8
FULGOR
 10
46.7181
 20
14.6895
 30
19.4396
 70
192
 0
VERTEX
 8
FULGOR
 10
46.6906
 20
14.5999
 30
19.4396
 70
192
 0
VERTEX
 8
FULGOR
 10
46.6973
 20
14.6085
 30
19.4396
 70
192
 0
VERTEX
 8
FULGOR
 10
46.7103
 20
14.7224
 30
19.4396
 70
192
 0
VERTEX
 8
FULGOR
 10
46.7058
 20
14.7323
 30
19.4396
 70
192
 0
VERTEX
 8
FULGOR
 10
46.7082
 20
14.6273
 30
19.4396
 70
192
 0
VERTEX
 8
FULGOR
 10
46.7122
 20
14.6374
 30
19.4396
 70
192
 0
VERTEX
 8
FULGOR
 10
46.6869
 20
14.7588
 30
19.4396
 70
192
 0
VERTEX
 8
FULGOR
 10
46.7153
 20
14.6481
 30
19.4396
 70
192
 0
VERTEX
 8
FULGOR
 10
46.7165
 20
14.701
 30
19.4396
 70
192
 0
VERTEX
 8
FULGOR
 10
46.6454
 20
14.7897
 30
19.4396
 70
192
 0
VERTEX
 8
FULGOR
 10
46.6227
 20
14.8002
 30
19.4396
 70
192
 0
VERTEX
 8
FULGOR
 10
46.7139
 20
14.712
 30
19.4396
 70
192
 0
VERTEX
 8
FULGOR
 10
46.7003
 20
14.7417
 30
19.4396
 70
192
 0
VERTEX
 8
FULGOR
 10
46.694
 20
14.7505
 30
19.4396
 70
192
 0
VERTEX
 8
FULGOR
 10
46.6747
 20
14.7702
 30
19.4396
 70
192
 0
VERTEX
 8
FULGOR
 10
46.4193
 20
14.8221
 30
19.4396
 70
192
 0
VERTEX
 8
FULGOR
 10
46.376
 20
14.8155
 30
19.4396
 70
192
 0
VERTEX
 8
FULGOR
 10
46.3426
 20
14.8069
 30
19.4396
 70
192
 0
VERTEX
 8
FULGOR
 10
46.6608
 20
14.7806
 30
19.4396
 70
192
 0
VERTEX
 8
FULGOR
 10
46.5977
 20
14.8088
 30
19.4396
 70
192
 0
VERTEX
 8
FULGOR
 10
46.5638
 20
14.8169
 30
19.4396
 70
192
 0
VERTEX
 8
FULGOR
 10
46.5199
 20
14.8228
 30
19.4396
 70
192
 0
VERTEX
 8
FULGOR
 10
46.4734
 20
14.8247
 30
19.4396
 70
192
 0
VERTEX
 8
FULGOR
 10
46.3182
 20
14.7979
 30
19.4396
 70
192
 0
VERTEX
 8
FULGOR
 10
46.2961
 20
14.7869
 30
19.4396
 70
192
 0
VERTEX
 8
FULGOR
 10
46.2812
 20
14.7773
 30
19.4396
 70
192
 0
VERTEX
 8
FULGOR
 10
46.2679
 20
14.7666
 30
19.4396
 70
192
 0
VERTEX
 8
FULGOR
 10
46.2563
 20
14.7548
 30
19.4396
 70
192
 0
VERTEX
 8
FULGOR
 10
46.2495
 20
14.7462
 30
19.4396
 70
192
 0
VERTEX
 8
FULGOR
 10
46.2437
 20
14.7371
 30
19.4396
 70
192
 0
VERTEX
 8
FULGOR
 10
46.2387
 20
14.7275
 30
19.4396
 70
192
 0
VERTEX
 8
FULGOR
 10
46.2346
 20
14.7173
 30
19.4396
 70
192
 0
VERTEX
 8
FULGOR
 10
46.2315
 20
14.7066
 30
19.4396
 70
192
 0
VERTEX
 8
FULGOR
 10
47.3244
 20
14.6386
 30
19.4396
 70
192
 0
VERTEX
 8
FULGOR
 10
46.2294
 20
14.6953
 30
19.4396
 70
192
 0
VERTEX
 8
FULGOR
 10
46.2288
 20
14.6895
 30
19.4396
 70
192
 0
VERTEX
 8
FULGOR
 10
47.0754
 20
14.4259
 30
19.4396
 70
192
 0
VERTEX
 8
FULGOR
 10
47.2302
 20
14.4259
 30
19.4396
 70
192
 0
VERTEX
 8
FULGOR
 10
47.2302
 20
14.6386
 30
19.4396
 70
192
 0
VERTEX
 8
FULGOR
 10
47.3475
 20
14.6366
 30
19.4396
 70
192
 0
VERTEX
 8
FULGOR
 10
47.4336
 20
14.5883
 30
19.4396
 70
192
 0
VERTEX
 8
FULGOR
 10
47.4456
 20
14.5754
 30
19.4396
 70
192
 0
VERTEX
 8
FULGOR
 10
47.3619
 20
14.6331
 30
19.4396
 70
192
 0
VERTEX
 8
FULGOR
 10
47.5542
 20
14.4259
 30
19.4396
 70
192
 0
VERTEX
 8
FULGOR
 10
47.8303
 20
14.4259
 30
19.4396
 70
192
 0
VERTEX
 8
FULGOR
 10
47.7932
 20
14.4454
 30
19.4396
 70
192
 0
VERTEX
 8
FULGOR
 10
47.3755
 20
14.6283
 30
19.4396
 70
192
 0
VERTEX
 8
FULGOR
 10
47.3882
 20
14.6223
 30
19.4396
 70
192
 0
VERTEX
 8
FULGOR
 10
47.7395
 20
14.4827
 30
19.4396
 70
192
 0
VERTEX
 8
FULGOR
 10
47.6992
 20
14.5204
 30
19.4396
 70
192
 0
VERTEX
 8
FULGOR
 10
47.0754
 20
14.728
 30
19.4396
 70
192
 0
VERTEX
 8
FULGOR
 10
47.6479
 20
14.5898
 30
19.4396
 70
192
 0
VERTEX
 8
FULGOR
 10
47.623
 20
14.618
 30
19.4396
 70
192
 0
VERTEX
 8
FULGOR
 10
47.5994
 20
14.6382
 30
19.4396
 70
192
 0
VERTEX
 8
FULGOR
 10
47.4183
 20
14.602
 30
19.4396
 70
192
 0
VERTEX
 8
FULGOR
 10
46.5919
 20
14.4371
 30
19.4396
 70
192
 0
VERTEX
 8
FULGOR
 10
47.5427
 20
14.6689
 30
19.4396
 70
192
 0
VERTEX
 8
FULGOR
 10
47.7621
 20
14.465
 30
19.4396
 70
192
 0
VERTEX
 8
FULGOR
 10
47.6176
 20
14.7005
 30
19.4396
 70
192
 0
VERTEX
 8
FULGOR
 10
47.5766
 20
14.6532
 30
19.4396
 70
192
 0
VERTEX
 8
FULGOR
 10
47.644
 20
14.7223
 30
19.4396
 70
192
 0
VERTEX
 8
FULGOR
 10
47.5591
 20
14.6625
 30
19.4396
 70
192
 0
VERTEX
 8
FULGOR
 10
47.6689
 20
14.7609
 30
19.4396
 70
192
 0
VERTEX
 8
FULGOR
 10
47.6744
 20
14.7824
 30
19.4396
 70
192
 0
VERTEX
 8
FULGOR
 10
47.5786
 20
14.6803
 30
19.4396
 70
192
 0
VERTEX
 8
FULGOR
 10
47.6721
 20
14.8238
 30
19.4396
 70
192
 0
VERTEX
 8
FULGOR
 10
47.6629
 20
14.8444
 30
19.4396
 70
192
 0
VERTEX
 8
FULGOR
 10
47.6487
 20
14.8623
 30
19.4396
 70
192
 0
VERTEX
 8
FULGOR
 10
47.6253
 20
14.8811
 30
19.4396
 70
192
 0
VERTEX
 8
FULGOR
 10
47.6596
 20
14.7422
 30
19.4396
 70
192
 0
VERTEX
 8
FULGOR
 10
47.5119
 20
14.9208
 30
19.4396
 70
192
 0
VERTEX
 8
FULGOR
 10
47.4665
 20
14.9268
 30
19.4396
 70
192
 0
VERTEX
 8
FULGOR
 10
47.6756
 20
14.8003
 30
19.4396
 70
192
 0
VERTEX
 8
FULGOR
 10
47.2302
 20
14.8395
 30
19.4396
 70
192
 0
VERTEX
 8
FULGOR
 10
47.5847
 20
14.9013
 30
19.4396
 70
192
 0
VERTEX
 8
FULGOR
 10
47.4221
 20
14.9291
 30
19.4396
 70
192
 0
VERTEX
 8
FULGOR
 10
47.0754
 20
14.9291
 30
19.4396
 70
192
 0
VERTEX
 8
FULGOR
 10
47.2302
 20
14.7282
 30
19.4396
 70
192
 0
VERTEX
 8
FULGOR
 10
47.3713
 20
14.728
 30
19.4396
 70
192
 0
VERTEX
 8
FULGOR
 10
47.4115
 20
14.7313
 30
19.4396
 70
192
 0
VERTEX
 8
FULGOR
 10
47.4568
 20
14.7477
 30
19.4396
 70
192
 0
VERTEX
 8
FULGOR
 10
47.4668
 20
14.7559
 30
19.4396
 70
192
 0
VERTEX
 8
FULGOR
 10
47.4729
 20
14.7636
 30
19.4396
 70
192
 0
VERTEX
 8
FULGOR
 10
47.4785
 20
14.7911
 30
19.4396
 70
192
 0
VERTEX
 8
FULGOR
 10
47.4759
 20
14.8009
 30
19.4396
 70
192
 0
VERTEX
 8
FULGOR
 10
47.4032
 20
14.8378
 30
19.4396
 70
192
 0
VERTEX
 8
FULGOR
 10
47.4536
 20
14.8238
 30
19.4396
 70
192
 0
VERTEX
 8
FULGOR
 10
47.3855
 20
14.8392
 30
19.4396
 70
192
 0
VERTEX
 8
FULGOR
 10
47.4355
 20
14.8313
 30
19.4396
 70
192
 0
VERTEX
 8
FULGOR
 10
47.4211
 20
14.835
 30
19.4396
 70
192
 0
VERTEX
 8
FULGOR
 10
46.3024
 20
14.4462
 30
19.4396
 70
192
 0
VERTEX
 8
FULGOR
 10
46.2414
 20
14.4617
 30
19.4396
 70
192
 0
VERTEX
 8
FULGOR
 10
47.3666
 20
14.8395
 30
19.4396
 70
192
 0
VERTEX
 8
FULGOR
 10
47.3634
 20
14.9291
 30
19.4396
 70
192
 0
VERTEX
 8
FULGOR
 10
47.4706
 20
14.8094
 30
19.4396
 70
192
 0
VERTEX
 8
FULGOR
 10
47.4639
 20
14.8165
 30
19.4396
 70
192
 0
VERTEX
 8
FULGOR
 10
47.4788
 20
14.7816
 30
19.4396
 70
192
 0
VERTEX
 8
FULGOR
 10
47.477
 20
14.7725
 30
19.4396
 70
192
 0
VERTEX
 8
FULGOR
 10
47.3388
 20
14.7281
 30
19.4396
 70
192
 0
VERTEX
 8
FULGOR
 10
47.3547
 20
14.728
 30
19.4396
 70
192
 0
VERTEX
 8
FULGOR
 10
47.3242
 20
14.7281
 30
19.4396
 70
192
 0
VERTEX
 8
FULGOR
 10
47.5486
 20
14.4338
 30
19.4396
 70
192
 0
VERTEX
 8
FULGOR
 10
47.5407
 20
14.4448
 30
19.4396
 70
192
 0
VERTEX
 8
FULGOR
 10
45.4691
 20
14.535
 30
19.4396
 70
192
 0
VERTEX
 8
FULGOR
 10
47.5265
 20
14.4645
 30
19.4396
 70
192
 0
VERTEX
 8
FULGOR
 10
47.5132
 20
14.4828
 30
19.4396
 70
192
 0
VERTEX
 8
FULGOR
 10
45.5023
 20
14.5308
 30
19.4396
 70
192
 0
VERTEX
 8
FULGOR
 10
47.0754
 20
14.6385
 30
19.4396
 70
192
 0
VERTEX
 8
FULGOR
 10
47.4777
 20
14.5321
 30
19.4396
 70
192
 0
VERTEX
 8
FULGOR
 10
47.4645
 20
14.5505
 30
19.4396
 70
192
 0
VERTEX
 8
FULGOR
 10
0
 20
0
 30
0
 70
128
 71
284
 72
285
 73
217
 74
216
 0
VERTEX
 8
FULGOR
 10
0
 20
0
 30
0
 70
128
 71
137
 72
135
 73
127
 74
120
 0
VERTEX
 8
FULGOR
 10
0
 20
0
 30
0
 70
128
 71
339
 72
340
 73
327
 74
318
 0
VERTEX
 8
FULGOR
 10
0
 20
0
 30
0
 70
128
 71
135
 72
134
 73
128
 74
127
 0
VERTEX
 8
FULGOR
 10
0
 20
0
 30
0
 70
128
 71
338
 72
339
 73
318
 74
316
 0
VERTEX
 8
FULGOR
 10
0
 20
0
 30
0
 70
128
 71
36
 72
49
 73
48
 74
37
 0
VERTEX
 8
FULGOR
 10
0
 20
0
 30
0
 70
128
 71
44
 72
43
 73
38
 74
56
 0
VERTEX
 8
FULGOR
 10
0
 20
0
 30
0
 70
128
 71
149
 72
162
 73
104
 74
102
 0
VERTEX
 8
FULGOR
 10
0
 20
0
 30
0
 70
128
 71
162
 72
160
 73
105
 74
104
 0
VERTEX
 8
FULGOR
 10
0
 20
0
 30
0
 70
128
 71
150
 72
149
 73
102
 74
94
 0
VERTEX
 8
FULGOR
 10
0
 20
0
 30
0
 70
128
 71
291
 72
296
 73
335
 74
358
 0
VERTEX
 8
FULGOR
 10
0
 20
0
 30
0
 70
128
 71
37
 72
48
 73
47
 74
41
 0
VERTEX
 8
FULGOR
 10
0
 20
0
 30
0
 70
128
 71
305
 72
304
 73
336
 74
314
 0
VERTEX
 8
FULGOR
 10
0
 20
0
 30
0
 70
128
 71
347
 72
343
 73
329
 74
328
 0
VERTEX
 8
FULGOR
 10
0
 20
0
 30
0
 70
128
 71
346
 72
347
 73
328
 74
332
 0
VERTEX
 8
FULGOR
 10
0
 20
0
 30
0
 70
128
 71
298
 72
312
 73
319
 74
317
 0
VERTEX
 8
FULGOR
 10
0
 20
0
 30
0
 70
128
 71
281
 72
282
 73
229
 74
228
 0
VERTEX
 8
FULGOR
 10
0
 20
0
 30
0
 70
128
 71
282
 72
283
 73
215
 74
229
 0
VERTEX
 8
FULGOR
 10
0
 20
0
 30
0
 70
128
 71
283
 72
284
 73
216
 74
215
 0
VERTEX
 8
FULGOR
 10
0
 20
0
 30
0
 70
128
 71
33
 72
47
 73
46
 74
42
 0
VERTEX
 8
FULGOR
 10
0
 20
0
 30
0
 70
128
 71
129
 72
1
 73
118
 74
117
 0
VERTEX
 8
FULGOR
 10
0
 20
0
 30
0
 70
128
 71
163
 72
175
 73
88
 74
81
 0
VERTEX
 8
FULGOR
 10
0
 20
0
 30
0
 70
128
 71
285
 72
286
 73
218
 74
217
 0
VERTEX
 8
FULGOR
 10
0
 20
0
 30
0
 70
128
 71
45
 72
55
 73
54
 74
54
 0
VERTEX
 8
FULGOR
 10
0
 20
0
 30
0
 70
128
 71
160
 72
158
 73
98
 74
105
 0
VERTEX
 8
FULGOR
 10
0
 20
0
 30
0
 70
128
 71
47
 72
33
 73
41
 74
41
 0
VERTEX
 8
FULGOR
 10
0
 20
0
 30
0
 70
128
 71
286
 72
287
 73
219
 74
218
 0
VERTEX
 8
FULGOR
 10
0
 20
0
 30
0
 70
128
 71
366
 72
309
 73
307
 74
363
 0
VERTEX
 8
FULGOR
 10
0
 20
0
 30
0
 70
128
 71
42
 72
46
 73
45
 74
54
 0
VERTEX
 8
FULGOR
 10
0
 20
0
 30
0
 70
128
 71
340
 72
355
 73
320
 74
327
 0
VERTEX
 8
FULGOR
 10
0
 20
0
 30
0
 70
128
 71
55
 72
45
 73
44
 74
56
 0
VERTEX
 8
FULGOR
 10
0
 20
0
 30
0
 70
128
 71
299
 72
298
 73
317
 74
311
 0
VERTEX
 8
FULGOR
 10
0
 20
0
 30
0
 70
128
 71
83
 72
80
 73
79
 74
85
 0
VERTEX
 8
FULGOR
 10
0
 20
0
 30
0
 70
128
 71
79
 72
87
 73
86
 74
85
 0
VERTEX
 8
FULGOR
 10
0
 20
0
 30
0
 70
128
 71
136
 72
146
 73
122
 74
121
 0
VERTEX
 8
FULGOR
 10
0
 20
0
 30
0
 70
128
 71
336
 72
337
 73
322
 74
314
 0
VERTEX
 8
FULGOR
 10
0
 20
0
 30
0
 70
128
 71
279
 72
280
 73
222
 74
214
 0
VERTEX
 8
FULGOR
 10
0
 20
0
 30
0
 70
128
 71
278
 72
279
 73
214
 74
213
 0
VERTEX
 8
FULGOR
 10
0
 20
0
 30
0
 70
128
 71
280
 72
273
 73
210
 74
222
 0
VERTEX
 8
FULGOR
 10
0
 20
0
 30
0
 70
128
 71
273
 72
274
 73
226
 74
210
 0
VERTEX
 8
FULGOR
 10
0
 20
0
 30
0
 70
128
 71
274
 72
275
 73
227
 74
226
 0
VERTEX
 8
FULGOR
 10
0
 20
0
 30
0
 70
128
 71
275
 72
281
 73
228
 74
227
 0
VERTEX
 8
FULGOR
 10
0
 20
0
 30
0
 70
128
 71
246
 72
248
 73
349
 74
183
 0
VERTEX
 8
FULGOR
 10
0
 20
0
 30
0
 70
128
 71
341
 72
342
 73
323
 74
330
 0
VERTEX
 8
FULGOR
 10
0
 20
0
 30
0
 70
128
 71
175
 72
161
 73
89
 74
88
 0
VERTEX
 8
FULGOR
 10
0
 20
0
 30
0
 70
128
 71
161
 72
174
 73
84
 74
89
 0
VERTEX
 8
FULGOR
 10
0
 20
0
 30
0
 70
128
 71
153
 72
166
 73
92
 74
91
 0
VERTEX
 8
FULGOR
 10
0
 20
0
 30
0
 70
128
 71
287
 72
288
 73
220
 74
219
 0
VERTEX
 8
FULGOR
 10
0
 20
0
 30
0
 70
128
 71
145
 72
144
 73
106
 74
99
 0
VERTEX
 8
FULGOR
 10
0
 20
0
 30
0
 70
128
 71
152
 72
148
 73
115
 74
112
 0
VERTEX
 8
FULGOR
 10
0
 20
0
 30
0
 70
128
 71
288
 72
289
 73
221
 74
220
 0
VERTEX
 8
FULGOR
 10
0
 20
0
 30
0
 70
128
 71
155
 72
152
 73
112
 74
109
 0
VERTEX
 8
FULGOR
 10
0
 20
0
 30
0
 70
128
 71
141
 72
155
 73
109
 74
103
 0
VERTEX
 8
FULGOR
 10
0
 20
0
 30
0
 70
128
 71
289
 72
290
 73
230
 74
221
 0
VERTEX
 8
FULGOR
 10
0
 20
0
 30
0
 70
128
 71
174
 72
159
 73
90
 74
84
 0
VERTEX
 8
FULGOR
 10
0
 20
0
 30
0
 70
128
 71
159
 72
173
 73
95
 74
90
 0
VERTEX
 8
FULGOR
 10
0
 20
0
 30
0
 70
128
 71
156
 72
167
 73
100
 74
97
 0
VERTEX
 8
FULGOR
 10
0
 20
0
 30
0
 70
128
 71
1
 72
138
 73
119
 74
118
 0
VERTEX
 8
FULGOR
 10
0
 20
0
 30
0
 70
128
 71
138
 72
137
 73
120
 74
119
 0
VERTEX
 8
FULGOR
 10
0
 20
0
 30
0
 70
128
 71
173
 72
157
 73
96
 74
95
 0
VERTEX
 8
FULGOR
 10
0
 20
0
 30
0
 70
128
 71
290
 72
292
 73
223
 74
230
 0
VERTEX
 8
FULGOR
 10
0
 20
0
 30
0
 70
128
 71
134
 72
124
 73
131
 74
128
 0
VERTEX
 8
FULGOR
 10
0
 20
0
 30
0
 70
128
 71
142
 72
141
 73
103
 74
108
 0
VERTEX
 8
FULGOR
 10
0
 20
0
 30
0
 70
128
 71
139
 72
361
 73
114
 74
113
 0
VERTEX
 8
FULGOR
 10
0
 20
0
 30
0
 70
128
 71
361
 72
130
 73
125
 74
114
 0
VERTEX
 8
FULGOR
 10
0
 20
0
 30
0
 70
128
 71
130
 72
364
 73
126
 74
125
 0
VERTEX
 8
FULGOR
 10
0
 20
0
 30
0
 70
128
 71
364
 72
129
 73
117
 74
126
 0
VERTEX
 8
FULGOR
 10
0
 20
0
 30
0
 70
128
 71
296
 72
295
 73
294
 74
365
 0
VERTEX
 8
FULGOR
 10
0
 20
0
 30
0
 70
128
 71
310
 72
309
 73
366
 74
367
 0
VERTEX
 8
FULGOR
 10
0
 20
0
 30
0
 70
128
 71
243
 72
244
 73
3
 74
181
 0
VERTEX
 8
FULGOR
 10
0
 20
0
 30
0
 70
128
 71
244
 72
245
 73
188
 74
3
 0
VERTEX
 8
FULGOR
 10
0
 20
0
 30
0
 70
128
 71
237
 72
238
 73
185
 74
348
 0
VERTEX
 8
FULGOR
 10
0
 20
0
 30
0
 70
128
 71
249
 72
237
 73
348
 74
184
 0
VERTEX
 8
FULGOR
 10
0
 20
0
 30
0
 70
128
 71
248
 72
249
 73
184
 74
349
 0
VERTEX
 8
FULGOR
 10
0
 20
0
 30
0
 70
128
 71
342
 72
352
 73
324
 74
323
 0
VERTEX
 8
FULGOR
 10
0
 20
0
 30
0
 70
128
 71
307
 72
306
 73
362
 74
363
 0
VERTEX
 8
FULGOR
 10
0
 20
0
 30
0
 70
128
 71
337
 72
338
 73
316
 74
322
 0
VERTEX
 8
FULGOR
 10
0
 20
0
 30
0
 70
128
 71
143
 72
142
 73
108
 74
107
 0
VERTEX
 8
FULGOR
 10
0
 20
0
 30
0
 70
128
 71
144
 72
143
 73
107
 74
106
 0
VERTEX
 8
FULGOR
 10
0
 20
0
 30
0
 70
128
 71
359
 72
360
 73
315
 74
303
 0
VERTEX
 8
FULGOR
 10
0
 20
0
 30
0
 70
128
 71
303
 72
302
 73
301
 74
359
 0
VERTEX
 8
FULGOR
 10
0
 20
0
 30
0
 70
128
 71
241
 72
252
 73
313
 74
186
 0
VERTEX
 8
FULGOR
 10
0
 20
0
 30
0
 70
128
 71
252
 72
243
 73
181
 74
313
 0
VERTEX
 8
FULGOR
 10
0
 20
0
 30
0
 70
128
 71
331
 72
335
 73
308
 74
334
 0
VERTEX
 8
FULGOR
 10
0
 20
0
 30
0
 70
128
 71
151
 72
150
 73
94
 74
93
 0
VERTEX
 8
FULGOR
 10
0
 20
0
 30
0
 70
128
 71
355
 72
354
 73
321
 74
320
 0
VERTEX
 8
FULGOR
 10
0
 20
0
 30
0
 70
128
 71
343
 72
345
 73
333
 74
329
 0
VERTEX
 8
FULGOR
 10
0
 20
0
 30
0
 70
128
 71
5
 72
8
 73
7
 74
6
 0
VERTEX
 8
FULGOR
 10
0
 20
0
 30
0
 70
128
 71
8
 72
5
 73
4
 74
4
 0
VERTEX
 8
FULGOR
 10
0
 20
0
 30
0
 70
128
 71
8
 72
4
 73
13
 74
2
 0
VERTEX
 8
FULGOR
 10
0
 20
0
 30
0
 70
128
 71
213
 72
212
 73
277
 74
278
 0
VERTEX
 8
FULGOR
 10
0
 20
0
 30
0
 70
128
 71
212
 72
205
 73
268
 74
277
 0
VERTEX
 8
FULGOR
 10
0
 20
0
 30
0
 70
128
 71
267
 72
268
 73
205
 74
204
 0
VERTEX
 8
FULGOR
 10
0
 20
0
 30
0
 70
128
 71
270
 72
271
 73
200
 74
211
 0
VERTEX
 8
FULGOR
 10
0
 20
0
 30
0
 70
128
 71
261
 72
270
 73
211
 74
209
 0
VERTEX
 8
FULGOR
 10
0
 20
0
 30
0
 70
128
 71
260
 72
261
 73
209
 74
208
 0
VERTEX
 8
FULGOR
 10
0
 20
0
 30
0
 70
128
 71
269
 72
260
 73
208
 74
196
 0
VERTEX
 8
FULGOR
 10
0
 20
0
 30
0
 70
128
 71
276
 72
267
 73
204
 74
203
 0
VERTEX
 8
FULGOR
 10
0
 20
0
 30
0
 70
128
 71
272
 72
276
 73
203
 74
202
 0
VERTEX
 8
FULGOR
 10
0
 20
0
 30
0
 70
128
 71
264
 72
272
 73
202
 74
201
 0
VERTEX
 8
FULGOR
 10
0
 20
0
 30
0
 70
128
 71
271
 72
264
 73
201
 74
200
 0
VERTEX
 8
FULGOR
 10
0
 20
0
 30
0
 70
128
 71
266
 72
269
 73
196
 74
195
 0
VERTEX
 8
FULGOR
 10
0
 20
0
 30
0
 70
128
 71
257
 72
266
 73
195
 74
194
 0
VERTEX
 8
FULGOR
 10
0
 20
0
 30
0
 70
128
 71
256
 72
257
 73
194
 74
193
 0
VERTEX
 8
FULGOR
 10
0
 20
0
 30
0
 70
128
 71
255
 72
256
 73
193
 74
207
 0
VERTEX
 8
FULGOR
 10
0
 20
0
 30
0
 70
128
 71
254
 72
255
 73
207
 74
206
 0
VERTEX
 8
FULGOR
 10
0
 20
0
 30
0
 70
128
 71
265
 72
254
 73
206
 74
199
 0
VERTEX
 8
FULGOR
 10
0
 20
0
 30
0
 70
128
 71
263
 72
265
 73
199
 74
198
 0
VERTEX
 8
FULGOR
 10
0
 20
0
 30
0
 70
128
 71
13
 72
12
 73
2
 74
2
 0
VERTEX
 8
FULGOR
 10
0
 20
0
 30
0
 70
128
 71
13
 72
4
 73
15
 74
14
 0
VERTEX
 8
FULGOR
 10
0
 20
0
 30
0
 70
128
 71
16
 72
74
 73
73
 74
9
 0
VERTEX
 8
FULGOR
 10
0
 20
0
 30
0
 70
128
 71
73
 72
72
 73
10
 74
9
 0
VERTEX
 8
FULGOR
 10
0
 20
0
 30
0
 70
128
 71
72
 72
82
 73
11
 74
10
 0
VERTEX
 8
FULGOR
 10
0
 20
0
 30
0
 70
128
 71
82
 72
70
 73
18
 74
17
 0
VERTEX
 8
FULGOR
 10
0
 20
0
 30
0
 70
128
 71
58
 72
57
 73
40
 74
39
 0
VERTEX
 8
FULGOR
 10
0
 20
0
 30
0
 70
128
 71
82
 72
17
 73
11
 74
11
 0
VERTEX
 8
FULGOR
 10
0
 20
0
 30
0
 70
128
 71
43
 72
58
 73
39
 74
38
 0
VERTEX
 8
FULGOR
 10
0
 20
0
 30
0
 70
128
 71
354
 72
341
 73
330
 74
321
 0
VERTEX
 8
FULGOR
 10
0
 20
0
 30
0
 70
128
 71
335
 72
296
 73
365
 74
308
 0
VERTEX
 8
FULGOR
 10
0
 20
0
 30
0
 70
128
 71
345
 72
350
 73
351
 74
333
 0
VERTEX
 8
FULGOR
 10
0
 20
0
 30
0
 70
128
 71
166
 72
151
 73
93
 74
92
 0
VERTEX
 8
FULGOR
 10
0
 20
0
 30
0
 70
128
 71
70
 72
69
 73
20
 74
19
 0
VERTEX
 8
FULGOR
 10
0
 20
0
 30
0
 70
128
 71
146
 72
140
 73
110
 74
122
 0
VERTEX
 8
FULGOR
 10
0
 20
0
 30
0
 70
128
 71
140
 72
133
 73
111
 74
110
 0
VERTEX
 8
FULGOR
 10
0
 20
0
 30
0
 70
128
 71
133
 72
132
 73
123
 74
111
 0
VERTEX
 8
FULGOR
 10
0
 20
0
 30
0
 70
128
 71
262
 72
263
 73
198
 74
197
 0
VERTEX
 8
FULGOR
 10
0
 20
0
 30
0
 70
128
 71
250
 72
262
 73
197
 74
187
 0
VERTEX
 8
FULGOR
 10
0
 20
0
 30
0
 70
128
 71
259
 72
250
 73
187
 74
192
 0
VERTEX
 8
FULGOR
 10
0
 20
0
 30
0
 70
128
 71
258
 72
259
 73
192
 74
191
 0
VERTEX
 8
FULGOR
 10
0
 20
0
 30
0
 70
128
 71
247
 72
258
 73
191
 74
190
 0
VERTEX
 8
FULGOR
 10
0
 20
0
 30
0
 70
128
 71
253
 72
247
 73
190
 74
189
 0
VERTEX
 8
FULGOR
 10
0
 20
0
 30
0
 70
128
 71
245
 72
253
 73
189
 74
188
 0
VERTEX
 8
FULGOR
 10
0
 20
0
 30
0
 70
128
 71
70
 72
19
 73
18
 74
18
 0
VERTEX
 8
FULGOR
 10
0
 20
0
 30
0
 70
128
 71
69
 72
68
 73
27
 74
20
 0
VERTEX
 8
FULGOR
 10
0
 20
0
 30
0
 70
128
 71
68
 72
67
 73
29
 74
27
 0
VERTEX
 8
FULGOR
 10
0
 20
0
 30
0
 70
128
 71
67
 72
66
 73
30
 74
29
 0
VERTEX
 8
FULGOR
 10
0
 20
0
 30
0
 70
128
 71
66
 72
78
 73
31
 74
30
 0
VERTEX
 8
FULGOR
 10
0
 20
0
 30
0
 70
128
 71
78
 72
77
 73
32
 74
31
 0
VERTEX
 8
FULGOR
 10
0
 20
0
 30
0
 70
128
 71
147
 72
136
 73
121
 74
116
 0
VERTEX
 8
FULGOR
 10
0
 20
0
 30
0
 70
128
 71
362
 72
306
 73
315
 74
360
 0
VERTEX
 8
FULGOR
 10
0
 20
0
 30
0
 70
128
 71
148
 72
147
 73
116
 74
115
 0
VERTEX
 8
FULGOR
 10
0
 20
0
 30
0
 70
128
 71
344
 72
346
 73
332
 74
326
 0
VERTEX
 8
FULGOR
 10
0
 20
0
 30
0
 70
128
 71
158
 72
145
 73
99
 74
98
 0
VERTEX
 8
FULGOR
 10
0
 20
0
 30
0
 70
128
 71
32
 72
77
 73
76
 74
21
 0
VERTEX
 8
FULGOR
 10
0
 20
0
 30
0
 70
128
 71
132
 72
139
 73
113
 74
123
 0
VERTEX
 8
FULGOR
 10
0
 20
0
 30
0
 70
128
 71
76
 72
62
 73
21
 74
21
 0
VERTEX
 8
FULGOR
 10
0
 20
0
 30
0
 70
128
 71
62
 72
61
 73
22
 74
21
 0
VERTEX
 8
FULGOR
 10
0
 20
0
 30
0
 70
128
 71
292
 72
293
 73
164
 74
223
 0
VERTEX
 8
FULGOR
 10
0
 20
0
 30
0
 70
128
 71
293
 72
224
 73
165
 74
164
 0
VERTEX
 8
FULGOR
 10
0
 20
0
 30
0
 70
128
 71
224
 72
225
 73
176
 74
165
 0
VERTEX
 8
FULGOR
 10
0
 20
0
 30
0
 70
128
 71
225
 72
233
 73
177
 74
176
 0
VERTEX
 8
FULGOR
 10
0
 20
0
 30
0
 70
128
 71
233
 72
234
 73
168
 74
177
 0
VERTEX
 8
FULGOR
 10
0
 20
0
 30
0
 70
128
 71
234
 72
235
 73
169
 74
168
 0
VERTEX
 8
FULGOR
 10
0
 20
0
 30
0
 70
128
 71
235
 72
236
 73
170
 74
169
 0
VERTEX
 8
FULGOR
 10
0
 20
0
 30
0
 70
128
 71
236
 72
239
 73
171
 74
170
 0
VERTEX
 8
FULGOR
 10
0
 20
0
 30
0
 70
128
 71
239
 72
231
 73
172
 74
171
 0
VERTEX
 8
FULGOR
 10
0
 20
0
 30
0
 70
128
 71
231
 72
232
 73
180
 74
172
 0
VERTEX
 8
FULGOR
 10
0
 20
0
 30
0
 70
128
 71
232
 72
242
 73
182
 74
180
 0
VERTEX
 8
FULGOR
 10
0
 20
0
 30
0
 70
128
 71
242
 72
246
 73
183
 74
182
 0
VERTEX
 8
FULGOR
 10
0
 20
0
 30
0
 70
128
 71
240
 72
241
 73
186
 74
179
 0
VERTEX
 8
FULGOR
 10
0
 20
0
 30
0
 70
128
 71
251
 72
240
 73
179
 74
178
 0
VERTEX
 8
FULGOR
 10
0
 20
0
 30
0
 70
128
 71
238
 72
251
 73
178
 74
185
 0
VERTEX
 8
FULGOR
 10
0
 20
0
 30
0
 70
128
 71
61
 72
75
 73
22
 74
22
 0
VERTEX
 8
FULGOR
 10
0
 20
0
 30
0
 70
128
 71
75
 72
59
 73
23
 74
22
 0
VERTEX
 8
FULGOR
 10
0
 20
0
 30
0
 70
128
 71
23
 72
59
 73
71
 74
24
 0
VERTEX
 8
FULGOR
 10
0
 20
0
 30
0
 70
128
 71
24
 72
71
 73
65
 74
25
 0
VERTEX
 8
FULGOR
 10
0
 20
0
 30
0
 70
128
 71
65
 72
64
 73
25
 74
25
 0
VERTEX
 8
FULGOR
 10
0
 20
0
 30
0
 70
128
 71
64
 72
63
 73
26
 74
25
 0
VERTEX
 8
FULGOR
 10
0
 20
0
 30
0
 70
128
 71
63
 72
60
 73
26
 74
26
 0
VERTEX
 8
FULGOR
 10
0
 20
0
 30
0
 70
128
 71
60
 72
53
 73
34
 74
26
 0
VERTEX
 8
FULGOR
 10
0
 20
0
 30
0
 70
128
 71
53
 72
52
 73
34
 74
34
 0
VERTEX
 8
FULGOR
 10
0
 20
0
 30
0
 70
128
 71
52
 72
51
 73
28
 74
34
 0
VERTEX
 8
FULGOR
 10
0
 20
0
 30
0
 70
128
 71
51
 72
50
 73
35
 74
28
 0
VERTEX
 8
FULGOR
 10
0
 20
0
 30
0
 70
128
 71
50
 72
49
 73
36
 74
35
 0
VERTEX
 8
FULGOR
 10
0
 20
0
 30
0
 70
128
 71
350
 72
331
 73
334
 74
351
 0
VERTEX
 8
FULGOR
 10
0
 20
0
 30
0
 70
128
 71
353
 72
344
 73
326
 74
325
 0
VERTEX
 8
FULGOR
 10
0
 20
0
 30
0
 70
128
 71
352
 72
353
 73
325
 74
324
 0
VERTEX
 8
FULGOR
 10
0
 20
0
 30
0
 70
128
 71
305
 72
314
 73
319
 74
312
 0
VERTEX
 8
FULGOR
 10
0
 20
0
 30
0
 70
128
 71
157
 72
156
 73
97
 74
96
 0
VERTEX
 8
FULGOR
 10
0
 20
0
 30
0
 70
128
 71
167
 72
154
 73
101
 74
100
 0
VERTEX
 8
FULGOR
 10
0
 20
0
 30
0
 70
128
 71
299
 72
311
 73
310
 74
367
 0
VERTEX
 8
FULGOR
 10
0
 20
0
 30
0
 70
128
 71
291
 72
358
 73
336
 74
304
 0
VERTEX
 8
FULGOR
 10
0
 20
0
 30
0
 70
128
 71
154
 72
153
 73
91
 74
101
 0
SEQEND
 0
POLYLINE
 8
MILANO
 66
1
 10
0.0
 20
0.0
 30
0.0
 70
64
 71
93
 72
47
 0
VERTEX
 8
MILANO
 10
45.5755
 20
14.0933
 30
19.4393
 70
192
 0
VERTEX
 8
MILANO
 10
46.0067
 20
13.9301
 30
19.4393
 70
192
 0
VERTEX
 8
MILANO
 10
46.0112
 20
13.8927
 30
19.4393
 70
192
 0
VERTEX
 8
MILANO
 10
46.0276
 20
13.8586
 30
19.4393
 70
192
 0
VERTEX
 8
MILANO
 10
46.055
 20
13.8319
 30
19.4393
 70
192
 0
VERTEX
 8
MILANO
 10
46.0891
 20
13.8138
 30
19.4393
 70
192
 0
VERTEX
 8
MILANO
 10
46.1266
 20
13.8032
 30
19.4393
 70
192
 0
VERTEX
 8
MILANO
 10
46.1653
 20
13.7991
 30
19.4393
 70
192
 0
VERTEX
 8
MILANO
 10
45.8439
 20
13.849
 30
19.4393
 70
192
 0
VERTEX
 8
MILANO
 10
46.2042
 20
13.802
 30
19.4393
 70
192
 0
VERTEX
 8
MILANO
 10
46.2417
 20
13.812
 30
19.4393
 70
192
 0
VERTEX
 8
MILANO
 10
46.2757
 20
13.8304
 30
19.4393
 70
192
 0
VERTEX
 8
MILANO
 10
45.4123
 20
13.8706
 30
19.4393
 70
192
 0
VERTEX
 8
MILANO
 10
45.4736
 20
13.7643
 30
19.4393
 70
192
 0
VERTEX
 8
MILANO
 10
45.524
 20
13.7643
 30
19.4393
 70
192
 0
VERTEX
 8
MILANO
 10
46.3023
 20
13.8579
 30
19.4393
 70
192
 0
VERTEX
 8
MILANO
 10
46.3194
 20
13.8917
 30
19.4393
 70
192
 0
VERTEX
 8
MILANO
 10
45.1346
 20
13.7643
 30
19.4393
 70
192
 0
VERTEX
 8
MILANO
 10
45.2693
 20
13.9072
 30
19.4393
 70
192
 0
VERTEX
 8
MILANO
 10
45.3917
 20
13.9072
 30
19.4393
 70
192
 0
VERTEX
 8
MILANO
 10
46.325
 20
13.9289
 30
19.4393
 70
192
 0
VERTEX
 8
MILANO
 10
46.32
 20
13.9663
 30
19.4393
 70
192
 0
VERTEX
 8
MILANO
 10
46.3035
 20
14.0004
 30
19.4393
 70
192
 0
VERTEX
 8
MILANO
 10
44.9665
 20
14.0933
 30
19.4393
 70
192
 0
VERTEX
 8
MILANO
 10
44.9665
 20
13.8001
 30
19.4393
 70
192
 0
VERTEX
 8
MILANO
 10
46.2767
 20
14.0277
 30
19.4393
 70
192
 0
VERTEX
 8
MILANO
 10
46.2428
 20
14.0461
 30
19.4393
 70
192
 0
VERTEX
 8
MILANO
 10
46.2052
 20
14.0561
 30
19.4393
 70
192
 0
VERTEX
 8
MILANO
 10
44.7954
 20
14.0933
 30
19.4393
 70
192
 0
VERTEX
 8
MILANO
 10
44.8379
 20
14.0933
 30
19.4393
 70
192
 0
VERTEX
 8
MILANO
 10
44.8379
 20
13.7643
 30
19.4393
 70
192
 0
VERTEX
 8
MILANO
 10
44.7954
 20
13.7643
 30
19.4393
 70
192
 0
VERTEX
 8
MILANO
 10
44.2846
 20
13.7643
 30
19.4393
 70
192
 0
VERTEX
 8
MILANO
 10
44.3375
 20
14.0953
 30
19.4393
 70
192
 0
VERTEX
 8
MILANO
 10
44.6596
 20
14.0953
 30
19.4393
 70
192
 0
VERTEX
 8
MILANO
 10
44.6753
 20
14.0953
 30
19.4393
 70
192
 0
VERTEX
 8
MILANO
 10
44.7311
 20
13.7643
 30
19.4393
 70
192
 0
VERTEX
 8
MILANO
 10
44.685
 20
13.7643
 30
19.4393
 70
192
 0
VERTEX
 8
MILANO
 10
44.4982
 20
13.7643
 30
19.4393
 70
192
 0
VERTEX
 8
MILANO
 10
44.3636
 20
13.9863
 30
19.4393
 70
192
 0
VERTEX
 8
MILANO
 10
45.1175
 20
13.8001
 30
19.4393
 70
192
 0
VERTEX
 8
MILANO
 10
45.1175
 20
13.7643
 30
19.4393
 70
192
 0
VERTEX
 8
MILANO
 10
44.9247
 20
13.7643
 30
19.4393
 70
192
 0
VERTEX
 8
MILANO
 10
44.3478
 20
14.0953
 30
19.4393
 70
192
 0
VERTEX
 8
MILANO
 10
44.5067
 20
13.8319
 30
19.4393
 70
192
 0
VERTEX
 8
MILANO
 10
44.648
 20
13.9863
 30
19.4393
 70
192
 0
VERTEX
 8
MILANO
 10
44.5188
 20
13.7643
 30
19.4393
 70
192
 0
VERTEX
 8
MILANO
 10
44.3302
 20
13.7643
 30
19.4393
 70
192
 0
VERTEX
 8
MILANO
 10
46.1665
 20
14.0988
 30
19.4393
 70
192
 0
VERTEX
 8
MILANO
 10
46.1156
 20
14.0962
 30
19.4393
 70
192
 0
VERTEX
 8
MILANO
 10
46.0662
 20
14.0842
 30
19.4393
 70
192
 0
VERTEX
 8
MILANO
 10
46.0225
 20
14.0591
 30
19.4393
 70
192
 0
VERTEX
 8
MILANO
 10
45.9875
 20
14.0232
 30
19.4393
 70
192
 0
VERTEX
 8
MILANO
 10
45.9647
 20
13.9793
 30
19.4393
 70
192
 0
VERTEX
 8
MILANO
 10
45.9577
 20
13.9305
 30
19.4393
 70
192
 0
VERTEX
 8
MILANO
 10
45.9637
 20
13.8815
 30
19.4393
 70
192
 0
VERTEX
 8
MILANO
 10
45.9851
 20
13.8369
 30
19.4393
 70
192
 0
VERTEX
 8
MILANO
 10
46.0209
 20
13.8021
 30
19.4393
 70
192
 0
VERTEX
 8
MILANO
 10
46.0656
 20
13.7783
 30
19.4393
 70
192
 0
VERTEX
 8
MILANO
 10
46.1145
 20
13.7645
 30
19.4393
 70
192
 0
VERTEX
 8
MILANO
 10
46.1652
 20
13.7592
 30
19.4393
 70
192
 0
VERTEX
 8
MILANO
 10
46.216
 20
13.7629
 30
19.4393
 70
192
 0
VERTEX
 8
MILANO
 10
46.2651
 20
13.776
 30
19.4393
 70
192
 0
VERTEX
 8
MILANO
 10
46.3095
 20
13.8001
 30
19.4393
 70
192
 0
VERTEX
 8
MILANO
 10
46.3443
 20
13.836
 30
19.4393
 70
192
 0
VERTEX
 8
MILANO
 10
46.3667
 20
13.8802
 30
19.4393
 70
192
 0
VERTEX
 8
MILANO
 10
46.3739
 20
13.9289
 30
19.4393
 70
192
 0
VERTEX
 8
MILANO
 10
46.3674
 20
13.9778
 30
19.4393
 70
192
 0
VERTEX
 8
MILANO
 10
46.3458
 20
14.0224
 30
19.4393
 70
192
 0
VERTEX
 8
MILANO
 10
46.3109
 20
14.0581
 30
19.4393
 70
192
 0
VERTEX
 8
MILANO
 10
45.5755
 20
13.7643
 30
19.4393
 70
192
 0
VERTEX
 8
MILANO
 10
45.6201
 20
13.7643
 30
19.4393
 70
192
 0
VERTEX
 8
MILANO
 10
45.6201
 20
14.0041
 30
19.4393
 70
192
 0
VERTEX
 8
MILANO
 10
45.8735
 20
13.7643
 30
19.4393
 70
192
 0
VERTEX
 8
MILANO
 10
45.8881
 20
13.7643
 30
19.4393
 70
192
 0
VERTEX
 8
MILANO
 10
45.8881
 20
14.0933
 30
19.4393
 70
192
 0
VERTEX
 8
MILANO
 10
45.8434
 20
14.0933
 30
19.4393
 70
192
 0
VERTEX
 8
MILANO
 10
46.2665
 20
14.0822
 30
19.4393
 70
192
 0
VERTEX
 8
MILANO
 10
45.5921
 20
14.0933
 30
19.4393
 70
192
 0
VERTEX
 8
MILANO
 10
45.1906
 20
13.7643
 30
19.4393
 70
192
 0
VERTEX
 8
MILANO
 10
45.2474
 20
13.8706
 30
19.4393
 70
192
 0
VERTEX
 8
MILANO
 10
46.2173
 20
14.0952
 30
19.4393
 70
192
 0
VERTEX
 8
MILANO
 10
46.1663
 20
14.0589
 30
19.4393
 70
192
 0
VERTEX
 8
MILANO
 10
46.1274
 20
14.0568
 30
19.4393
 70
192
 0
VERTEX
 8
MILANO
 10
45.3374
 20
14.0933
 30
19.4393
 70
192
 0
VERTEX
 8
MILANO
 10
45.323
 20
14.0933
 30
19.4393
 70
192
 0
VERTEX
 8
MILANO
 10
46.0896
 20
14.0477
 30
19.4393
 70
192
 0
VERTEX
 8
MILANO
 10
46.0563
 20
14.0285
 30
19.4393
 70
192
 0
VERTEX
 8
MILANO
 10
46.0295
 20
14.0011
 30
19.4393
 70
192
 0
VERTEX
 8
MILANO
 10
45.3349
 20
14.0125
 30
19.4393
 70
192
 0
VERTEX
 8
MILANO
 10
45.3248
 20
14.0125
 30
19.4393
 70
192
 0
VERTEX
 8
MILANO
 10
44.921
 20
14.0933
 30
19.4393
 70
192
 0
VERTEX
 8
MILANO
 10
46.0121
 20
13.9675
 30
19.4393
 70
192
 0
VERTEX
 8
MILANO
 10
0
 20
0
 30
0
 70
128
 71
71
 72
1
 73
73
 74
72
 0
VERTEX
 8
MILANO
 10
0
 20
0
 30
0
 70
128
 71
1
 72
79
 73
73
 74
73
 0
VERTEX
 8
MILANO
 10
0
 20
0
 30
0
 70
128
 71
73
 72
79
 73
9
 74
74
 0
VERTEX
 8
MILANO
 10
0
 20
0
 30
0
 70
128
 71
76
 72
75
 73
9
 74
77
 0
VERTEX
 8
MILANO
 10
0
 20
0
 30
0
 70
128
 71
9
 72
75
 73
74
 74
74
 0
VERTEX
 8
MILANO
 10
0
 20
0
 30
0
 70
128
 71
18
 72
86
 73
19
 74
81
 0
VERTEX
 8
MILANO
 10
0
 20
0
 30
0
 70
128
 71
80
 72
18
 73
81
 74
81
 0
VERTEX
 8
MILANO
 10
0
 20
0
 30
0
 70
128
 71
86
 72
85
 73
90
 74
91
 0
VERTEX
 8
MILANO
 10
0
 20
0
 30
0
 70
128
 71
15
 72
13
 73
20
 74
20
 0
VERTEX
 8
MILANO
 10
0
 20
0
 30
0
 70
128
 71
86
 72
91
 73
19
 74
19
 0
VERTEX
 8
MILANO
 10
0
 20
0
 30
0
 70
128
 71
85
 72
15
 73
20
 74
90
 0
VERTEX
 8
MILANO
 10
0
 20
0
 30
0
 70
128
 71
13
 72
81
 73
19
 74
20
 0
VERTEX
 8
MILANO
 10
0
 20
0
 30
0
 70
128
 71
15
 72
14
 73
13
 74
13
 0
VERTEX
 8
MILANO
 10
0
 20
0
 30
0
 70
128
 71
92
 72
24
 73
25
 74
43
 0
VERTEX
 8
MILANO
 10
0
 20
0
 30
0
 70
128
 71
25
 72
41
 73
42
 74
43
 0
VERTEX
 8
MILANO
 10
0
 20
0
 30
0
 70
128
 71
29
 72
30
 73
31
 74
32
 0
VERTEX
 8
MILANO
 10
0
 20
0
 30
0
 70
128
 71
33
 72
34
 73
40
 74
48
 0
VERTEX
 8
MILANO
 10
0
 20
0
 30
0
 70
128
 71
34
 72
44
 73
40
 74
40
 0
VERTEX
 8
MILANO
 10
0
 20
0
 30
0
 70
128
 71
40
 72
44
 73
45
 74
39
 0
VERTEX
 8
MILANO
 10
0
 20
0
 30
0
 70
128
 71
45
 72
35
 73
46
 74
47
 0
VERTEX
 8
MILANO
 10
0
 20
0
 30
0
 70
128
 71
46
 72
36
 73
37
 74
38
 0
VERTEX
 8
MILANO
 10
0
 20
0
 30
0
 70
128
 71
45
 72
47
 73
39
 74
39
 0
VERTEX
 8
MILANO
 10
0
 20
0
 30
0
 70
128
 71
35
 72
36
 73
46
 74
46
 0
VERTEX
 8
MILANO
 10
0
 20
0
 30
0
 70
128
 71
50
 72
49
 73
83
 74
84
 0
VERTEX
 8
MILANO
 10
0
 20
0
 30
0
 70
128
 71
51
 72
50
 73
84
 74
87
 0
VERTEX
 8
MILANO
 10
0
 20
0
 30
0
 70
128
 71
26
 72
27
 73
78
 74
70
 0
VERTEX
 8
MILANO
 10
0
 20
0
 30
0
 70
128
 71
28
 72
83
 73
49
 74
82
 0
VERTEX
 8
MILANO
 10
0
 20
0
 30
0
 70
128
 71
23
 72
26
 73
70
 74
69
 0
VERTEX
 8
MILANO
 10
0
 20
0
 30
0
 70
128
 71
52
 72
51
 73
87
 74
88
 0
VERTEX
 8
MILANO
 10
0
 20
0
 30
0
 70
128
 71
7
 72
8
 73
61
 74
60
 0
VERTEX
 8
MILANO
 10
0
 20
0
 30
0
 70
128
 71
6
 72
7
 73
60
 74
59
 0
VERTEX
 8
MILANO
 10
0
 20
0
 30
0
 70
128
 71
11
 72
12
 73
64
 74
63
 0
VERTEX
 8
MILANO
 10
0
 20
0
 30
0
 70
128
 71
12
 72
16
 73
65
 74
64
 0
VERTEX
 8
MILANO
 10
0
 20
0
 30
0
 70
128
 71
10
 72
11
 73
63
 74
62
 0
VERTEX
 8
MILANO
 10
0
 20
0
 30
0
 70
128
 71
8
 72
10
 73
62
 74
61
 0
VERTEX
 8
MILANO
 10
0
 20
0
 30
0
 70
128
 71
22
 72
23
 73
69
 74
68
 0
VERTEX
 8
MILANO
 10
0
 20
0
 30
0
 70
128
 71
16
 72
17
 73
66
 74
65
 0
VERTEX
 8
MILANO
 10
0
 20
0
 30
0
 70
128
 71
21
 72
22
 73
68
 74
67
 0
VERTEX
 8
MILANO
 10
0
 20
0
 30
0
 70
128
 71
27
 72
28
 73
82
 74
78
 0
VERTEX
 8
MILANO
 10
0
 20
0
 30
0
 70
128
 71
5
 72
6
 73
59
 74
58
 0
VERTEX
 8
MILANO
 10
0
 20
0
 30
0
 70
128
 71
4
 72
5
 73
58
 74
57
 0
VERTEX
 8
MILANO
 10
0
 20
0
 30
0
 70
128
 71
57
 72
56
 73
3
 74
4
 0
VERTEX
 8
MILANO
 10
0
 20
0
 30
0
 70
128
 71
56
 72
55
 73
2
 74
3
 0
VERTEX
 8
MILANO
 10
0
 20
0
 30
0
 70
128
 71
55
 72
54
 73
93
 74
2
 0
VERTEX
 8
MILANO
 10
0
 20
0
 30
0
 70
128
 71
54
 72
53
 73
89
 74
93
 0
VERTEX
 8
MILANO
 10
0
 20
0
 30
0
 70
128
 71
53
 72
52
 73
88
 74
89
 0
VERTEX
 8
MILANO
 10
0
 20
0
 30
0
 70
128
 71
17
 72
21
 73
67
 74
66
 0
SEQEND
 0
POLYLINE
 8
CUBO
 66
1
 10
0.0
 20
0.0
 30
0.0
 70
64
 71
176
 72
176
 0
VERTEX
 8
CUBO
 10
41.252
 20
11.1
 30
18.8899
 70
192
 0
VERTEX
 8
CUBO
 10
41.252
 20
11.1
 30
19.1999
 70
192
 0
VERTEX
 8
CUBO
 10
49.452
 20
11.1
 30
19.1999
 70
192
 0
VERTEX
 8
CUBO
 10
49.452
 20
11.1
 30
18.8899
 70
192
 0
VERTEX
 8
CUBO
 10
41.052
 20
11.3
 30
18.8899
 70
192
 0
VERTEX
 8
CUBO
 10
41.052
 20
17.4
 30
18.8899
 70
192
 0
VERTEX
 8
CUBO
 10
41.052
 20
17.4
 30
19.1999
 70
192
 0
VERTEX
 8
CUBO
 10
41.052
 20
11.3
 30
19.1999
 70
192
 0
VERTEX
 8
CUBO
 10
41.252
 20
11.3
 30
19.3999
 70
192
 0
VERTEX
 8
CUBO
 10
41.252
 20
17.4
 30
19.3999
 70
192
 0
VERTEX
 8
CUBO
 10
49.452
 20
17.4
 30
19.3999
 70
192
 0
VERTEX
 8
CUBO
 10
49.452
 20
11.3
 30
19.3999
 70
192
 0
VERTEX
 8
CUBO
 10
41.252
 20
17.6
 30
19.1999
 70
192
 0
VERTEX
 8
CUBO
 10
41.252
 20
17.6
 30
18.8899
 70
192
 0
VERTEX
 8
CUBO
 10
49.452
 20
17.6
 30
18.8899
 70
192
 0
VERTEX
 8
CUBO
 10
49.452
 20
17.6
 30
19.1999
 70
192
 0
VERTEX
 8
CUBO
 10
49.652
 20
11.3
 30
19.1999
 70
192
 0
VERTEX
 8
CUBO
 10
49.652
 20
17.4
 30
19.1999
 70
192
 0
VERTEX
 8
CUBO
 10
49.652
 20
17.4
 30
18.8899
 70
192
 0
VERTEX
 8
CUBO
 10
49.652
 20
11.3
 30
18.8899
 70
192
 0
VERTEX
 8
CUBO
 10
41.1322
 20
11.1802
 30
19.3196
 70
192
 0
VERTEX
 8
CUBO
 10
49.5718
 20
11.1802
 30
19.3196
 70
192
 0
VERTEX
 8
CUBO
 10
41.1322
 20
17.5198
 30
19.3196
 70
192
 0
VERTEX
 8
CUBO
 10
49.5718
 20
17.5198
 30
19.3196
 70
192
 0
VERTEX
 8
CUBO
 10
41.2032
 20
11.106
 30
18.8899
 70
192
 0
VERTEX
 8
CUBO
 10
41.1542
 20
11.1255
 30
18.8899
 70
192
 0
VERTEX
 8
CUBO
 10
41.1106
 20
11.1586
 30
18.8899
 70
192
 0
VERTEX
 8
CUBO
 10
41.0775
 20
11.2022
 30
18.8899
 70
192
 0
VERTEX
 8
CUBO
 10
41.058
 20
11.2512
 30
18.8899
 70
192
 0
VERTEX
 8
CUBO
 10
41.1106
 20
11.1586
 30
19.1999
 70
192
 0
VERTEX
 8
CUBO
 10
41.1106
 20
11.3
 30
19.3413
 70
192
 0
VERTEX
 8
CUBO
 10
41.252
 20
11.1586
 30
19.3413
 70
192
 0
VERTEX
 8
CUBO
 10
41.1204
 20
11.1684
 30
19.2873
 70
192
 0
VERTEX
 8
CUBO
 10
41.113
 20
11.161
 30
19.2465
 70
192
 0
VERTEX
 8
CUBO
 10
41.0789
 20
11.1997
 30
19.1999
 70
192
 0
VERTEX
 8
CUBO
 10
41.0587
 20
11.2485
 30
19.1999
 70
192
 0
VERTEX
 8
CUBO
 10
41.0587
 20
11.3
 30
19.2513
 70
192
 0
VERTEX
 8
CUBO
 10
41.0789
 20
11.3
 30
19.3001
 70
192
 0
VERTEX
 8
CUBO
 10
41.113
 20
11.2533
 30
19.3388
 70
192
 0
VERTEX
 8
CUBO
 10
41.1204
 20
11.2126
 30
19.3315
 70
192
 0
VERTEX
 8
CUBO
 10
41.1517
 20
11.3
 30
19.3729
 70
192
 0
VERTEX
 8
CUBO
 10
41.2005
 20
11.3
 30
19.3931
 70
192
 0
VERTEX
 8
CUBO
 10
41.252
 20
11.2485
 30
19.3931
 70
192
 0
VERTEX
 8
CUBO
 10
41.252
 20
11.1997
 30
19.3729
 70
192
 0
VERTEX
 8
CUBO
 10
41.2053
 20
11.161
 30
19.3388
 70
192
 0
VERTEX
 8
CUBO
 10
41.1646
 20
11.1684
 30
19.3315
 70
192
 0
VERTEX
 8
CUBO
 10
41.252
 20
11.1269
 30
19.3001
 70
192
 0
VERTEX
 8
CUBO
 10
41.252
 20
11.1067
 30
19.2513
 70
192
 0
VERTEX
 8
CUBO
 10
41.2005
 20
11.1067
 30
19.1999
 70
192
 0
VERTEX
 8
CUBO
 10
41.1517
 20
11.1269
 30
19.1999
 70
192
 0
VERTEX
 8
CUBO
 10
41.0995
 20
11.2052
 30
19.2946
 70
192
 0
VERTEX
 8
CUBO
 10
41.0853
 20
11.2502
 30
19.299
 70
192
 0
VERTEX
 8
CUBO
 10
41.0853
 20
11.2008
 30
19.2497
 70
192
 0
VERTEX
 8
CUBO
 10
41.0667
 20
11.2485
 30
19.2513
 70
192
 0
VERTEX
 8
CUBO
 10
41.1572
 20
11.2052
 30
19.3524
 70
192
 0
VERTEX
 8
CUBO
 10
41.2022
 20
11.2008
 30
19.3665
 70
192
 0
VERTEX
 8
CUBO
 10
41.1528
 20
11.2502
 30
19.3665
 70
192
 0
VERTEX
 8
CUBO
 10
41.2005
 20
11.2485
 30
19.3851
 70
192
 0
VERTEX
 8
CUBO
 10
41.1572
 20
11.1475
 30
19.2946
 70
192
 0
VERTEX
 8
CUBO
 10
41.1528
 20
11.1333
 30
19.2497
 70
192
 0
VERTEX
 8
CUBO
 10
41.2022
 20
11.1333
 30
19.299
 70
192
 0
VERTEX
 8
CUBO
 10
41.2005
 20
11.1147
 30
19.2513
 70
192
 0
VERTEX
 8
CUBO
 10
49.452
 20
11.1586
 30
19.3413
 70
192
 0
VERTEX
 8
CUBO
 10
49.5934
 20
11.3
 30
19.3413
 70
192
 0
VERTEX
 8
CUBO
 10
49.5934
 20
11.1586
 30
19.1999
 70
192
 0
VERTEX
 8
CUBO
 10
49.5394
 20
11.1684
 30
19.3315
 70
192
 0
VERTEX
 8
CUBO
 10
49.4987
 20
11.161
 30
19.3388
 70
192
 0
VERTEX
 8
CUBO
 10
49.452
 20
11.1997
 30
19.3729
 70
192
 0
VERTEX
 8
CUBO
 10
49.452
 20
11.2485
 30
19.3931
 70
192
 0
VERTEX
 8
CUBO
 10
49.5035
 20
11.3
 30
19.3931
 70
192
 0
VERTEX
 8
CUBO
 10
49.5523
 20
11.3
 30
19.3729
 70
192
 0
VERTEX
 8
CUBO
 10
49.591
 20
11.2533
 30
19.3388
 70
192
 0
VERTEX
 8
CUBO
 10
49.5836
 20
11.2126
 30
19.3315
 70
192
 0
VERTEX
 8
CUBO
 10
49.6251
 20
11.3
 30
19.3001
 70
192
 0
VERTEX
 8
CUBO
 10
49.6453
 20
11.3
 30
19.2513
 70
192
 0
VERTEX
 8
CUBO
 10
49.6453
 20
11.2485
 30
19.1999
 70
192
 0
VERTEX
 8
CUBO
 10
49.6251
 20
11.1997
 30
19.1999
 70
192
 0
VERTEX
 8
CUBO
 10
49.591
 20
11.161
 30
19.2465
 70
192
 0
VERTEX
 8
CUBO
 10
49.5836
 20
11.1684
 30
19.2873
 70
192
 0
VERTEX
 8
CUBO
 10
49.5523
 20
11.1269
 30
19.1999
 70
192
 0
VERTEX
 8
CUBO
 10
49.5035
 20
11.1067
 30
19.1999
 70
192
 0
VERTEX
 8
CUBO
 10
49.452
 20
11.1067
 30
19.2513
 70
192
 0
VERTEX
 8
CUBO
 10
49.452
 20
11.1269
 30
19.3001
 70
192
 0
VERTEX
 8
CUBO
 10
49.5468
 20
11.2052
 30
19.3524
 70
192
 0
VERTEX
 8
CUBO
 10
49.5512
 20
11.2502
 30
19.3665
 70
192
 0
VERTEX
 8
CUBO
 10
49.5018
 20
11.2008
 30
19.3665
 70
192
 0
VERTEX
 8
CUBO
 10
49.5035
 20
11.2485
 30
19.3851
 70
192
 0
VERTEX
 8
CUBO
 10
49.6045
 20
11.2052
 30
19.2946
 70
192
 0
VERTEX
 8
CUBO
 10
49.6187
 20
11.2008
 30
19.2497
 70
192
 0
VERTEX
 8
CUBO
 10
49.6187
 20
11.2502
 30
19.299
 70
192
 0
VERTEX
 8
CUBO
 10
49.6373
 20
11.2485
 30
19.2513
 70
192
 0
VERTEX
 8
CUBO
 10
49.5468
 20
11.1475
 30
19.2946
 70
192
 0
VERTEX
 8
CUBO
 10
49.5018
 20
11.1333
 30
19.299
 70
192
 0
VERTEX
 8
CUBO
 10
49.5512
 20
11.1333
 30
19.2497
 70
192
 0
VERTEX
 8
CUBO
 10
49.5035
 20
11.1147
 30
19.2513
 70
192
 0
VERTEX
 8
CUBO
 10
49.5008
 20
11.106
 30
18.8899
 70
192
 0
VERTEX
 8
CUBO
 10
49.5498
 20
11.1255
 30
18.8899
 70
192
 0
VERTEX
 8
CUBO
 10
49.5934
 20
11.1586
 30
18.8899
 70
192
 0
VERTEX
 8
CUBO
 10
49.6265
 20
11.2022
 30
18.8899
 70
192
 0
VERTEX
 8
CUBO
 10
49.646
 20
11.2512
 30
18.8899
 70
192
 0
VERTEX
 8
CUBO
 10
41.058
 20
17.4488
 30
18.8899
 70
192
 0
VERTEX
 8
CUBO
 10
41.0775
 20
17.4978
 30
18.8899
 70
192
 0
VERTEX
 8
CUBO
 10
41.1106
 20
17.5414
 30
18.8899
 70
192
 0
VERTEX
 8
CUBO
 10
41.1542
 20
17.5745
 30
18.8899
 70
192
 0
VERTEX
 8
CUBO
 10
41.2032
 20
17.594
 30
18.8899
 70
192
 0
VERTEX
 8
CUBO
 10
41.1106
 20
17.5414
 30
19.1999
 70
192
 0
VERTEX
 8
CUBO
 10
41.252
 20
17.5414
 30
19.3413
 70
192
 0
VERTEX
 8
CUBO
 10
41.1106
 20
17.4
 30
19.3413
 70
192
 0
VERTEX
 8
CUBO
 10
41.1204
 20
17.5316
 30
19.2873
 70
192
 0
VERTEX
 8
CUBO
 10
41.113
 20
17.539
 30
19.2465
 70
192
 0
VERTEX
 8
CUBO
 10
41.1517
 20
17.5731
 30
19.1999
 70
192
 0
VERTEX
 8
CUBO
 10
41.2005
 20
17.5933
 30
19.1999
 70
192
 0
VERTEX
 8
CUBO
 10
41.252
 20
17.5933
 30
19.2513
 70
192
 0
VERTEX
 8
CUBO
 10
41.252
 20
17.5731
 30
19.3001
 70
192
 0
VERTEX
 8
CUBO
 10
41.2053
 20
17.539
 30
19.3388
 70
192
 0
VERTEX
 8
CUBO
 10
41.1646
 20
17.5316
 30
19.3315
 70
192
 0
VERTEX
 8
CUBO
 10
41.252
 20
17.5003
 30
19.3729
 70
192
 0
VERTEX
 8
CUBO
 10
41.252
 20
17.4515
 30
19.3931
 70
192
 0
VERTEX
 8
CUBO
 10
41.2005
 20
17.4
 30
19.3931
 70
192
 0
VERTEX
 8
CUBO
 10
41.1517
 20
17.4
 30
19.3729
 70
192
 0
VERTEX
 8
CUBO
 10
41.113
 20
17.4467
 30
19.3388
 70
192
 0
VERTEX
 8
CUBO
 10
41.1204
 20
17.4874
 30
19.3315
 70
192
 0
VERTEX
 8
CUBO
 10
41.0789
 20
17.4
 30
19.3001
 70
192
 0
VERTEX
 8
CUBO
 10
41.0587
 20
17.4
 30
19.2513
 70
192
 0
VERTEX
 8
CUBO
 10
41.0587
 20
17.4515
 30
19.1999
 70
192
 0
VERTEX
 8
CUBO
 10
41.0789
 20
17.5003
 30
19.1999
 70
192
 0
VERTEX
 8
CUBO
 10
41.1572
 20
17.5525
 30
19.2946
 70
192
 0
VERTEX
 8
CUBO
 10
41.2022
 20
17.5667
 30
19.299
 70
192
 0
VERTEX
 8
CUBO
 10
41.1528
 20
17.5667
 30
19.2497
 70
192
 0
VERTEX
 8
CUBO
 10
41.2005
 20
17.5853
 30
19.2513
 70
192
 0
VERTEX
 8
CUBO
 10
41.1572
 20
17.4948
 30
19.3524
 70
192
 0
VERTEX
 8
CUBO
 10
41.1528
 20
17.4498
 30
19.3665
 70
192
 0
VERTEX
 8
CUBO
 10
41.2022
 20
17.4992
 30
19.3665
 70
192
 0
VERTEX
 8
CUBO
 10
41.2005
 20
17.4515
 30
19.3851
 70
192
 0
VERTEX
 8
CUBO
 10
41.0995
 20
17.4948
 30
19.2946
 70
192
 0
VERTEX
 8
CUBO
 10
41.0853
 20
17.4992
 30
19.2497
 70
192
 0
VERTEX
 8
CUBO
 10
41.0853
 20
17.4498
 30
19.299
 70
192
 0
VERTEX
 8
CUBO
 10
41.0667
 20
17.4515
 30
19.2513
 70
192
 0
VERTEX
 8
CUBO
 10
49.452
 20
17.5414
 30
19.3413
 70
192
 0
VERTEX
 8
CUBO
 10
49.5934
 20
17.5414
 30
19.1999
 70
192
 0
VERTEX
 8
CUBO
 10
49.5934
 20
17.4
 30
19.3413
 70
192
 0
VERTEX
 8
CUBO
 10
49.5394
 20
17.5316
 30
19.3315
 70
192
 0
VERTEX
 8
CUBO
 10
49.4987
 20
17.539
 30
19.3388
 70
192
 0
VERTEX
 8
CUBO
 10
49.452
 20
17.5731
 30
19.3001
 70
192
 0
VERTEX
 8
CUBO
 10
49.452
 20
17.5933
 30
19.2513
 70
192
 0
VERTEX
 8
CUBO
 10
49.5035
 20
17.5933
 30
19.1999
 70
192
 0
VERTEX
 8
CUBO
 10
49.5523
 20
17.5731
 30
19.1999
 70
192
 0
VERTEX
 8
CUBO
 10
49.591
 20
17.539
 30
19.2465
 70
192
 0
VERTEX
 8
CUBO
 10
49.5836
 20
17.5316
 30
19.2873
 70
192
 0
VERTEX
 8
CUBO
 10
49.6251
 20
17.5003
 30
19.1999
 70
192
 0
VERTEX
 8
CUBO
 10
49.6453
 20
17.4515
 30
19.1999
 70
192
 0
VERTEX
 8
CUBO
 10
49.6453
 20
17.4
 30
19.2513
 70
192
 0
VERTEX
 8
CUBO
 10
49.6251
 20
17.4
 30
19.3001
 70
192
 0
VERTEX
 8
CUBO
 10
49.591
 20
17.4467
 30
19.3388
 70
192
 0
VERTEX
 8
CUBO
 10
49.5836
 20
17.4874
 30
19.3315
 70
192
 0
VERTEX
 8
CUBO
 10
49.5523
 20
17.4
 30
19.3729
 70
192
 0
VERTEX
 8
CUBO
 10
49.5035
 20
17.4
 30
19.3931
 70
192
 0
VERTEX
 8
CUBO
 10
49.452
 20
17.4515
 30
19.3931
 70
192
 0
VERTEX
 8
CUBO
 10
49.452
 20
17.5003
 30
19.3729
 70
192
 0
VERTEX
 8
CUBO
 10
49.5468
 20
17.5525
 30
19.2946
 70
192
 0
VERTEX
 8
CUBO
 10
49.5512
 20
17.5667
 30
19.2497
 70
192
 0
VERTEX
 8
CUBO
 10
49.5018
 20
17.5667
 30
19.299
 70
192
 0
VERTEX
 8
CUBO
 10
49.5035
 20
17.5853
 30
19.2513
 70
192
 0
VERTEX
 8
CUBO
 10
49.6045
 20
17.4948
 30
19.2946
 70
192
 0
VERTEX
 8
CUBO
 10
49.6187
 20
17.4498
 30
19.299
 70
192
 0
VERTEX
 8
CUBO
 10
49.6187
 20
17.4992
 30
19.2497
 70
192
 0
VERTEX
 8
CUBO
 10
49.6373
 20
17.4515
 30
19.2513
 70
192
 0
VERTEX
 8
CUBO
 10
49.5468
 20
17.4948
 30
19.3524
 70
192
 0
VERTEX
 8
CUBO
 10
49.5018
 20
17.4992
 30
19.3665
 70
192
 0
VERTEX
 8
CUBO
 10
49.5512
 20
17.4498
 30
19.3665
 70
192
 0
VERTEX
 8
CUBO
 10
49.5035
 20
17.4515
 30
19.3851
 70
192
 0
VERTEX
 8
CUBO
 10
49.5008
 20
17.594
 30
18.8899
 70
192
 0
VERTEX
 8
CUBO
 10
49.5498
 20
17.5745
 30
18.8899
 70
192
 0
VERTEX
 8
CUBO
 10
49.5934
 20
17.5414
 30
18.8899
 70
192
 0
VERTEX
 8
CUBO
 10
49.6265
 20
17.4978
 30
18.8899
 70
192
 0
VERTEX
 8
CUBO
 10
49.646
 20
17.4488
 30
18.8899
 70
192
 0
VERTEX
 8
CUBO
 10
0
 20
0
 30
0
 70
128
 71
9
 72
10
 73
11
 74
12
 0
VERTEX
 8
CUBO
 10
0
 20
0
 30
0
 70
128
 71
17
 72
18
 73
19
 74
20
 0
VERTEX
 8
CUBO
 10
0
 20
0
 30
0
 70
128
 71
99
 72
100
 73
20
 74
20
 0
VERTEX
 8
CUBO
 10
0
 20
0
 30
0
 70
128
 71
5
 72
6
 73
7
 74
8
 0
VERTEX
 8
CUBO
 10
0
 20
0
 30
0
 70
128
 71
13
 72
14
 73
15
 74
16
 0
VERTEX
 8
CUBO
 10
0
 20
0
 30
0
 70
128
 71
1
 72
2
 73
3
 74
4
 0
VERTEX
 8
CUBO
 10
0
 20
0
 30
0
 70
128
 71
20
 72
4
 73
96
 74
97
 0
VERTEX
 8
CUBO
 10
0
 20
0
 30
0
 70
128
 71
15
 72
4
 73
20
 74
19
 0
VERTEX
 8
CUBO
 10
0
 20
0
 30
0
 70
128
 71
1
 72
4
 73
15
 74
14
 0
VERTEX
 8
CUBO
 10
0
 20
0
 30
0
 70
128
 71
14
 72
105
 73
104
 74
104
 0
VERTEX
 8
CUBO
 10
0
 20
0
 30
0
 70
128
 71
19
 72
176
 73
175
 74
175
 0
VERTEX
 8
CUBO
 10
0
 20
0
 30
0
 70
128
 71
173
 72
19
 73
175
 74
174
 0
VERTEX
 8
CUBO
 10
0
 20
0
 30
0
 70
128
 71
19
 72
173
 73
172
 74
15
 0
VERTEX
 8
CUBO
 10
0
 20
0
 30
0
 70
128
 71
5
 72
29
 73
28
 74
28
 0
VERTEX
 8
CUBO
 10
0
 20
0
 30
0
 70
128
 71
6
 72
14
 73
104
 74
101
 0
VERTEX
 8
CUBO
 10
0
 20
0
 30
0
 70
128
 71
1
 72
14
 73
6
 74
5
 0
VERTEX
 8
CUBO
 10
0
 20
0
 30
0
 70
128
 71
101
 72
104
 73
103
 74
102
 0
VERTEX
 8
CUBO
 10
0
 20
0
 30
0
 70
128
 71
5
 72
26
 73
25
 74
1
 0
VERTEX
 8
CUBO
 10
0
 20
0
 30
0
 70
128
 71
26
 72
5
 73
28
 74
27
 0
VERTEX
 8
CUBO
 10
0
 20
0
 30
0
 70
128
 71
97
 72
98
 73
99
 74
20
 0
VERTEX
 8
CUBO
 10
0
 20
0
 30
0
 70
128
 71
9
 72
42
 73
119
 74
10
 0
VERTEX
 8
CUBO
 10
0
 20
0
 30
0
 70
128
 71
16
 72
145
 73
113
 74
13
 0
VERTEX
 8
CUBO
 10
0
 20
0
 30
0
 70
128
 71
11
 72
157
 73
70
 74
12
 0
VERTEX
 8
CUBO
 10
0
 20
0
 30
0
 70
128
 71
2
 72
48
 73
82
 74
3
 0
VERTEX
 8
CUBO
 10
0
 20
0
 30
0
 70
128
 71
18
 72
151
 73
176
 74
19
 0
VERTEX
 8
CUBO
 10
0
 20
0
 30
0
 70
128
 71
20
 72
100
 73
76
 74
17
 0
VERTEX
 8
CUBO
 10
0
 20
0
 30
0
 70
128
 71
6
 72
101
 73
125
 74
7
 0
VERTEX
 8
CUBO
 10
0
 20
0
 30
0
 70
128
 71
8
 72
36
 73
29
 74
5
 0
VERTEX
 8
CUBO
 10
0
 20
0
 30
0
 70
128
 71
21
 72
33
 73
51
 74
40
 0
VERTEX
 8
CUBO
 10
0
 20
0
 30
0
 70
128
 71
22
 72
66
 73
84
 74
73
 0
VERTEX
 8
CUBO
 10
0
 20
0
 30
0
 70
128
 71
23
 72
109
 73
127
 74
116
 0
VERTEX
 8
CUBO
 10
0
 20
0
 30
0
 70
128
 71
24
 72
142
 73
160
 74
149
 0
VERTEX
 8
CUBO
 10
0
 20
0
 30
0
 70
128
 71
21
 72
40
 73
55
 74
46
 0
VERTEX
 8
CUBO
 10
0
 20
0
 30
0
 70
128
 71
21
 72
46
 73
59
 74
33
 0
VERTEX
 8
CUBO
 10
0
 20
0
 30
0
 70
128
 71
33
 72
34
 73
53
 74
51
 0
VERTEX
 8
CUBO
 10
0
 20
0
 30
0
 70
128
 71
51
 72
52
 73
39
 74
40
 0
VERTEX
 8
CUBO
 10
0
 20
0
 30
0
 70
128
 71
52
 72
38
 73
31
 74
39
 0
VERTEX
 8
CUBO
 10
0
 20
0
 30
0
 70
128
 71
34
 72
30
 73
35
 74
53
 0
VERTEX
 8
CUBO
 10
0
 20
0
 30
0
 70
128
 71
53
 72
54
 73
52
 74
51
 0
VERTEX
 8
CUBO
 10
0
 20
0
 30
0
 70
128
 71
54
 72
37
 73
38
 74
52
 0
VERTEX
 8
CUBO
 10
0
 20
0
 30
0
 70
128
 71
35
 72
36
 73
54
 74
53
 0
VERTEX
 8
CUBO
 10
0
 20
0
 30
0
 70
128
 71
36
 72
8
 73
37
 74
54
 0
VERTEX
 8
CUBO
 10
0
 20
0
 30
0
 70
128
 71
40
 72
39
 73
57
 74
55
 0
VERTEX
 8
CUBO
 10
0
 20
0
 30
0
 70
128
 71
55
 72
56
 73
45
 74
46
 0
VERTEX
 8
CUBO
 10
0
 20
0
 30
0
 70
128
 71
56
 72
44
 73
32
 74
45
 0
VERTEX
 8
CUBO
 10
0
 20
0
 30
0
 70
128
 71
39
 72
31
 73
41
 74
57
 0
VERTEX
 8
CUBO
 10
0
 20
0
 30
0
 70
128
 71
57
 72
58
 73
56
 74
55
 0
VERTEX
 8
CUBO
 10
0
 20
0
 30
0
 70
128
 71
58
 72
43
 73
44
 74
56
 0
VERTEX
 8
CUBO
 10
0
 20
0
 30
0
 70
128
 71
41
 72
42
 73
58
 74
57
 0
VERTEX
 8
CUBO
 10
0
 20
0
 30
0
 70
128
 71
42
 72
9
 73
43
 74
58
 0
VERTEX
 8
CUBO
 10
0
 20
0
 30
0
 70
128
 71
46
 72
45
 73
61
 74
59
 0
VERTEX
 8
CUBO
 10
0
 20
0
 30
0
 70
128
 71
59
 72
60
 73
34
 74
33
 0
VERTEX
 8
CUBO
 10
0
 20
0
 30
0
 70
128
 71
60
 72
50
 73
30
 74
34
 0
VERTEX
 8
CUBO
 10
0
 20
0
 30
0
 70
128
 71
45
 72
32
 73
47
 74
61
 0
VERTEX
 8
CUBO
 10
0
 20
0
 30
0
 70
128
 71
61
 72
62
 73
60
 74
59
 0
VERTEX
 8
CUBO
 10
0
 20
0
 30
0
 70
128
 71
62
 72
49
 73
50
 74
60
 0
VERTEX
 8
CUBO
 10
0
 20
0
 30
0
 70
128
 71
47
 72
48
 73
62
 74
61
 0
VERTEX
 8
CUBO
 10
0
 20
0
 30
0
 70
128
 71
48
 72
2
 73
49
 74
62
 0
VERTEX
 8
CUBO
 10
0
 20
0
 30
0
 70
128
 71
22
 72
73
 73
88
 74
79
 0
VERTEX
 8
CUBO
 10
0
 20
0
 30
0
 70
128
 71
22
 72
79
 73
92
 74
66
 0
VERTEX
 8
CUBO
 10
0
 20
0
 30
0
 70
128
 71
66
 72
67
 73
86
 74
84
 0
VERTEX
 8
CUBO
 10
0
 20
0
 30
0
 70
128
 71
84
 72
85
 73
72
 74
73
 0
VERTEX
 8
CUBO
 10
0
 20
0
 30
0
 70
128
 71
85
 72
71
 73
64
 74
72
 0
VERTEX
 8
CUBO
 10
0
 20
0
 30
0
 70
128
 71
67
 72
63
 73
68
 74
86
 0
VERTEX
 8
CUBO
 10
0
 20
0
 30
0
 70
128
 71
86
 72
87
 73
85
 74
84
 0
VERTEX
 8
CUBO
 10
0
 20
0
 30
0
 70
128
 71
87
 72
70
 73
71
 74
85
 0
VERTEX
 8
CUBO
 10
0
 20
0
 30
0
 70
128
 71
68
 72
69
 73
87
 74
86
 0
VERTEX
 8
CUBO
 10
0
 20
0
 30
0
 70
128
 71
69
 72
12
 73
70
 74
87
 0
VERTEX
 8
CUBO
 10
0
 20
0
 30
0
 70
128
 71
73
 72
72
 73
90
 74
88
 0
VERTEX
 8
CUBO
 10
0
 20
0
 30
0
 70
128
 71
88
 72
89
 73
78
 74
79
 0
VERTEX
 8
CUBO
 10
0
 20
0
 30
0
 70
128
 71
89
 72
77
 73
65
 74
78
 0
VERTEX
 8
CUBO
 10
0
 20
0
 30
0
 70
128
 71
72
 72
64
 73
74
 74
90
 0
VERTEX
 8
CUBO
 10
0
 20
0
 30
0
 70
128
 71
90
 72
91
 73
89
 74
88
 0
VERTEX
 8
CUBO
 10
0
 20
0
 30
0
 70
128
 71
91
 72
76
 73
77
 74
89
 0
VERTEX
 8
CUBO
 10
0
 20
0
 30
0
 70
128
 71
74
 72
75
 73
91
 74
90
 0
VERTEX
 8
CUBO
 10
0
 20
0
 30
0
 70
128
 71
75
 72
17
 73
76
 74
91
 0
VERTEX
 8
CUBO
 10
0
 20
0
 30
0
 70
128
 71
79
 72
78
 73
94
 74
92
 0
VERTEX
 8
CUBO
 10
0
 20
0
 30
0
 70
128
 71
92
 72
93
 73
67
 74
66
 0
VERTEX
 8
CUBO
 10
0
 20
0
 30
0
 70
128
 71
93
 72
83
 73
63
 74
67
 0
VERTEX
 8
CUBO
 10
0
 20
0
 30
0
 70
128
 71
78
 72
65
 73
80
 74
94
 0
VERTEX
 8
CUBO
 10
0
 20
0
 30
0
 70
128
 71
94
 72
95
 73
93
 74
92
 0
VERTEX
 8
CUBO
 10
0
 20
0
 30
0
 70
128
 71
95
 72
82
 73
83
 74
93
 0
VERTEX
 8
CUBO
 10
0
 20
0
 30
0
 70
128
 71
80
 72
81
 73
95
 74
94
 0
VERTEX
 8
CUBO
 10
0
 20
0
 30
0
 70
128
 71
81
 72
3
 73
82
 74
95
 0
VERTEX
 8
CUBO
 10
0
 20
0
 30
0
 70
128
 71
23
 72
116
 73
131
 74
122
 0
VERTEX
 8
CUBO
 10
0
 20
0
 30
0
 70
128
 71
23
 72
122
 73
135
 74
109
 0
VERTEX
 8
CUBO
 10
0
 20
0
 30
0
 70
128
 71
109
 72
110
 73
129
 74
127
 0
VERTEX
 8
CUBO
 10
0
 20
0
 30
0
 70
128
 71
127
 72
128
 73
115
 74
116
 0
VERTEX
 8
CUBO
 10
0
 20
0
 30
0
 70
128
 71
128
 72
114
 73
107
 74
115
 0
VERTEX
 8
CUBO
 10
0
 20
0
 30
0
 70
128
 71
110
 72
106
 73
111
 74
129
 0
VERTEX
 8
CUBO
 10
0
 20
0
 30
0
 70
128
 71
129
 72
130
 73
128
 74
127
 0
VERTEX
 8
CUBO
 10
0
 20
0
 30
0
 70
128
 71
130
 72
113
 73
114
 74
128
 0
VERTEX
 8
CUBO
 10
0
 20
0
 30
0
 70
128
 71
111
 72
112
 73
130
 74
129
 0
VERTEX
 8
CUBO
 10
0
 20
0
 30
0
 70
128
 71
112
 72
13
 73
113
 74
130
 0
VERTEX
 8
CUBO
 10
0
 20
0
 30
0
 70
128
 71
116
 72
115
 73
133
 74
131
 0
VERTEX
 8
CUBO
 10
0
 20
0
 30
0
 70
128
 71
131
 72
132
 73
121
 74
122
 0
VERTEX
 8
CUBO
 10
0
 20
0
 30
0
 70
128
 71
132
 72
120
 73
108
 74
121
 0
VERTEX
 8
CUBO
 10
0
 20
0
 30
0
 70
128
 71
115
 72
107
 73
117
 74
133
 0
VERTEX
 8
CUBO
 10
0
 20
0
 30
0
 70
128
 71
133
 72
134
 73
132
 74
131
 0
VERTEX
 8
CUBO
 10
0
 20
0
 30
0
 70
128
 71
134
 72
119
 73
120
 74
132
 0
VERTEX
 8
CUBO
 10
0
 20
0
 30
0
 70
128
 71
117
 72
118
 73
134
 74
133
 0
VERTEX
 8
CUBO
 10
0
 20
0
 30
0
 70
128
 71
118
 72
10
 73
119
 74
134
 0
VERTEX
 8
CUBO
 10
0
 20
0
 30
0
 70
128
 71
122
 72
121
 73
137
 74
135
 0
VERTEX
 8
CUBO
 10
0
 20
0
 30
0
 70
128
 71
135
 72
136
 73
110
 74
109
 0
VERTEX
 8
CUBO
 10
0
 20
0
 30
0
 70
128
 71
136
 72
126
 73
106
 74
110
 0
VERTEX
 8
CUBO
 10
0
 20
0
 30
0
 70
128
 71
121
 72
108
 73
123
 74
137
 0
VERTEX
 8
CUBO
 10
0
 20
0
 30
0
 70
128
 71
137
 72
138
 73
136
 74
135
 0
VERTEX
 8
CUBO
 10
0
 20
0
 30
0
 70
128
 71
138
 72
125
 73
126
 74
136
 0
VERTEX
 8
CUBO
 10
0
 20
0
 30
0
 70
128
 71
123
 72
124
 73
138
 74
137
 0
VERTEX
 8
CUBO
 10
0
 20
0
 30
0
 70
128
 71
124
 72
7
 73
125
 74
138
 0
VERTEX
 8
CUBO
 10
0
 20
0
 30
0
 70
128
 71
24
 72
149
 73
164
 74
155
 0
VERTEX
 8
CUBO
 10
0
 20
0
 30
0
 70
128
 71
24
 72
155
 73
168
 74
142
 0
VERTEX
 8
CUBO
 10
0
 20
0
 30
0
 70
128
 71
142
 72
143
 73
162
 74
160
 0
VERTEX
 8
CUBO
 10
0
 20
0
 30
0
 70
128
 71
160
 72
161
 73
148
 74
149
 0
VERTEX
 8
CUBO
 10
0
 20
0
 30
0
 70
128
 71
161
 72
147
 73
140
 74
148
 0
VERTEX
 8
CUBO
 10
0
 20
0
 30
0
 70
128
 71
143
 72
139
 73
144
 74
162
 0
VERTEX
 8
CUBO
 10
0
 20
0
 30
0
 70
128
 71
162
 72
163
 73
161
 74
160
 0
VERTEX
 8
CUBO
 10
0
 20
0
 30
0
 70
128
 71
163
 72
146
 73
147
 74
161
 0
VERTEX
 8
CUBO
 10
0
 20
0
 30
0
 70
128
 71
144
 72
145
 73
163
 74
162
 0
VERTEX
 8
CUBO
 10
0
 20
0
 30
0
 70
128
 71
145
 72
16
 73
146
 74
163
 0
VERTEX
 8
CUBO
 10
0
 20
0
 30
0
 70
128
 71
149
 72
148
 73
166
 74
164
 0
VERTEX
 8
CUBO
 10
0
 20
0
 30
0
 70
128
 71
164
 72
165
 73
154
 74
155
 0
VERTEX
 8
CUBO
 10
0
 20
0
 30
0
 70
128
 71
165
 72
153
 73
141
 74
154
 0
VERTEX
 8
CUBO
 10
0
 20
0
 30
0
 70
128
 71
148
 72
140
 73
150
 74
166
 0
VERTEX
 8
CUBO
 10
0
 20
0
 30
0
 70
128
 71
166
 72
167
 73
165
 74
164
 0
VERTEX
 8
CUBO
 10
0
 20
0
 30
0
 70
128
 71
167
 72
152
 73
153
 74
165
 0
VERTEX
 8
CUBO
 10
0
 20
0
 30
0
 70
128
 71
150
 72
151
 73
167
 74
166
 0
VERTEX
 8
CUBO
 10
0
 20
0
 30
0
 70
128
 71
151
 72
18
 73
152
 74
167
 0
VERTEX
 8
CUBO
 10
0
 20
0
 30
0
 70
128
 71
155
 72
154
 73
170
 74
168
 0
VERTEX
 8
CUBO
 10
0
 20
0
 30
0
 70
128
 71
168
 72
169
 73
143
 74
142
 0
VERTEX
 8
CUBO
 10
0
 20
0
 30
0
 70
128
 71
169
 72
159
 73
139
 74
143
 0
VERTEX
 8
CUBO
 10
0
 20
0
 30
0
 70
128
 71
154
 72
141
 73
156
 74
170
 0
VERTEX
 8
CUBO
 10
0
 20
0
 30
0
 70
128
 71
170
 72
171
 73
169
 74
168
 0
VERTEX
 8
CUBO
 10
0
 20
0
 30
0
 70
128
 71
171
 72
158
 73
159
 74
169
 0
VERTEX
 8
CUBO
 10
0
 20
0
 30
0
 70
128
 71
156
 72
157
 73
171
 74
170
 0
VERTEX
 8
CUBO
 10
0
 20
0
 30
0
 70
128
 71
157
 72
11
 73
158
 74
171
 0
VERTEX
 8
CUBO
 10
0
 20
0
 30
0
 70
128
 71
42
 72
41
 73
120
 74
119
 0
VERTEX
 8
CUBO
 10
0
 20
0
 30
0
 70
128
 71
41
 72
31
 73
108
 74
120
 0
VERTEX
 8
CUBO
 10
0
 20
0
 30
0
 70
128
 71
31
 72
38
 73
123
 74
108
 0
VERTEX
 8
CUBO
 10
0
 20
0
 30
0
 70
128
 71
38
 72
37
 73
124
 74
123
 0
VERTEX
 8
CUBO
 10
0
 20
0
 30
0
 70
128
 71
37
 72
8
 73
7
 74
124
 0
VERTEX
 8
CUBO
 10
0
 20
0
 30
0
 70
128
 71
145
 72
144
 73
114
 74
113
 0
VERTEX
 8
CUBO
 10
0
 20
0
 30
0
 70
128
 71
144
 72
139
 73
107
 74
114
 0
VERTEX
 8
CUBO
 10
0
 20
0
 30
0
 70
128
 71
139
 72
159
 73
117
 74
107
 0
VERTEX
 8
CUBO
 10
0
 20
0
 30
0
 70
128
 71
159
 72
158
 73
118
 74
117
 0
VERTEX
 8
CUBO
 10
0
 20
0
 30
0
 70
128
 71
158
 72
11
 73
10
 74
118
 0
VERTEX
 8
CUBO
 10
0
 20
0
 30
0
 70
128
 71
157
 72
156
 73
71
 74
70
 0
VERTEX
 8
CUBO
 10
0
 20
0
 30
0
 70
128
 71
156
 72
141
 73
64
 74
71
 0
VERTEX
 8
CUBO
 10
0
 20
0
 30
0
 70
128
 71
141
 72
153
 73
74
 74
64
 0
VERTEX
 8
CUBO
 10
0
 20
0
 30
0
 70
128
 71
153
 72
152
 73
75
 74
74
 0
VERTEX
 8
CUBO
 10
0
 20
0
 30
0
 70
128
 71
152
 72
18
 73
17
 74
75
 0
VERTEX
 8
CUBO
 10
0
 20
0
 30
0
 70
128
 71
48
 72
47
 73
83
 74
82
 0
VERTEX
 8
CUBO
 10
0
 20
0
 30
0
 70
128
 71
47
 72
32
 73
63
 74
83
 0
VERTEX
 8
CUBO
 10
0
 20
0
 30
0
 70
128
 71
32
 72
44
 73
68
 74
63
 0
VERTEX
 8
CUBO
 10
0
 20
0
 30
0
 70
128
 71
44
 72
43
 73
69
 74
68
 0
VERTEX
 8
CUBO
 10
0
 20
0
 30
0
 70
128
 71
43
 72
9
 73
12
 74
69
 0
VERTEX
 8
CUBO
 10
0
 20
0
 30
0
 70
128
 71
151
 72
150
 73
175
 74
176
 0
VERTEX
 8
CUBO
 10
0
 20
0
 30
0
 70
128
 71
150
 72
140
 73
174
 74
175
 0
VERTEX
 8
CUBO
 10
0
 20
0
 30
0
 70
128
 71
140
 72
147
 73
173
 74
174
 0
VERTEX
 8
CUBO
 10
0
 20
0
 30
0
 70
128
 71
147
 72
146
 73
172
 74
173
 0
VERTEX
 8
CUBO
 10
0
 20
0
 30
0
 70
128
 71
146
 72
16
 73
15
 74
172
 0
VERTEX
 8
CUBO
 10
0
 20
0
 30
0
 70
128
 71
100
 72
99
 73
77
 74
76
 0
VERTEX
 8
CUBO
 10
0
 20
0
 30
0
 70
128
 71
99
 72
98
 73
65
 74
77
 0
VERTEX
 8
CUBO
 10
0
 20
0
 30
0
 70
128
 71
98
 72
97
 73
80
 74
65
 0
VERTEX
 8
CUBO
 10
0
 20
0
 30
0
 70
128
 71
97
 72
96
 73
81
 74
80
 0
VERTEX
 8
CUBO
 10
0
 20
0
 30
0
 70
128
 71
96
 72
4
 73
3
 74
81
 0
VERTEX
 8
CUBO
 10
0
 20
0
 30
0
 70
128
 71
101
 72
102
 73
126
 74
125
 0
VERTEX
 8
CUBO
 10
0
 20
0
 30
0
 70
128
 71
102
 72
103
 73
106
 74
126
 0
VERTEX
 8
CUBO
 10
0
 20
0
 30
0
 70
128
 71
103
 72
104
 73
111
 74
106
 0
VERTEX
 8
CUBO
 10
0
 20
0
 30
0
 70
128
 71
104
 72
105
 73
112
 74
111
 0
VERTEX
 8
CUBO
 10
0
 20
0
 30
0
 70
128
 71
105
 72
14
 73
13
 74
112
 0
VERTEX
 8
CUBO
 10
0
 20
0
 30
0
 70
128
 71
36
 72
35
 73
28
 74
29
 0
VERTEX
 8
CUBO
 10
0
 20
0
 30
0
 70
128
 71
35
 72
30
 73
27
 74
28
 0
VERTEX
 8
CUBO
 10
0
 20
0
 30
0
 70
128
 71
30
 72
50
 73
26
 74
27
 0
VERTEX
 8
CUBO
 10
0
 20
0
 30
0
 70
128
 71
50
 72
49
 73
25
 74
26
 0
VERTEX
 8
CUBO
 10
0
 20
0
 30
0
 70
128
 71
49
 72
2
 73
1
 74
25
 0
SEQEND
 0
POLYLINE
 8
MANOPOLA_4
 66
1
 10
0.0
 20
0.0
 30
0.0
 70
64
 71
234
 72
256
 0
VERTEX
 8
MANOPOLA_4
 10
45.3467
 20
4.1514
 30
22.35
 70
192
 0
VERTEX
 8
MANOPOLA_4
 10
45.3467
 20
4.1514
 30
18.8896
 70
192
 0
VERTEX
 8
MANOPOLA_4
 10
47.3503
 20
4.1514
 30
19.7912
 70
192
 0
VERTEX
 8
MANOPOLA_4
 10
47.3503
 20
4.1514
 30
19.4
 70
192
 0
VERTEX
 8
MANOPOLA_4
 10
47.2692
 20
3.5869
 30
19.7912
 70
192
 0
VERTEX
 8
MANOPOLA_4
 10
47.2692
 20
3.5869
 30
19.4
 70
192
 0
VERTEX
 8
MANOPOLA_4
 10
47.0323
 20
3.0682
 30
19.7912
 70
192
 0
VERTEX
 8
MANOPOLA_4
 10
47.0323
 20
3.0682
 30
19.4
 70
192
 0
VERTEX
 8
MANOPOLA_4
 10
46.6588
 20
2.6371
 30
19.7912
 70
192
 0
VERTEX
 8
MANOPOLA_4
 10
46.6588
 20
2.6371
 30
19.4
 70
192
 0
VERTEX
 8
MANOPOLA_4
 10
46.179
 20
2.3288
 30
19.7912
 70
192
 0
VERTEX
 8
MANOPOLA_4
 10
46.179
 20
2.3288
 30
19.4
 70
192
 0
VERTEX
 8
MANOPOLA_4
 10
45.6318
 20
2.1681
 30
19.7912
 70
192
 0
VERTEX
 8
MANOPOLA_4
 10
45.6318
 20
2.1681
 30
19.4
 70
192
 0
VERTEX
 8
MANOPOLA_4
 10
45.0615
 20
2.1681
 30
19.7912
 70
192
 0
VERTEX
 8
MANOPOLA_4
 10
45.0615
 20
2.1681
 30
19.4
 70
192
 0
VERTEX
 8
MANOPOLA_4
 10
44.5143
 20
2.3288
 30
19.7912
 70
192
 0
VERTEX
 8
MANOPOLA_4
 10
44.5143
 20
2.3288
 30
19.4
 70
192
 0
VERTEX
 8
MANOPOLA_4
 10
44.0346
 20
2.6371
 30
19.7912
 70
192
 0
VERTEX
 8
MANOPOLA_4
 10
44.0346
 20
2.6371
 30
19.4
 70
192
 0
VERTEX
 8
MANOPOLA_4
 10
43.6611
 20
3.0682
 30
19.7912
 70
192
 0
VERTEX
 8
MANOPOLA_4
 10
43.6611
 20
3.0682
 30
19.4
 70
192
 0
VERTEX
 8
MANOPOLA_4
 10
43.4242
 20
3.5869
 30
19.7912
 70
192
 0
VERTEX
 8
MANOPOLA_4
 10
43.4242
 20
3.5869
 30
19.4
 70
192
 0
VERTEX
 8
MANOPOLA_4
 10
43.343
 20
4.1514
 30
19.7912
 70
192
 0
VERTEX
 8
MANOPOLA_4
 10
43.343
 20
4.1514
 30
19.4
 70
192
 0
VERTEX
 8
MANOPOLA_4
 10
43.4242
 20
4.7159
 30
19.7912
 70
192
 0
VERTEX
 8
MANOPOLA_4
 10
43.4242
 20
4.7159
 30
19.4
 70
192
 0
VERTEX
 8
MANOPOLA_4
 10
43.6611
 20
5.2347
 30
19.7912
 70
192
 0
VERTEX
 8
MANOPOLA_4
 10
43.6611
 20
5.2347
 30
19.4
 70
192
 0
VERTEX
 8
MANOPOLA_4
 10
44.0346
 20
5.6657
 30
19.7912
 70
192
 0
VERTEX
 8
MANOPOLA_4
 10
44.0346
 20
5.6657
 30
19.4
 70
192
 0
VERTEX
 8
MANOPOLA_4
 10
44.5143
 20
5.974
 30
19.7912
 70
192
 0
VERTEX
 8
MANOPOLA_4
 10
44.5143
 20
5.974
 30
19.4
 70
192
 0
VERTEX
 8
MANOPOLA_4
 10
45.0615
 20
6.1347
 30
19.7912
 70
192
 0
VERTEX
 8
MANOPOLA_4
 10
45.0615
 20
6.1347
 30
19.4
 70
192
 0
VERTEX
 8
MANOPOLA_4
 10
45.6318
 20
6.1347
 30
19.7912
 70
192
 0
VERTEX
 8
MANOPOLA_4
 10
45.6318
 20
6.1347
 30
19.4
 70
192
 0
VERTEX
 8
MANOPOLA_4
 10
46.179
 20
5.974
 30
19.7912
 70
192
 0
VERTEX
 8
MANOPOLA_4
 10
46.179
 20
5.974
 30
19.4
 70
192
 0
VERTEX
 8
MANOPOLA_4
 10
46.6588
 20
5.6657
 30
19.7912
 70
192
 0
VERTEX
 8
MANOPOLA_4
 10
46.6588
 20
5.6657
 30
19.4
 70
192
 0
VERTEX
 8
MANOPOLA_4
 10
47.0323
 20
5.2347
 30
19.7912
 70
192
 0
VERTEX
 8
MANOPOLA_4
 10
47.0323
 20
5.2347
 30
19.4
 70
192
 0
VERTEX
 8
MANOPOLA_4
 10
47.2692
 20
4.7159
 30
19.7912
 70
192
 0
VERTEX
 8
MANOPOLA_4
 10
47.2692
 20
4.7159
 30
19.4
 70
192
 0
VERTEX
 8
MANOPOLA_4
 10
46.99
 20
4.1514
 30
19.7912
 70
192
 0
VERTEX
 8
MANOPOLA_4
 10
46.99
 20
3.6012
 30
19.7912
 70
192
 0
VERTEX
 8
MANOPOLA_4
 10
46.9898
 20
3.0955
 30
19.7912
 70
192
 0
VERTEX
 8
MANOPOLA_4
 10
46.6257
 20
2.6753
 30
19.7912
 70
192
 0
VERTEX
 8
MANOPOLA_4
 10
46.158
 20
2.3748
 30
19.7912
 70
192
 0
VERTEX
 8
MANOPOLA_4
 10
45.6246
 20
2.2181
 30
19.7912
 70
192
 0
VERTEX
 8
MANOPOLA_4
 10
45.0687
 20
2.2181
 30
19.7912
 70
192
 0
VERTEX
 8
MANOPOLA_4
 10
44.5353
 20
2.3748
 30
19.7912
 70
192
 0
VERTEX
 8
MANOPOLA_4
 10
44.0676
 20
2.6753
 30
19.7912
 70
192
 0
VERTEX
 8
MANOPOLA_4
 10
43.7036
 20
3.0955
 30
19.7912
 70
192
 0
VERTEX
 8
MANOPOLA_4
 10
43.704
 20
3.6012
 30
19.7912
 70
192
 0
VERTEX
 8
MANOPOLA_4
 10
43.704
 20
4.1514
 30
19.7912
 70
192
 0
VERTEX
 8
MANOPOLA_4
 10
43.704
 20
4.7017
 30
19.7912
 70
192
 0
VERTEX
 8
MANOPOLA_4
 10
43.7036
 20
5.2074
 30
19.7912
 70
192
 0
VERTEX
 8
MANOPOLA_4
 10
44.0676
 20
5.6275
 30
19.7912
 70
192
 0
VERTEX
 8
MANOPOLA_4
 10
44.5353
 20
5.9281
 30
19.7912
 70
192
 0
VERTEX
 8
MANOPOLA_4
 10
45.0687
 20
6.0847
 30
19.7912
 70
192
 0
VERTEX
 8
MANOPOLA_4
 10
45.6246
 20
6.0847
 30
19.7912
 70
192
 0
VERTEX
 8
MANOPOLA_4
 10
46.158
 20
5.9281
 30
19.7912
 70
192
 0
VERTEX
 8
MANOPOLA_4
 10
46.6257
 20
5.6275
 30
19.7912
 70
192
 0
VERTEX
 8
MANOPOLA_4
 10
46.9898
 20
5.2074
 30
19.7912
 70
192
 0
VERTEX
 8
MANOPOLA_4
 10
46.99
 20
4.7017
 30
19.7912
 70
192
 0
VERTEX
 8
MANOPOLA_4
 10
46.99
 20
4.1514
 30
20.898
 70
192
 0
VERTEX
 8
MANOPOLA_4
 10
46.99
 20
3.6012
 30
20.898
 70
192
 0
VERTEX
 8
MANOPOLA_4
 10
46.9898
 20
3.0955
 30
20.898
 70
192
 0
VERTEX
 8
MANOPOLA_4
 10
46.6257
 20
2.6753
 30
20.898
 70
192
 0
VERTEX
 8
MANOPOLA_4
 10
46.158
 20
2.3748
 30
20.898
 70
192
 0
VERTEX
 8
MANOPOLA_4
 10
45.6246
 20
2.2181
 30
20.898
 70
192
 0
VERTEX
 8
MANOPOLA_4
 10
45.0687
 20
2.2181
 30
20.898
 70
192
 0
VERTEX
 8
MANOPOLA_4
 10
44.5353
 20
2.3748
 30
20.898
 70
192
 0
VERTEX
 8
MANOPOLA_4
 10
44.0676
 20
2.6753
 30
20.898
 70
192
 0
VERTEX
 8
MANOPOLA_4
 10
43.7036
 20
3.0955
 30
20.898
 70
192
 0
VERTEX
 8
MANOPOLA_4
 10
43.704
 20
3.6012
 30
20.898
 70
192
 0
VERTEX
 8
MANOPOLA_4
 10
43.704
 20
4.1514
 30
20.898
 70
192
 0
VERTEX
 8
MANOPOLA_4
 10
43.704
 20
4.7017
 30
20.898
 70
192
 0
VERTEX
 8
MANOPOLA_4
 10
43.7036
 20
5.2074
 30
20.898
 70
192
 0
VERTEX
 8
MANOPOLA_4
 10
44.0676
 20
5.6275
 30
20.898
 70
192
 0
VERTEX
 8
MANOPOLA_4
 10
44.5353
 20
5.9281
 30
20.898
 70
192
 0
VERTEX
 8
MANOPOLA_4
 10
45.0687
 20
6.0847
 30
20.898
 70
192
 0
VERTEX
 8
MANOPOLA_4
 10
45.6246
 20
6.0847
 30
20.898
 70
192
 0
VERTEX
 8
MANOPOLA_4
 10
46.158
 20
5.9281
 30
20.898
 70
192
 0
VERTEX
 8
MANOPOLA_4
 10
46.6257
 20
5.6275
 30
20.898
 70
192
 0
VERTEX
 8
MANOPOLA_4
 10
46.9898
 20
5.2074
 30
20.898
 70
192
 0
VERTEX
 8
MANOPOLA_4
 10
46.99
 20
4.7017
 30
20.898
 70
192
 0
VERTEX
 8
MANOPOLA_4
 10
46.99
 20
4.1514
 30
22.1002
 70
192
 0
VERTEX
 8
MANOPOLA_4
 10
46.99
 20
3.6012
 30
22.1002
 70
192
 0
VERTEX
 8
MANOPOLA_4
 10
46.9898
 20
3.0955
 30
22.1002
 70
192
 0
VERTEX
 8
MANOPOLA_4
 10
46.6257
 20
2.6753
 30
22.1002
 70
192
 0
VERTEX
 8
MANOPOLA_4
 10
46.158
 20
2.3748
 30
22.1002
 70
192
 0
VERTEX
 8
MANOPOLA_4
 10
45.6246
 20
2.2181
 30
22.1002
 70
192
 0
VERTEX
 8
MANOPOLA_4
 10
45.0687
 20
2.2181
 30
22.1002
 70
192
 0
VERTEX
 8
MANOPOLA_4
 10
44.5353
 20
2.3748
 30
22.1002
 70
192
 0
VERTEX
 8
MANOPOLA_4
 10
44.0676
 20
2.6753
 30
22.1002
 70
192
 0
VERTEX
 8
MANOPOLA_4
 10
43.7036
 20
3.0955
 30
22.1002
 70
192
 0
VERTEX
 8
MANOPOLA_4
 10
43.704
 20
3.6012
 30
22.1002
 70
192
 0
VERTEX
 8
MANOPOLA_4
 10
43.704
 20
4.1514
 30
22.1002
 70
192
 0
VERTEX
 8
MANOPOLA_4
 10
43.704
 20
4.7017
 30
22.1002
 70
192
 0
VERTEX
 8
MANOPOLA_4
 10
43.7036
 20
5.2074
 30
22.1002
 70
192
 0
VERTEX
 8
MANOPOLA_4
 10
44.0676
 20
5.6275
 30
22.1002
 70
192
 0
VERTEX
 8
MANOPOLA_4
 10
44.5353
 20
5.9281
 30
22.1002
 70
192
 0
VERTEX
 8
MANOPOLA_4
 10
45.0687
 20
6.0847
 30
22.1002
 70
192
 0
VERTEX
 8
MANOPOLA_4
 10
45.6246
 20
6.0847
 30
22.1002
 70
192
 0
VERTEX
 8
MANOPOLA_4
 10
46.158
 20
5.9281
 30
22.1002
 70
192
 0
VERTEX
 8
MANOPOLA_4
 10
46.6257
 20
5.6275
 30
22.1002
 70
192
 0
VERTEX
 8
MANOPOLA_4
 10
46.9898
 20
5.2074
 30
22.1002
 70
192
 0
VERTEX
 8
MANOPOLA_4
 10
46.99
 20
4.7017
 30
22.1002
 70
192
 0
VERTEX
 8
MANOPOLA_4
 10
46.99
 20
4.1514
 30
22.1399
 70
192
 0
VERTEX
 8
MANOPOLA_4
 10
46.99
 20
3.6012
 30
22.1399
 70
192
 0
VERTEX
 8
MANOPOLA_4
 10
46.9898
 20
3.0955
 30
22.1399
 70
192
 0
VERTEX
 8
MANOPOLA_4
 10
46.6257
 20
2.6753
 30
22.1399
 70
192
 0
VERTEX
 8
MANOPOLA_4
 10
46.158
 20
2.3748
 30
22.1399
 70
192
 0
VERTEX
 8
MANOPOLA_4
 10
45.6246
 20
2.2181
 30
22.1399
 70
192
 0
VERTEX
 8
MANOPOLA_4
 10
45.0687
 20
2.2181
 30
22.1399
 70
192
 0
VERTEX
 8
MANOPOLA_4
 10
44.5353
 20
2.3748
 30
22.1399
 70
192
 0
VERTEX
 8
MANOPOLA_4
 10
44.0676
 20
2.6753
 30
22.1399
 70
192
 0
VERTEX
 8
MANOPOLA_4
 10
43.7036
 20
3.0955
 30
22.1399
 70
192
 0
VERTEX
 8
MANOPOLA_4
 10
43.704
 20
3.6012
 30
22.1399
 70
192
 0
VERTEX
 8
MANOPOLA_4
 10
43.704
 20
4.1514
 30
22.1399
 70
192
 0
VERTEX
 8
MANOPOLA_4
 10
43.704
 20
4.7017
 30
22.1399
 70
192
 0
VERTEX
 8
MANOPOLA_4
 10
43.7036
 20
5.2074
 30
22.1399
 70
192
 0
VERTEX
 8
MANOPOLA_4
 10
44.0676
 20
5.6275
 30
22.1399
 70
192
 0
VERTEX
 8
MANOPOLA_4
 10
44.5353
 20
5.9281
 30
22.1399
 70
192
 0
VERTEX
 8
MANOPOLA_4
 10
45.0687
 20
6.0847
 30
22.1399
 70
192
 0
VERTEX
 8
MANOPOLA_4
 10
45.6246
 20
6.0847
 30
22.1399
 70
192
 0
VERTEX
 8
MANOPOLA_4
 10
46.158
 20
5.9281
 30
22.1399
 70
192
 0
VERTEX
 8
MANOPOLA_4
 10
46.6257
 20
5.6275
 30
22.1399
 70
192
 0
VERTEX
 8
MANOPOLA_4
 10
46.9898
 20
5.2074
 30
22.1399
 70
192
 0
VERTEX
 8
MANOPOLA_4
 10
46.99
 20
4.7017
 30
22.1399
 70
192
 0
VERTEX
 8
MANOPOLA_4
 10
46.9778
 20
4.1514
 30
22.1849
 70
192
 0
VERTEX
 8
MANOPOLA_4
 10
46.9784
 20
3.6723
 30
22.1849
 70
192
 0
VERTEX
 8
MANOPOLA_4
 10
46.7773
 20
3.232
 30
22.1849
 70
192
 0
VERTEX
 8
MANOPOLA_4
 10
46.4603
 20
2.8662
 30
22.1849
 70
192
 0
VERTEX
 8
MANOPOLA_4
 10
46.0531
 20
2.6045
 30
22.1849
 70
192
 0
VERTEX
 8
MANOPOLA_4
 10
45.5887
 20
2.4681
 30
22.1849
 70
192
 0
VERTEX
 8
MANOPOLA_4
 10
45.1047
 20
2.4681
 30
22.1849
 70
192
 0
VERTEX
 8
MANOPOLA_4
 10
44.6402
 20
2.6045
 30
22.1849
 70
192
 0
VERTEX
 8
MANOPOLA_4
 10
44.233
 20
2.8662
 30
22.1849
 70
192
 0
VERTEX
 8
MANOPOLA_4
 10
43.9161
 20
3.232
 30
22.1849
 70
192
 0
VERTEX
 8
MANOPOLA_4
 10
43.715
 20
3.6723
 30
22.1849
 70
192
 0
VERTEX
 8
MANOPOLA_4
 10
43.7174
 20
4.1514
 30
22.1849
 70
192
 0
VERTEX
 8
MANOPOLA_4
 10
43.715
 20
4.6305
 30
22.1849
 70
192
 0
VERTEX
 8
MANOPOLA_4
 10
43.9161
 20
5.0708
 30
22.1849
 70
192
 0
VERTEX
 8
MANOPOLA_4
 10
44.233
 20
5.4366
 30
22.1849
 70
192
 0
VERTEX
 8
MANOPOLA_4
 10
44.6402
 20
5.6983
 30
22.1849
 70
192
 0
VERTEX
 8
MANOPOLA_4
 10
45.1047
 20
5.8347
 30
22.1849
 70
192
 0
VERTEX
 8
MANOPOLA_4
 10
45.5887
 20
5.8347
 30
22.1849
 70
192
 0
VERTEX
 8
MANOPOLA_4
 10
46.0531
 20
5.6983
 30
22.1849
 70
192
 0
VERTEX
 8
MANOPOLA_4
 10
46.4603
 20
5.4366
 30
22.1849
 70
192
 0
VERTEX
 8
MANOPOLA_4
 10
46.7773
 20
5.0708
 30
22.1849
 70
192
 0
VERTEX
 8
MANOPOLA_4
 10
46.9784
 20
4.6305
 30
22.1849
 70
192
 0
VERTEX
 8
MANOPOLA_4
 10
45.1087
 20
6.0847
 30
20.938
 70
192
 0
VERTEX
 8
MANOPOLA_4
 10
45.5846
 20
6.0847
 30
20.938
 70
192
 0
VERTEX
 8
MANOPOLA_4
 10
45.1087
 20
5.9201
 30
21.8927
 70
192
 0
VERTEX
 8
MANOPOLA_4
 10
45.5846
 20
5.9201
 30
21.8927
 70
192
 0
VERTEX
 8
MANOPOLA_4
 10
45.1087
 20
5.8734
 30
22.0946
 70
192
 0
VERTEX
 8
MANOPOLA_4
 10
45.5846
 20
5.8734
 30
22.0946
 70
192
 0
VERTEX
 8
MANOPOLA_4
 10
45.1149
 20
5.8702
 30
22.1795
 70
192
 0
VERTEX
 8
MANOPOLA_4
 10
45.5785
 20
5.8702
 30
22.1795
 70
192
 0
VERTEX
 8
MANOPOLA_4
 10
45.1393
 20
5.8555
 30
22.1693
 70
192
 0
VERTEX
 8
MANOPOLA_4
 10
45.554
 20
5.8555
 30
22.1693
 70
192
 0
VERTEX
 8
MANOPOLA_4
 10
45.5844
 20
5.862
 30
22.1352
 70
192
 0
VERTEX
 8
MANOPOLA_4
 10
45.1085
 20
5.862
 30
22.1352
 70
192
 0
VERTEX
 8
MANOPOLA_4
 10
46.0778
 20
4.1514
 30
22.35
 70
192
 0
VERTEX
 8
MANOPOLA_4
 10
46.0781
 20
3.8676
 30
22.35
 70
192
 0
VERTEX
 8
MANOPOLA_4
 10
46.0124
 20
3.7236
 30
22.35
 70
192
 0
VERTEX
 8
MANOPOLA_4
 10
45.8649
 20
3.5534
 30
22.35
 70
192
 0
VERTEX
 8
MANOPOLA_4
 10
45.6754
 20
3.4316
 30
22.35
 70
192
 0
VERTEX
 8
MANOPOLA_4
 10
45.4593
 20
3.3681
 30
22.35
 70
192
 0
VERTEX
 8
MANOPOLA_4
 10
45.2341
 20
3.3681
 30
22.35
 70
192
 0
VERTEX
 8
MANOPOLA_4
 10
45.018
 20
3.4316
 30
22.35
 70
192
 0
VERTEX
 8
MANOPOLA_4
 10
44.8285
 20
3.5534
 30
22.35
 70
192
 0
VERTEX
 8
MANOPOLA_4
 10
44.681
 20
3.7236
 30
22.35
 70
192
 0
VERTEX
 8
MANOPOLA_4
 10
44.616
 20
3.8659
 30
22.35
 70
192
 0
VERTEX
 8
MANOPOLA_4
 10
44.6174
 20
4.1514
 30
22.35
 70
192
 0
VERTEX
 8
MANOPOLA_4
 10
44.616
 20
4.4369
 30
22.35
 70
192
 0
VERTEX
 8
MANOPOLA_4
 10
44.681
 20
4.5792
 30
22.35
 70
192
 0
VERTEX
 8
MANOPOLA_4
 10
44.8285
 20
4.7495
 30
22.35
 70
192
 0
VERTEX
 8
MANOPOLA_4
 10
45.018
 20
4.8712
 30
22.35
 70
192
 0
VERTEX
 8
MANOPOLA_4
 10
45.2341
 20
4.9347
 30
22.35
 70
192
 0
VERTEX
 8
MANOPOLA_4
 10
45.4593
 20
4.9347
 30
22.35
 70
192
 0
VERTEX
 8
MANOPOLA_4
 10
45.6754
 20
4.8712
 30
22.35
 70
192
 0
VERTEX
 8
MANOPOLA_4
 10
45.8649
 20
4.7495
 30
22.35
 70
192
 0
VERTEX
 8
MANOPOLA_4
 10
46.0124
 20
4.5792
 30
22.35
 70
192
 0
VERTEX
 8
MANOPOLA_4
 10
46.0781
 20
4.4353
 30
22.35
 70
192
 0
VERTEX
 8
MANOPOLA_4
 10
46.9866
 20
4.1514
 30
19.4
 70
192
 0
VERTEX
 8
MANOPOLA_4
 10
46.9202
 20
3.6894
 30
19.4
 70
192
 0
VERTEX
 8
MANOPOLA_4
 10
46.7263
 20
3.2648
 30
19.4
 70
192
 0
VERTEX
 8
MANOPOLA_4
 10
46.4206
 20
2.912
 30
19.4
 70
192
 0
VERTEX
 8
MANOPOLA_4
 10
46.0279
 20
2.6597
 30
19.4
 70
192
 0
VERTEX
 8
MANOPOLA_4
 10
45.5801
 20
2.5281
 30
19.4
 70
192
 0
VERTEX
 8
MANOPOLA_4
 10
45.1133
 20
2.5281
 30
19.4
 70
192
 0
VERTEX
 8
MANOPOLA_4
 10
44.6654
 20
2.6597
 30
19.4
 70
192
 0
VERTEX
 8
MANOPOLA_4
 10
44.2727
 20
2.912
 30
19.4
 70
192
 0
VERTEX
 8
MANOPOLA_4
 10
43.9671
 20
3.2648
 30
19.4
 70
192
 0
VERTEX
 8
MANOPOLA_4
 10
43.7731
 20
3.6894
 30
19.4
 70
192
 0
VERTEX
 8
MANOPOLA_4
 10
43.7067
 20
4.1514
 30
19.4
 70
192
 0
VERTEX
 8
MANOPOLA_4
 10
43.7731
 20
4.6134
 30
19.4
 70
192
 0
VERTEX
 8
MANOPOLA_4
 10
43.9671
 20
5.038
 30
19.4
 70
192
 0
VERTEX
 8
MANOPOLA_4
 10
44.2727
 20
5.3908
 30
19.4
 70
192
 0
VERTEX
 8
MANOPOLA_4
 10
44.6654
 20
5.6432
 30
19.4
 70
192
 0
VERTEX
 8
MANOPOLA_4
 10
45.1133
 20
5.7747
 30
19.4
 70
192
 0
VERTEX
 8
MANOPOLA_4
 10
45.5801
 20
5.7747
 30
19.4
 70
192
 0
VERTEX
 8
MANOPOLA_4
 10
46.0279
 20
5.6432
 30
19.4
 70
192
 0
VERTEX
 8
MANOPOLA_4
 10
46.4206
 20
5.3908
 30
19.4
 70
192
 0
VERTEX
 8
MANOPOLA_4
 10
46.7263
 20
5.038
 30
19.4
 70
192
 0
VERTEX
 8
MANOPOLA_4
 10
46.9202
 20
4.6134
 30
19.4
 70
192
 0
VERTEX
 8
MANOPOLA_4
 10
46.9866
 20
4.1514
 30
18.8896
 70
192
 0
VERTEX
 8
MANOPOLA_4
 10
46.9202
 20
3.6894
 30
18.8896
 70
192
 0
VERTEX
 8
MANOPOLA_4
 10
46.7263
 20
3.2648
 30
18.8896
 70
192
 0
VERTEX
 8
MANOPOLA_4
 10
46.4206
 20
2.912
 30
18.8896
 70
192
 0
VERTEX
 8
MANOPOLA_4
 10
46.0279
 20
2.6597
 30
18.8896
 70
192
 0
VERTEX
 8
MANOPOLA_4
 10
45.5801
 20
2.5281
 30
18.8896
 70
192
 0
VERTEX
 8
MANOPOLA_4
 10
45.1133
 20
2.5281
 30
18.8896
 70
192
 0
VERTEX
 8
MANOPOLA_4
 10
44.6654
 20
2.6597
 30
18.8896
 70
192
 0
VERTEX
 8
MANOPOLA_4
 10
44.2727
 20
2.912
 30
18.8896
 70
192
 0
VERTEX
 8
MANOPOLA_4
 10
43.9671
 20
3.2648
 30
18.8896
 70
192
 0
VERTEX
 8
MANOPOLA_4
 10
43.7731
 20
3.6894
 30
18.8896
 70
192
 0
VERTEX
 8
MANOPOLA_4
 10
43.7067
 20
4.1514
 30
18.8896
 70
192
 0
VERTEX
 8
MANOPOLA_4
 10
43.7731
 20
4.6134
 30
18.8896
 70
192
 0
VERTEX
 8
MANOPOLA_4
 10
43.9671
 20
5.038
 30
18.8896
 70
192
 0
VERTEX
 8
MANOPOLA_4
 10
44.2727
 20
5.3908
 30
18.8896
 70
192
 0
VERTEX
 8
MANOPOLA_4
 10
44.6654
 20
5.6432
 30
18.8896
 70
192
 0
VERTEX
 8
MANOPOLA_4
 10
45.1133
 20
5.7747
 30
18.8896
 70
192
 0
VERTEX
 8
MANOPOLA_4
 10
45.5801
 20
5.7747
 30
18.8896
 70
192
 0
VERTEX
 8
MANOPOLA_4
 10
46.0279
 20
5.6432
 30
18.8896
 70
192
 0
VERTEX
 8
MANOPOLA_4
 10
46.4206
 20
5.3908
 30
18.8896
 70
192
 0
VERTEX
 8
MANOPOLA_4
 10
46.7263
 20
5.038
 30
18.8896
 70
192
 0
VERTEX
 8
MANOPOLA_4
 10
46.9202
 20
4.6134
 30
18.8896
 70
192
 0
VERTEX
 8
MANOPOLA_4
 10
0
 20
0
 30
0
 70
128
 71
1
 72
169
 73
170
 74
170
 0
VERTEX
 8
MANOPOLA_4
 10
0
 20
0
 30
0
 70
128
 71
3
 72
4
 73
6
 74
5
 0
VERTEX
 8
MANOPOLA_4
 10
0
 20
0
 30
0
 70
128
 71
213
 72
2
 73
214
 74
214
 0
VERTEX
 8
MANOPOLA_4
 10
0
 20
0
 30
0
 70
128
 71
1
 72
170
 73
171
 74
171
 0
VERTEX
 8
MANOPOLA_4
 10
0
 20
0
 30
0
 70
128
 71
5
 72
6
 73
8
 74
7
 0
VERTEX
 8
MANOPOLA_4
 10
0
 20
0
 30
0
 70
128
 71
214
 72
2
 73
215
 74
215
 0
VERTEX
 8
MANOPOLA_4
 10
0
 20
0
 30
0
 70
128
 71
1
 72
171
 73
172
 74
172
 0
VERTEX
 8
MANOPOLA_4
 10
0
 20
0
 30
0
 70
128
 71
7
 72
8
 73
10
 74
9
 0
VERTEX
 8
MANOPOLA_4
 10
0
 20
0
 30
0
 70
128
 71
215
 72
2
 73
216
 74
216
 0
VERTEX
 8
MANOPOLA_4
 10
0
 20
0
 30
0
 70
128
 71
1
 72
172
 73
173
 74
173
 0
VERTEX
 8
MANOPOLA_4
 10
0
 20
0
 30
0
 70
128
 71
9
 72
10
 73
12
 74
11
 0
VERTEX
 8
MANOPOLA_4
 10
0
 20
0
 30
0
 70
128
 71
216
 72
2
 73
217
 74
217
 0
VERTEX
 8
MANOPOLA_4
 10
0
 20
0
 30
0
 70
128
 71
1
 72
173
 73
174
 74
174
 0
VERTEX
 8
MANOPOLA_4
 10
0
 20
0
 30
0
 70
128
 71
11
 72
12
 73
14
 74
13
 0
VERTEX
 8
MANOPOLA_4
 10
0
 20
0
 30
0
 70
128
 71
217
 72
2
 73
218
 74
218
 0
VERTEX
 8
MANOPOLA_4
 10
0
 20
0
 30
0
 70
128
 71
1
 72
174
 73
175
 74
175
 0
VERTEX
 8
MANOPOLA_4
 10
0
 20
0
 30
0
 70
128
 71
13
 72
14
 73
16
 74
15
 0
VERTEX
 8
MANOPOLA_4
 10
0
 20
0
 30
0
 70
128
 71
218
 72
2
 73
219
 74
219
 0
VERTEX
 8
MANOPOLA_4
 10
0
 20
0
 30
0
 70
128
 71
1
 72
175
 73
176
 74
176
 0
VERTEX
 8
MANOPOLA_4
 10
0
 20
0
 30
0
 70
128
 71
15
 72
16
 73
18
 74
17
 0
VERTEX
 8
MANOPOLA_4
 10
0
 20
0
 30
0
 70
128
 71
219
 72
2
 73
220
 74
220
 0
VERTEX
 8
MANOPOLA_4
 10
0
 20
0
 30
0
 70
128
 71
1
 72
176
 73
177
 74
177
 0
VERTEX
 8
MANOPOLA_4
 10
0
 20
0
 30
0
 70
128
 71
17
 72
18
 73
20
 74
19
 0
VERTEX
 8
MANOPOLA_4
 10
0
 20
0
 30
0
 70
128
 71
220
 72
2
 73
221
 74
221
 0
VERTEX
 8
MANOPOLA_4
 10
0
 20
0
 30
0
 70
128
 71
1
 72
177
 73
178
 74
178
 0
VERTEX
 8
MANOPOLA_4
 10
0
 20
0
 30
0
 70
128
 71
19
 72
20
 73
22
 74
21
 0
VERTEX
 8
MANOPOLA_4
 10
0
 20
0
 30
0
 70
128
 71
221
 72
2
 73
222
 74
222
 0
VERTEX
 8
MANOPOLA_4
 10
0
 20
0
 30
0
 70
128
 71
1
 72
178
 73
179
 74
179
 0
VERTEX
 8
MANOPOLA_4
 10
0
 20
0
 30
0
 70
128
 71
21
 72
22
 73
24
 74
23
 0
VERTEX
 8
MANOPOLA_4
 10
0
 20
0
 30
0
 70
128
 71
222
 72
2
 73
223
 74
223
 0
VERTEX
 8
MANOPOLA_4
 10
0
 20
0
 30
0
 70
128
 71
1
 72
179
 73
180
 74
180
 0
VERTEX
 8
MANOPOLA_4
 10
0
 20
0
 30
0
 70
128
 71
23
 72
24
 73
26
 74
25
 0
VERTEX
 8
MANOPOLA_4
 10
0
 20
0
 30
0
 70
128
 71
223
 72
2
 73
224
 74
224
 0
VERTEX
 8
MANOPOLA_4
 10
0
 20
0
 30
0
 70
128
 71
1
 72
180
 73
181
 74
181
 0
VERTEX
 8
MANOPOLA_4
 10
0
 20
0
 30
0
 70
128
 71
25
 72
26
 73
28
 74
27
 0
VERTEX
 8
MANOPOLA_4
 10
0
 20
0
 30
0
 70
128
 71
224
 72
2
 73
225
 74
225
 0
VERTEX
 8
MANOPOLA_4
 10
0
 20
0
 30
0
 70
128
 71
1
 72
181
 73
182
 74
182
 0
VERTEX
 8
MANOPOLA_4
 10
0
 20
0
 30
0
 70
128
 71
27
 72
28
 73
30
 74
29
 0
VERTEX
 8
MANOPOLA_4
 10
0
 20
0
 30
0
 70
128
 71
225
 72
2
 73
226
 74
226
 0
VERTEX
 8
MANOPOLA_4
 10
0
 20
0
 30
0
 70
128
 71
1
 72
182
 73
183
 74
183
 0
VERTEX
 8
MANOPOLA_4
 10
0
 20
0
 30
0
 70
128
 71
29
 72
30
 73
32
 74
31
 0
VERTEX
 8
MANOPOLA_4
 10
0
 20
0
 30
0
 70
128
 71
226
 72
2
 73
227
 74
227
 0
VERTEX
 8
MANOPOLA_4
 10
0
 20
0
 30
0
 70
128
 71
1
 72
183
 73
184
 74
184
 0
VERTEX
 8
MANOPOLA_4
 10
0
 20
0
 30
0
 70
128
 71
31
 72
32
 73
34
 74
33
 0
VERTEX
 8
MANOPOLA_4
 10
0
 20
0
 30
0
 70
128
 71
227
 72
2
 73
228
 74
228
 0
VERTEX
 8
MANOPOLA_4
 10
0
 20
0
 30
0
 70
128
 71
1
 72
184
 73
185
 74
185
 0
VERTEX
 8
MANOPOLA_4
 10
0
 20
0
 30
0
 70
128
 71
33
 72
34
 73
36
 74
35
 0
VERTEX
 8
MANOPOLA_4
 10
0
 20
0
 30
0
 70
128
 71
228
 72
2
 73
229
 74
229
 0
VERTEX
 8
MANOPOLA_4
 10
0
 20
0
 30
0
 70
128
 71
1
 72
185
 73
186
 74
186
 0
VERTEX
 8
MANOPOLA_4
 10
0
 20
0
 30
0
 70
128
 71
35
 72
36
 73
38
 74
37
 0
VERTEX
 8
MANOPOLA_4
 10
0
 20
0
 30
0
 70
128
 71
229
 72
2
 73
230
 74
230
 0
VERTEX
 8
MANOPOLA_4
 10
0
 20
0
 30
0
 70
128
 71
1
 72
186
 73
187
 74
187
 0
VERTEX
 8
MANOPOLA_4
 10
0
 20
0
 30
0
 70
128
 71
37
 72
38
 73
40
 74
39
 0
VERTEX
 8
MANOPOLA_4
 10
0
 20
0
 30
0
 70
128
 71
230
 72
2
 73
231
 74
231
 0
VERTEX
 8
MANOPOLA_4
 10
0
 20
0
 30
0
 70
128
 71
1
 72
187
 73
188
 74
188
 0
VERTEX
 8
MANOPOLA_4
 10
0
 20
0
 30
0
 70
128
 71
39
 72
40
 73
42
 74
41
 0
VERTEX
 8
MANOPOLA_4
 10
0
 20
0
 30
0
 70
128
 71
231
 72
2
 73
232
 74
232
 0
VERTEX
 8
MANOPOLA_4
 10
0
 20
0
 30
0
 70
128
 71
1
 72
188
 73
189
 74
189
 0
VERTEX
 8
MANOPOLA_4
 10
0
 20
0
 30
0
 70
128
 71
41
 72
42
 73
44
 74
43
 0
VERTEX
 8
MANOPOLA_4
 10
0
 20
0
 30
0
 70
128
 71
232
 72
2
 73
233
 74
233
 0
VERTEX
 8
MANOPOLA_4
 10
0
 20
0
 30
0
 70
128
 71
1
 72
189
 73
190
 74
190
 0
VERTEX
 8
MANOPOLA_4
 10
0
 20
0
 30
0
 70
128
 71
43
 72
44
 73
46
 74
45
 0
VERTEX
 8
MANOPOLA_4
 10
0
 20
0
 30
0
 70
128
 71
233
 72
2
 73
234
 74
234
 0
VERTEX
 8
MANOPOLA_4
 10
0
 20
0
 30
0
 70
128
 71
1
 72
190
 73
169
 74
169
 0
VERTEX
 8
MANOPOLA_4
 10
0
 20
0
 30
0
 70
128
 71
45
 72
46
 73
4
 74
3
 0
VERTEX
 8
MANOPOLA_4
 10
0
 20
0
 30
0
 70
128
 71
234
 72
2
 73
213
 74
213
 0
VERTEX
 8
MANOPOLA_4
 10
0
 20
0
 30
0
 70
128
 71
47
 72
3
 73
5
 74
48
 0
VERTEX
 8
MANOPOLA_4
 10
0
 20
0
 30
0
 70
128
 71
48
 72
5
 73
7
 74
49
 0
VERTEX
 8
MANOPOLA_4
 10
0
 20
0
 30
0
 70
128
 71
49
 72
7
 73
9
 74
50
 0
VERTEX
 8
MANOPOLA_4
 10
0
 20
0
 30
0
 70
128
 71
50
 72
9
 73
11
 74
51
 0
VERTEX
 8
MANOPOLA_4
 10
0
 20
0
 30
0
 70
128
 71
51
 72
11
 73
13
 74
52
 0
VERTEX
 8
MANOPOLA_4
 10
0
 20
0
 30
0
 70
128
 71
52
 72
13
 73
15
 74
53
 0
VERTEX
 8
MANOPOLA_4
 10
0
 20
0
 30
0
 70
128
 71
53
 72
15
 73
17
 74
54
 0
VERTEX
 8
MANOPOLA_4
 10
0
 20
0
 30
0
 70
128
 71
54
 72
17
 73
19
 74
55
 0
VERTEX
 8
MANOPOLA_4
 10
0
 20
0
 30
0
 70
128
 71
55
 72
19
 73
21
 74
56
 0
VERTEX
 8
MANOPOLA_4
 10
0
 20
0
 30
0
 70
128
 71
56
 72
21
 73
23
 74
57
 0
VERTEX
 8
MANOPOLA_4
 10
0
 20
0
 30
0
 70
128
 71
57
 72
23
 73
25
 74
58
 0
VERTEX
 8
MANOPOLA_4
 10
0
 20
0
 30
0
 70
128
 71
58
 72
25
 73
27
 74
59
 0
VERTEX
 8
MANOPOLA_4
 10
0
 20
0
 30
0
 70
128
 71
59
 72
27
 73
29
 74
60
 0
VERTEX
 8
MANOPOLA_4
 10
0
 20
0
 30
0
 70
128
 71
60
 72
29
 73
31
 74
61
 0
VERTEX
 8
MANOPOLA_4
 10
0
 20
0
 30
0
 70
128
 71
61
 72
31
 73
33
 74
62
 0
VERTEX
 8
MANOPOLA_4
 10
0
 20
0
 30
0
 70
128
 71
62
 72
33
 73
35
 74
63
 0
VERTEX
 8
MANOPOLA_4
 10
0
 20
0
 30
0
 70
128
 71
63
 72
35
 73
37
 74
64
 0
VERTEX
 8
MANOPOLA_4
 10
0
 20
0
 30
0
 70
128
 71
64
 72
37
 73
39
 74
65
 0
VERTEX
 8
MANOPOLA_4
 10
0
 20
0
 30
0
 70
128
 71
65
 72
39
 73
41
 74
66
 0
VERTEX
 8
MANOPOLA_4
 10
0
 20
0
 30
0
 70
128
 71
66
 72
41
 73
43
 74
67
 0
VERTEX
 8
MANOPOLA_4
 10
0
 20
0
 30
0
 70
128
 71
67
 72
43
 73
45
 74
68
 0
VERTEX
 8
MANOPOLA_4
 10
0
 20
0
 30
0
 70
128
 71
68
 72
45
 73
3
 74
47
 0
VERTEX
 8
MANOPOLA_4
 10
0
 20
0
 30
0
 70
128
 71
69
 72
47
 73
48
 74
70
 0
VERTEX
 8
MANOPOLA_4
 10
0
 20
0
 30
0
 70
128
 71
70
 72
48
 73
49
 74
71
 0
VERTEX
 8
MANOPOLA_4
 10
0
 20
0
 30
0
 70
128
 71
71
 72
49
 73
50
 74
72
 0
VERTEX
 8
MANOPOLA_4
 10
0
 20
0
 30
0
 70
128
 71
72
 72
50
 73
51
 74
73
 0
VERTEX
 8
MANOPOLA_4
 10
0
 20
0
 30
0
 70
128
 71
73
 72
51
 73
52
 74
74
 0
VERTEX
 8
MANOPOLA_4
 10
0
 20
0
 30
0
 70
128
 71
74
 72
52
 73
53
 74
75
 0
VERTEX
 8
MANOPOLA_4
 10
0
 20
0
 30
0
 70
128
 71
75
 72
53
 73
54
 74
76
 0
VERTEX
 8
MANOPOLA_4
 10
0
 20
0
 30
0
 70
128
 71
76
 72
54
 73
55
 74
77
 0
VERTEX
 8
MANOPOLA_4
 10
0
 20
0
 30
0
 70
128
 71
77
 72
55
 73
56
 74
78
 0
VERTEX
 8
MANOPOLA_4
 10
0
 20
0
 30
0
 70
128
 71
78
 72
56
 73
57
 74
79
 0
VERTEX
 8
MANOPOLA_4
 10
0
 20
0
 30
0
 70
128
 71
79
 72
57
 73
58
 74
80
 0
VERTEX
 8
MANOPOLA_4
 10
0
 20
0
 30
0
 70
128
 71
80
 72
58
 73
59
 74
81
 0
VERTEX
 8
MANOPOLA_4
 10
0
 20
0
 30
0
 70
128
 71
81
 72
59
 73
60
 74
82
 0
VERTEX
 8
MANOPOLA_4
 10
0
 20
0
 30
0
 70
128
 71
82
 72
60
 73
61
 74
83
 0
VERTEX
 8
MANOPOLA_4
 10
0
 20
0
 30
0
 70
128
 71
83
 72
61
 73
62
 74
84
 0
VERTEX
 8
MANOPOLA_4
 10
0
 20
0
 30
0
 70
128
 71
84
 72
62
 73
63
 74
85
 0
VERTEX
 8
MANOPOLA_4
 10
0
 20
0
 30
0
 70
128
 71
85
 72
63
 73
64
 74
86
 0
VERTEX
 8
MANOPOLA_4
 10
0
 20
0
 30
0
 70
128
 71
86
 72
64
 73
65
 74
87
 0
VERTEX
 8
MANOPOLA_4
 10
0
 20
0
 30
0
 70
128
 71
87
 72
65
 73
66
 74
88
 0
VERTEX
 8
MANOPOLA_4
 10
0
 20
0
 30
0
 70
128
 71
88
 72
66
 73
67
 74
89
 0
VERTEX
 8
MANOPOLA_4
 10
0
 20
0
 30
0
 70
128
 71
89
 72
67
 73
68
 74
90
 0
VERTEX
 8
MANOPOLA_4
 10
0
 20
0
 30
0
 70
128
 71
90
 72
68
 73
47
 74
69
 0
VERTEX
 8
MANOPOLA_4
 10
0
 20
0
 30
0
 70
128
 71
91
 72
69
 73
70
 74
92
 0
VERTEX
 8
MANOPOLA_4
 10
0
 20
0
 30
0
 70
128
 71
92
 72
70
 73
71
 74
93
 0
VERTEX
 8
MANOPOLA_4
 10
0
 20
0
 30
0
 70
128
 71
93
 72
71
 73
72
 74
94
 0
VERTEX
 8
MANOPOLA_4
 10
0
 20
0
 30
0
 70
128
 71
94
 72
72
 73
73
 74
95
 0
VERTEX
 8
MANOPOLA_4
 10
0
 20
0
 30
0
 70
128
 71
95
 72
73
 73
74
 74
96
 0
VERTEX
 8
MANOPOLA_4
 10
0
 20
0
 30
0
 70
128
 71
96
 72
74
 73
75
 74
97
 0
VERTEX
 8
MANOPOLA_4
 10
0
 20
0
 30
0
 70
128
 71
97
 72
75
 73
76
 74
98
 0
VERTEX
 8
MANOPOLA_4
 10
0
 20
0
 30
0
 70
128
 71
98
 72
76
 73
77
 74
99
 0
VERTEX
 8
MANOPOLA_4
 10
0
 20
0
 30
0
 70
128
 71
99
 72
77
 73
78
 74
100
 0
VERTEX
 8
MANOPOLA_4
 10
0
 20
0
 30
0
 70
128
 71
100
 72
78
 73
79
 74
101
 0
VERTEX
 8
MANOPOLA_4
 10
0
 20
0
 30
0
 70
128
 71
101
 72
79
 73
80
 74
102
 0
VERTEX
 8
MANOPOLA_4
 10
0
 20
0
 30
0
 70
128
 71
102
 72
80
 73
81
 74
103
 0
VERTEX
 8
MANOPOLA_4
 10
0
 20
0
 30
0
 70
128
 71
103
 72
81
 73
82
 74
104
 0
VERTEX
 8
MANOPOLA_4
 10
0
 20
0
 30
0
 70
128
 71
104
 72
82
 73
83
 74
105
 0
VERTEX
 8
MANOPOLA_4
 10
0
 20
0
 30
0
 70
128
 71
105
 72
83
 73
84
 74
106
 0
VERTEX
 8
MANOPOLA_4
 10
0
 20
0
 30
0
 70
128
 71
106
 72
84
 73
85
 74
107
 0
VERTEX
 8
MANOPOLA_4
 10
0
 20
0
 30
0
 70
128
 71
159
 72
157
 73
158
 74
160
 0
VERTEX
 8
MANOPOLA_4
 10
0
 20
0
 30
0
 70
128
 71
108
 72
86
 73
87
 74
109
 0
VERTEX
 8
MANOPOLA_4
 10
0
 20
0
 30
0
 70
128
 71
109
 72
87
 73
88
 74
110
 0
VERTEX
 8
MANOPOLA_4
 10
0
 20
0
 30
0
 70
128
 71
110
 72
88
 73
89
 74
111
 0
VERTEX
 8
MANOPOLA_4
 10
0
 20
0
 30
0
 70
128
 71
111
 72
89
 73
90
 74
112
 0
VERTEX
 8
MANOPOLA_4
 10
0
 20
0
 30
0
 70
128
 71
112
 72
90
 73
69
 74
91
 0
VERTEX
 8
MANOPOLA_4
 10
0
 20
0
 30
0
 70
128
 71
113
 72
91
 73
92
 74
114
 0
VERTEX
 8
MANOPOLA_4
 10
0
 20
0
 30
0
 70
128
 71
114
 72
92
 73
93
 74
115
 0
VERTEX
 8
MANOPOLA_4
 10
0
 20
0
 30
0
 70
128
 71
115
 72
93
 73
94
 74
116
 0
VERTEX
 8
MANOPOLA_4
 10
0
 20
0
 30
0
 70
128
 71
116
 72
94
 73
95
 74
117
 0
VERTEX
 8
MANOPOLA_4
 10
0
 20
0
 30
0
 70
128
 71
117
 72
95
 73
96
 74
118
 0
VERTEX
 8
MANOPOLA_4
 10
0
 20
0
 30
0
 70
128
 71
118
 72
96
 73
97
 74
119
 0
VERTEX
 8
MANOPOLA_4
 10
0
 20
0
 30
0
 70
128
 71
119
 72
97
 73
98
 74
120
 0
VERTEX
 8
MANOPOLA_4
 10
0
 20
0
 30
0
 70
128
 71
120
 72
98
 73
99
 74
121
 0
VERTEX
 8
MANOPOLA_4
 10
0
 20
0
 30
0
 70
128
 71
121
 72
99
 73
100
 74
122
 0
VERTEX
 8
MANOPOLA_4
 10
0
 20
0
 30
0
 70
128
 71
122
 72
100
 73
101
 74
123
 0
VERTEX
 8
MANOPOLA_4
 10
0
 20
0
 30
0
 70
128
 71
123
 72
101
 73
102
 74
124
 0
VERTEX
 8
MANOPOLA_4
 10
0
 20
0
 30
0
 70
128
 71
124
 72
102
 73
103
 74
125
 0
VERTEX
 8
MANOPOLA_4
 10
0
 20
0
 30
0
 70
128
 71
125
 72
103
 73
104
 74
126
 0
VERTEX
 8
MANOPOLA_4
 10
0
 20
0
 30
0
 70
128
 71
126
 72
104
 73
105
 74
127
 0
VERTEX
 8
MANOPOLA_4
 10
0
 20
0
 30
0
 70
128
 71
127
 72
105
 73
106
 74
128
 0
VERTEX
 8
MANOPOLA_4
 10
0
 20
0
 30
0
 70
128
 71
128
 72
106
 73
107
 74
129
 0
VERTEX
 8
MANOPOLA_4
 10
0
 20
0
 30
0
 70
128
 71
161
 72
159
 73
160
 74
162
 0
VERTEX
 8
MANOPOLA_4
 10
0
 20
0
 30
0
 70
128
 71
130
 72
108
 73
109
 74
131
 0
VERTEX
 8
MANOPOLA_4
 10
0
 20
0
 30
0
 70
128
 71
131
 72
109
 73
110
 74
132
 0
VERTEX
 8
MANOPOLA_4
 10
0
 20
0
 30
0
 70
128
 71
132
 72
110
 73
111
 74
133
 0
VERTEX
 8
MANOPOLA_4
 10
0
 20
0
 30
0
 70
128
 71
133
 72
111
 73
112
 74
134
 0
VERTEX
 8
MANOPOLA_4
 10
0
 20
0
 30
0
 70
128
 71
134
 72
112
 73
91
 74
113
 0
VERTEX
 8
MANOPOLA_4
 10
0
 20
0
 30
0
 70
128
 71
135
 72
113
 73
114
 74
136
 0
VERTEX
 8
MANOPOLA_4
 10
0
 20
0
 30
0
 70
128
 71
136
 72
114
 73
115
 74
137
 0
VERTEX
 8
MANOPOLA_4
 10
0
 20
0
 30
0
 70
128
 71
137
 72
115
 73
116
 74
138
 0
VERTEX
 8
MANOPOLA_4
 10
0
 20
0
 30
0
 70
128
 71
138
 72
116
 73
117
 74
139
 0
VERTEX
 8
MANOPOLA_4
 10
0
 20
0
 30
0
 70
128
 71
139
 72
117
 73
118
 74
140
 0
VERTEX
 8
MANOPOLA_4
 10
0
 20
0
 30
0
 70
128
 71
140
 72
118
 73
119
 74
141
 0
VERTEX
 8
MANOPOLA_4
 10
0
 20
0
 30
0
 70
128
 71
141
 72
119
 73
120
 74
142
 0
VERTEX
 8
MANOPOLA_4
 10
0
 20
0
 30
0
 70
128
 71
142
 72
120
 73
121
 74
143
 0
VERTEX
 8
MANOPOLA_4
 10
0
 20
0
 30
0
 70
128
 71
143
 72
121
 73
122
 74
144
 0
VERTEX
 8
MANOPOLA_4
 10
0
 20
0
 30
0
 70
128
 71
144
 72
122
 73
123
 74
145
 0
VERTEX
 8
MANOPOLA_4
 10
0
 20
0
 30
0
 70
128
 71
145
 72
123
 73
124
 74
146
 0
VERTEX
 8
MANOPOLA_4
 10
0
 20
0
 30
0
 70
128
 71
146
 72
124
 73
125
 74
147
 0
VERTEX
 8
MANOPOLA_4
 10
0
 20
0
 30
0
 70
128
 71
147
 72
125
 73
126
 74
148
 0
VERTEX
 8
MANOPOLA_4
 10
0
 20
0
 30
0
 70
128
 71
148
 72
126
 73
127
 74
149
 0
VERTEX
 8
MANOPOLA_4
 10
0
 20
0
 30
0
 70
128
 71
149
 72
127
 73
128
 74
150
 0
VERTEX
 8
MANOPOLA_4
 10
0
 20
0
 30
0
 70
128
 71
150
 72
128
 73
129
 74
151
 0
VERTEX
 8
MANOPOLA_4
 10
0
 20
0
 30
0
 70
128
 71
165
 72
163
 73
164
 74
166
 0
VERTEX
 8
MANOPOLA_4
 10
0
 20
0
 30
0
 70
128
 71
152
 72
130
 73
131
 74
153
 0
VERTEX
 8
MANOPOLA_4
 10
0
 20
0
 30
0
 70
128
 71
153
 72
131
 73
132
 74
154
 0
VERTEX
 8
MANOPOLA_4
 10
0
 20
0
 30
0
 70
128
 71
154
 72
132
 73
133
 74
155
 0
VERTEX
 8
MANOPOLA_4
 10
0
 20
0
 30
0
 70
128
 71
155
 72
133
 73
134
 74
156
 0
VERTEX
 8
MANOPOLA_4
 10
0
 20
0
 30
0
 70
128
 71
156
 72
134
 73
113
 74
135
 0
VERTEX
 8
MANOPOLA_4
 10
0
 20
0
 30
0
 70
128
 71
159
 72
107
 73
85
 74
157
 0
VERTEX
 8
MANOPOLA_4
 10
0
 20
0
 30
0
 70
128
 71
157
 72
85
 73
86
 74
158
 0
VERTEX
 8
MANOPOLA_4
 10
0
 20
0
 30
0
 70
128
 71
158
 72
86
 73
108
 74
160
 0
VERTEX
 8
MANOPOLA_4
 10
0
 20
0
 30
0
 70
128
 71
161
 72
129
 73
107
 74
159
 0
VERTEX
 8
MANOPOLA_4
 10
0
 20
0
 30
0
 70
128
 71
160
 72
108
 73
130
 74
162
 0
VERTEX
 8
MANOPOLA_4
 10
0
 20
0
 30
0
 70
128
 71
168
 72
129
 73
161
 74
161
 0
VERTEX
 8
MANOPOLA_4
 10
0
 20
0
 30
0
 70
128
 71
165
 72
151
 73
129
 74
163
 0
VERTEX
 8
MANOPOLA_4
 10
0
 20
0
 30
0
 70
128
 71
167
 72
130
 73
164
 74
164
 0
VERTEX
 8
MANOPOLA_4
 10
0
 20
0
 30
0
 70
128
 71
164
 72
130
 73
152
 74
166
 0
VERTEX
 8
MANOPOLA_4
 10
0
 20
0
 30
0
 70
128
 71
166
 72
152
 73
151
 74
165
 0
VERTEX
 8
MANOPOLA_4
 10
0
 20
0
 30
0
 70
128
 71
162
 72
130
 73
167
 74
167
 0
VERTEX
 8
MANOPOLA_4
 10
0
 20
0
 30
0
 70
128
 71
163
 72
129
 73
168
 74
168
 0
VERTEX
 8
MANOPOLA_4
 10
0
 20
0
 30
0
 70
128
 71
167
 72
168
 73
161
 74
162
 0
VERTEX
 8
MANOPOLA_4
 10
0
 20
0
 30
0
 70
128
 71
168
 72
167
 73
164
 74
163
 0
VERTEX
 8
MANOPOLA_4
 10
0
 20
0
 30
0
 70
128
 71
169
 72
135
 73
136
 74
170
 0
VERTEX
 8
MANOPOLA_4
 10
0
 20
0
 30
0
 70
128
 71
170
 72
136
 73
137
 74
171
 0
VERTEX
 8
MANOPOLA_4
 10
0
 20
0
 30
0
 70
128
 71
171
 72
137
 73
138
 74
172
 0
VERTEX
 8
MANOPOLA_4
 10
0
 20
0
 30
0
 70
128
 71
172
 72
138
 73
139
 74
173
 0
VERTEX
 8
MANOPOLA_4
 10
0
 20
0
 30
0
 70
128
 71
173
 72
139
 73
140
 74
174
 0
VERTEX
 8
MANOPOLA_4
 10
0
 20
0
 30
0
 70
128
 71
174
 72
140
 73
141
 74
175
 0
VERTEX
 8
MANOPOLA_4
 10
0
 20
0
 30
0
 70
128
 71
175
 72
141
 73
142
 74
176
 0
VERTEX
 8
MANOPOLA_4
 10
0
 20
0
 30
0
 70
128
 71
176
 72
142
 73
143
 74
177
 0
VERTEX
 8
MANOPOLA_4
 10
0
 20
0
 30
0
 70
128
 71
177
 72
143
 73
144
 74
178
 0
VERTEX
 8
MANOPOLA_4
 10
0
 20
0
 30
0
 70
128
 71
178
 72
144
 73
145
 74
179
 0
VERTEX
 8
MANOPOLA_4
 10
0
 20
0
 30
0
 70
128
 71
179
 72
145
 73
146
 74
180
 0
VERTEX
 8
MANOPOLA_4
 10
0
 20
0
 30
0
 70
128
 71
180
 72
146
 73
147
 74
181
 0
VERTEX
 8
MANOPOLA_4
 10
0
 20
0
 30
0
 70
128
 71
181
 72
147
 73
148
 74
182
 0
VERTEX
 8
MANOPOLA_4
 10
0
 20
0
 30
0
 70
128
 71
182
 72
148
 73
149
 74
183
 0
VERTEX
 8
MANOPOLA_4
 10
0
 20
0
 30
0
 70
128
 71
183
 72
149
 73
150
 74
184
 0
VERTEX
 8
MANOPOLA_4
 10
0
 20
0
 30
0
 70
128
 71
184
 72
150
 73
151
 74
185
 0
VERTEX
 8
MANOPOLA_4
 10
0
 20
0
 30
0
 70
128
 71
185
 72
151
 73
152
 74
186
 0
VERTEX
 8
MANOPOLA_4
 10
0
 20
0
 30
0
 70
128
 71
186
 72
152
 73
153
 74
187
 0
VERTEX
 8
MANOPOLA_4
 10
0
 20
0
 30
0
 70
128
 71
187
 72
153
 73
154
 74
188
 0
VERTEX
 8
MANOPOLA_4
 10
0
 20
0
 30
0
 70
128
 71
188
 72
154
 73
155
 74
189
 0
VERTEX
 8
MANOPOLA_4
 10
0
 20
0
 30
0
 70
128
 71
189
 72
155
 73
156
 74
190
 0
VERTEX
 8
MANOPOLA_4
 10
0
 20
0
 30
0
 70
128
 71
190
 72
156
 73
135
 74
169
 0
VERTEX
 8
MANOPOLA_4
 10
0
 20
0
 30
0
 70
128
 71
192
 72
6
 73
4
 74
191
 0
VERTEX
 8
MANOPOLA_4
 10
0
 20
0
 30
0
 70
128
 71
193
 72
8
 73
6
 74
192
 0
VERTEX
 8
MANOPOLA_4
 10
0
 20
0
 30
0
 70
128
 71
194
 72
10
 73
8
 74
193
 0
VERTEX
 8
MANOPOLA_4
 10
0
 20
0
 30
0
 70
128
 71
195
 72
12
 73
10
 74
194
 0
VERTEX
 8
MANOPOLA_4
 10
0
 20
0
 30
0
 70
128
 71
196
 72
14
 73
12
 74
195
 0
VERTEX
 8
MANOPOLA_4
 10
0
 20
0
 30
0
 70
128
 71
197
 72
16
 73
14
 74
196
 0
VERTEX
 8
MANOPOLA_4
 10
0
 20
0
 30
0
 70
128
 71
198
 72
18
 73
16
 74
197
 0
VERTEX
 8
MANOPOLA_4
 10
0
 20
0
 30
0
 70
128
 71
199
 72
20
 73
18
 74
198
 0
VERTEX
 8
MANOPOLA_4
 10
0
 20
0
 30
0
 70
128
 71
200
 72
22
 73
20
 74
199
 0
VERTEX
 8
MANOPOLA_4
 10
0
 20
0
 30
0
 70
128
 71
201
 72
24
 73
22
 74
200
 0
VERTEX
 8
MANOPOLA_4
 10
0
 20
0
 30
0
 70
128
 71
202
 72
26
 73
24
 74
201
 0
VERTEX
 8
MANOPOLA_4
 10
0
 20
0
 30
0
 70
128
 71
203
 72
28
 73
26
 74
202
 0
VERTEX
 8
MANOPOLA_4
 10
0
 20
0
 30
0
 70
128
 71
204
 72
30
 73
28
 74
203
 0
VERTEX
 8
MANOPOLA_4
 10
0
 20
0
 30
0
 70
128
 71
205
 72
32
 73
30
 74
204
 0
VERTEX
 8
MANOPOLA_4
 10
0
 20
0
 30
0
 70
128
 71
206
 72
34
 73
32
 74
205
 0
VERTEX
 8
MANOPOLA_4
 10
0
 20
0
 30
0
 70
128
 71
207
 72
36
 73
34
 74
206
 0
VERTEX
 8
MANOPOLA_4
 10
0
 20
0
 30
0
 70
128
 71
208
 72
38
 73
36
 74
207
 0
VERTEX
 8
MANOPOLA_4
 10
0
 20
0
 30
0
 70
128
 71
209
 72
40
 73
38
 74
208
 0
VERTEX
 8
MANOPOLA_4
 10
0
 20
0
 30
0
 70
128
 71
210
 72
42
 73
40
 74
209
 0
VERTEX
 8
MANOPOLA_4
 10
0
 20
0
 30
0
 70
128
 71
211
 72
44
 73
42
 74
210
 0
VERTEX
 8
MANOPOLA_4
 10
0
 20
0
 30
0
 70
128
 71
212
 72
46
 73
44
 74
211
 0
VERTEX
 8
MANOPOLA_4
 10
0
 20
0
 30
0
 70
128
 71
191
 72
4
 73
46
 74
212
 0
VERTEX
 8
MANOPOLA_4
 10
0
 20
0
 30
0
 70
128
 71
214
 72
192
 73
191
 74
213
 0
VERTEX
 8
MANOPOLA_4
 10
0
 20
0
 30
0
 70
128
 71
215
 72
193
 73
192
 74
214
 0
VERTEX
 8
MANOPOLA_4
 10
0
 20
0
 30
0
 70
128
 71
216
 72
194
 73
193
 74
215
 0
VERTEX
 8
MANOPOLA_4
 10
0
 20
0
 30
0
 70
128
 71
217
 72
195
 73
194
 74
216
 0
VERTEX
 8
MANOPOLA_4
 10
0
 20
0
 30
0
 70
128
 71
218
 72
196
 73
195
 74
217
 0
VERTEX
 8
MANOPOLA_4
 10
0
 20
0
 30
0
 70
128
 71
219
 72
197
 73
196
 74
218
 0
VERTEX
 8
MANOPOLA_4
 10
0
 20
0
 30
0
 70
128
 71
220
 72
198
 73
197
 74
219
 0
VERTEX
 8
MANOPOLA_4
 10
0
 20
0
 30
0
 70
128
 71
221
 72
199
 73
198
 74
220
 0
VERTEX
 8
MANOPOLA_4
 10
0
 20
0
 30
0
 70
128
 71
222
 72
200
 73
199
 74
221
 0
VERTEX
 8
MANOPOLA_4
 10
0
 20
0
 30
0
 70
128
 71
223
 72
201
 73
200
 74
222
 0
VERTEX
 8
MANOPOLA_4
 10
0
 20
0
 30
0
 70
128
 71
224
 72
202
 73
201
 74
223
 0
VERTEX
 8
MANOPOLA_4
 10
0
 20
0
 30
0
 70
128
 71
225
 72
203
 73
202
 74
224
 0
VERTEX
 8
MANOPOLA_4
 10
0
 20
0
 30
0
 70
128
 71
226
 72
204
 73
203
 74
225
 0
VERTEX
 8
MANOPOLA_4
 10
0
 20
0
 30
0
 70
128
 71
227
 72
205
 73
204
 74
226
 0
VERTEX
 8
MANOPOLA_4
 10
0
 20
0
 30
0
 70
128
 71
228
 72
206
 73
205
 74
227
 0
VERTEX
 8
MANOPOLA_4
 10
0
 20
0
 30
0
 70
128
 71
229
 72
207
 73
206
 74
228
 0
VERTEX
 8
MANOPOLA_4
 10
0
 20
0
 30
0
 70
128
 71
230
 72
208
 73
207
 74
229
 0
VERTEX
 8
MANOPOLA_4
 10
0
 20
0
 30
0
 70
128
 71
231
 72
209
 73
208
 74
230
 0
VERTEX
 8
MANOPOLA_4
 10
0
 20
0
 30
0
 70
128
 71
232
 72
210
 73
209
 74
231
 0
VERTEX
 8
MANOPOLA_4
 10
0
 20
0
 30
0
 70
128
 71
233
 72
211
 73
210
 74
232
 0
VERTEX
 8
MANOPOLA_4
 10
0
 20
0
 30
0
 70
128
 71
234
 72
212
 73
211
 74
233
 0
VERTEX
 8
MANOPOLA_4
 10
0
 20
0
 30
0
 70
128
 71
213
 72
191
 73
212
 74
234
 0
SEQEND
 0
POLYLINE
 8
MANOPOLA_3
 66
1
 10
0.0
 20
0.0
 30
0.0
 70
64
 71
234
 72
256
 0
VERTEX
 8
MANOPOLA_3
 10
45.3467
 20
-3.8484
 30
22.35
 70
192
 0
VERTEX
 8
MANOPOLA_3
 10
45.3467
 20
-3.8484
 30
18.8896
 70
192
 0
VERTEX
 8
MANOPOLA_3
 10
47.3503
 20
-3.8484
 30
19.7912
 70
192
 0
VERTEX
 8
MANOPOLA_3
 10
47.3503
 20
-3.8484
 30
19.4
 70
192
 0
VERTEX
 8
MANOPOLA_3
 10
47.2692
 20
-4.4129
 30
19.7912
 70
192
 0
VERTEX
 8
MANOPOLA_3
 10
47.2692
 20
-4.4129
 30
19.4
 70
192
 0
VERTEX
 8
MANOPOLA_3
 10
47.0323
 20
-4.9317
 30
19.7912
 70
192
 0
VERTEX
 8
MANOPOLA_3
 10
47.0323
 20
-4.9317
 30
19.4
 70
192
 0
VERTEX
 8
MANOPOLA_3
 10
46.6588
 20
-5.3627
 30
19.7912
 70
192
 0
VERTEX
 8
MANOPOLA_3
 10
46.6588
 20
-5.3627
 30
19.4
 70
192
 0
VERTEX
 8
MANOPOLA_3
 10
46.179
 20
-5.671
 30
19.7912
 70
192
 0
VERTEX
 8
MANOPOLA_3
 10
46.179
 20
-5.671
 30
19.4
 70
192
 0
VERTEX
 8
MANOPOLA_3
 10
45.6318
 20
-5.8317
 30
19.7912
 70
192
 0
VERTEX
 8
MANOPOLA_3
 10
45.6318
 20
-5.8317
 30
19.4
 70
192
 0
VERTEX
 8
MANOPOLA_3
 10
45.0615
 20
-5.8317
 30
19.7912
 70
192
 0
VERTEX
 8
MANOPOLA_3
 10
45.0615
 20
-5.8317
 30
19.4
 70
192
 0
VERTEX
 8
MANOPOLA_3
 10
44.5143
 20
-5.671
 30
19.7912
 70
192
 0
VERTEX
 8
MANOPOLA_3
 10
44.5143
 20
-5.671
 30
19.4
 70
192
 0
VERTEX
 8
MANOPOLA_3
 10
44.0346
 20
-5.3627
 30
19.7912
 70
192
 0
VERTEX
 8
MANOPOLA_3
 10
44.0346
 20
-5.3627
 30
19.4
 70
192
 0
VERTEX
 8
MANOPOLA_3
 10
43.6611
 20
-4.9317
 30
19.7912
 70
192
 0
VERTEX
 8
MANOPOLA_3
 10
43.6611
 20
-4.9317
 30
19.4
 70
192
 0
VERTEX
 8
MANOPOLA_3
 10
43.4242
 20
-4.4129
 30
19.7912
 70
192
 0
VERTEX
 8
MANOPOLA_3
 10
43.4242
 20
-4.4129
 30
19.4
 70
192
 0
VERTEX
 8
MANOPOLA_3
 10
43.343
 20
-3.8484
 30
19.7912
 70
192
 0
VERTEX
 8
MANOPOLA_3
 10
43.343
 20
-3.8484
 30
19.4
 70
192
 0
VERTEX
 8
MANOPOLA_3
 10
43.4242
 20
-3.2839
 30
19.7912
 70
192
 0
VERTEX
 8
MANOPOLA_3
 10
43.4242
 20
-3.2839
 30
19.4
 70
192
 0
VERTEX
 8
MANOPOLA_3
 10
43.6611
 20
-2.7652
 30
19.7912
 70
192
 0
VERTEX
 8
MANOPOLA_3
 10
43.6611
 20
-2.7652
 30
19.4
 70
192
 0
VERTEX
 8
MANOPOLA_3
 10
44.0346
 20
-2.3342
 30
19.7912
 70
192
 0
VERTEX
 8
MANOPOLA_3
 10
44.0346
 20
-2.3342
 30
19.4
 70
192
 0
VERTEX
 8
MANOPOLA_3
 10
44.5143
 20
-2.0258
 30
19.7912
 70
192
 0
VERTEX
 8
MANOPOLA_3
 10
44.5143
 20
-2.0258
 30
19.4
 70
192
 0
VERTEX
 8
MANOPOLA_3
 10
45.0615
 20
-1.8652
 30
19.7912
 70
192
 0
VERTEX
 8
MANOPOLA_3
 10
45.0615
 20
-1.8652
 30
19.4
 70
192
 0
VERTEX
 8
MANOPOLA_3
 10
45.6318
 20
-1.8652
 30
19.7912
 70
192
 0
VERTEX
 8
MANOPOLA_3
 10
45.6318
 20
-1.8652
 30
19.4
 70
192
 0
VERTEX
 8
MANOPOLA_3
 10
46.179
 20
-2.0258
 30
19.7912
 70
192
 0
VERTEX
 8
MANOPOLA_3
 10
46.179
 20
-2.0258
 30
19.4
 70
192
 0
VERTEX
 8
MANOPOLA_3
 10
46.6588
 20
-2.3342
 30
19.7912
 70
192
 0
VERTEX
 8
MANOPOLA_3
 10
46.6588
 20
-2.3342
 30
19.4
 70
192
 0
VERTEX
 8
MANOPOLA_3
 10
47.0323
 20
-2.7652
 30
19.7912
 70
192
 0
VERTEX
 8
MANOPOLA_3
 10
47.0323
 20
-2.7652
 30
19.4
 70
192
 0
VERTEX
 8
MANOPOLA_3
 10
47.2692
 20
-3.2839
 30
19.7912
 70
192
 0
VERTEX
 8
MANOPOLA_3
 10
47.2692
 20
-3.2839
 30
19.4
 70
192
 0
VERTEX
 8
MANOPOLA_3
 10
46.99
 20
-3.8484
 30
19.7912
 70
192
 0
VERTEX
 8
MANOPOLA_3
 10
46.99
 20
-4.3987
 30
19.7912
 70
192
 0
VERTEX
 8
MANOPOLA_3
 10
46.9898
 20
-4.9044
 30
19.7912
 70
192
 0
VERTEX
 8
MANOPOLA_3
 10
46.6257
 20
-5.3245
 30
19.7912
 70
192
 0
VERTEX
 8
MANOPOLA_3
 10
46.158
 20
-5.6251
 30
19.7912
 70
192
 0
VERTEX
 8
MANOPOLA_3
 10
45.6246
 20
-5.7817
 30
19.7912
 70
192
 0
VERTEX
 8
MANOPOLA_3
 10
45.0687
 20
-5.7817
 30
19.7912
 70
192
 0
VERTEX
 8
MANOPOLA_3
 10
44.5353
 20
-5.6251
 30
19.7912
 70
192
 0
VERTEX
 8
MANOPOLA_3
 10
44.0676
 20
-5.3245
 30
19.7912
 70
192
 0
VERTEX
 8
MANOPOLA_3
 10
43.7036
 20
-4.9044
 30
19.7912
 70
192
 0
VERTEX
 8
MANOPOLA_3
 10
43.704
 20
-4.3987
 30
19.7912
 70
192
 0
VERTEX
 8
MANOPOLA_3
 10
43.704
 20
-3.8484
 30
19.7912
 70
192
 0
VERTEX
 8
MANOPOLA_3
 10
43.704
 20
-3.2982
 30
19.7912
 70
192
 0
VERTEX
 8
MANOPOLA_3
 10
43.7036
 20
-2.7925
 30
19.7912
 70
192
 0
VERTEX
 8
MANOPOLA_3
 10
44.0676
 20
-2.3723
 30
19.7912
 70
192
 0
VERTEX
 8
MANOPOLA_3
 10
44.5353
 20
-2.0718
 30
19.7912
 70
192
 0
VERTEX
 8
MANOPOLA_3
 10
45.0687
 20
-1.9152
 30
19.7912
 70
192
 0
VERTEX
 8
MANOPOLA_3
 10
45.6246
 20
-1.9152
 30
19.7912
 70
192
 0
VERTEX
 8
MANOPOLA_3
 10
46.158
 20
-2.0718
 30
19.7912
 70
192
 0
VERTEX
 8
MANOPOLA_3
 10
46.6257
 20
-2.3723
 30
19.7912
 70
192
 0
VERTEX
 8
MANOPOLA_3
 10
46.9898
 20
-2.7925
 30
19.7912
 70
192
 0
VERTEX
 8
MANOPOLA_3
 10
46.99
 20
-3.2982
 30
19.7912
 70
192
 0
VERTEX
 8
MANOPOLA_3
 10
46.99
 20
-3.8484
 30
20.898
 70
192
 0
VERTEX
 8
MANOPOLA_3
 10
46.99
 20
-4.3987
 30
20.898
 70
192
 0
VERTEX
 8
MANOPOLA_3
 10
46.9898
 20
-4.9044
 30
20.898
 70
192
 0
VERTEX
 8
MANOPOLA_3
 10
46.6257
 20
-5.3245
 30
20.898
 70
192
 0
VERTEX
 8
MANOPOLA_3
 10
46.158
 20
-5.6251
 30
20.898
 70
192
 0
VERTEX
 8
MANOPOLA_3
 10
45.6246
 20
-5.7817
 30
20.898
 70
192
 0
VERTEX
 8
MANOPOLA_3
 10
45.0687
 20
-5.7817
 30
20.898
 70
192
 0
VERTEX
 8
MANOPOLA_3
 10
44.5353
 20
-5.6251
 30
20.898
 70
192
 0
VERTEX
 8
MANOPOLA_3
 10
44.0676
 20
-5.3245
 30
20.898
 70
192
 0
VERTEX
 8
MANOPOLA_3
 10
43.7036
 20
-4.9044
 30
20.898
 70
192
 0
VERTEX
 8
MANOPOLA_3
 10
43.704
 20
-4.3987
 30
20.898
 70
192
 0
VERTEX
 8
MANOPOLA_3
 10
43.704
 20
-3.8484
 30
20.898
 70
192
 0
VERTEX
 8
MANOPOLA_3
 10
43.704
 20
-3.2982
 30
20.898
 70
192
 0
VERTEX
 8
MANOPOLA_3
 10
43.7036
 20
-2.7925
 30
20.898
 70
192
 0
VERTEX
 8
MANOPOLA_3
 10
44.0676
 20
-2.3723
 30
20.898
 70
192
 0
VERTEX
 8
MANOPOLA_3
 10
44.5353
 20
-2.0718
 30
20.898
 70
192
 0
VERTEX
 8
MANOPOLA_3
 10
45.0687
 20
-1.9152
 30
20.898
 70
192
 0
VERTEX
 8
MANOPOLA_3
 10
45.6246
 20
-1.9152
 30
20.898
 70
192
 0
VERTEX
 8
MANOPOLA_3
 10
46.158
 20
-2.0718
 30
20.898
 70
192
 0
VERTEX
 8
MANOPOLA_3
 10
46.6257
 20
-2.3723
 30
20.898
 70
192
 0
VERTEX
 8
MANOPOLA_3
 10
46.9898
 20
-2.7925
 30
20.898
 70
192
 0
VERTEX
 8
MANOPOLA_3
 10
46.99
 20
-3.2982
 30
20.898
 70
192
 0
VERTEX
 8
MANOPOLA_3
 10
46.99
 20
-3.8484
 30
22.1002
 70
192
 0
VERTEX
 8
MANOPOLA_3
 10
46.99
 20
-4.3987
 30
22.1002
 70
192
 0
VERTEX
 8
MANOPOLA_3
 10
46.9898
 20
-4.9044
 30
22.1002
 70
192
 0
VERTEX
 8
MANOPOLA_3
 10
46.6257
 20
-5.3245
 30
22.1002
 70
192
 0
VERTEX
 8
MANOPOLA_3
 10
46.158
 20
-5.6251
 30
22.1002
 70
192
 0
VERTEX
 8
MANOPOLA_3
 10
45.6246
 20
-5.7817
 30
22.1002
 70
192
 0
VERTEX
 8
MANOPOLA_3
 10
45.0687
 20
-5.7817
 30
22.1002
 70
192
 0
VERTEX
 8
MANOPOLA_3
 10
44.5353
 20
-5.6251
 30
22.1002
 70
192
 0
VERTEX
 8
MANOPOLA_3
 10
44.0676
 20
-5.3245
 30
22.1002
 70
192
 0
VERTEX
 8
MANOPOLA_3
 10
43.7036
 20
-4.9044
 30
22.1002
 70
192
 0
VERTEX
 8
MANOPOLA_3
 10
43.704
 20
-4.3987
 30
22.1002
 70
192
 0
VERTEX
 8
MANOPOLA_3
 10
43.704
 20
-3.8484
 30
22.1002
 70
192
 0
VERTEX
 8
MANOPOLA_3
 10
43.704
 20
-3.2982
 30
22.1002
 70
192
 0
VERTEX
 8
MANOPOLA_3
 10
43.7036
 20
-2.7925
 30
22.1002
 70
192
 0
VERTEX
 8
MANOPOLA_3
 10
44.0676
 20
-2.3723
 30
22.1002
 70
192
 0
VERTEX
 8
MANOPOLA_3
 10
44.5353
 20
-2.0718
 30
22.1002
 70
192
 0
VERTEX
 8
MANOPOLA_3
 10
45.0687
 20
-1.9152
 30
22.1002
 70
192
 0
VERTEX
 8
MANOPOLA_3
 10
45.6246
 20
-1.9152
 30
22.1002
 70
192
 0
VERTEX
 8
MANOPOLA_3
 10
46.158
 20
-2.0718
 30
22.1002
 70
192
 0
VERTEX
 8
MANOPOLA_3
 10
46.6257
 20
-2.3723
 30
22.1002
 70
192
 0
VERTEX
 8
MANOPOLA_3
 10
46.9898
 20
-2.7925
 30
22.1002
 70
192
 0
VERTEX
 8
MANOPOLA_3
 10
46.99
 20
-3.2982
 30
22.1002
 70
192
 0
VERTEX
 8
MANOPOLA_3
 10
46.99
 20
-3.8484
 30
22.1399
 70
192
 0
VERTEX
 8
MANOPOLA_3
 10
46.99
 20
-4.3987
 30
22.1399
 70
192
 0
VERTEX
 8
MANOPOLA_3
 10
46.9898
 20
-4.9044
 30
22.1399
 70
192
 0
VERTEX
 8
MANOPOLA_3
 10
46.6257
 20
-5.3245
 30
22.1399
 70
192
 0
VERTEX
 8
MANOPOLA_3
 10
46.158
 20
-5.6251
 30
22.1399
 70
192
 0
VERTEX
 8
MANOPOLA_3
 10
45.6246
 20
-5.7817
 30
22.1399
 70
192
 0
VERTEX
 8
MANOPOLA_3
 10
45.0687
 20
-5.7817
 30
22.1399
 70
192
 0
VERTEX
 8
MANOPOLA_3
 10
44.5353
 20
-5.6251
 30
22.1399
 70
192
 0
VERTEX
 8
MANOPOLA_3
 10
44.0676
 20
-5.3245
 30
22.1399
 70
192
 0
VERTEX
 8
MANOPOLA_3
 10
43.7036
 20
-4.9044
 30
22.1399
 70
192
 0
VERTEX
 8
MANOPOLA_3
 10
43.704
 20
-4.3987
 30
22.1399
 70
192
 0
VERTEX
 8
MANOPOLA_3
 10
43.704
 20
-3.8484
 30
22.1399
 70
192
 0
VERTEX
 8
MANOPOLA_3
 10
43.704
 20
-3.2982
 30
22.1399
 70
192
 0
VERTEX
 8
MANOPOLA_3
 10
43.7036
 20
-2.7925
 30
22.1399
 70
192
 0
VERTEX
 8
MANOPOLA_3
 10
44.0676
 20
-2.3723
 30
22.1399
 70
192
 0
VERTEX
 8
MANOPOLA_3
 10
44.5353
 20
-2.0718
 30
22.1399
 70
192
 0
VERTEX
 8
MANOPOLA_3
 10
45.0687
 20
-1.9152
 30
22.1399
 70
192
 0
VERTEX
 8
MANOPOLA_3
 10
45.6246
 20
-1.9152
 30
22.1399
 70
192
 0
VERTEX
 8
MANOPOLA_3
 10
46.158
 20
-2.0718
 30
22.1399
 70
192
 0
VERTEX
 8
MANOPOLA_3
 10
46.6257
 20
-2.3723
 30
22.1399
 70
192
 0
VERTEX
 8
MANOPOLA_3
 10
46.9898
 20
-2.7925
 30
22.1399
 70
192
 0
VERTEX
 8
MANOPOLA_3
 10
46.99
 20
-3.2982
 30
22.1399
 70
192
 0
VERTEX
 8
MANOPOLA_3
 10
46.9778
 20
-3.8484
 30
22.1849
 70
192
 0
VERTEX
 8
MANOPOLA_3
 10
46.9784
 20
-4.3275
 30
22.1849
 70
192
 0
VERTEX
 8
MANOPOLA_3
 10
46.7773
 20
-4.7678
 30
22.1849
 70
192
 0
VERTEX
 8
MANOPOLA_3
 10
46.4603
 20
-5.1336
 30
22.1849
 70
192
 0
VERTEX
 8
MANOPOLA_3
 10
46.0531
 20
-5.3953
 30
22.1849
 70
192
 0
VERTEX
 8
MANOPOLA_3
 10
45.5887
 20
-5.5317
 30
22.1849
 70
192
 0
VERTEX
 8
MANOPOLA_3
 10
45.1047
 20
-5.5317
 30
22.1849
 70
192
 0
VERTEX
 8
MANOPOLA_3
 10
44.6402
 20
-5.3953
 30
22.1849
 70
192
 0
VERTEX
 8
MANOPOLA_3
 10
44.233
 20
-5.1336
 30
22.1849
 70
192
 0
VERTEX
 8
MANOPOLA_3
 10
43.9161
 20
-4.7678
 30
22.1849
 70
192
 0
VERTEX
 8
MANOPOLA_3
 10
43.715
 20
-4.3275
 30
22.1849
 70
192
 0
VERTEX
 8
MANOPOLA_3
 10
43.7174
 20
-3.8484
 30
22.1849
 70
192
 0
VERTEX
 8
MANOPOLA_3
 10
43.715
 20
-3.3693
 30
22.1849
 70
192
 0
VERTEX
 8
MANOPOLA_3
 10
43.9161
 20
-2.929
 30
22.1849
 70
192
 0
VERTEX
 8
MANOPOLA_3
 10
44.233
 20
-2.5632
 30
22.1849
 70
192
 0
VERTEX
 8
MANOPOLA_3
 10
44.6402
 20
-2.3015
 30
22.1849
 70
192
 0
VERTEX
 8
MANOPOLA_3
 10
45.1047
 20
-2.1652
 30
22.1849
 70
192
 0
VERTEX
 8
MANOPOLA_3
 10
45.5887
 20
-2.1652
 30
22.1849
 70
192
 0
VERTEX
 8
MANOPOLA_3
 10
46.0531
 20
-2.3015
 30
22.1849
 70
192
 0
VERTEX
 8
MANOPOLA_3
 10
46.4603
 20
-2.5632
 30
22.1849
 70
192
 0
VERTEX
 8
MANOPOLA_3
 10
46.7773
 20
-2.929
 30
22.1849
 70
192
 0
VERTEX
 8
MANOPOLA_3
 10
46.9784
 20
-3.3693
 30
22.1849
 70
192
 0
VERTEX
 8
MANOPOLA_3
 10
45.1087
 20
-1.9152
 30
20.938
 70
192
 0
VERTEX
 8
MANOPOLA_3
 10
45.5846
 20
-1.9152
 30
20.938
 70
192
 0
VERTEX
 8
MANOPOLA_3
 10
45.1087
 20
-2.0798
 30
21.8927
 70
192
 0
VERTEX
 8
MANOPOLA_3
 10
45.5846
 20
-2.0798
 30
21.8927
 70
192
 0
VERTEX
 8
MANOPOLA_3
 10
45.1087
 20
-2.1264
 30
22.0946
 70
192
 0
VERTEX
 8
MANOPOLA_3
 10
45.5846
 20
-2.1264
 30
22.0946
 70
192
 0
VERTEX
 8
MANOPOLA_3
 10
45.1149
 20
-2.1297
 30
22.1795
 70
192
 0
VERTEX
 8
MANOPOLA_3
 10
45.5785
 20
-2.1297
 30
22.1795
 70
192
 0
VERTEX
 8
MANOPOLA_3
 10
45.1393
 20
-2.1444
 30
22.1693
 70
192
 0
VERTEX
 8
MANOPOLA_3
 10
45.554
 20
-2.1444
 30
22.1693
 70
192
 0
VERTEX
 8
MANOPOLA_3
 10
45.5844
 20
-2.1378
 30
22.1352
 70
192
 0
VERTEX
 8
MANOPOLA_3
 10
45.1085
 20
-2.1378
 30
22.1352
 70
192
 0
VERTEX
 8
MANOPOLA_3
 10
46.0778
 20
-3.8484
 30
22.35
 70
192
 0
VERTEX
 8
MANOPOLA_3
 10
46.0781
 20
-4.1323
 30
22.35
 70
192
 0
VERTEX
 8
MANOPOLA_3
 10
46.0124
 20
-4.2763
 30
22.35
 70
192
 0
VERTEX
 8
MANOPOLA_3
 10
45.8649
 20
-4.4465
 30
22.35
 70
192
 0
VERTEX
 8
MANOPOLA_3
 10
45.6754
 20
-4.5682
 30
22.35
 70
192
 0
VERTEX
 8
MANOPOLA_3
 10
45.4593
 20
-4.6317
 30
22.35
 70
192
 0
VERTEX
 8
MANOPOLA_3
 10
45.2341
 20
-4.6317
 30
22.35
 70
192
 0
VERTEX
 8
MANOPOLA_3
 10
45.018
 20
-4.5682
 30
22.35
 70
192
 0
VERTEX
 8
MANOPOLA_3
 10
44.8285
 20
-4.4465
 30
22.35
 70
192
 0
VERTEX
 8
MANOPOLA_3
 10
44.681
 20
-4.2763
 30
22.35
 70
192
 0
VERTEX
 8
MANOPOLA_3
 10
44.616
 20
-4.1339
 30
22.35
 70
192
 0
VERTEX
 8
MANOPOLA_3
 10
44.6174
 20
-3.8484
 30
22.35
 70
192
 0
VERTEX
 8
MANOPOLA_3
 10
44.616
 20
-3.563
 30
22.35
 70
192
 0
VERTEX
 8
MANOPOLA_3
 10
44.681
 20
-3.4206
 30
22.35
 70
192
 0
VERTEX
 8
MANOPOLA_3
 10
44.8285
 20
-3.2504
 30
22.35
 70
192
 0
VERTEX
 8
MANOPOLA_3
 10
45.018
 20
-3.1286
 30
22.35
 70
192
 0
VERTEX
 8
MANOPOLA_3
 10
45.2341
 20
-3.0652
 30
22.35
 70
192
 0
VERTEX
 8
MANOPOLA_3
 10
45.4593
 20
-3.0652
 30
22.35
 70
192
 0
VERTEX
 8
MANOPOLA_3
 10
45.6754
 20
-3.1286
 30
22.35
 70
192
 0
VERTEX
 8
MANOPOLA_3
 10
45.8649
 20
-3.2504
 30
22.35
 70
192
 0
VERTEX
 8
MANOPOLA_3
 10
46.0124
 20
-3.4206
 30
22.35
 70
192
 0
VERTEX
 8
MANOPOLA_3
 10
46.0781
 20
-3.5646
 30
22.35
 70
192
 0
VERTEX
 8
MANOPOLA_3
 10
46.9866
 20
-3.8484
 30
19.4
 70
192
 0
VERTEX
 8
MANOPOLA_3
 10
46.9202
 20
-4.3105
 30
19.4
 70
192
 0
VERTEX
 8
MANOPOLA_3
 10
46.7263
 20
-4.7351
 30
19.4
 70
192
 0
VERTEX
 8
MANOPOLA_3
 10
46.4206
 20
-5.0878
 30
19.4
 70
192
 0
VERTEX
 8
MANOPOLA_3
 10
46.0279
 20
-5.3402
 30
19.4
 70
192
 0
VERTEX
 8
MANOPOLA_3
 10
45.5801
 20
-5.4717
 30
19.4
 70
192
 0
VERTEX
 8
MANOPOLA_3
 10
45.1133
 20
-5.4717
 30
19.4
 70
192
 0
VERTEX
 8
MANOPOLA_3
 10
44.6654
 20
-5.3402
 30
19.4
 70
192
 0
VERTEX
 8
MANOPOLA_3
 10
44.2727
 20
-5.0878
 30
19.4
 70
192
 0
VERTEX
 8
MANOPOLA_3
 10
43.9671
 20
-4.7351
 30
19.4
 70
192
 0
VERTEX
 8
MANOPOLA_3
 10
43.7731
 20
-4.3105
 30
19.4
 70
192
 0
VERTEX
 8
MANOPOLA_3
 10
43.7067
 20
-3.8484
 30
19.4
 70
192
 0
VERTEX
 8
MANOPOLA_3
 10
43.7731
 20
-3.3864
 30
19.4
 70
192
 0
VERTEX
 8
MANOPOLA_3
 10
43.9671
 20
-2.9618
 30
19.4
 70
192
 0
VERTEX
 8
MANOPOLA_3
 10
44.2727
 20
-2.609
 30
19.4
 70
192
 0
VERTEX
 8
MANOPOLA_3
 10
44.6654
 20
-2.3567
 30
19.4
 70
192
 0
VERTEX
 8
MANOPOLA_3
 10
45.1133
 20
-2.2252
 30
19.4
 70
192
 0
VERTEX
 8
MANOPOLA_3
 10
45.5801
 20
-2.2252
 30
19.4
 70
192
 0
VERTEX
 8
MANOPOLA_3
 10
46.0279
 20
-2.3567
 30
19.4
 70
192
 0
VERTEX
 8
MANOPOLA_3
 10
46.4206
 20
-2.609
 30
19.4
 70
192
 0
VERTEX
 8
MANOPOLA_3
 10
46.7263
 20
-2.9618
 30
19.4
 70
192
 0
VERTEX
 8
MANOPOLA_3
 10
46.9202
 20
-3.3864
 30
19.4
 70
192
 0
VERTEX
 8
MANOPOLA_3
 10
46.9866
 20
-3.8484
 30
18.8896
 70
192
 0
VERTEX
 8
MANOPOLA_3
 10
46.9202
 20
-4.3105
 30
18.8896
 70
192
 0
VERTEX
 8
MANOPOLA_3
 10
46.7263
 20
-4.7351
 30
18.8896
 70
192
 0
VERTEX
 8
MANOPOLA_3
 10
46.4206
 20
-5.0878
 30
18.8896
 70
192
 0
VERTEX
 8
MANOPOLA_3
 10
46.0279
 20
-5.3402
 30
18.8896
 70
192
 0
VERTEX
 8
MANOPOLA_3
 10
45.5801
 20
-5.4717
 30
18.8896
 70
192
 0
VERTEX
 8
MANOPOLA_3
 10
45.1133
 20
-5.4717
 30
18.8896
 70
192
 0
VERTEX
 8
MANOPOLA_3
 10
44.6654
 20
-5.3402
 30
18.8896
 70
192
 0
VERTEX
 8
MANOPOLA_3
 10
44.2727
 20
-5.0878
 30
18.8896
 70
192
 0
VERTEX
 8
MANOPOLA_3
 10
43.9671
 20
-4.7351
 30
18.8896
 70
192
 0
VERTEX
 8
MANOPOLA_3
 10
43.7731
 20
-4.3105
 30
18.8896
 70
192
 0
VERTEX
 8
MANOPOLA_3
 10
43.7067
 20
-3.8484
 30
18.8896
 70
192
 0
VERTEX
 8
MANOPOLA_3
 10
43.7731
 20
-3.3864
 30
18.8896
 70
192
 0
VERTEX
 8
MANOPOLA_3
 10
43.9671
 20
-2.9618
 30
18.8896
 70
192
 0
VERTEX
 8
MANOPOLA_3
 10
44.2727
 20
-2.609
 30
18.8896
 70
192
 0
VERTEX
 8
MANOPOLA_3
 10
44.6654
 20
-2.3567
 30
18.8896
 70
192
 0
VERTEX
 8
MANOPOLA_3
 10
45.1133
 20
-2.2252
 30
18.8896
 70
192
 0
VERTEX
 8
MANOPOLA_3
 10
45.5801
 20
-2.2252
 30
18.8896
 70
192
 0
VERTEX
 8
MANOPOLA_3
 10
46.0279
 20
-2.3567
 30
18.8896
 70
192
 0
VERTEX
 8
MANOPOLA_3
 10
46.4206
 20
-2.609
 30
18.8896
 70
192
 0
VERTEX
 8
MANOPOLA_3
 10
46.7263
 20
-2.9618
 30
18.8896
 70
192
 0
VERTEX
 8
MANOPOLA_3
 10
46.9202
 20
-3.3864
 30
18.8896
 70
192
 0
VERTEX
 8
MANOPOLA_3
 10
0
 20
0
 30
0
 70
128
 71
1
 72
169
 73
170
 74
170
 0
VERTEX
 8
MANOPOLA_3
 10
0
 20
0
 30
0
 70
128
 71
3
 72
4
 73
6
 74
5
 0
VERTEX
 8
MANOPOLA_3
 10
0
 20
0
 30
0
 70
128
 71
213
 72
2
 73
214
 74
214
 0
VERTEX
 8
MANOPOLA_3
 10
0
 20
0
 30
0
 70
128
 71
1
 72
170
 73
171
 74
171
 0
VERTEX
 8
MANOPOLA_3
 10
0
 20
0
 30
0
 70
128
 71
5
 72
6
 73
8
 74
7
 0
VERTEX
 8
MANOPOLA_3
 10
0
 20
0
 30
0
 70
128
 71
214
 72
2
 73
215
 74
215
 0
VERTEX
 8
MANOPOLA_3
 10
0
 20
0
 30
0
 70
128
 71
1
 72
171
 73
172
 74
172
 0
VERTEX
 8
MANOPOLA_3
 10
0
 20
0
 30
0
 70
128
 71
7
 72
8
 73
10
 74
9
 0
VERTEX
 8
MANOPOLA_3
 10
0
 20
0
 30
0
 70
128
 71
215
 72
2
 73
216
 74
216
 0
VERTEX
 8
MANOPOLA_3
 10
0
 20
0
 30
0
 70
128
 71
1
 72
172
 73
173
 74
173
 0
VERTEX
 8
MANOPOLA_3
 10
0
 20
0
 30
0
 70
128
 71
9
 72
10
 73
12
 74
11
 0
VERTEX
 8
MANOPOLA_3
 10
0
 20
0
 30
0
 70
128
 71
216
 72
2
 73
217
 74
217
 0
VERTEX
 8
MANOPOLA_3
 10
0
 20
0
 30
0
 70
128
 71
1
 72
173
 73
174
 74
174
 0
VERTEX
 8
MANOPOLA_3
 10
0
 20
0
 30
0
 70
128
 71
11
 72
12
 73
14
 74
13
 0
VERTEX
 8
MANOPOLA_3
 10
0
 20
0
 30
0
 70
128
 71
217
 72
2
 73
218
 74
218
 0
VERTEX
 8
MANOPOLA_3
 10
0
 20
0
 30
0
 70
128
 71
1
 72
174
 73
175
 74
175
 0
VERTEX
 8
MANOPOLA_3
 10
0
 20
0
 30
0
 70
128
 71
13
 72
14
 73
16
 74
15
 0
VERTEX
 8
MANOPOLA_3
 10
0
 20
0
 30
0
 70
128
 71
218
 72
2
 73
219
 74
219
 0
VERTEX
 8
MANOPOLA_3
 10
0
 20
0
 30
0
 70
128
 71
1
 72
175
 73
176
 74
176
 0
VERTEX
 8
MANOPOLA_3
 10
0
 20
0
 30
0
 70
128
 71
15
 72
16
 73
18
 74
17
 0
VERTEX
 8
MANOPOLA_3
 10
0
 20
0
 30
0
 70
128
 71
219
 72
2
 73
220
 74
220
 0
VERTEX
 8
MANOPOLA_3
 10
0
 20
0
 30
0
 70
128
 71
1
 72
176
 73
177
 74
177
 0
VERTEX
 8
MANOPOLA_3
 10
0
 20
0
 30
0
 70
128
 71
17
 72
18
 73
20
 74
19
 0
VERTEX
 8
MANOPOLA_3
 10
0
 20
0
 30
0
 70
128
 71
220
 72
2
 73
221
 74
221
 0
VERTEX
 8
MANOPOLA_3
 10
0
 20
0
 30
0
 70
128
 71
1
 72
177
 73
178
 74
178
 0
VERTEX
 8
MANOPOLA_3
 10
0
 20
0
 30
0
 70
128
 71
19
 72
20
 73
22
 74
21
 0
VERTEX
 8
MANOPOLA_3
 10
0
 20
0
 30
0
 70
128
 71
221
 72
2
 73
222
 74
222
 0
VERTEX
 8
MANOPOLA_3
 10
0
 20
0
 30
0
 70
128
 71
1
 72
178
 73
179
 74
179
 0
VERTEX
 8
MANOPOLA_3
 10
0
 20
0
 30
0
 70
128
 71
21
 72
22
 73
24
 74
23
 0
VERTEX
 8
MANOPOLA_3
 10
0
 20
0
 30
0
 70
128
 71
222
 72
2
 73
223
 74
223
 0
VERTEX
 8
MANOPOLA_3
 10
0
 20
0
 30
0
 70
128
 71
1
 72
179
 73
180
 74
180
 0
VERTEX
 8
MANOPOLA_3
 10
0
 20
0
 30
0
 70
128
 71
23
 72
24
 73
26
 74
25
 0
VERTEX
 8
MANOPOLA_3
 10
0
 20
0
 30
0
 70
128
 71
223
 72
2
 73
224
 74
224
 0
VERTEX
 8
MANOPOLA_3
 10
0
 20
0
 30
0
 70
128
 71
1
 72
180
 73
181
 74
181
 0
VERTEX
 8
MANOPOLA_3
 10
0
 20
0
 30
0
 70
128
 71
25
 72
26
 73
28
 74
27
 0
VERTEX
 8
MANOPOLA_3
 10
0
 20
0
 30
0
 70
128
 71
224
 72
2
 73
225
 74
225
 0
VERTEX
 8
MANOPOLA_3
 10
0
 20
0
 30
0
 70
128
 71
1
 72
181
 73
182
 74
182
 0
VERTEX
 8
MANOPOLA_3
 10
0
 20
0
 30
0
 70
128
 71
27
 72
28
 73
30
 74
29
 0
VERTEX
 8
MANOPOLA_3
 10
0
 20
0
 30
0
 70
128
 71
225
 72
2
 73
226
 74
226
 0
VERTEX
 8
MANOPOLA_3
 10
0
 20
0
 30
0
 70
128
 71
1
 72
182
 73
183
 74
183
 0
VERTEX
 8
MANOPOLA_3
 10
0
 20
0
 30
0
 70
128
 71
29
 72
30
 73
32
 74
31
 0
VERTEX
 8
MANOPOLA_3
 10
0
 20
0
 30
0
 70
128
 71
226
 72
2
 73
227
 74
227
 0
VERTEX
 8
MANOPOLA_3
 10
0
 20
0
 30
0
 70
128
 71
1
 72
183
 73
184
 74
184
 0
VERTEX
 8
MANOPOLA_3
 10
0
 20
0
 30
0
 70
128
 71
31
 72
32
 73
34
 74
33
 0
VERTEX
 8
MANOPOLA_3
 10
0
 20
0
 30
0
 70
128
 71
227
 72
2
 73
228
 74
228
 0
VERTEX
 8
MANOPOLA_3
 10
0
 20
0
 30
0
 70
128
 71
1
 72
184
 73
185
 74
185
 0
VERTEX
 8
MANOPOLA_3
 10
0
 20
0
 30
0
 70
128
 71
33
 72
34
 73
36
 74
35
 0
VERTEX
 8
MANOPOLA_3
 10
0
 20
0
 30
0
 70
128
 71
228
 72
2
 73
229
 74
229
 0
VERTEX
 8
MANOPOLA_3
 10
0
 20
0
 30
0
 70
128
 71
1
 72
185
 73
186
 74
186
 0
VERTEX
 8
MANOPOLA_3
 10
0
 20
0
 30
0
 70
128
 71
35
 72
36
 73
38
 74
37
 0
VERTEX
 8
MANOPOLA_3
 10
0
 20
0
 30
0
 70
128
 71
229
 72
2
 73
230
 74
230
 0
VERTEX
 8
MANOPOLA_3
 10
0
 20
0
 30
0
 70
128
 71
1
 72
186
 73
187
 74
187
 0
VERTEX
 8
MANOPOLA_3
 10
0
 20
0
 30
0
 70
128
 71
37
 72
38
 73
40
 74
39
 0
VERTEX
 8
MANOPOLA_3
 10
0
 20
0
 30
0
 70
128
 71
230
 72
2
 73
231
 74
231
 0
VERTEX
 8
MANOPOLA_3
 10
0
 20
0
 30
0
 70
128
 71
1
 72
187
 73
188
 74
188
 0
VERTEX
 8
MANOPOLA_3
 10
0
 20
0
 30
0
 70
128
 71
39
 72
40
 73
42
 74
41
 0
VERTEX
 8
MANOPOLA_3
 10
0
 20
0
 30
0
 70
128
 71
231
 72
2
 73
232
 74
232
 0
VERTEX
 8
MANOPOLA_3
 10
0
 20
0
 30
0
 70
128
 71
1
 72
188
 73
189
 74
189
 0
VERTEX
 8
MANOPOLA_3
 10
0
 20
0
 30
0
 70
128
 71
41
 72
42
 73
44
 74
43
 0
VERTEX
 8
MANOPOLA_3
 10
0
 20
0
 30
0
 70
128
 71
232
 72
2
 73
233
 74
233
 0
VERTEX
 8
MANOPOLA_3
 10
0
 20
0
 30
0
 70
128
 71
1
 72
189
 73
190
 74
190
 0
VERTEX
 8
MANOPOLA_3
 10
0
 20
0
 30
0
 70
128
 71
43
 72
44
 73
46
 74
45
 0
VERTEX
 8
MANOPOLA_3
 10
0
 20
0
 30
0
 70
128
 71
233
 72
2
 73
234
 74
234
 0
VERTEX
 8
MANOPOLA_3
 10
0
 20
0
 30
0
 70
128
 71
1
 72
190
 73
169
 74
169
 0
VERTEX
 8
MANOPOLA_3
 10
0
 20
0
 30
0
 70
128
 71
45
 72
46
 73
4
 74
3
 0
VERTEX
 8
MANOPOLA_3
 10
0
 20
0
 30
0
 70
128
 71
234
 72
2
 73
213
 74
213
 0
VERTEX
 8
MANOPOLA_3
 10
0
 20
0
 30
0
 70
128
 71
47
 72
3
 73
5
 74
48
 0
VERTEX
 8
MANOPOLA_3
 10
0
 20
0
 30
0
 70
128
 71
48
 72
5
 73
7
 74
49
 0
VERTEX
 8
MANOPOLA_3
 10
0
 20
0
 30
0
 70
128
 71
49
 72
7
 73
9
 74
50
 0
VERTEX
 8
MANOPOLA_3
 10
0
 20
0
 30
0
 70
128
 71
50
 72
9
 73
11
 74
51
 0
VERTEX
 8
MANOPOLA_3
 10
0
 20
0
 30
0
 70
128
 71
51
 72
11
 73
13
 74
52
 0
VERTEX
 8
MANOPOLA_3
 10
0
 20
0
 30
0
 70
128
 71
52
 72
13
 73
15
 74
53
 0
VERTEX
 8
MANOPOLA_3
 10
0
 20
0
 30
0
 70
128
 71
53
 72
15
 73
17
 74
54
 0
VERTEX
 8
MANOPOLA_3
 10
0
 20
0
 30
0
 70
128
 71
54
 72
17
 73
19
 74
55
 0
VERTEX
 8
MANOPOLA_3
 10
0
 20
0
 30
0
 70
128
 71
55
 72
19
 73
21
 74
56
 0
VERTEX
 8
MANOPOLA_3
 10
0
 20
0
 30
0
 70
128
 71
56
 72
21
 73
23
 74
57
 0
VERTEX
 8
MANOPOLA_3
 10
0
 20
0
 30
0
 70
128
 71
57
 72
23
 73
25
 74
58
 0
VERTEX
 8
MANOPOLA_3
 10
0
 20
0
 30
0
 70
128
 71
58
 72
25
 73
27
 74
59
 0
VERTEX
 8
MANOPOLA_3
 10
0
 20
0
 30
0
 70
128
 71
59
 72
27
 73
29
 74
60
 0
VERTEX
 8
MANOPOLA_3
 10
0
 20
0
 30
0
 70
128
 71
60
 72
29
 73
31
 74
61
 0
VERTEX
 8
MANOPOLA_3
 10
0
 20
0
 30
0
 70
128
 71
61
 72
31
 73
33
 74
62
 0
VERTEX
 8
MANOPOLA_3
 10
0
 20
0
 30
0
 70
128
 71
62
 72
33
 73
35
 74
63
 0
VERTEX
 8
MANOPOLA_3
 10
0
 20
0
 30
0
 70
128
 71
63
 72
35
 73
37
 74
64
 0
VERTEX
 8
MANOPOLA_3
 10
0
 20
0
 30
0
 70
128
 71
64
 72
37
 73
39
 74
65
 0
VERTEX
 8
MANOPOLA_3
 10
0
 20
0
 30
0
 70
128
 71
65
 72
39
 73
41
 74
66
 0
VERTEX
 8
MANOPOLA_3
 10
0
 20
0
 30
0
 70
128
 71
66
 72
41
 73
43
 74
67
 0
VERTEX
 8
MANOPOLA_3
 10
0
 20
0
 30
0
 70
128
 71
67
 72
43
 73
45
 74
68
 0
VERTEX
 8
MANOPOLA_3
 10
0
 20
0
 30
0
 70
128
 71
68
 72
45
 73
3
 74
47
 0
VERTEX
 8
MANOPOLA_3
 10
0
 20
0
 30
0
 70
128
 71
69
 72
47
 73
48
 74
70
 0
VERTEX
 8
MANOPOLA_3
 10
0
 20
0
 30
0
 70
128
 71
70
 72
48
 73
49
 74
71
 0
VERTEX
 8
MANOPOLA_3
 10
0
 20
0
 30
0
 70
128
 71
71
 72
49
 73
50
 74
72
 0
VERTEX
 8
MANOPOLA_3
 10
0
 20
0
 30
0
 70
128
 71
72
 72
50
 73
51
 74
73
 0
VERTEX
 8
MANOPOLA_3
 10
0
 20
0
 30
0
 70
128
 71
73
 72
51
 73
52
 74
74
 0
VERTEX
 8
MANOPOLA_3
 10
0
 20
0
 30
0
 70
128
 71
74
 72
52
 73
53
 74
75
 0
VERTEX
 8
MANOPOLA_3
 10
0
 20
0
 30
0
 70
128
 71
75
 72
53
 73
54
 74
76
 0
VERTEX
 8
MANOPOLA_3
 10
0
 20
0
 30
0
 70
128
 71
76
 72
54
 73
55
 74
77
 0
VERTEX
 8
MANOPOLA_3
 10
0
 20
0
 30
0
 70
128
 71
77
 72
55
 73
56
 74
78
 0
VERTEX
 8
MANOPOLA_3
 10
0
 20
0
 30
0
 70
128
 71
78
 72
56
 73
57
 74
79
 0
VERTEX
 8
MANOPOLA_3
 10
0
 20
0
 30
0
 70
128
 71
79
 72
57
 73
58
 74
80
 0
VERTEX
 8
MANOPOLA_3
 10
0
 20
0
 30
0
 70
128
 71
80
 72
58
 73
59
 74
81
 0
VERTEX
 8
MANOPOLA_3
 10
0
 20
0
 30
0
 70
128
 71
81
 72
59
 73
60
 74
82
 0
VERTEX
 8
MANOPOLA_3
 10
0
 20
0
 30
0
 70
128
 71
82
 72
60
 73
61
 74
83
 0
VERTEX
 8
MANOPOLA_3
 10
0
 20
0
 30
0
 70
128
 71
83
 72
61
 73
62
 74
84
 0
VERTEX
 8
MANOPOLA_3
 10
0
 20
0
 30
0
 70
128
 71
84
 72
62
 73
63
 74
85
 0
VERTEX
 8
MANOPOLA_3
 10
0
 20
0
 30
0
 70
128
 71
85
 72
63
 73
64
 74
86
 0
VERTEX
 8
MANOPOLA_3
 10
0
 20
0
 30
0
 70
128
 71
86
 72
64
 73
65
 74
87
 0
VERTEX
 8
MANOPOLA_3
 10
0
 20
0
 30
0
 70
128
 71
87
 72
65
 73
66
 74
88
 0
VERTEX
 8
MANOPOLA_3
 10
0
 20
0
 30
0
 70
128
 71
88
 72
66
 73
67
 74
89
 0
VERTEX
 8
MANOPOLA_3
 10
0
 20
0
 30
0
 70
128
 71
89
 72
67
 73
68
 74
90
 0
VERTEX
 8
MANOPOLA_3
 10
0
 20
0
 30
0
 70
128
 71
90
 72
68
 73
47
 74
69
 0
VERTEX
 8
MANOPOLA_3
 10
0
 20
0
 30
0
 70
128
 71
91
 72
69
 73
70
 74
92
 0
VERTEX
 8
MANOPOLA_3
 10
0
 20
0
 30
0
 70
128
 71
92
 72
70
 73
71
 74
93
 0
VERTEX
 8
MANOPOLA_3
 10
0
 20
0
 30
0
 70
128
 71
93
 72
71
 73
72
 74
94
 0
VERTEX
 8
MANOPOLA_3
 10
0
 20
0
 30
0
 70
128
 71
94
 72
72
 73
73
 74
95
 0
VERTEX
 8
MANOPOLA_3
 10
0
 20
0
 30
0
 70
128
 71
95
 72
73
 73
74
 74
96
 0
VERTEX
 8
MANOPOLA_3
 10
0
 20
0
 30
0
 70
128
 71
96
 72
74
 73
75
 74
97
 0
VERTEX
 8
MANOPOLA_3
 10
0
 20
0
 30
0
 70
128
 71
97
 72
75
 73
76
 74
98
 0
VERTEX
 8
MANOPOLA_3
 10
0
 20
0
 30
0
 70
128
 71
98
 72
76
 73
77
 74
99
 0
VERTEX
 8
MANOPOLA_3
 10
0
 20
0
 30
0
 70
128
 71
99
 72
77
 73
78
 74
100
 0
VERTEX
 8
MANOPOLA_3
 10
0
 20
0
 30
0
 70
128
 71
100
 72
78
 73
79
 74
101
 0
VERTEX
 8
MANOPOLA_3
 10
0
 20
0
 30
0
 70
128
 71
101
 72
79
 73
80
 74
102
 0
VERTEX
 8
MANOPOLA_3
 10
0
 20
0
 30
0
 70
128
 71
102
 72
80
 73
81
 74
103
 0
VERTEX
 8
MANOPOLA_3
 10
0
 20
0
 30
0
 70
128
 71
103
 72
81
 73
82
 74
104
 0
VERTEX
 8
MANOPOLA_3
 10
0
 20
0
 30
0
 70
128
 71
104
 72
82
 73
83
 74
105
 0
VERTEX
 8
MANOPOLA_3
 10
0
 20
0
 30
0
 70
128
 71
105
 72
83
 73
84
 74
106
 0
VERTEX
 8
MANOPOLA_3
 10
0
 20
0
 30
0
 70
128
 71
106
 72
84
 73
85
 74
107
 0
VERTEX
 8
MANOPOLA_3
 10
0
 20
0
 30
0
 70
128
 71
159
 72
157
 73
158
 74
160
 0
VERTEX
 8
MANOPOLA_3
 10
0
 20
0
 30
0
 70
128
 71
108
 72
86
 73
87
 74
109
 0
VERTEX
 8
MANOPOLA_3
 10
0
 20
0
 30
0
 70
128
 71
109
 72
87
 73
88
 74
110
 0
VERTEX
 8
MANOPOLA_3
 10
0
 20
0
 30
0
 70
128
 71
110
 72
88
 73
89
 74
111
 0
VERTEX
 8
MANOPOLA_3
 10
0
 20
0
 30
0
 70
128
 71
111
 72
89
 73
90
 74
112
 0
VERTEX
 8
MANOPOLA_3
 10
0
 20
0
 30
0
 70
128
 71
112
 72
90
 73
69
 74
91
 0
VERTEX
 8
MANOPOLA_3
 10
0
 20
0
 30
0
 70
128
 71
113
 72
91
 73
92
 74
114
 0
VERTEX
 8
MANOPOLA_3
 10
0
 20
0
 30
0
 70
128
 71
114
 72
92
 73
93
 74
115
 0
VERTEX
 8
MANOPOLA_3
 10
0
 20
0
 30
0
 70
128
 71
115
 72
93
 73
94
 74
116
 0
VERTEX
 8
MANOPOLA_3
 10
0
 20
0
 30
0
 70
128
 71
116
 72
94
 73
95
 74
117
 0
VERTEX
 8
MANOPOLA_3
 10
0
 20
0
 30
0
 70
128
 71
117
 72
95
 73
96
 74
118
 0
VERTEX
 8
MANOPOLA_3
 10
0
 20
0
 30
0
 70
128
 71
118
 72
96
 73
97
 74
119
 0
VERTEX
 8
MANOPOLA_3
 10
0
 20
0
 30
0
 70
128
 71
119
 72
97
 73
98
 74
120
 0
VERTEX
 8
MANOPOLA_3
 10
0
 20
0
 30
0
 70
128
 71
120
 72
98
 73
99
 74
121
 0
VERTEX
 8
MANOPOLA_3
 10
0
 20
0
 30
0
 70
128
 71
121
 72
99
 73
100
 74
122
 0
VERTEX
 8
MANOPOLA_3
 10
0
 20
0
 30
0
 70
128
 71
122
 72
100
 73
101
 74
123
 0
VERTEX
 8
MANOPOLA_3
 10
0
 20
0
 30
0
 70
128
 71
123
 72
101
 73
102
 74
124
 0
VERTEX
 8
MANOPOLA_3
 10
0
 20
0
 30
0
 70
128
 71
124
 72
102
 73
103
 74
125
 0
VERTEX
 8
MANOPOLA_3
 10
0
 20
0
 30
0
 70
128
 71
125
 72
103
 73
104
 74
126
 0
VERTEX
 8
MANOPOLA_3
 10
0
 20
0
 30
0
 70
128
 71
126
 72
104
 73
105
 74
127
 0
VERTEX
 8
MANOPOLA_3
 10
0
 20
0
 30
0
 70
128
 71
127
 72
105
 73
106
 74
128
 0
VERTEX
 8
MANOPOLA_3
 10
0
 20
0
 30
0
 70
128
 71
128
 72
106
 73
107
 74
129
 0
VERTEX
 8
MANOPOLA_3
 10
0
 20
0
 30
0
 70
128
 71
161
 72
159
 73
160
 74
162
 0
VERTEX
 8
MANOPOLA_3
 10
0
 20
0
 30
0
 70
128
 71
130
 72
108
 73
109
 74
131
 0
VERTEX
 8
MANOPOLA_3
 10
0
 20
0
 30
0
 70
128
 71
131
 72
109
 73
110
 74
132
 0
VERTEX
 8
MANOPOLA_3
 10
0
 20
0
 30
0
 70
128
 71
132
 72
110
 73
111
 74
133
 0
VERTEX
 8
MANOPOLA_3
 10
0
 20
0
 30
0
 70
128
 71
133
 72
111
 73
112
 74
134
 0
VERTEX
 8
MANOPOLA_3
 10
0
 20
0
 30
0
 70
128
 71
134
 72
112
 73
91
 74
113
 0
VERTEX
 8
MANOPOLA_3
 10
0
 20
0
 30
0
 70
128
 71
135
 72
113
 73
114
 74
136
 0
VERTEX
 8
MANOPOLA_3
 10
0
 20
0
 30
0
 70
128
 71
136
 72
114
 73
115
 74
137
 0
VERTEX
 8
MANOPOLA_3
 10
0
 20
0
 30
0
 70
128
 71
137
 72
115
 73
116
 74
138
 0
VERTEX
 8
MANOPOLA_3
 10
0
 20
0
 30
0
 70
128
 71
138
 72
116
 73
117
 74
139
 0
VERTEX
 8
MANOPOLA_3
 10
0
 20
0
 30
0
 70
128
 71
139
 72
117
 73
118
 74
140
 0
VERTEX
 8
MANOPOLA_3
 10
0
 20
0
 30
0
 70
128
 71
140
 72
118
 73
119
 74
141
 0
VERTEX
 8
MANOPOLA_3
 10
0
 20
0
 30
0
 70
128
 71
141
 72
119
 73
120
 74
142
 0
VERTEX
 8
MANOPOLA_3
 10
0
 20
0
 30
0
 70
128
 71
142
 72
120
 73
121
 74
143
 0
VERTEX
 8
MANOPOLA_3
 10
0
 20
0
 30
0
 70
128
 71
143
 72
121
 73
122
 74
144
 0
VERTEX
 8
MANOPOLA_3
 10
0
 20
0
 30
0
 70
128
 71
144
 72
122
 73
123
 74
145
 0
VERTEX
 8
MANOPOLA_3
 10
0
 20
0
 30
0
 70
128
 71
145
 72
123
 73
124
 74
146
 0
VERTEX
 8
MANOPOLA_3
 10
0
 20
0
 30
0
 70
128
 71
146
 72
124
 73
125
 74
147
 0
VERTEX
 8
MANOPOLA_3
 10
0
 20
0
 30
0
 70
128
 71
147
 72
125
 73
126
 74
148
 0
VERTEX
 8
MANOPOLA_3
 10
0
 20
0
 30
0
 70
128
 71
148
 72
126
 73
127
 74
149
 0
VERTEX
 8
MANOPOLA_3
 10
0
 20
0
 30
0
 70
128
 71
149
 72
127
 73
128
 74
150
 0
VERTEX
 8
MANOPOLA_3
 10
0
 20
0
 30
0
 70
128
 71
150
 72
128
 73
129
 74
151
 0
VERTEX
 8
MANOPOLA_3
 10
0
 20
0
 30
0
 70
128
 71
165
 72
163
 73
164
 74
166
 0
VERTEX
 8
MANOPOLA_3
 10
0
 20
0
 30
0
 70
128
 71
152
 72
130
 73
131
 74
153
 0
VERTEX
 8
MANOPOLA_3
 10
0
 20
0
 30
0
 70
128
 71
153
 72
131
 73
132
 74
154
 0
VERTEX
 8
MANOPOLA_3
 10
0
 20
0
 30
0
 70
128
 71
154
 72
132
 73
133
 74
155
 0
VERTEX
 8
MANOPOLA_3
 10
0
 20
0
 30
0
 70
128
 71
155
 72
133
 73
134
 74
156
 0
VERTEX
 8
MANOPOLA_3
 10
0
 20
0
 30
0
 70
128
 71
156
 72
134
 73
113
 74
135
 0
VERTEX
 8
MANOPOLA_3
 10
0
 20
0
 30
0
 70
128
 71
159
 72
107
 73
85
 74
157
 0
VERTEX
 8
MANOPOLA_3
 10
0
 20
0
 30
0
 70
128
 71
157
 72
85
 73
86
 74
158
 0
VERTEX
 8
MANOPOLA_3
 10
0
 20
0
 30
0
 70
128
 71
158
 72
86
 73
108
 74
160
 0
VERTEX
 8
MANOPOLA_3
 10
0
 20
0
 30
0
 70
128
 71
161
 72
129
 73
107
 74
159
 0
VERTEX
 8
MANOPOLA_3
 10
0
 20
0
 30
0
 70
128
 71
160
 72
108
 73
130
 74
162
 0
VERTEX
 8
MANOPOLA_3
 10
0
 20
0
 30
0
 70
128
 71
168
 72
129
 73
161
 74
161
 0
VERTEX
 8
MANOPOLA_3
 10
0
 20
0
 30
0
 70
128
 71
165
 72
151
 73
129
 74
163
 0
VERTEX
 8
MANOPOLA_3
 10
0
 20
0
 30
0
 70
128
 71
167
 72
130
 73
164
 74
164
 0
VERTEX
 8
MANOPOLA_3
 10
0
 20
0
 30
0
 70
128
 71
164
 72
130
 73
152
 74
166
 0
VERTEX
 8
MANOPOLA_3
 10
0
 20
0
 30
0
 70
128
 71
166
 72
152
 73
151
 74
165
 0
VERTEX
 8
MANOPOLA_3
 10
0
 20
0
 30
0
 70
128
 71
162
 72
130
 73
167
 74
167
 0
VERTEX
 8
MANOPOLA_3
 10
0
 20
0
 30
0
 70
128
 71
163
 72
129
 73
168
 74
168
 0
VERTEX
 8
MANOPOLA_3
 10
0
 20
0
 30
0
 70
128
 71
167
 72
168
 73
161
 74
162
 0
VERTEX
 8
MANOPOLA_3
 10
0
 20
0
 30
0
 70
128
 71
168
 72
167
 73
164
 74
163
 0
VERTEX
 8
MANOPOLA_3
 10
0
 20
0
 30
0
 70
128
 71
169
 72
135
 73
136
 74
170
 0
VERTEX
 8
MANOPOLA_3
 10
0
 20
0
 30
0
 70
128
 71
170
 72
136
 73
137
 74
171
 0
VERTEX
 8
MANOPOLA_3
 10
0
 20
0
 30
0
 70
128
 71
171
 72
137
 73
138
 74
172
 0
VERTEX
 8
MANOPOLA_3
 10
0
 20
0
 30
0
 70
128
 71
172
 72
138
 73
139
 74
173
 0
VERTEX
 8
MANOPOLA_3
 10
0
 20
0
 30
0
 70
128
 71
173
 72
139
 73
140
 74
174
 0
VERTEX
 8
MANOPOLA_3
 10
0
 20
0
 30
0
 70
128
 71
174
 72
140
 73
141
 74
175
 0
VERTEX
 8
MANOPOLA_3
 10
0
 20
0
 30
0
 70
128
 71
175
 72
141
 73
142
 74
176
 0
VERTEX
 8
MANOPOLA_3
 10
0
 20
0
 30
0
 70
128
 71
176
 72
142
 73
143
 74
177
 0
VERTEX
 8
MANOPOLA_3
 10
0
 20
0
 30
0
 70
128
 71
177
 72
143
 73
144
 74
178
 0
VERTEX
 8
MANOPOLA_3
 10
0
 20
0
 30
0
 70
128
 71
178
 72
144
 73
145
 74
179
 0
VERTEX
 8
MANOPOLA_3
 10
0
 20
0
 30
0
 70
128
 71
179
 72
145
 73
146
 74
180
 0
VERTEX
 8
MANOPOLA_3
 10
0
 20
0
 30
0
 70
128
 71
180
 72
146
 73
147
 74
181
 0
VERTEX
 8
MANOPOLA_3
 10
0
 20
0
 30
0
 70
128
 71
181
 72
147
 73
148
 74
182
 0
VERTEX
 8
MANOPOLA_3
 10
0
 20
0
 30
0
 70
128
 71
182
 72
148
 73
149
 74
183
 0
VERTEX
 8
MANOPOLA_3
 10
0
 20
0
 30
0
 70
128
 71
183
 72
149
 73
150
 74
184
 0
VERTEX
 8
MANOPOLA_3
 10
0
 20
0
 30
0
 70
128
 71
184
 72
150
 73
151
 74
185
 0
VERTEX
 8
MANOPOLA_3
 10
0
 20
0
 30
0
 70
128
 71
185
 72
151
 73
152
 74
186
 0
VERTEX
 8
MANOPOLA_3
 10
0
 20
0
 30
0
 70
128
 71
186
 72
152
 73
153
 74
187
 0
VERTEX
 8
MANOPOLA_3
 10
0
 20
0
 30
0
 70
128
 71
187
 72
153
 73
154
 74
188
 0
VERTEX
 8
MANOPOLA_3
 10
0
 20
0
 30
0
 70
128
 71
188
 72
154
 73
155
 74
189
 0
VERTEX
 8
MANOPOLA_3
 10
0
 20
0
 30
0
 70
128
 71
189
 72
155
 73
156
 74
190
 0
VERTEX
 8
MANOPOLA_3
 10
0
 20
0
 30
0
 70
128
 71
190
 72
156
 73
135
 74
169
 0
VERTEX
 8
MANOPOLA_3
 10
0
 20
0
 30
0
 70
128
 71
192
 72
6
 73
4
 74
191
 0
VERTEX
 8
MANOPOLA_3
 10
0
 20
0
 30
0
 70
128
 71
193
 72
8
 73
6
 74
192
 0
VERTEX
 8
MANOPOLA_3
 10
0
 20
0
 30
0
 70
128
 71
194
 72
10
 73
8
 74
193
 0
VERTEX
 8
MANOPOLA_3
 10
0
 20
0
 30
0
 70
128
 71
195
 72
12
 73
10
 74
194
 0
VERTEX
 8
MANOPOLA_3
 10
0
 20
0
 30
0
 70
128
 71
196
 72
14
 73
12
 74
195
 0
VERTEX
 8
MANOPOLA_3
 10
0
 20
0
 30
0
 70
128
 71
197
 72
16
 73
14
 74
196
 0
VERTEX
 8
MANOPOLA_3
 10
0
 20
0
 30
0
 70
128
 71
198
 72
18
 73
16
 74
197
 0
VERTEX
 8
MANOPOLA_3
 10
0
 20
0
 30
0
 70
128
 71
199
 72
20
 73
18
 74
198
 0
VERTEX
 8
MANOPOLA_3
 10
0
 20
0
 30
0
 70
128
 71
200
 72
22
 73
20
 74
199
 0
VERTEX
 8
MANOPOLA_3
 10
0
 20
0
 30
0
 70
128
 71
201
 72
24
 73
22
 74
200
 0
VERTEX
 8
MANOPOLA_3
 10
0
 20
0
 30
0
 70
128
 71
202
 72
26
 73
24
 74
201
 0
VERTEX
 8
MANOPOLA_3
 10
0
 20
0
 30
0
 70
128
 71
203
 72
28
 73
26
 74
202
 0
VERTEX
 8
MANOPOLA_3
 10
0
 20
0
 30
0
 70
128
 71
204
 72
30
 73
28
 74
203
 0
VERTEX
 8
MANOPOLA_3
 10
0
 20
0
 30
0
 70
128
 71
205
 72
32
 73
30
 74
204
 0
VERTEX
 8
MANOPOLA_3
 10
0
 20
0
 30
0
 70
128
 71
206
 72
34
 73
32
 74
205
 0
VERTEX
 8
MANOPOLA_3
 10
0
 20
0
 30
0
 70
128
 71
207
 72
36
 73
34
 74
206
 0
VERTEX
 8
MANOPOLA_3
 10
0
 20
0
 30
0
 70
128
 71
208
 72
38
 73
36
 74
207
 0
VERTEX
 8
MANOPOLA_3
 10
0
 20
0
 30
0
 70
128
 71
209
 72
40
 73
38
 74
208
 0
VERTEX
 8
MANOPOLA_3
 10
0
 20
0
 30
0
 70
128
 71
210
 72
42
 73
40
 74
209
 0
VERTEX
 8
MANOPOLA_3
 10
0
 20
0
 30
0
 70
128
 71
211
 72
44
 73
42
 74
210
 0
VERTEX
 8
MANOPOLA_3
 10
0
 20
0
 30
0
 70
128
 71
212
 72
46
 73
44
 74
211
 0
VERTEX
 8
MANOPOLA_3
 10
0
 20
0
 30
0
 70
128
 71
191
 72
4
 73
46
 74
212
 0
VERTEX
 8
MANOPOLA_3
 10
0
 20
0
 30
0
 70
128
 71
214
 72
192
 73
191
 74
213
 0
VERTEX
 8
MANOPOLA_3
 10
0
 20
0
 30
0
 70
128
 71
215
 72
193
 73
192
 74
214
 0
VERTEX
 8
MANOPOLA_3
 10
0
 20
0
 30
0
 70
128
 71
216
 72
194
 73
193
 74
215
 0
VERTEX
 8
MANOPOLA_3
 10
0
 20
0
 30
0
 70
128
 71
217
 72
195
 73
194
 74
216
 0
VERTEX
 8
MANOPOLA_3
 10
0
 20
0
 30
0
 70
128
 71
218
 72
196
 73
195
 74
217
 0
VERTEX
 8
MANOPOLA_3
 10
0
 20
0
 30
0
 70
128
 71
219
 72
197
 73
196
 74
218
 0
VERTEX
 8
MANOPOLA_3
 10
0
 20
0
 30
0
 70
128
 71
220
 72
198
 73
197
 74
219
 0
VERTEX
 8
MANOPOLA_3
 10
0
 20
0
 30
0
 70
128
 71
221
 72
199
 73
198
 74
220
 0
VERTEX
 8
MANOPOLA_3
 10
0
 20
0
 30
0
 70
128
 71
222
 72
200
 73
199
 74
221
 0
VERTEX
 8
MANOPOLA_3
 10
0
 20
0
 30
0
 70
128
 71
223
 72
201
 73
200
 74
222
 0
VERTEX
 8
MANOPOLA_3
 10
0
 20
0
 30
0
 70
128
 71
224
 72
202
 73
201
 74
223
 0
VERTEX
 8
MANOPOLA_3
 10
0
 20
0
 30
0
 70
128
 71
225
 72
203
 73
202
 74
224
 0
VERTEX
 8
MANOPOLA_3
 10
0
 20
0
 30
0
 70
128
 71
226
 72
204
 73
203
 74
225
 0
VERTEX
 8
MANOPOLA_3
 10
0
 20
0
 30
0
 70
128
 71
227
 72
205
 73
204
 74
226
 0
VERTEX
 8
MANOPOLA_3
 10
0
 20
0
 30
0
 70
128
 71
228
 72
206
 73
205
 74
227
 0
VERTEX
 8
MANOPOLA_3
 10
0
 20
0
 30
0
 70
128
 71
229
 72
207
 73
206
 74
228
 0
VERTEX
 8
MANOPOLA_3
 10
0
 20
0
 30
0
 70
128
 71
230
 72
208
 73
207
 74
229
 0
VERTEX
 8
MANOPOLA_3
 10
0
 20
0
 30
0
 70
128
 71
231
 72
209
 73
208
 74
230
 0
VERTEX
 8
MANOPOLA_3
 10
0
 20
0
 30
0
 70
128
 71
232
 72
210
 73
209
 74
231
 0
VERTEX
 8
MANOPOLA_3
 10
0
 20
0
 30
0
 70
128
 71
233
 72
211
 73
210
 74
232
 0
VERTEX
 8
MANOPOLA_3
 10
0
 20
0
 30
0
 70
128
 71
234
 72
212
 73
211
 74
233
 0
VERTEX
 8
MANOPOLA_3
 10
0
 20
0
 30
0
 70
128
 71
213
 72
191
 73
212
 74
234
 0
SEQEND
 0
POLYLINE
 8
MANOPOLA_2
 66
1
 10
0.0
 20
0.0
 30
0.0
 70
64
 71
234
 72
256
 0
VERTEX
 8
MANOPOLA_2
 10
45.3467
 20
-11.848
 30
22.35
 70
192
 0
VERTEX
 8
MANOPOLA_2
 10
45.3467
 20
-11.848
 30
18.8896
 70
192
 0
VERTEX
 8
MANOPOLA_2
 10
47.3503
 20
-11.848
 30
19.7912
 70
192
 0
VERTEX
 8
MANOPOLA_2
 10
47.3503
 20
-11.848
 30
19.4
 70
192
 0
VERTEX
 8
MANOPOLA_2
 10
47.2692
 20
-12.4125
 30
19.7912
 70
192
 0
VERTEX
 8
MANOPOLA_2
 10
47.2692
 20
-12.4125
 30
19.4
 70
192
 0
VERTEX
 8
MANOPOLA_2
 10
47.0323
 20
-12.9313
 30
19.7912
 70
192
 0
VERTEX
 8
MANOPOLA_2
 10
47.0323
 20
-12.9313
 30
19.4
 70
192
 0
VERTEX
 8
MANOPOLA_2
 10
46.6588
 20
-13.3623
 30
19.7912
 70
192
 0
VERTEX
 8
MANOPOLA_2
 10
46.6588
 20
-13.3623
 30
19.4
 70
192
 0
VERTEX
 8
MANOPOLA_2
 10
46.179
 20
-13.6706
 30
19.7912
 70
192
 0
VERTEX
 8
MANOPOLA_2
 10
46.179
 20
-13.6706
 30
19.4
 70
192
 0
VERTEX
 8
MANOPOLA_2
 10
45.6318
 20
-13.8313
 30
19.7912
 70
192
 0
VERTEX
 8
MANOPOLA_2
 10
45.6318
 20
-13.8313
 30
19.4
 70
192
 0
VERTEX
 8
MANOPOLA_2
 10
45.0615
 20
-13.8313
 30
19.7912
 70
192
 0
VERTEX
 8
MANOPOLA_2
 10
45.0615
 20
-13.8313
 30
19.4
 70
192
 0
VERTEX
 8
MANOPOLA_2
 10
44.5143
 20
-13.6706
 30
19.7912
 70
192
 0
VERTEX
 8
MANOPOLA_2
 10
44.5143
 20
-13.6706
 30
19.4
 70
192
 0
VERTEX
 8
MANOPOLA_2
 10
44.0346
 20
-13.3623
 30
19.7912
 70
192
 0
VERTEX
 8
MANOPOLA_2
 10
44.0346
 20
-13.3623
 30
19.4
 70
192
 0
VERTEX
 8
MANOPOLA_2
 10
43.6611
 20
-12.9313
 30
19.7912
 70
192
 0
VERTEX
 8
MANOPOLA_2
 10
43.6611
 20
-12.9313
 30
19.4
 70
192
 0
VERTEX
 8
MANOPOLA_2
 10
43.4242
 20
-12.4125
 30
19.7912
 70
192
 0
VERTEX
 8
MANOPOLA_2
 10
43.4242
 20
-12.4125
 30
19.4
 70
192
 0
VERTEX
 8
MANOPOLA_2
 10
43.343
 20
-11.848
 30
19.7912
 70
192
 0
VERTEX
 8
MANOPOLA_2
 10
43.343
 20
-11.848
 30
19.4
 70
192
 0
VERTEX
 8
MANOPOLA_2
 10
43.4242
 20
-11.2835
 30
19.7912
 70
192
 0
VERTEX
 8
MANOPOLA_2
 10
43.4242
 20
-11.2835
 30
19.4
 70
192
 0
VERTEX
 8
MANOPOLA_2
 10
43.6611
 20
-10.7648
 30
19.7912
 70
192
 0
VERTEX
 8
MANOPOLA_2
 10
43.6611
 20
-10.7648
 30
19.4
 70
192
 0
VERTEX
 8
MANOPOLA_2
 10
44.0346
 20
-10.3338
 30
19.7912
 70
192
 0
VERTEX
 8
MANOPOLA_2
 10
44.0346
 20
-10.3338
 30
19.4
 70
192
 0
VERTEX
 8
MANOPOLA_2
 10
44.5143
 20
-10.0254
 30
19.7912
 70
192
 0
VERTEX
 8
MANOPOLA_2
 10
44.5143
 20
-10.0254
 30
19.4
 70
192
 0
VERTEX
 8
MANOPOLA_2
 10
45.0615
 20
-9.8648
 30
19.7912
 70
192
 0
VERTEX
 8
MANOPOLA_2
 10
45.0615
 20
-9.8648
 30
19.4
 70
192
 0
VERTEX
 8
MANOPOLA_2
 10
45.6318
 20
-9.8648
 30
19.7912
 70
192
 0
VERTEX
 8
MANOPOLA_2
 10
45.6318
 20
-9.8648
 30
19.4
 70
192
 0
VERTEX
 8
MANOPOLA_2
 10
46.179
 20
-10.0254
 30
19.7912
 70
192
 0
VERTEX
 8
MANOPOLA_2
 10
46.179
 20
-10.0254
 30
19.4
 70
192
 0
VERTEX
 8
MANOPOLA_2
 10
46.6588
 20
-10.3338
 30
19.7912
 70
192
 0
VERTEX
 8
MANOPOLA_2
 10
46.6588
 20
-10.3338
 30
19.4
 70
192
 0
VERTEX
 8
MANOPOLA_2
 10
47.0323
 20
-10.7648
 30
19.7912
 70
192
 0
VERTEX
 8
MANOPOLA_2
 10
47.0323
 20
-10.7648
 30
19.4
 70
192
 0
VERTEX
 8
MANOPOLA_2
 10
47.2692
 20
-11.2835
 30
19.7912
 70
192
 0
VERTEX
 8
MANOPOLA_2
 10
47.2692
 20
-11.2835
 30
19.4
 70
192
 0
VERTEX
 8
MANOPOLA_2
 10
46.99
 20
-11.848
 30
19.7912
 70
192
 0
VERTEX
 8
MANOPOLA_2
 10
46.99
 20
-12.3983
 30
19.7912
 70
192
 0
VERTEX
 8
MANOPOLA_2
 10
46.9898
 20
-12.904
 30
19.7912
 70
192
 0
VERTEX
 8
MANOPOLA_2
 10
46.6257
 20
-13.3241
 30
19.7912
 70
192
 0
VERTEX
 8
MANOPOLA_2
 10
46.158
 20
-13.6247
 30
19.7912
 70
192
 0
VERTEX
 8
MANOPOLA_2
 10
45.6246
 20
-13.7813
 30
19.7912
 70
192
 0
VERTEX
 8
MANOPOLA_2
 10
45.0687
 20
-13.7813
 30
19.7912
 70
192
 0
VERTEX
 8
MANOPOLA_2
 10
44.5353
 20
-13.6247
 30
19.7912
 70
192
 0
VERTEX
 8
MANOPOLA_2
 10
44.0676
 20
-13.3241
 30
19.7912
 70
192
 0
VERTEX
 8
MANOPOLA_2
 10
43.7036
 20
-12.904
 30
19.7912
 70
192
 0
VERTEX
 8
MANOPOLA_2
 10
43.704
 20
-12.3983
 30
19.7912
 70
192
 0
VERTEX
 8
MANOPOLA_2
 10
43.704
 20
-11.848
 30
19.7912
 70
192
 0
VERTEX
 8
MANOPOLA_2
 10
43.704
 20
-11.2978
 30
19.7912
 70
192
 0
VERTEX
 8
MANOPOLA_2
 10
43.7036
 20
-10.7921
 30
19.7912
 70
192
 0
VERTEX
 8
MANOPOLA_2
 10
44.0676
 20
-10.372
 30
19.7912
 70
192
 0
VERTEX
 8
MANOPOLA_2
 10
44.5353
 20
-10.0714
 30
19.7912
 70
192
 0
VERTEX
 8
MANOPOLA_2
 10
45.0687
 20
-9.9148
 30
19.7912
 70
192
 0
VERTEX
 8
MANOPOLA_2
 10
45.6246
 20
-9.9148
 30
19.7912
 70
192
 0
VERTEX
 8
MANOPOLA_2
 10
46.158
 20
-10.0714
 30
19.7912
 70
192
 0
VERTEX
 8
MANOPOLA_2
 10
46.6257
 20
-10.372
 30
19.7912
 70
192
 0
VERTEX
 8
MANOPOLA_2
 10
46.9898
 20
-10.7921
 30
19.7912
 70
192
 0
VERTEX
 8
MANOPOLA_2
 10
46.99
 20
-11.2978
 30
19.7912
 70
192
 0
VERTEX
 8
MANOPOLA_2
 10
46.99
 20
-11.848
 30
20.898
 70
192
 0
VERTEX
 8
MANOPOLA_2
 10
46.99
 20
-12.3983
 30
20.898
 70
192
 0
VERTEX
 8
MANOPOLA_2
 10
46.9898
 20
-12.904
 30
20.898
 70
192
 0
VERTEX
 8
MANOPOLA_2
 10
46.6257
 20
-13.3241
 30
20.898
 70
192
 0
VERTEX
 8
MANOPOLA_2
 10
46.158
 20
-13.6247
 30
20.898
 70
192
 0
VERTEX
 8
MANOPOLA_2
 10
45.6246
 20
-13.7813
 30
20.898
 70
192
 0
VERTEX
 8
MANOPOLA_2
 10
45.0687
 20
-13.7813
 30
20.898
 70
192
 0
VERTEX
 8
MANOPOLA_2
 10
44.5353
 20
-13.6247
 30
20.898
 70
192
 0
VERTEX
 8
MANOPOLA_2
 10
44.0676
 20
-13.3241
 30
20.898
 70
192
 0
VERTEX
 8
MANOPOLA_2
 10
43.7036
 20
-12.904
 30
20.898
 70
192
 0
VERTEX
 8
MANOPOLA_2
 10
43.704
 20
-12.3983
 30
20.898
 70
192
 0
VERTEX
 8
MANOPOLA_2
 10
43.704
 20
-11.848
 30
20.898
 70
192
 0
VERTEX
 8
MANOPOLA_2
 10
43.704
 20
-11.2978
 30
20.898
 70
192
 0
VERTEX
 8
MANOPOLA_2
 10
43.7036
 20
-10.7921
 30
20.898
 70
192
 0
VERTEX
 8
MANOPOLA_2
 10
44.0676
 20
-10.372
 30
20.898
 70
192
 0
VERTEX
 8
MANOPOLA_2
 10
44.5353
 20
-10.0714
 30
20.898
 70
192
 0
VERTEX
 8
MANOPOLA_2
 10
45.0687
 20
-9.9148
 30
20.898
 70
192
 0
VERTEX
 8
MANOPOLA_2
 10
45.6246
 20
-9.9148
 30
20.898
 70
192
 0
VERTEX
 8
MANOPOLA_2
 10
46.158
 20
-10.0714
 30
20.898
 70
192
 0
VERTEX
 8
MANOPOLA_2
 10
46.6257
 20
-10.372
 30
20.898
 70
192
 0
VERTEX
 8
MANOPOLA_2
 10
46.9898
 20
-10.7921
 30
20.898
 70
192
 0
VERTEX
 8
MANOPOLA_2
 10
46.99
 20
-11.2978
 30
20.898
 70
192
 0
VERTEX
 8
MANOPOLA_2
 10
46.99
 20
-11.848
 30
22.1002
 70
192
 0
VERTEX
 8
MANOPOLA_2
 10
46.99
 20
-12.3983
 30
22.1002
 70
192
 0
VERTEX
 8
MANOPOLA_2
 10
46.9898
 20
-12.904
 30
22.1002
 70
192
 0
VERTEX
 8
MANOPOLA_2
 10
46.6257
 20
-13.3241
 30
22.1002
 70
192
 0
VERTEX
 8
MANOPOLA_2
 10
46.158
 20
-13.6247
 30
22.1002
 70
192
 0
VERTEX
 8
MANOPOLA_2
 10
45.6246
 20
-13.7813
 30
22.1002
 70
192
 0
VERTEX
 8
MANOPOLA_2
 10
45.0687
 20
-13.7813
 30
22.1002
 70
192
 0
VERTEX
 8
MANOPOLA_2
 10
44.5353
 20
-13.6247
 30
22.1002
 70
192
 0
VERTEX
 8
MANOPOLA_2
 10
44.0676
 20
-13.3241
 30
22.1002
 70
192
 0
VERTEX
 8
MANOPOLA_2
 10
43.7036
 20
-12.904
 30
22.1002
 70
192
 0
VERTEX
 8
MANOPOLA_2
 10
43.704
 20
-12.3983
 30
22.1002
 70
192
 0
VERTEX
 8
MANOPOLA_2
 10
43.704
 20
-11.848
 30
22.1002
 70
192
 0
VERTEX
 8
MANOPOLA_2
 10
43.704
 20
-11.2978
 30
22.1002
 70
192
 0
VERTEX
 8
MANOPOLA_2
 10
43.7036
 20
-10.7921
 30
22.1002
 70
192
 0
VERTEX
 8
MANOPOLA_2
 10
44.0676
 20
-10.372
 30
22.1002
 70
192
 0
VERTEX
 8
MANOPOLA_2
 10
44.5353
 20
-10.0714
 30
22.1002
 70
192
 0
VERTEX
 8
MANOPOLA_2
 10
45.0687
 20
-9.9148
 30
22.1002
 70
192
 0
VERTEX
 8
MANOPOLA_2
 10
45.6246
 20
-9.9148
 30
22.1002
 70
192
 0
VERTEX
 8
MANOPOLA_2
 10
46.158
 20
-10.0714
 30
22.1002
 70
192
 0
VERTEX
 8
MANOPOLA_2
 10
46.6257
 20
-10.372
 30
22.1002
 70
192
 0
VERTEX
 8
MANOPOLA_2
 10
46.9898
 20
-10.7921
 30
22.1002
 70
192
 0
VERTEX
 8
MANOPOLA_2
 10
46.99
 20
-11.2978
 30
22.1002
 70
192
 0
VERTEX
 8
MANOPOLA_2
 10
46.99
 20
-11.848
 30
22.1399
 70
192
 0
VERTEX
 8
MANOPOLA_2
 10
46.99
 20
-12.3983
 30
22.1399
 70
192
 0
VERTEX
 8
MANOPOLA_2
 10
46.9898
 20
-12.904
 30
22.1399
 70
192
 0
VERTEX
 8
MANOPOLA_2
 10
46.6257
 20
-13.3241
 30
22.1399
 70
192
 0
VERTEX
 8
MANOPOLA_2
 10
46.158
 20
-13.6247
 30
22.1399
 70
192
 0
VERTEX
 8
MANOPOLA_2
 10
45.6246
 20
-13.7813
 30
22.1399
 70
192
 0
VERTEX
 8
MANOPOLA_2
 10
45.0687
 20
-13.7813
 30
22.1399
 70
192
 0
VERTEX
 8
MANOPOLA_2
 10
44.5353
 20
-13.6247
 30
22.1399
 70
192
 0
VERTEX
 8
MANOPOLA_2
 10
44.0676
 20
-13.3241
 30
22.1399
 70
192
 0
VERTEX
 8
MANOPOLA_2
 10
43.7036
 20
-12.904
 30
22.1399
 70
192
 0
VERTEX
 8
MANOPOLA_2
 10
43.704
 20
-12.3983
 30
22.1399
 70
192
 0
VERTEX
 8
MANOPOLA_2
 10
43.704
 20
-11.848
 30
22.1399
 70
192
 0
VERTEX
 8
MANOPOLA_2
 10
43.704
 20
-11.2978
 30
22.1399
 70
192
 0
VERTEX
 8
MANOPOLA_2
 10
43.7036
 20
-10.7921
 30
22.1399
 70
192
 0
VERTEX
 8
MANOPOLA_2
 10
44.0676
 20
-10.372
 30
22.1399
 70
192
 0
VERTEX
 8
MANOPOLA_2
 10
44.5353
 20
-10.0714
 30
22.1399
 70
192
 0
VERTEX
 8
MANOPOLA_2
 10
45.0687
 20
-9.9148
 30
22.1399
 70
192
 0
VERTEX
 8
MANOPOLA_2
 10
45.6246
 20
-9.9148
 30
22.1399
 70
192
 0
VERTEX
 8
MANOPOLA_2
 10
46.158
 20
-10.0714
 30
22.1399
 70
192
 0
VERTEX
 8
MANOPOLA_2
 10
46.6257
 20
-10.372
 30
22.1399
 70
192
 0
VERTEX
 8
MANOPOLA_2
 10
46.9898
 20
-10.7921
 30
22.1399
 70
192
 0
VERTEX
 8
MANOPOLA_2
 10
46.99
 20
-11.2978
 30
22.1399
 70
192
 0
VERTEX
 8
MANOPOLA_2
 10
46.9778
 20
-11.848
 30
22.1849
 70
192
 0
VERTEX
 8
MANOPOLA_2
 10
46.9784
 20
-12.3272
 30
22.1849
 70
192
 0
VERTEX
 8
MANOPOLA_2
 10
46.7773
 20
-12.7674
 30
22.1849
 70
192
 0
VERTEX
 8
MANOPOLA_2
 10
46.4603
 20
-13.1333
 30
22.1849
 70
192
 0
VERTEX
 8
MANOPOLA_2
 10
46.0531
 20
-13.3949
 30
22.1849
 70
192
 0
VERTEX
 8
MANOPOLA_2
 10
45.5887
 20
-13.5313
 30
22.1849
 70
192
 0
VERTEX
 8
MANOPOLA_2
 10
45.1047
 20
-13.5313
 30
22.1849
 70
192
 0
VERTEX
 8
MANOPOLA_2
 10
44.6402
 20
-13.3949
 30
22.1849
 70
192
 0
VERTEX
 8
MANOPOLA_2
 10
44.233
 20
-13.1333
 30
22.1849
 70
192
 0
VERTEX
 8
MANOPOLA_2
 10
43.9161
 20
-12.7674
 30
22.1849
 70
192
 0
VERTEX
 8
MANOPOLA_2
 10
43.715
 20
-12.3272
 30
22.1849
 70
192
 0
VERTEX
 8
MANOPOLA_2
 10
43.7174
 20
-11.848
 30
22.1849
 70
192
 0
VERTEX
 8
MANOPOLA_2
 10
43.715
 20
-11.3689
 30
22.1849
 70
192
 0
VERTEX
 8
MANOPOLA_2
 10
43.9161
 20
-10.9286
 30
22.1849
 70
192
 0
VERTEX
 8
MANOPOLA_2
 10
44.233
 20
-10.5628
 30
22.1849
 70
192
 0
VERTEX
 8
MANOPOLA_2
 10
44.6402
 20
-10.3011
 30
22.1849
 70
192
 0
VERTEX
 8
MANOPOLA_2
 10
45.1047
 20
-10.1648
 30
22.1849
 70
192
 0
VERTEX
 8
MANOPOLA_2
 10
45.5887
 20
-10.1648
 30
22.1849
 70
192
 0
VERTEX
 8
MANOPOLA_2
 10
46.0531
 20
-10.3011
 30
22.1849
 70
192
 0
VERTEX
 8
MANOPOLA_2
 10
46.4603
 20
-10.5628
 30
22.1849
 70
192
 0
VERTEX
 8
MANOPOLA_2
 10
46.7773
 20
-10.9286
 30
22.1849
 70
192
 0
VERTEX
 8
MANOPOLA_2
 10
46.9784
 20
-11.3689
 30
22.1849
 70
192
 0
VERTEX
 8
MANOPOLA_2
 10
45.1087
 20
-9.9148
 30
20.938
 70
192
 0
VERTEX
 8
MANOPOLA_2
 10
45.5846
 20
-9.9148
 30
20.938
 70
192
 0
VERTEX
 8
MANOPOLA_2
 10
45.1087
 20
-10.0794
 30
21.8927
 70
192
 0
VERTEX
 8
MANOPOLA_2
 10
45.5846
 20
-10.0794
 30
21.8927
 70
192
 0
VERTEX
 8
MANOPOLA_2
 10
45.1087
 20
-10.126
 30
22.0946
 70
192
 0
VERTEX
 8
MANOPOLA_2
 10
45.5846
 20
-10.126
 30
22.0946
 70
192
 0
VERTEX
 8
MANOPOLA_2
 10
45.1149
 20
-10.1293
 30
22.1795
 70
192
 0
VERTEX
 8
MANOPOLA_2
 10
45.5785
 20
-10.1293
 30
22.1795
 70
192
 0
VERTEX
 8
MANOPOLA_2
 10
45.1393
 20
-10.144
 30
22.1693
 70
192
 0
VERTEX
 8
MANOPOLA_2
 10
45.554
 20
-10.144
 30
22.1693
 70
192
 0
VERTEX
 8
MANOPOLA_2
 10
45.5844
 20
-10.1374
 30
22.1352
 70
192
 0
VERTEX
 8
MANOPOLA_2
 10
45.1085
 20
-10.1374
 30
22.1352
 70
192
 0
VERTEX
 8
MANOPOLA_2
 10
46.0778
 20
-11.848
 30
22.35
 70
192
 0
VERTEX
 8
MANOPOLA_2
 10
46.0781
 20
-12.1319
 30
22.35
 70
192
 0
VERTEX
 8
MANOPOLA_2
 10
46.0124
 20
-12.2759
 30
22.35
 70
192
 0
VERTEX
 8
MANOPOLA_2
 10
45.8649
 20
-12.4461
 30
22.35
 70
192
 0
VERTEX
 8
MANOPOLA_2
 10
45.6754
 20
-12.5679
 30
22.35
 70
192
 0
VERTEX
 8
MANOPOLA_2
 10
45.4593
 20
-12.6313
 30
22.35
 70
192
 0
VERTEX
 8
MANOPOLA_2
 10
45.2341
 20
-12.6313
 30
22.35
 70
192
 0
VERTEX
 8
MANOPOLA_2
 10
45.018
 20
-12.5679
 30
22.35
 70
192
 0
VERTEX
 8
MANOPOLA_2
 10
44.8285
 20
-12.4461
 30
22.35
 70
192
 0
VERTEX
 8
MANOPOLA_2
 10
44.681
 20
-12.2759
 30
22.35
 70
192
 0
VERTEX
 8
MANOPOLA_2
 10
44.616
 20
-12.1335
 30
22.35
 70
192
 0
VERTEX
 8
MANOPOLA_2
 10
44.6174
 20
-11.848
 30
22.35
 70
192
 0
VERTEX
 8
MANOPOLA_2
 10
44.616
 20
-11.5626
 30
22.35
 70
192
 0
VERTEX
 8
MANOPOLA_2
 10
44.681
 20
-11.4202
 30
22.35
 70
192
 0
VERTEX
 8
MANOPOLA_2
 10
44.8285
 20
-11.25
 30
22.35
 70
192
 0
VERTEX
 8
MANOPOLA_2
 10
45.018
 20
-11.1282
 30
22.35
 70
192
 0
VERTEX
 8
MANOPOLA_2
 10
45.2341
 20
-11.0648
 30
22.35
 70
192
 0
VERTEX
 8
MANOPOLA_2
 10
45.4593
 20
-11.0648
 30
22.35
 70
192
 0
VERTEX
 8
MANOPOLA_2
 10
45.6754
 20
-11.1282
 30
22.35
 70
192
 0
VERTEX
 8
MANOPOLA_2
 10
45.8649
 20
-11.25
 30
22.35
 70
192
 0
VERTEX
 8
MANOPOLA_2
 10
46.0124
 20
-11.4202
 30
22.35
 70
192
 0
VERTEX
 8
MANOPOLA_2
 10
46.0781
 20
-11.5642
 30
22.35
 70
192
 0
VERTEX
 8
MANOPOLA_2
 10
46.9866
 20
-11.848
 30
19.4
 70
192
 0
VERTEX
 8
MANOPOLA_2
 10
46.9202
 20
-12.3101
 30
19.4
 70
192
 0
VERTEX
 8
MANOPOLA_2
 10
46.7263
 20
-12.7347
 30
19.4
 70
192
 0
VERTEX
 8
MANOPOLA_2
 10
46.4206
 20
-13.0874
 30
19.4
 70
192
 0
VERTEX
 8
MANOPOLA_2
 10
46.0279
 20
-13.3398
 30
19.4
 70
192
 0
VERTEX
 8
MANOPOLA_2
 10
45.5801
 20
-13.4713
 30
19.4
 70
192
 0
VERTEX
 8
MANOPOLA_2
 10
45.1133
 20
-13.4713
 30
19.4
 70
192
 0
VERTEX
 8
MANOPOLA_2
 10
44.6654
 20
-13.3398
 30
19.4
 70
192
 0
VERTEX
 8
MANOPOLA_2
 10
44.2727
 20
-13.0874
 30
19.4
 70
192
 0
VERTEX
 8
MANOPOLA_2
 10
43.9671
 20
-12.7347
 30
19.4
 70
192
 0
VERTEX
 8
MANOPOLA_2
 10
43.7731
 20
-12.3101
 30
19.4
 70
192
 0
VERTEX
 8
MANOPOLA_2
 10
43.7067
 20
-11.848
 30
19.4
 70
192
 0
VERTEX
 8
MANOPOLA_2
 10
43.7731
 20
-11.386
 30
19.4
 70
192
 0
VERTEX
 8
MANOPOLA_2
 10
43.9671
 20
-10.9614
 30
19.4
 70
192
 0
VERTEX
 8
MANOPOLA_2
 10
44.2727
 20
-10.6086
 30
19.4
 70
192
 0
VERTEX
 8
MANOPOLA_2
 10
44.6654
 20
-10.3563
 30
19.4
 70
192
 0
VERTEX
 8
MANOPOLA_2
 10
45.1133
 20
-10.2248
 30
19.4
 70
192
 0
VERTEX
 8
MANOPOLA_2
 10
45.5801
 20
-10.2248
 30
19.4
 70
192
 0
VERTEX
 8
MANOPOLA_2
 10
46.0279
 20
-10.3563
 30
19.4
 70
192
 0
VERTEX
 8
MANOPOLA_2
 10
46.4206
 20
-10.6086
 30
19.4
 70
192
 0
VERTEX
 8
MANOPOLA_2
 10
46.7263
 20
-10.9614
 30
19.4
 70
192
 0
VERTEX
 8
MANOPOLA_2
 10
46.9202
 20
-11.386
 30
19.4
 70
192
 0
VERTEX
 8
MANOPOLA_2
 10
46.9866
 20
-11.848
 30
18.8896
 70
192
 0
VERTEX
 8
MANOPOLA_2
 10
46.9202
 20
-12.3101
 30
18.8896
 70
192
 0
VERTEX
 8
MANOPOLA_2
 10
46.7263
 20
-12.7347
 30
18.8896
 70
192
 0
VERTEX
 8
MANOPOLA_2
 10
46.4206
 20
-13.0874
 30
18.8896
 70
192
 0
VERTEX
 8
MANOPOLA_2
 10
46.0279
 20
-13.3398
 30
18.8896
 70
192
 0
VERTEX
 8
MANOPOLA_2
 10
45.5801
 20
-13.4713
 30
18.8896
 70
192
 0
VERTEX
 8
MANOPOLA_2
 10
45.1133
 20
-13.4713
 30
18.8896
 70
192
 0
VERTEX
 8
MANOPOLA_2
 10
44.6654
 20
-13.3398
 30
18.8896
 70
192
 0
VERTEX
 8
MANOPOLA_2
 10
44.2727
 20
-13.0874
 30
18.8896
 70
192
 0
VERTEX
 8
MANOPOLA_2
 10
43.9671
 20
-12.7347
 30
18.8896
 70
192
 0
VERTEX
 8
MANOPOLA_2
 10
43.7731
 20
-12.3101
 30
18.8896
 70
192
 0
VERTEX
 8
MANOPOLA_2
 10
43.7067
 20
-11.848
 30
18.8896
 70
192
 0
VERTEX
 8
MANOPOLA_2
 10
43.7731
 20
-11.386
 30
18.8896
 70
192
 0
VERTEX
 8
MANOPOLA_2
 10
43.9671
 20
-10.9614
 30
18.8896
 70
192
 0
VERTEX
 8
MANOPOLA_2
 10
44.2727
 20
-10.6086
 30
18.8896
 70
192
 0
VERTEX
 8
MANOPOLA_2
 10
44.6654
 20
-10.3563
 30
18.8896
 70
192
 0
VERTEX
 8
MANOPOLA_2
 10
45.1133
 20
-10.2248
 30
18.8896
 70
192
 0
VERTEX
 8
MANOPOLA_2
 10
45.5801
 20
-10.2248
 30
18.8896
 70
192
 0
VERTEX
 8
MANOPOLA_2
 10
46.0279
 20
-10.3563
 30
18.8896
 70
192
 0
VERTEX
 8
MANOPOLA_2
 10
46.4206
 20
-10.6086
 30
18.8896
 70
192
 0
VERTEX
 8
MANOPOLA_2
 10
46.7263
 20
-10.9614
 30
18.8896
 70
192
 0
VERTEX
 8
MANOPOLA_2
 10
46.9202
 20
-11.386
 30
18.8896
 70
192
 0
VERTEX
 8
MANOPOLA_2
 10
0
 20
0
 30
0
 70
128
 71
1
 72
169
 73
170
 74
170
 0
VERTEX
 8
MANOPOLA_2
 10
0
 20
0
 30
0
 70
128
 71
3
 72
4
 73
6
 74
5
 0
VERTEX
 8
MANOPOLA_2
 10
0
 20
0
 30
0
 70
128
 71
213
 72
2
 73
214
 74
214
 0
VERTEX
 8
MANOPOLA_2
 10
0
 20
0
 30
0
 70
128
 71
1
 72
170
 73
171
 74
171
 0
VERTEX
 8
MANOPOLA_2
 10
0
 20
0
 30
0
 70
128
 71
5
 72
6
 73
8
 74
7
 0
VERTEX
 8
MANOPOLA_2
 10
0
 20
0
 30
0
 70
128
 71
214
 72
2
 73
215
 74
215
 0
VERTEX
 8
MANOPOLA_2
 10
0
 20
0
 30
0
 70
128
 71
1
 72
171
 73
172
 74
172
 0
VERTEX
 8
MANOPOLA_2
 10
0
 20
0
 30
0
 70
128
 71
7
 72
8
 73
10
 74
9
 0
VERTEX
 8
MANOPOLA_2
 10
0
 20
0
 30
0
 70
128
 71
215
 72
2
 73
216
 74
216
 0
VERTEX
 8
MANOPOLA_2
 10
0
 20
0
 30
0
 70
128
 71
1
 72
172
 73
173
 74
173
 0
VERTEX
 8
MANOPOLA_2
 10
0
 20
0
 30
0
 70
128
 71
9
 72
10
 73
12
 74
11
 0
VERTEX
 8
MANOPOLA_2
 10
0
 20
0
 30
0
 70
128
 71
216
 72
2
 73
217
 74
217
 0
VERTEX
 8
MANOPOLA_2
 10
0
 20
0
 30
0
 70
128
 71
1
 72
173
 73
174
 74
174
 0
VERTEX
 8
MANOPOLA_2
 10
0
 20
0
 30
0
 70
128
 71
11
 72
12
 73
14
 74
13
 0
VERTEX
 8
MANOPOLA_2
 10
0
 20
0
 30
0
 70
128
 71
217
 72
2
 73
218
 74
218
 0
VERTEX
 8
MANOPOLA_2
 10
0
 20
0
 30
0
 70
128
 71
1
 72
174
 73
175
 74
175
 0
VERTEX
 8
MANOPOLA_2
 10
0
 20
0
 30
0
 70
128
 71
13
 72
14
 73
16
 74
15
 0
VERTEX
 8
MANOPOLA_2
 10
0
 20
0
 30
0
 70
128
 71
218
 72
2
 73
219
 74
219
 0
VERTEX
 8
MANOPOLA_2
 10
0
 20
0
 30
0
 70
128
 71
1
 72
175
 73
176
 74
176
 0
VERTEX
 8
MANOPOLA_2
 10
0
 20
0
 30
0
 70
128
 71
15
 72
16
 73
18
 74
17
 0
VERTEX
 8
MANOPOLA_2
 10
0
 20
0
 30
0
 70
128
 71
219
 72
2
 73
220
 74
220
 0
VERTEX
 8
MANOPOLA_2
 10
0
 20
0
 30
0
 70
128
 71
1
 72
176
 73
177
 74
177
 0
VERTEX
 8
MANOPOLA_2
 10
0
 20
0
 30
0
 70
128
 71
17
 72
18
 73
20
 74
19
 0
VERTEX
 8
MANOPOLA_2
 10
0
 20
0
 30
0
 70
128
 71
220
 72
2
 73
221
 74
221
 0
VERTEX
 8
MANOPOLA_2
 10
0
 20
0
 30
0
 70
128
 71
1
 72
177
 73
178
 74
178
 0
VERTEX
 8
MANOPOLA_2
 10
0
 20
0
 30
0
 70
128
 71
19
 72
20
 73
22
 74
21
 0
VERTEX
 8
MANOPOLA_2
 10
0
 20
0
 30
0
 70
128
 71
221
 72
2
 73
222
 74
222
 0
VERTEX
 8
MANOPOLA_2
 10
0
 20
0
 30
0
 70
128
 71
1
 72
178
 73
179
 74
179
 0
VERTEX
 8
MANOPOLA_2
 10
0
 20
0
 30
0
 70
128
 71
21
 72
22
 73
24
 74
23
 0
VERTEX
 8
MANOPOLA_2
 10
0
 20
0
 30
0
 70
128
 71
222
 72
2
 73
223
 74
223
 0
VERTEX
 8
MANOPOLA_2
 10
0
 20
0
 30
0
 70
128
 71
1
 72
179
 73
180
 74
180
 0
VERTEX
 8
MANOPOLA_2
 10
0
 20
0
 30
0
 70
128
 71
23
 72
24
 73
26
 74
25
 0
VERTEX
 8
MANOPOLA_2
 10
0
 20
0
 30
0
 70
128
 71
223
 72
2
 73
224
 74
224
 0
VERTEX
 8
MANOPOLA_2
 10
0
 20
0
 30
0
 70
128
 71
1
 72
180
 73
181
 74
181
 0
VERTEX
 8
MANOPOLA_2
 10
0
 20
0
 30
0
 70
128
 71
25
 72
26
 73
28
 74
27
 0
VERTEX
 8
MANOPOLA_2
 10
0
 20
0
 30
0
 70
128
 71
224
 72
2
 73
225
 74
225
 0
VERTEX
 8
MANOPOLA_2
 10
0
 20
0
 30
0
 70
128
 71
1
 72
181
 73
182
 74
182
 0
VERTEX
 8
MANOPOLA_2
 10
0
 20
0
 30
0
 70
128
 71
27
 72
28
 73
30
 74
29
 0
VERTEX
 8
MANOPOLA_2
 10
0
 20
0
 30
0
 70
128
 71
225
 72
2
 73
226
 74
226
 0
VERTEX
 8
MANOPOLA_2
 10
0
 20
0
 30
0
 70
128
 71
1
 72
182
 73
183
 74
183
 0
VERTEX
 8
MANOPOLA_2
 10
0
 20
0
 30
0
 70
128
 71
29
 72
30
 73
32
 74
31
 0
VERTEX
 8
MANOPOLA_2
 10
0
 20
0
 30
0
 70
128
 71
226
 72
2
 73
227
 74
227
 0
VERTEX
 8
MANOPOLA_2
 10
0
 20
0
 30
0
 70
128
 71
1
 72
183
 73
184
 74
184
 0
VERTEX
 8
MANOPOLA_2
 10
0
 20
0
 30
0
 70
128
 71
31
 72
32
 73
34
 74
33
 0
VERTEX
 8
MANOPOLA_2
 10
0
 20
0
 30
0
 70
128
 71
227
 72
2
 73
228
 74
228
 0
VERTEX
 8
MANOPOLA_2
 10
0
 20
0
 30
0
 70
128
 71
1
 72
184
 73
185
 74
185
 0
VERTEX
 8
MANOPOLA_2
 10
0
 20
0
 30
0
 70
128
 71
33
 72
34
 73
36
 74
35
 0
VERTEX
 8
MANOPOLA_2
 10
0
 20
0
 30
0
 70
128
 71
228
 72
2
 73
229
 74
229
 0
VERTEX
 8
MANOPOLA_2
 10
0
 20
0
 30
0
 70
128
 71
1
 72
185
 73
186
 74
186
 0
VERTEX
 8
MANOPOLA_2
 10
0
 20
0
 30
0
 70
128
 71
35
 72
36
 73
38
 74
37
 0
VERTEX
 8
MANOPOLA_2
 10
0
 20
0
 30
0
 70
128
 71
229
 72
2
 73
230
 74
230
 0
VERTEX
 8
MANOPOLA_2
 10
0
 20
0
 30
0
 70
128
 71
1
 72
186
 73
187
 74
187
 0
VERTEX
 8
MANOPOLA_2
 10
0
 20
0
 30
0
 70
128
 71
37
 72
38
 73
40
 74
39
 0
VERTEX
 8
MANOPOLA_2
 10
0
 20
0
 30
0
 70
128
 71
230
 72
2
 73
231
 74
231
 0
VERTEX
 8
MANOPOLA_2
 10
0
 20
0
 30
0
 70
128
 71
1
 72
187
 73
188
 74
188
 0
VERTEX
 8
MANOPOLA_2
 10
0
 20
0
 30
0
 70
128
 71
39
 72
40
 73
42
 74
41
 0
VERTEX
 8
MANOPOLA_2
 10
0
 20
0
 30
0
 70
128
 71
231
 72
2
 73
232
 74
232
 0
VERTEX
 8
MANOPOLA_2
 10
0
 20
0
 30
0
 70
128
 71
1
 72
188
 73
189
 74
189
 0
VERTEX
 8
MANOPOLA_2
 10
0
 20
0
 30
0
 70
128
 71
41
 72
42
 73
44
 74
43
 0
VERTEX
 8
MANOPOLA_2
 10
0
 20
0
 30
0
 70
128
 71
232
 72
2
 73
233
 74
233
 0
VERTEX
 8
MANOPOLA_2
 10
0
 20
0
 30
0
 70
128
 71
1
 72
189
 73
190
 74
190
 0
VERTEX
 8
MANOPOLA_2
 10
0
 20
0
 30
0
 70
128
 71
43
 72
44
 73
46
 74
45
 0
VERTEX
 8
MANOPOLA_2
 10
0
 20
0
 30
0
 70
128
 71
233
 72
2
 73
234
 74
234
 0
VERTEX
 8
MANOPOLA_2
 10
0
 20
0
 30
0
 70
128
 71
1
 72
190
 73
169
 74
169
 0
VERTEX
 8
MANOPOLA_2
 10
0
 20
0
 30
0
 70
128
 71
45
 72
46
 73
4
 74
3
 0
VERTEX
 8
MANOPOLA_2
 10
0
 20
0
 30
0
 70
128
 71
234
 72
2
 73
213
 74
213
 0
VERTEX
 8
MANOPOLA_2
 10
0
 20
0
 30
0
 70
128
 71
47
 72
3
 73
5
 74
48
 0
VERTEX
 8
MANOPOLA_2
 10
0
 20
0
 30
0
 70
128
 71
48
 72
5
 73
7
 74
49
 0
VERTEX
 8
MANOPOLA_2
 10
0
 20
0
 30
0
 70
128
 71
49
 72
7
 73
9
 74
50
 0
VERTEX
 8
MANOPOLA_2
 10
0
 20
0
 30
0
 70
128
 71
50
 72
9
 73
11
 74
51
 0
VERTEX
 8
MANOPOLA_2
 10
0
 20
0
 30
0
 70
128
 71
51
 72
11
 73
13
 74
52
 0
VERTEX
 8
MANOPOLA_2
 10
0
 20
0
 30
0
 70
128
 71
52
 72
13
 73
15
 74
53
 0
VERTEX
 8
MANOPOLA_2
 10
0
 20
0
 30
0
 70
128
 71
53
 72
15
 73
17
 74
54
 0
VERTEX
 8
MANOPOLA_2
 10
0
 20
0
 30
0
 70
128
 71
54
 72
17
 73
19
 74
55
 0
VERTEX
 8
MANOPOLA_2
 10
0
 20
0
 30
0
 70
128
 71
55
 72
19
 73
21
 74
56
 0
VERTEX
 8
MANOPOLA_2
 10
0
 20
0
 30
0
 70
128
 71
56
 72
21
 73
23
 74
57
 0
VERTEX
 8
MANOPOLA_2
 10
0
 20
0
 30
0
 70
128
 71
57
 72
23
 73
25
 74
58
 0
VERTEX
 8
MANOPOLA_2
 10
0
 20
0
 30
0
 70
128
 71
58
 72
25
 73
27
 74
59
 0
VERTEX
 8
MANOPOLA_2
 10
0
 20
0
 30
0
 70
128
 71
59
 72
27
 73
29
 74
60
 0
VERTEX
 8
MANOPOLA_2
 10
0
 20
0
 30
0
 70
128
 71
60
 72
29
 73
31
 74
61
 0
VERTEX
 8
MANOPOLA_2
 10
0
 20
0
 30
0
 70
128
 71
61
 72
31
 73
33
 74
62
 0
VERTEX
 8
MANOPOLA_2
 10
0
 20
0
 30
0
 70
128
 71
62
 72
33
 73
35
 74
63
 0
VERTEX
 8
MANOPOLA_2
 10
0
 20
0
 30
0
 70
128
 71
63
 72
35
 73
37
 74
64
 0
VERTEX
 8
MANOPOLA_2
 10
0
 20
0
 30
0
 70
128
 71
64
 72
37
 73
39
 74
65
 0
VERTEX
 8
MANOPOLA_2
 10
0
 20
0
 30
0
 70
128
 71
65
 72
39
 73
41
 74
66
 0
VERTEX
 8
MANOPOLA_2
 10
0
 20
0
 30
0
 70
128
 71
66
 72
41
 73
43
 74
67
 0
VERTEX
 8
MANOPOLA_2
 10
0
 20
0
 30
0
 70
128
 71
67
 72
43
 73
45
 74
68
 0
VERTEX
 8
MANOPOLA_2
 10
0
 20
0
 30
0
 70
128
 71
68
 72
45
 73
3
 74
47
 0
VERTEX
 8
MANOPOLA_2
 10
0
 20
0
 30
0
 70
128
 71
69
 72
47
 73
48
 74
70
 0
VERTEX
 8
MANOPOLA_2
 10
0
 20
0
 30
0
 70
128
 71
70
 72
48
 73
49
 74
71
 0
VERTEX
 8
MANOPOLA_2
 10
0
 20
0
 30
0
 70
128
 71
71
 72
49
 73
50
 74
72
 0
VERTEX
 8
MANOPOLA_2
 10
0
 20
0
 30
0
 70
128
 71
72
 72
50
 73
51
 74
73
 0
VERTEX
 8
MANOPOLA_2
 10
0
 20
0
 30
0
 70
128
 71
73
 72
51
 73
52
 74
74
 0
VERTEX
 8
MANOPOLA_2
 10
0
 20
0
 30
0
 70
128
 71
74
 72
52
 73
53
 74
75
 0
VERTEX
 8
MANOPOLA_2
 10
0
 20
0
 30
0
 70
128
 71
75
 72
53
 73
54
 74
76
 0
VERTEX
 8
MANOPOLA_2
 10
0
 20
0
 30
0
 70
128
 71
76
 72
54
 73
55
 74
77
 0
VERTEX
 8
MANOPOLA_2
 10
0
 20
0
 30
0
 70
128
 71
77
 72
55
 73
56
 74
78
 0
VERTEX
 8
MANOPOLA_2
 10
0
 20
0
 30
0
 70
128
 71
78
 72
56
 73
57
 74
79
 0
VERTEX
 8
MANOPOLA_2
 10
0
 20
0
 30
0
 70
128
 71
79
 72
57
 73
58
 74
80
 0
VERTEX
 8
MANOPOLA_2
 10
0
 20
0
 30
0
 70
128
 71
80
 72
58
 73
59
 74
81
 0
VERTEX
 8
MANOPOLA_2
 10
0
 20
0
 30
0
 70
128
 71
81
 72
59
 73
60
 74
82
 0
VERTEX
 8
MANOPOLA_2
 10
0
 20
0
 30
0
 70
128
 71
82
 72
60
 73
61
 74
83
 0
VERTEX
 8
MANOPOLA_2
 10
0
 20
0
 30
0
 70
128
 71
83
 72
61
 73
62
 74
84
 0
VERTEX
 8
MANOPOLA_2
 10
0
 20
0
 30
0
 70
128
 71
84
 72
62
 73
63
 74
85
 0
VERTEX
 8
MANOPOLA_2
 10
0
 20
0
 30
0
 70
128
 71
85
 72
63
 73
64
 74
86
 0
VERTEX
 8
MANOPOLA_2
 10
0
 20
0
 30
0
 70
128
 71
86
 72
64
 73
65
 74
87
 0
VERTEX
 8
MANOPOLA_2
 10
0
 20
0
 30
0
 70
128
 71
87
 72
65
 73
66
 74
88
 0
VERTEX
 8
MANOPOLA_2
 10
0
 20
0
 30
0
 70
128
 71
88
 72
66
 73
67
 74
89
 0
VERTEX
 8
MANOPOLA_2
 10
0
 20
0
 30
0
 70
128
 71
89
 72
67
 73
68
 74
90
 0
VERTEX
 8
MANOPOLA_2
 10
0
 20
0
 30
0
 70
128
 71
90
 72
68
 73
47
 74
69
 0
VERTEX
 8
MANOPOLA_2
 10
0
 20
0
 30
0
 70
128
 71
91
 72
69
 73
70
 74
92
 0
VERTEX
 8
MANOPOLA_2
 10
0
 20
0
 30
0
 70
128
 71
92
 72
70
 73
71
 74
93
 0
VERTEX
 8
MANOPOLA_2
 10
0
 20
0
 30
0
 70
128
 71
93
 72
71
 73
72
 74
94
 0
VERTEX
 8
MANOPOLA_2
 10
0
 20
0
 30
0
 70
128
 71
94
 72
72
 73
73
 74
95
 0
VERTEX
 8
MANOPOLA_2
 10
0
 20
0
 30
0
 70
128
 71
95
 72
73
 73
74
 74
96
 0
VERTEX
 8
MANOPOLA_2
 10
0
 20
0
 30
0
 70
128
 71
96
 72
74
 73
75
 74
97
 0
VERTEX
 8
MANOPOLA_2
 10
0
 20
0
 30
0
 70
128
 71
97
 72
75
 73
76
 74
98
 0
VERTEX
 8
MANOPOLA_2
 10
0
 20
0
 30
0
 70
128
 71
98
 72
76
 73
77
 74
99
 0
VERTEX
 8
MANOPOLA_2
 10
0
 20
0
 30
0
 70
128
 71
99
 72
77
 73
78
 74
100
 0
VERTEX
 8
MANOPOLA_2
 10
0
 20
0
 30
0
 70
128
 71
100
 72
78
 73
79
 74
101
 0
VERTEX
 8
MANOPOLA_2
 10
0
 20
0
 30
0
 70
128
 71
101
 72
79
 73
80
 74
102
 0
VERTEX
 8
MANOPOLA_2
 10
0
 20
0
 30
0
 70
128
 71
102
 72
80
 73
81
 74
103
 0
VERTEX
 8
MANOPOLA_2
 10
0
 20
0
 30
0
 70
128
 71
103
 72
81
 73
82
 74
104
 0
VERTEX
 8
MANOPOLA_2
 10
0
 20
0
 30
0
 70
128
 71
104
 72
82
 73
83
 74
105
 0
VERTEX
 8
MANOPOLA_2
 10
0
 20
0
 30
0
 70
128
 71
105
 72
83
 73
84
 74
106
 0
VERTEX
 8
MANOPOLA_2
 10
0
 20
0
 30
0
 70
128
 71
106
 72
84
 73
85
 74
107
 0
VERTEX
 8
MANOPOLA_2
 10
0
 20
0
 30
0
 70
128
 71
159
 72
157
 73
158
 74
160
 0
VERTEX
 8
MANOPOLA_2
 10
0
 20
0
 30
0
 70
128
 71
108
 72
86
 73
87
 74
109
 0
VERTEX
 8
MANOPOLA_2
 10
0
 20
0
 30
0
 70
128
 71
109
 72
87
 73
88
 74
110
 0
VERTEX
 8
MANOPOLA_2
 10
0
 20
0
 30
0
 70
128
 71
110
 72
88
 73
89
 74
111
 0
VERTEX
 8
MANOPOLA_2
 10
0
 20
0
 30
0
 70
128
 71
111
 72
89
 73
90
 74
112
 0
VERTEX
 8
MANOPOLA_2
 10
0
 20
0
 30
0
 70
128
 71
112
 72
90
 73
69
 74
91
 0
VERTEX
 8
MANOPOLA_2
 10
0
 20
0
 30
0
 70
128
 71
113
 72
91
 73
92
 74
114
 0
VERTEX
 8
MANOPOLA_2
 10
0
 20
0
 30
0
 70
128
 71
114
 72
92
 73
93
 74
115
 0
VERTEX
 8
MANOPOLA_2
 10
0
 20
0
 30
0
 70
128
 71
115
 72
93
 73
94
 74
116
 0
VERTEX
 8
MANOPOLA_2
 10
0
 20
0
 30
0
 70
128
 71
116
 72
94
 73
95
 74
117
 0
VERTEX
 8
MANOPOLA_2
 10
0
 20
0
 30
0
 70
128
 71
117
 72
95
 73
96
 74
118
 0
VERTEX
 8
MANOPOLA_2
 10
0
 20
0
 30
0
 70
128
 71
118
 72
96
 73
97
 74
119
 0
VERTEX
 8
MANOPOLA_2
 10
0
 20
0
 30
0
 70
128
 71
119
 72
97
 73
98
 74
120
 0
VERTEX
 8
MANOPOLA_2
 10
0
 20
0
 30
0
 70
128
 71
120
 72
98
 73
99
 74
121
 0
VERTEX
 8
MANOPOLA_2
 10
0
 20
0
 30
0
 70
128
 71
121
 72
99
 73
100
 74
122
 0
VERTEX
 8
MANOPOLA_2
 10
0
 20
0
 30
0
 70
128
 71
122
 72
100
 73
101
 74
123
 0
VERTEX
 8
MANOPOLA_2
 10
0
 20
0
 30
0
 70
128
 71
123
 72
101
 73
102
 74
124
 0
VERTEX
 8
MANOPOLA_2
 10
0
 20
0
 30
0
 70
128
 71
124
 72
102
 73
103
 74
125
 0
VERTEX
 8
MANOPOLA_2
 10
0
 20
0
 30
0
 70
128
 71
125
 72
103
 73
104
 74
126
 0
VERTEX
 8
MANOPOLA_2
 10
0
 20
0
 30
0
 70
128
 71
126
 72
104
 73
105
 74
127
 0
VERTEX
 8
MANOPOLA_2
 10
0
 20
0
 30
0
 70
128
 71
127
 72
105
 73
106
 74
128
 0
VERTEX
 8
MANOPOLA_2
 10
0
 20
0
 30
0
 70
128
 71
128
 72
106
 73
107
 74
129
 0
VERTEX
 8
MANOPOLA_2
 10
0
 20
0
 30
0
 70
128
 71
161
 72
159
 73
160
 74
162
 0
VERTEX
 8
MANOPOLA_2
 10
0
 20
0
 30
0
 70
128
 71
130
 72
108
 73
109
 74
131
 0
VERTEX
 8
MANOPOLA_2
 10
0
 20
0
 30
0
 70
128
 71
131
 72
109
 73
110
 74
132
 0
VERTEX
 8
MANOPOLA_2
 10
0
 20
0
 30
0
 70
128
 71
132
 72
110
 73
111
 74
133
 0
VERTEX
 8
MANOPOLA_2
 10
0
 20
0
 30
0
 70
128
 71
133
 72
111
 73
112
 74
134
 0
VERTEX
 8
MANOPOLA_2
 10
0
 20
0
 30
0
 70
128
 71
134
 72
112
 73
91
 74
113
 0
VERTEX
 8
MANOPOLA_2
 10
0
 20
0
 30
0
 70
128
 71
135
 72
113
 73
114
 74
136
 0
VERTEX
 8
MANOPOLA_2
 10
0
 20
0
 30
0
 70
128
 71
136
 72
114
 73
115
 74
137
 0
VERTEX
 8
MANOPOLA_2
 10
0
 20
0
 30
0
 70
128
 71
137
 72
115
 73
116
 74
138
 0
VERTEX
 8
MANOPOLA_2
 10
0
 20
0
 30
0
 70
128
 71
138
 72
116
 73
117
 74
139
 0
VERTEX
 8
MANOPOLA_2
 10
0
 20
0
 30
0
 70
128
 71
139
 72
117
 73
118
 74
140
 0
VERTEX
 8
MANOPOLA_2
 10
0
 20
0
 30
0
 70
128
 71
140
 72
118
 73
119
 74
141
 0
VERTEX
 8
MANOPOLA_2
 10
0
 20
0
 30
0
 70
128
 71
141
 72
119
 73
120
 74
142
 0
VERTEX
 8
MANOPOLA_2
 10
0
 20
0
 30
0
 70
128
 71
142
 72
120
 73
121
 74
143
 0
VERTEX
 8
MANOPOLA_2
 10
0
 20
0
 30
0
 70
128
 71
143
 72
121
 73
122
 74
144
 0
VERTEX
 8
MANOPOLA_2
 10
0
 20
0
 30
0
 70
128
 71
144
 72
122
 73
123
 74
145
 0
VERTEX
 8
MANOPOLA_2
 10
0
 20
0
 30
0
 70
128
 71
145
 72
123
 73
124
 74
146
 0
VERTEX
 8
MANOPOLA_2
 10
0
 20
0
 30
0
 70
128
 71
146
 72
124
 73
125
 74
147
 0
VERTEX
 8
MANOPOLA_2
 10
0
 20
0
 30
0
 70
128
 71
147
 72
125
 73
126
 74
148
 0
VERTEX
 8
MANOPOLA_2
 10
0
 20
0
 30
0
 70
128
 71
148
 72
126
 73
127
 74
149
 0
VERTEX
 8
MANOPOLA_2
 10
0
 20
0
 30
0
 70
128
 71
149
 72
127
 73
128
 74
150
 0
VERTEX
 8
MANOPOLA_2
 10
0
 20
0
 30
0
 70
128
 71
150
 72
128
 73
129
 74
151
 0
VERTEX
 8
MANOPOLA_2
 10
0
 20
0
 30
0
 70
128
 71
165
 72
163
 73
164
 74
166
 0
VERTEX
 8
MANOPOLA_2
 10
0
 20
0
 30
0
 70
128
 71
152
 72
130
 73
131
 74
153
 0
VERTEX
 8
MANOPOLA_2
 10
0
 20
0
 30
0
 70
128
 71
153
 72
131
 73
132
 74
154
 0
VERTEX
 8
MANOPOLA_2
 10
0
 20
0
 30
0
 70
128
 71
154
 72
132
 73
133
 74
155
 0
VERTEX
 8
MANOPOLA_2
 10
0
 20
0
 30
0
 70
128
 71
155
 72
133
 73
134
 74
156
 0
VERTEX
 8
MANOPOLA_2
 10
0
 20
0
 30
0
 70
128
 71
156
 72
134
 73
113
 74
135
 0
VERTEX
 8
MANOPOLA_2
 10
0
 20
0
 30
0
 70
128
 71
159
 72
107
 73
85
 74
157
 0
VERTEX
 8
MANOPOLA_2
 10
0
 20
0
 30
0
 70
128
 71
157
 72
85
 73
86
 74
158
 0
VERTEX
 8
MANOPOLA_2
 10
0
 20
0
 30
0
 70
128
 71
158
 72
86
 73
108
 74
160
 0
VERTEX
 8
MANOPOLA_2
 10
0
 20
0
 30
0
 70
128
 71
161
 72
129
 73
107
 74
159
 0
VERTEX
 8
MANOPOLA_2
 10
0
 20
0
 30
0
 70
128
 71
160
 72
108
 73
130
 74
162
 0
VERTEX
 8
MANOPOLA_2
 10
0
 20
0
 30
0
 70
128
 71
168
 72
129
 73
161
 74
161
 0
VERTEX
 8
MANOPOLA_2
 10
0
 20
0
 30
0
 70
128
 71
165
 72
151
 73
129
 74
163
 0
VERTEX
 8
MANOPOLA_2
 10
0
 20
0
 30
0
 70
128
 71
167
 72
130
 73
164
 74
164
 0
VERTEX
 8
MANOPOLA_2
 10
0
 20
0
 30
0
 70
128
 71
164
 72
130
 73
152
 74
166
 0
VERTEX
 8
MANOPOLA_2
 10
0
 20
0
 30
0
 70
128
 71
166
 72
152
 73
151
 74
165
 0
VERTEX
 8
MANOPOLA_2
 10
0
 20
0
 30
0
 70
128
 71
162
 72
130
 73
167
 74
167
 0
VERTEX
 8
MANOPOLA_2
 10
0
 20
0
 30
0
 70
128
 71
163
 72
129
 73
168
 74
168
 0
VERTEX
 8
MANOPOLA_2
 10
0
 20
0
 30
0
 70
128
 71
167
 72
168
 73
161
 74
162
 0
VERTEX
 8
MANOPOLA_2
 10
0
 20
0
 30
0
 70
128
 71
168
 72
167
 73
164
 74
163
 0
VERTEX
 8
MANOPOLA_2
 10
0
 20
0
 30
0
 70
128
 71
169
 72
135
 73
136
 74
170
 0
VERTEX
 8
MANOPOLA_2
 10
0
 20
0
 30
0
 70
128
 71
170
 72
136
 73
137
 74
171
 0
VERTEX
 8
MANOPOLA_2
 10
0
 20
0
 30
0
 70
128
 71
171
 72
137
 73
138
 74
172
 0
VERTEX
 8
MANOPOLA_2
 10
0
 20
0
 30
0
 70
128
 71
172
 72
138
 73
139
 74
173
 0
VERTEX
 8
MANOPOLA_2
 10
0
 20
0
 30
0
 70
128
 71
173
 72
139
 73
140
 74
174
 0
VERTEX
 8
MANOPOLA_2
 10
0
 20
0
 30
0
 70
128
 71
174
 72
140
 73
141
 74
175
 0
VERTEX
 8
MANOPOLA_2
 10
0
 20
0
 30
0
 70
128
 71
175
 72
141
 73
142
 74
176
 0
VERTEX
 8
MANOPOLA_2
 10
0
 20
0
 30
0
 70
128
 71
176
 72
142
 73
143
 74
177
 0
VERTEX
 8
MANOPOLA_2
 10
0
 20
0
 30
0
 70
128
 71
177
 72
143
 73
144
 74
178
 0
VERTEX
 8
MANOPOLA_2
 10
0
 20
0
 30
0
 70
128
 71
178
 72
144
 73
145
 74
179
 0
VERTEX
 8
MANOPOLA_2
 10
0
 20
0
 30
0
 70
128
 71
179
 72
145
 73
146
 74
180
 0
VERTEX
 8
MANOPOLA_2
 10
0
 20
0
 30
0
 70
128
 71
180
 72
146
 73
147
 74
181
 0
VERTEX
 8
MANOPOLA_2
 10
0
 20
0
 30
0
 70
128
 71
181
 72
147
 73
148
 74
182
 0
VERTEX
 8
MANOPOLA_2
 10
0
 20
0
 30
0
 70
128
 71
182
 72
148
 73
149
 74
183
 0
VERTEX
 8
MANOPOLA_2
 10
0
 20
0
 30
0
 70
128
 71
183
 72
149
 73
150
 74
184
 0
VERTEX
 8
MANOPOLA_2
 10
0
 20
0
 30
0
 70
128
 71
184
 72
150
 73
151
 74
185
 0
VERTEX
 8
MANOPOLA_2
 10
0
 20
0
 30
0
 70
128
 71
185
 72
151
 73
152
 74
186
 0
VERTEX
 8
MANOPOLA_2
 10
0
 20
0
 30
0
 70
128
 71
186
 72
152
 73
153
 74
187
 0
VERTEX
 8
MANOPOLA_2
 10
0
 20
0
 30
0
 70
128
 71
187
 72
153
 73
154
 74
188
 0
VERTEX
 8
MANOPOLA_2
 10
0
 20
0
 30
0
 70
128
 71
188
 72
154
 73
155
 74
189
 0
VERTEX
 8
MANOPOLA_2
 10
0
 20
0
 30
0
 70
128
 71
189
 72
155
 73
156
 74
190
 0
VERTEX
 8
MANOPOLA_2
 10
0
 20
0
 30
0
 70
128
 71
190
 72
156
 73
135
 74
169
 0
VERTEX
 8
MANOPOLA_2
 10
0
 20
0
 30
0
 70
128
 71
192
 72
6
 73
4
 74
191
 0
VERTEX
 8
MANOPOLA_2
 10
0
 20
0
 30
0
 70
128
 71
193
 72
8
 73
6
 74
192
 0
VERTEX
 8
MANOPOLA_2
 10
0
 20
0
 30
0
 70
128
 71
194
 72
10
 73
8
 74
193
 0
VERTEX
 8
MANOPOLA_2
 10
0
 20
0
 30
0
 70
128
 71
195
 72
12
 73
10
 74
194
 0
VERTEX
 8
MANOPOLA_2
 10
0
 20
0
 30
0
 70
128
 71
196
 72
14
 73
12
 74
195
 0
VERTEX
 8
MANOPOLA_2
 10
0
 20
0
 30
0
 70
128
 71
197
 72
16
 73
14
 74
196
 0
VERTEX
 8
MANOPOLA_2
 10
0
 20
0
 30
0
 70
128
 71
198
 72
18
 73
16
 74
197
 0
VERTEX
 8
MANOPOLA_2
 10
0
 20
0
 30
0
 70
128
 71
199
 72
20
 73
18
 74
198
 0
VERTEX
 8
MANOPOLA_2
 10
0
 20
0
 30
0
 70
128
 71
200
 72
22
 73
20
 74
199
 0
VERTEX
 8
MANOPOLA_2
 10
0
 20
0
 30
0
 70
128
 71
201
 72
24
 73
22
 74
200
 0
VERTEX
 8
MANOPOLA_2
 10
0
 20
0
 30
0
 70
128
 71
202
 72
26
 73
24
 74
201
 0
VERTEX
 8
MANOPOLA_2
 10
0
 20
0
 30
0
 70
128
 71
203
 72
28
 73
26
 74
202
 0
VERTEX
 8
MANOPOLA_2
 10
0
 20
0
 30
0
 70
128
 71
204
 72
30
 73
28
 74
203
 0
VERTEX
 8
MANOPOLA_2
 10
0
 20
0
 30
0
 70
128
 71
205
 72
32
 73
30
 74
204
 0
VERTEX
 8
MANOPOLA_2
 10
0
 20
0
 30
0
 70
128
 71
206
 72
34
 73
32
 74
205
 0
VERTEX
 8
MANOPOLA_2
 10
0
 20
0
 30
0
 70
128
 71
207
 72
36
 73
34
 74
206
 0
VERTEX
 8
MANOPOLA_2
 10
0
 20
0
 30
0
 70
128
 71
208
 72
38
 73
36
 74
207
 0
VERTEX
 8
MANOPOLA_2
 10
0
 20
0
 30
0
 70
128
 71
209
 72
40
 73
38
 74
208
 0
VERTEX
 8
MANOPOLA_2
 10
0
 20
0
 30
0
 70
128
 71
210
 72
42
 73
40
 74
209
 0
VERTEX
 8
MANOPOLA_2
 10
0
 20
0
 30
0
 70
128
 71
211
 72
44
 73
42
 74
210
 0
VERTEX
 8
MANOPOLA_2
 10
0
 20
0
 30
0
 70
128
 71
212
 72
46
 73
44
 74
211
 0
VERTEX
 8
MANOPOLA_2
 10
0
 20
0
 30
0
 70
128
 71
191
 72
4
 73
46
 74
212
 0
VERTEX
 8
MANOPOLA_2
 10
0
 20
0
 30
0
 70
128
 71
214
 72
192
 73
191
 74
213
 0
VERTEX
 8
MANOPOLA_2
 10
0
 20
0
 30
0
 70
128
 71
215
 72
193
 73
192
 74
214
 0
VERTEX
 8
MANOPOLA_2
 10
0
 20
0
 30
0
 70
128
 71
216
 72
194
 73
193
 74
215
 0
VERTEX
 8
MANOPOLA_2
 10
0
 20
0
 30
0
 70
128
 71
217
 72
195
 73
194
 74
216
 0
VERTEX
 8
MANOPOLA_2
 10
0
 20
0
 30
0
 70
128
 71
218
 72
196
 73
195
 74
217
 0
VERTEX
 8
MANOPOLA_2
 10
0
 20
0
 30
0
 70
128
 71
219
 72
197
 73
196
 74
218
 0
VERTEX
 8
MANOPOLA_2
 10
0
 20
0
 30
0
 70
128
 71
220
 72
198
 73
197
 74
219
 0
VERTEX
 8
MANOPOLA_2
 10
0
 20
0
 30
0
 70
128
 71
221
 72
199
 73
198
 74
220
 0
VERTEX
 8
MANOPOLA_2
 10
0
 20
0
 30
0
 70
128
 71
222
 72
200
 73
199
 74
221
 0
VERTEX
 8
MANOPOLA_2
 10
0
 20
0
 30
0
 70
128
 71
223
 72
201
 73
200
 74
222
 0
VERTEX
 8
MANOPOLA_2
 10
0
 20
0
 30
0
 70
128
 71
224
 72
202
 73
201
 74
223
 0
VERTEX
 8
MANOPOLA_2
 10
0
 20
0
 30
0
 70
128
 71
225
 72
203
 73
202
 74
224
 0
VERTEX
 8
MANOPOLA_2
 10
0
 20
0
 30
0
 70
128
 71
226
 72
204
 73
203
 74
225
 0
VERTEX
 8
MANOPOLA_2
 10
0
 20
0
 30
0
 70
128
 71
227
 72
205
 73
204
 74
226
 0
VERTEX
 8
MANOPOLA_2
 10
0
 20
0
 30
0
 70
128
 71
228
 72
206
 73
205
 74
227
 0
VERTEX
 8
MANOPOLA_2
 10
0
 20
0
 30
0
 70
128
 71
229
 72
207
 73
206
 74
228
 0
VERTEX
 8
MANOPOLA_2
 10
0
 20
0
 30
0
 70
128
 71
230
 72
208
 73
207
 74
229
 0
VERTEX
 8
MANOPOLA_2
 10
0
 20
0
 30
0
 70
128
 71
231
 72
209
 73
208
 74
230
 0
VERTEX
 8
MANOPOLA_2
 10
0
 20
0
 30
0
 70
128
 71
232
 72
210
 73
209
 74
231
 0
VERTEX
 8
MANOPOLA_2
 10
0
 20
0
 30
0
 70
128
 71
233
 72
211
 73
210
 74
232
 0
VERTEX
 8
MANOPOLA_2
 10
0
 20
0
 30
0
 70
128
 71
234
 72
212
 73
211
 74
233
 0
VERTEX
 8
MANOPOLA_2
 10
0
 20
0
 30
0
 70
128
 71
213
 72
191
 73
212
 74
234
 0
SEQEND
 0
POLYLINE
 8
MANOPOLA
 66
1
 10
0.0
 20
0.0
 30
0.0
 70
64
 71
234
 72
256
 0
VERTEX
 8
MANOPOLA
 10
45.3467
 20
-19.85
 30
22.35
 70
192
 0
VERTEX
 8
MANOPOLA
 10
45.3467
 20
-19.85
 30
18.8896
 70
192
 0
VERTEX
 8
MANOPOLA
 10
47.3503
 20
-19.85
 30
19.7912
 70
192
 0
VERTEX
 8
MANOPOLA
 10
47.3503
 20
-19.85
 30
19.4
 70
192
 0
VERTEX
 8
MANOPOLA
 10
47.2692
 20
-20.4145
 30
19.7912
 70
192
 0
VERTEX
 8
MANOPOLA
 10
47.2692
 20
-20.4145
 30
19.4
 70
192
 0
VERTEX
 8
MANOPOLA
 10
47.0323
 20
-20.9333
 30
19.7912
 70
192
 0
VERTEX
 8
MANOPOLA
 10
47.0323
 20
-20.9333
 30
19.4
 70
192
 0
VERTEX
 8
MANOPOLA
 10
46.6588
 20
-21.3643
 30
19.7912
 70
192
 0
VERTEX
 8
MANOPOLA
 10
46.6588
 20
-21.3643
 30
19.4
 70
192
 0
VERTEX
 8
MANOPOLA
 10
46.179
 20
-21.6726
 30
19.7912
 70
192
 0
VERTEX
 8
MANOPOLA
 10
46.179
 20
-21.6726
 30
19.4
 70
192
 0
VERTEX
 8
MANOPOLA
 10
45.6318
 20
-21.8333
 30
19.7912
 70
192
 0
VERTEX
 8
MANOPOLA
 10
45.6318
 20
-21.8333
 30
19.4
 70
192
 0
VERTEX
 8
MANOPOLA
 10
45.0615
 20
-21.8333
 30
19.7912
 70
192
 0
VERTEX
 8
MANOPOLA
 10
45.0615
 20
-21.8333
 30
19.4
 70
192
 0
VERTEX
 8
MANOPOLA
 10
44.5143
 20
-21.6726
 30
19.7912
 70
192
 0
VERTEX
 8
MANOPOLA
 10
44.5143
 20
-21.6726
 30
19.4
 70
192
 0
VERTEX
 8
MANOPOLA
 10
44.0346
 20
-21.3643
 30
19.7912
 70
192
 0
VERTEX
 8
MANOPOLA
 10
44.0346
 20
-21.3643
 30
19.4
 70
192
 0
VERTEX
 8
MANOPOLA
 10
43.6611
 20
-20.9333
 30
19.7912
 70
192
 0
VERTEX
 8
MANOPOLA
 10
43.6611
 20
-20.9333
 30
19.4
 70
192
 0
VERTEX
 8
MANOPOLA
 10
43.4242
 20
-20.4145
 30
19.7912
 70
192
 0
VERTEX
 8
MANOPOLA
 10
43.4242
 20
-20.4145
 30
19.4
 70
192
 0
VERTEX
 8
MANOPOLA
 10
43.343
 20
-19.85
 30
19.7912
 70
192
 0
VERTEX
 8
MANOPOLA
 10
43.343
 20
-19.85
 30
19.4
 70
192
 0
VERTEX
 8
MANOPOLA
 10
43.4242
 20
-19.2855
 30
19.7912
 70
192
 0
VERTEX
 8
MANOPOLA
 10
43.4242
 20
-19.2855
 30
19.4
 70
192
 0
VERTEX
 8
MANOPOLA
 10
43.6611
 20
-18.7667
 30
19.7912
 70
192
 0
VERTEX
 8
MANOPOLA
 10
43.6611
 20
-18.7667
 30
19.4
 70
192
 0
VERTEX
 8
MANOPOLA
 10
44.0346
 20
-18.3357
 30
19.7912
 70
192
 0
VERTEX
 8
MANOPOLA
 10
44.0346
 20
-18.3357
 30
19.4
 70
192
 0
VERTEX
 8
MANOPOLA
 10
44.5143
 20
-18.0274
 30
19.7912
 70
192
 0
VERTEX
 8
MANOPOLA
 10
44.5143
 20
-18.0274
 30
19.4
 70
192
 0
VERTEX
 8
MANOPOLA
 10
45.0615
 20
-17.8667
 30
19.7912
 70
192
 0
VERTEX
 8
MANOPOLA
 10
45.0615
 20
-17.8667
 30
19.4
 70
192
 0
VERTEX
 8
MANOPOLA
 10
45.6318
 20
-17.8667
 30
19.7912
 70
192
 0
VERTEX
 8
MANOPOLA
 10
45.6318
 20
-17.8667
 30
19.4
 70
192
 0
VERTEX
 8
MANOPOLA
 10
46.179
 20
-18.0274
 30
19.7912
 70
192
 0
VERTEX
 8
MANOPOLA
 10
46.179
 20
-18.0274
 30
19.4
 70
192
 0
VERTEX
 8
MANOPOLA
 10
46.6588
 20
-18.3357
 30
19.7912
 70
192
 0
VERTEX
 8
MANOPOLA
 10
46.6588
 20
-18.3357
 30
19.4
 70
192
 0
VERTEX
 8
MANOPOLA
 10
47.0323
 20
-18.7667
 30
19.7912
 70
192
 0
VERTEX
 8
MANOPOLA
 10
47.0323
 20
-18.7667
 30
19.4
 70
192
 0
VERTEX
 8
MANOPOLA
 10
47.2692
 20
-19.2855
 30
19.7912
 70
192
 0
VERTEX
 8
MANOPOLA
 10
47.2692
 20
-19.2855
 30
19.4
 70
192
 0
VERTEX
 8
MANOPOLA
 10
46.99
 20
-19.85
 30
19.7912
 70
192
 0
VERTEX
 8
MANOPOLA
 10
46.99
 20
-20.4003
 30
19.7912
 70
192
 0
VERTEX
 8
MANOPOLA
 10
46.9898
 20
-20.906
 30
19.7912
 70
192
 0
VERTEX
 8
MANOPOLA
 10
46.6257
 20
-21.3261
 30
19.7912
 70
192
 0
VERTEX
 8
MANOPOLA
 10
46.158
 20
-21.6266
 30
19.7912
 70
192
 0
VERTEX
 8
MANOPOLA
 10
45.6246
 20
-21.7833
 30
19.7912
 70
192
 0
VERTEX
 8
MANOPOLA
 10
45.0687
 20
-21.7833
 30
19.7912
 70
192
 0
VERTEX
 8
MANOPOLA
 10
44.5353
 20
-21.6266
 30
19.7912
 70
192
 0
VERTEX
 8
MANOPOLA
 10
44.0676
 20
-21.3261
 30
19.7912
 70
192
 0
VERTEX
 8
MANOPOLA
 10
43.7036
 20
-20.906
 30
19.7912
 70
192
 0
VERTEX
 8
MANOPOLA
 10
43.704
 20
-20.4003
 30
19.7912
 70
192
 0
VERTEX
 8
MANOPOLA
 10
43.704
 20
-19.85
 30
19.7912
 70
192
 0
VERTEX
 8
MANOPOLA
 10
43.704
 20
-19.2997
 30
19.7912
 70
192
 0
VERTEX
 8
MANOPOLA
 10
43.7036
 20
-18.794
 30
19.7912
 70
192
 0
VERTEX
 8
MANOPOLA
 10
44.0676
 20
-18.3739
 30
19.7912
 70
192
 0
VERTEX
 8
MANOPOLA
 10
44.5353
 20
-18.0734
 30
19.7912
 70
192
 0
VERTEX
 8
MANOPOLA
 10
45.0687
 20
-17.9167
 30
19.7912
 70
192
 0
VERTEX
 8
MANOPOLA
 10
45.6246
 20
-17.9167
 30
19.7912
 70
192
 0
VERTEX
 8
MANOPOLA
 10
46.158
 20
-18.0734
 30
19.7912
 70
192
 0
VERTEX
 8
MANOPOLA
 10
46.6257
 20
-18.3739
 30
19.7912
 70
192
 0
VERTEX
 8
MANOPOLA
 10
46.9898
 20
-18.794
 30
19.7912
 70
192
 0
VERTEX
 8
MANOPOLA
 10
46.99
 20
-19.2997
 30
19.7912
 70
192
 0
VERTEX
 8
MANOPOLA
 10
46.99
 20
-19.85
 30
20.898
 70
192
 0
VERTEX
 8
MANOPOLA
 10
46.99
 20
-20.4003
 30
20.898
 70
192
 0
VERTEX
 8
MANOPOLA
 10
46.9898
 20
-20.906
 30
20.898
 70
192
 0
VERTEX
 8
MANOPOLA
 10
46.6257
 20
-21.3261
 30
20.898
 70
192
 0
VERTEX
 8
MANOPOLA
 10
46.158
 20
-21.6266
 30
20.898
 70
192
 0
VERTEX
 8
MANOPOLA
 10
45.6246
 20
-21.7833
 30
20.898
 70
192
 0
VERTEX
 8
MANOPOLA
 10
45.0687
 20
-21.7833
 30
20.898
 70
192
 0
VERTEX
 8
MANOPOLA
 10
44.5353
 20
-21.6266
 30
20.898
 70
192
 0
VERTEX
 8
MANOPOLA
 10
44.0676
 20
-21.3261
 30
20.898
 70
192
 0
VERTEX
 8
MANOPOLA
 10
43.7036
 20
-20.906
 30
20.898
 70
192
 0
VERTEX
 8
MANOPOLA
 10
43.704
 20
-20.4003
 30
20.898
 70
192
 0
VERTEX
 8
MANOPOLA
 10
43.704
 20
-19.85
 30
20.898
 70
192
 0
VERTEX
 8
MANOPOLA
 10
43.704
 20
-19.2997
 30
20.898
 70
192
 0
VERTEX
 8
MANOPOLA
 10
43.7036
 20
-18.794
 30
20.898
 70
192
 0
VERTEX
 8
MANOPOLA
 10
44.0676
 20
-18.3739
 30
20.898
 70
192
 0
VERTEX
 8
MANOPOLA
 10
44.5353
 20
-18.0734
 30
20.898
 70
192
 0
VERTEX
 8
MANOPOLA
 10
45.0687
 20
-17.9167
 30
20.898
 70
192
 0
VERTEX
 8
MANOPOLA
 10
45.6246
 20
-17.9167
 30
20.898
 70
192
 0
VERTEX
 8
MANOPOLA
 10
46.158
 20
-18.0734
 30
20.898
 70
192
 0
VERTEX
 8
MANOPOLA
 10
46.6257
 20
-18.3739
 30
20.898
 70
192
 0
VERTEX
 8
MANOPOLA
 10
46.9898
 20
-18.794
 30
20.898
 70
192
 0
VERTEX
 8
MANOPOLA
 10
46.99
 20
-19.2997
 30
20.898
 70
192
 0
VERTEX
 8
MANOPOLA
 10
46.99
 20
-19.85
 30
22.1002
 70
192
 0
VERTEX
 8
MANOPOLA
 10
46.99
 20
-20.4003
 30
22.1002
 70
192
 0
VERTEX
 8
MANOPOLA
 10
46.9898
 20
-20.906
 30
22.1002
 70
192
 0
VERTEX
 8
MANOPOLA
 10
46.6257
 20
-21.3261
 30
22.1002
 70
192
 0
VERTEX
 8
MANOPOLA
 10
46.158
 20
-21.6266
 30
22.1002
 70
192
 0
VERTEX
 8
MANOPOLA
 10
45.6246
 20
-21.7833
 30
22.1002
 70
192
 0
VERTEX
 8
MANOPOLA
 10
45.0687
 20
-21.7833
 30
22.1002
 70
192
 0
VERTEX
 8
MANOPOLA
 10
44.5353
 20
-21.6266
 30
22.1002
 70
192
 0
VERTEX
 8
MANOPOLA
 10
44.0676
 20
-21.3261
 30
22.1002
 70
192
 0
VERTEX
 8
MANOPOLA
 10
43.7036
 20
-20.906
 30
22.1002
 70
192
 0
VERTEX
 8
MANOPOLA
 10
43.704
 20
-20.4003
 30
22.1002
 70
192
 0
VERTEX
 8
MANOPOLA
 10
43.704
 20
-19.85
 30
22.1002
 70
192
 0
VERTEX
 8
MANOPOLA
 10
43.704
 20
-19.2997
 30
22.1002
 70
192
 0
VERTEX
 8
MANOPOLA
 10
43.7036
 20
-18.794
 30
22.1002
 70
192
 0
VERTEX
 8
MANOPOLA
 10
44.0676
 20
-18.3739
 30
22.1002
 70
192
 0
VERTEX
 8
MANOPOLA
 10
44.5353
 20
-18.0734
 30
22.1002
 70
192
 0
VERTEX
 8
MANOPOLA
 10
45.0687
 20
-17.9167
 30
22.1002
 70
192
 0
VERTEX
 8
MANOPOLA
 10
45.6246
 20
-17.9167
 30
22.1002
 70
192
 0
VERTEX
 8
MANOPOLA
 10
46.158
 20
-18.0734
 30
22.1002
 70
192
 0
VERTEX
 8
MANOPOLA
 10
46.6257
 20
-18.3739
 30
22.1002
 70
192
 0
VERTEX
 8
MANOPOLA
 10
46.9898
 20
-18.794
 30
22.1002
 70
192
 0
VERTEX
 8
MANOPOLA
 10
46.99
 20
-19.2997
 30
22.1002
 70
192
 0
VERTEX
 8
MANOPOLA
 10
46.99
 20
-19.85
 30
22.1399
 70
192
 0
VERTEX
 8
MANOPOLA
 10
46.99
 20
-20.4003
 30
22.1399
 70
192
 0
VERTEX
 8
MANOPOLA
 10
46.9898
 20
-20.906
 30
22.1399
 70
192
 0
VERTEX
 8
MANOPOLA
 10
46.6257
 20
-21.3261
 30
22.1399
 70
192
 0
VERTEX
 8
MANOPOLA
 10
46.158
 20
-21.6266
 30
22.1399
 70
192
 0
VERTEX
 8
MANOPOLA
 10
45.6246
 20
-21.7833
 30
22.1399
 70
192
 0
VERTEX
 8
MANOPOLA
 10
45.0687
 20
-21.7833
 30
22.1399
 70
192
 0
VERTEX
 8
MANOPOLA
 10
44.5353
 20
-21.6266
 30
22.1399
 70
192
 0
VERTEX
 8
MANOPOLA
 10
44.0676
 20
-21.3261
 30
22.1399
 70
192
 0
VERTEX
 8
MANOPOLA
 10
43.7036
 20
-20.906
 30
22.1399
 70
192
 0
VERTEX
 8
MANOPOLA
 10
43.704
 20
-20.4003
 30
22.1399
 70
192
 0
VERTEX
 8
MANOPOLA
 10
43.704
 20
-19.85
 30
22.1399
 70
192
 0
VERTEX
 8
MANOPOLA
 10
43.704
 20
-19.2997
 30
22.1399
 70
192
 0
VERTEX
 8
MANOPOLA
 10
43.7036
 20
-18.794
 30
22.1399
 70
192
 0
VERTEX
 8
MANOPOLA
 10
44.0676
 20
-18.3739
 30
22.1399
 70
192
 0
VERTEX
 8
MANOPOLA
 10
44.5353
 20
-18.0734
 30
22.1399
 70
192
 0
VERTEX
 8
MANOPOLA
 10
45.0687
 20
-17.9167
 30
22.1399
 70
192
 0
VERTEX
 8
MANOPOLA
 10
45.6246
 20
-17.9167
 30
22.1399
 70
192
 0
VERTEX
 8
MANOPOLA
 10
46.158
 20
-18.0734
 30
22.1399
 70
192
 0
VERTEX
 8
MANOPOLA
 10
46.6257
 20
-18.3739
 30
22.1399
 70
192
 0
VERTEX
 8
MANOPOLA
 10
46.9898
 20
-18.794
 30
22.1399
 70
192
 0
VERTEX
 8
MANOPOLA
 10
46.99
 20
-19.2997
 30
22.1399
 70
192
 0
VERTEX
 8
MANOPOLA
 10
46.9778
 20
-19.85
 30
22.1849
 70
192
 0
VERTEX
 8
MANOPOLA
 10
46.9784
 20
-20.3291
 30
22.1849
 70
192
 0
VERTEX
 8
MANOPOLA
 10
46.7773
 20
-20.7694
 30
22.1849
 70
192
 0
VERTEX
 8
MANOPOLA
 10
46.4603
 20
-21.1352
 30
22.1849
 70
192
 0
VERTEX
 8
MANOPOLA
 10
46.0531
 20
-21.3969
 30
22.1849
 70
192
 0
VERTEX
 8
MANOPOLA
 10
45.5887
 20
-21.5333
 30
22.1849
 70
192
 0
VERTEX
 8
MANOPOLA
 10
45.1047
 20
-21.5333
 30
22.1849
 70
192
 0
VERTEX
 8
MANOPOLA
 10
44.6402
 20
-21.3969
 30
22.1849
 70
192
 0
VERTEX
 8
MANOPOLA
 10
44.233
 20
-21.1352
 30
22.1849
 70
192
 0
VERTEX
 8
MANOPOLA
 10
43.9161
 20
-20.7694
 30
22.1849
 70
192
 0
VERTEX
 8
MANOPOLA
 10
43.715
 20
-20.3291
 30
22.1849
 70
192
 0
VERTEX
 8
MANOPOLA
 10
43.7174
 20
-19.85
 30
22.1849
 70
192
 0
VERTEX
 8
MANOPOLA
 10
43.715
 20
-19.3709
 30
22.1849
 70
192
 0
VERTEX
 8
MANOPOLA
 10
43.9161
 20
-18.9306
 30
22.1849
 70
192
 0
VERTEX
 8
MANOPOLA
 10
44.233
 20
-18.5648
 30
22.1849
 70
192
 0
VERTEX
 8
MANOPOLA
 10
44.6402
 20
-18.3031
 30
22.1849
 70
192
 0
VERTEX
 8
MANOPOLA
 10
45.1047
 20
-18.1667
 30
22.1849
 70
192
 0
VERTEX
 8
MANOPOLA
 10
45.5887
 20
-18.1667
 30
22.1849
 70
192
 0
VERTEX
 8
MANOPOLA
 10
46.0531
 20
-18.3031
 30
22.1849
 70
192
 0
VERTEX
 8
MANOPOLA
 10
46.4603
 20
-18.5648
 30
22.1849
 70
192
 0
VERTEX
 8
MANOPOLA
 10
46.7773
 20
-18.9306
 30
22.1849
 70
192
 0
VERTEX
 8
MANOPOLA
 10
46.9784
 20
-19.3709
 30
22.1849
 70
192
 0
VERTEX
 8
MANOPOLA
 10
45.1087
 20
-17.9167
 30
20.938
 70
192
 0
VERTEX
 8
MANOPOLA
 10
45.5846
 20
-17.9167
 30
20.938
 70
192
 0
VERTEX
 8
MANOPOLA
 10
45.1087
 20
-18.0813
 30
21.8927
 70
192
 0
VERTEX
 8
MANOPOLA
 10
45.5846
 20
-18.0813
 30
21.8927
 70
192
 0
VERTEX
 8
MANOPOLA
 10
45.1087
 20
-18.128
 30
22.0946
 70
192
 0
VERTEX
 8
MANOPOLA
 10
45.5846
 20
-18.128
 30
22.0946
 70
192
 0
VERTEX
 8
MANOPOLA
 10
45.1149
 20
-18.1312
 30
22.1795
 70
192
 0
VERTEX
 8
MANOPOLA
 10
45.5785
 20
-18.1312
 30
22.1795
 70
192
 0
VERTEX
 8
MANOPOLA
 10
45.1393
 20
-18.1459
 30
22.1693
 70
192
 0
VERTEX
 8
MANOPOLA
 10
45.554
 20
-18.1459
 30
22.1693
 70
192
 0
VERTEX
 8
MANOPOLA
 10
45.5844
 20
-18.1394
 30
22.1352
 70
192
 0
VERTEX
 8
MANOPOLA
 10
45.1085
 20
-18.1394
 30
22.1352
 70
192
 0
VERTEX
 8
MANOPOLA
 10
46.0778
 20
-19.85
 30
22.35
 70
192
 0
VERTEX
 8
MANOPOLA
 10
46.0781
 20
-20.1339
 30
22.35
 70
192
 0
VERTEX
 8
MANOPOLA
 10
46.0124
 20
-20.2778
 30
22.35
 70
192
 0
VERTEX
 8
MANOPOLA
 10
45.8649
 20
-20.448
 30
22.35
 70
192
 0
VERTEX
 8
MANOPOLA
 10
45.6754
 20
-20.5698
 30
22.35
 70
192
 0
VERTEX
 8
MANOPOLA
 10
45.4593
 20
-20.6333
 30
22.35
 70
192
 0
VERTEX
 8
MANOPOLA
 10
45.2341
 20
-20.6333
 30
22.35
 70
192
 0
VERTEX
 8
MANOPOLA
 10
45.018
 20
-20.5698
 30
22.35
 70
192
 0
VERTEX
 8
MANOPOLA
 10
44.8285
 20
-20.448
 30
22.35
 70
192
 0
VERTEX
 8
MANOPOLA
 10
44.681
 20
-20.2778
 30
22.35
 70
192
 0
VERTEX
 8
MANOPOLA
 10
44.616
 20
-20.1355
 30
22.35
 70
192
 0
VERTEX
 8
MANOPOLA
 10
44.6174
 20
-19.85
 30
22.35
 70
192
 0
VERTEX
 8
MANOPOLA
 10
44.616
 20
-19.5645
 30
22.35
 70
192
 0
VERTEX
 8
MANOPOLA
 10
44.681
 20
-19.4222
 30
22.35
 70
192
 0
VERTEX
 8
MANOPOLA
 10
44.8285
 20
-19.252
 30
22.35
 70
192
 0
VERTEX
 8
MANOPOLA
 10
45.018
 20
-19.1302
 30
22.35
 70
192
 0
VERTEX
 8
MANOPOLA
 10
45.2341
 20
-19.0667
 30
22.35
 70
192
 0
VERTEX
 8
MANOPOLA
 10
45.4593
 20
-19.0667
 30
22.35
 70
192
 0
VERTEX
 8
MANOPOLA
 10
45.6754
 20
-19.1302
 30
22.35
 70
192
 0
VERTEX
 8
MANOPOLA
 10
45.8649
 20
-19.252
 30
22.35
 70
192
 0
VERTEX
 8
MANOPOLA
 10
46.0124
 20
-19.4222
 30
22.35
 70
192
 0
VERTEX
 8
MANOPOLA
 10
46.0781
 20
-19.5661
 30
22.35
 70
192
 0
VERTEX
 8
MANOPOLA
 10
46.9866
 20
-19.85
 30
19.4
 70
192
 0
VERTEX
 8
MANOPOLA
 10
46.9202
 20
-20.312
 30
19.4
 70
192
 0
VERTEX
 8
MANOPOLA
 10
46.7263
 20
-20.7366
 30
19.4
 70
192
 0
VERTEX
 8
MANOPOLA
 10
46.4206
 20
-21.0894
 30
19.4
 70
192
 0
VERTEX
 8
MANOPOLA
 10
46.0279
 20
-21.3418
 30
19.4
 70
192
 0
VERTEX
 8
MANOPOLA
 10
45.5801
 20
-21.4733
 30
19.4
 70
192
 0
VERTEX
 8
MANOPOLA
 10
45.1133
 20
-21.4733
 30
19.4
 70
192
 0
VERTEX
 8
MANOPOLA
 10
44.6654
 20
-21.3418
 30
19.4
 70
192
 0
VERTEX
 8
MANOPOLA
 10
44.2727
 20
-21.0894
 30
19.4
 70
192
 0
VERTEX
 8
MANOPOLA
 10
43.9671
 20
-20.7366
 30
19.4
 70
192
 0
VERTEX
 8
MANOPOLA
 10
43.7731
 20
-20.312
 30
19.4
 70
192
 0
VERTEX
 8
MANOPOLA
 10
43.7067
 20
-19.85
 30
19.4
 70
192
 0
VERTEX
 8
MANOPOLA
 10
43.7731
 20
-19.388
 30
19.4
 70
192
 0
VERTEX
 8
MANOPOLA
 10
43.9671
 20
-18.9634
 30
19.4
 70
192
 0
VERTEX
 8
MANOPOLA
 10
44.2727
 20
-18.6106
 30
19.4
 70
192
 0
VERTEX
 8
MANOPOLA
 10
44.6654
 20
-18.3582
 30
19.4
 70
192
 0
VERTEX
 8
MANOPOLA
 10
45.1133
 20
-18.2267
 30
19.4
 70
192
 0
VERTEX
 8
MANOPOLA
 10
45.5801
 20
-18.2267
 30
19.4
 70
192
 0
VERTEX
 8
MANOPOLA
 10
46.0279
 20
-18.3582
 30
19.4
 70
192
 0
VERTEX
 8
MANOPOLA
 10
46.4206
 20
-18.6106
 30
19.4
 70
192
 0
VERTEX
 8
MANOPOLA
 10
46.7263
 20
-18.9634
 30
19.4
 70
192
 0
VERTEX
 8
MANOPOLA
 10
46.9202
 20
-19.388
 30
19.4
 70
192
 0
VERTEX
 8
MANOPOLA
 10
46.9866
 20
-19.85
 30
18.8896
 70
192
 0
VERTEX
 8
MANOPOLA
 10
46.9202
 20
-20.312
 30
18.8896
 70
192
 0
VERTEX
 8
MANOPOLA
 10
46.7263
 20
-20.7366
 30
18.8896
 70
192
 0
VERTEX
 8
MANOPOLA
 10
46.4206
 20
-21.0894
 30
18.8896
 70
192
 0
VERTEX
 8
MANOPOLA
 10
46.0279
 20
-21.3418
 30
18.8896
 70
192
 0
VERTEX
 8
MANOPOLA
 10
45.5801
 20
-21.4733
 30
18.8896
 70
192
 0
VERTEX
 8
MANOPOLA
 10
45.1133
 20
-21.4733
 30
18.8896
 70
192
 0
VERTEX
 8
MANOPOLA
 10
44.6654
 20
-21.3418
 30
18.8896
 70
192
 0
VERTEX
 8
MANOPOLA
 10
44.2727
 20
-21.0894
 30
18.8896
 70
192
 0
VERTEX
 8
MANOPOLA
 10
43.9671
 20
-20.7366
 30
18.8896
 70
192
 0
VERTEX
 8
MANOPOLA
 10
43.7731
 20
-20.312
 30
18.8896
 70
192
 0
VERTEX
 8
MANOPOLA
 10
43.7067
 20
-19.85
 30
18.8896
 70
192
 0
VERTEX
 8
MANOPOLA
 10
43.7731
 20
-19.388
 30
18.8896
 70
192
 0
VERTEX
 8
MANOPOLA
 10
43.9671
 20
-18.9634
 30
18.8896
 70
192
 0
VERTEX
 8
MANOPOLA
 10
44.2727
 20
-18.6106
 30
18.8896
 70
192
 0
VERTEX
 8
MANOPOLA
 10
44.6654
 20
-18.3582
 30
18.8896
 70
192
 0
VERTEX
 8
MANOPOLA
 10
45.1133
 20
-18.2267
 30
18.8896
 70
192
 0
VERTEX
 8
MANOPOLA
 10
45.5801
 20
-18.2267
 30
18.8896
 70
192
 0
VERTEX
 8
MANOPOLA
 10
46.0279
 20
-18.3582
 30
18.8896
 70
192
 0
VERTEX
 8
MANOPOLA
 10
46.4206
 20
-18.6106
 30
18.8896
 70
192
 0
VERTEX
 8
MANOPOLA
 10
46.7263
 20
-18.9634
 30
18.8896
 70
192
 0
VERTEX
 8
MANOPOLA
 10
46.9202
 20
-19.388
 30
18.8896
 70
192
 0
VERTEX
 8
MANOPOLA
 10
0
 20
0
 30
0
 70
128
 71
1
 72
169
 73
170
 74
170
 0
VERTEX
 8
MANOPOLA
 10
0
 20
0
 30
0
 70
128
 71
3
 72
4
 73
6
 74
5
 0
VERTEX
 8
MANOPOLA
 10
0
 20
0
 30
0
 70
128
 71
213
 72
2
 73
214
 74
214
 0
VERTEX
 8
MANOPOLA
 10
0
 20
0
 30
0
 70
128
 71
1
 72
170
 73
171
 74
171
 0
VERTEX
 8
MANOPOLA
 10
0
 20
0
 30
0
 70
128
 71
5
 72
6
 73
8
 74
7
 0
VERTEX
 8
MANOPOLA
 10
0
 20
0
 30
0
 70
128
 71
214
 72
2
 73
215
 74
215
 0
VERTEX
 8
MANOPOLA
 10
0
 20
0
 30
0
 70
128
 71
1
 72
171
 73
172
 74
172
 0
VERTEX
 8
MANOPOLA
 10
0
 20
0
 30
0
 70
128
 71
7
 72
8
 73
10
 74
9
 0
VERTEX
 8
MANOPOLA
 10
0
 20
0
 30
0
 70
128
 71
215
 72
2
 73
216
 74
216
 0
VERTEX
 8
MANOPOLA
 10
0
 20
0
 30
0
 70
128
 71
1
 72
172
 73
173
 74
173
 0
VERTEX
 8
MANOPOLA
 10
0
 20
0
 30
0
 70
128
 71
9
 72
10
 73
12
 74
11
 0
VERTEX
 8
MANOPOLA
 10
0
 20
0
 30
0
 70
128
 71
216
 72
2
 73
217
 74
217
 0
VERTEX
 8
MANOPOLA
 10
0
 20
0
 30
0
 70
128
 71
1
 72
173
 73
174
 74
174
 0
VERTEX
 8
MANOPOLA
 10
0
 20
0
 30
0
 70
128
 71
11
 72
12
 73
14
 74
13
 0
VERTEX
 8
MANOPOLA
 10
0
 20
0
 30
0
 70
128
 71
217
 72
2
 73
218
 74
218
 0
VERTEX
 8
MANOPOLA
 10
0
 20
0
 30
0
 70
128
 71
1
 72
174
 73
175
 74
175
 0
VERTEX
 8
MANOPOLA
 10
0
 20
0
 30
0
 70
128
 71
13
 72
14
 73
16
 74
15
 0
VERTEX
 8
MANOPOLA
 10
0
 20
0
 30
0
 70
128
 71
218
 72
2
 73
219
 74
219
 0
VERTEX
 8
MANOPOLA
 10
0
 20
0
 30
0
 70
128
 71
1
 72
175
 73
176
 74
176
 0
VERTEX
 8
MANOPOLA
 10
0
 20
0
 30
0
 70
128
 71
15
 72
16
 73
18
 74
17
 0
VERTEX
 8
MANOPOLA
 10
0
 20
0
 30
0
 70
128
 71
219
 72
2
 73
220
 74
220
 0
VERTEX
 8
MANOPOLA
 10
0
 20
0
 30
0
 70
128
 71
1
 72
176
 73
177
 74
177
 0
VERTEX
 8
MANOPOLA
 10
0
 20
0
 30
0
 70
128
 71
17
 72
18
 73
20
 74
19
 0
VERTEX
 8
MANOPOLA
 10
0
 20
0
 30
0
 70
128
 71
220
 72
2
 73
221
 74
221
 0
VERTEX
 8
MANOPOLA
 10
0
 20
0
 30
0
 70
128
 71
1
 72
177
 73
178
 74
178
 0
VERTEX
 8
MANOPOLA
 10
0
 20
0
 30
0
 70
128
 71
19
 72
20
 73
22
 74
21
 0
VERTEX
 8
MANOPOLA
 10
0
 20
0
 30
0
 70
128
 71
221
 72
2
 73
222
 74
222
 0
VERTEX
 8
MANOPOLA
 10
0
 20
0
 30
0
 70
128
 71
1
 72
178
 73
179
 74
179
 0
VERTEX
 8
MANOPOLA
 10
0
 20
0
 30
0
 70
128
 71
21
 72
22
 73
24
 74
23
 0
VERTEX
 8
MANOPOLA
 10
0
 20
0
 30
0
 70
128
 71
222
 72
2
 73
223
 74
223
 0
VERTEX
 8
MANOPOLA
 10
0
 20
0
 30
0
 70
128
 71
1
 72
179
 73
180
 74
180
 0
VERTEX
 8
MANOPOLA
 10
0
 20
0
 30
0
 70
128
 71
23
 72
24
 73
26
 74
25
 0
VERTEX
 8
MANOPOLA
 10
0
 20
0
 30
0
 70
128
 71
223
 72
2
 73
224
 74
224
 0
VERTEX
 8
MANOPOLA
 10
0
 20
0
 30
0
 70
128
 71
1
 72
180
 73
181
 74
181
 0
VERTEX
 8
MANOPOLA
 10
0
 20
0
 30
0
 70
128
 71
25
 72
26
 73
28
 74
27
 0
VERTEX
 8
MANOPOLA
 10
0
 20
0
 30
0
 70
128
 71
224
 72
2
 73
225
 74
225
 0
VERTEX
 8
MANOPOLA
 10
0
 20
0
 30
0
 70
128
 71
1
 72
181
 73
182
 74
182
 0
VERTEX
 8
MANOPOLA
 10
0
 20
0
 30
0
 70
128
 71
27
 72
28
 73
30
 74
29
 0
VERTEX
 8
MANOPOLA
 10
0
 20
0
 30
0
 70
128
 71
225
 72
2
 73
226
 74
226
 0
VERTEX
 8
MANOPOLA
 10
0
 20
0
 30
0
 70
128
 71
1
 72
182
 73
183
 74
183
 0
VERTEX
 8
MANOPOLA
 10
0
 20
0
 30
0
 70
128
 71
29
 72
30
 73
32
 74
31
 0
VERTEX
 8
MANOPOLA
 10
0
 20
0
 30
0
 70
128
 71
226
 72
2
 73
227
 74
227
 0
VERTEX
 8
MANOPOLA
 10
0
 20
0
 30
0
 70
128
 71
1
 72
183
 73
184
 74
184
 0
VERTEX
 8
MANOPOLA
 10
0
 20
0
 30
0
 70
128
 71
31
 72
32
 73
34
 74
33
 0
VERTEX
 8
MANOPOLA
 10
0
 20
0
 30
0
 70
128
 71
227
 72
2
 73
228
 74
228
 0
VERTEX
 8
MANOPOLA
 10
0
 20
0
 30
0
 70
128
 71
1
 72
184
 73
185
 74
185
 0
VERTEX
 8
MANOPOLA
 10
0
 20
0
 30
0
 70
128
 71
33
 72
34
 73
36
 74
35
 0
VERTEX
 8
MANOPOLA
 10
0
 20
0
 30
0
 70
128
 71
228
 72
2
 73
229
 74
229
 0
VERTEX
 8
MANOPOLA
 10
0
 20
0
 30
0
 70
128
 71
1
 72
185
 73
186
 74
186
 0
VERTEX
 8
MANOPOLA
 10
0
 20
0
 30
0
 70
128
 71
35
 72
36
 73
38
 74
37
 0
VERTEX
 8
MANOPOLA
 10
0
 20
0
 30
0
 70
128
 71
229
 72
2
 73
230
 74
230
 0
VERTEX
 8
MANOPOLA
 10
0
 20
0
 30
0
 70
128
 71
1
 72
186
 73
187
 74
187
 0
VERTEX
 8
MANOPOLA
 10
0
 20
0
 30
0
 70
128
 71
37
 72
38
 73
40
 74
39
 0
VERTEX
 8
MANOPOLA
 10
0
 20
0
 30
0
 70
128
 71
230
 72
2
 73
231
 74
231
 0
VERTEX
 8
MANOPOLA
 10
0
 20
0
 30
0
 70
128
 71
1
 72
187
 73
188
 74
188
 0
VERTEX
 8
MANOPOLA
 10
0
 20
0
 30
0
 70
128
 71
39
 72
40
 73
42
 74
41
 0
VERTEX
 8
MANOPOLA
 10
0
 20
0
 30
0
 70
128
 71
231
 72
2
 73
232
 74
232
 0
VERTEX
 8
MANOPOLA
 10
0
 20
0
 30
0
 70
128
 71
1
 72
188
 73
189
 74
189
 0
VERTEX
 8
MANOPOLA
 10
0
 20
0
 30
0
 70
128
 71
41
 72
42
 73
44
 74
43
 0
VERTEX
 8
MANOPOLA
 10
0
 20
0
 30
0
 70
128
 71
232
 72
2
 73
233
 74
233
 0
VERTEX
 8
MANOPOLA
 10
0
 20
0
 30
0
 70
128
 71
1
 72
189
 73
190
 74
190
 0
VERTEX
 8
MANOPOLA
 10
0
 20
0
 30
0
 70
128
 71
43
 72
44
 73
46
 74
45
 0
VERTEX
 8
MANOPOLA
 10
0
 20
0
 30
0
 70
128
 71
233
 72
2
 73
234
 74
234
 0
VERTEX
 8
MANOPOLA
 10
0
 20
0
 30
0
 70
128
 71
1
 72
190
 73
169
 74
169
 0
VERTEX
 8
MANOPOLA
 10
0
 20
0
 30
0
 70
128
 71
45
 72
46
 73
4
 74
3
 0
VERTEX
 8
MANOPOLA
 10
0
 20
0
 30
0
 70
128
 71
234
 72
2
 73
213
 74
213
 0
VERTEX
 8
MANOPOLA
 10
0
 20
0
 30
0
 70
128
 71
47
 72
3
 73
5
 74
48
 0
VERTEX
 8
MANOPOLA
 10
0
 20
0
 30
0
 70
128
 71
48
 72
5
 73
7
 74
49
 0
VERTEX
 8
MANOPOLA
 10
0
 20
0
 30
0
 70
128
 71
49
 72
7
 73
9
 74
50
 0
VERTEX
 8
MANOPOLA
 10
0
 20
0
 30
0
 70
128
 71
50
 72
9
 73
11
 74
51
 0
VERTEX
 8
MANOPOLA
 10
0
 20
0
 30
0
 70
128
 71
51
 72
11
 73
13
 74
52
 0
VERTEX
 8
MANOPOLA
 10
0
 20
0
 30
0
 70
128
 71
52
 72
13
 73
15
 74
53
 0
VERTEX
 8
MANOPOLA
 10
0
 20
0
 30
0
 70
128
 71
53
 72
15
 73
17
 74
54
 0
VERTEX
 8
MANOPOLA
 10
0
 20
0
 30
0
 70
128
 71
54
 72
17
 73
19
 74
55
 0
VERTEX
 8
MANOPOLA
 10
0
 20
0
 30
0
 70
128
 71
55
 72
19
 73
21
 74
56
 0
VERTEX
 8
MANOPOLA
 10
0
 20
0
 30
0
 70
128
 71
56
 72
21
 73
23
 74
57
 0
VERTEX
 8
MANOPOLA
 10
0
 20
0
 30
0
 70
128
 71
57
 72
23
 73
25
 74
58
 0
VERTEX
 8
MANOPOLA
 10
0
 20
0
 30
0
 70
128
 71
58
 72
25
 73
27
 74
59
 0
VERTEX
 8
MANOPOLA
 10
0
 20
0
 30
0
 70
128
 71
59
 72
27
 73
29
 74
60
 0
VERTEX
 8
MANOPOLA
 10
0
 20
0
 30
0
 70
128
 71
60
 72
29
 73
31
 74
61
 0
VERTEX
 8
MANOPOLA
 10
0
 20
0
 30
0
 70
128
 71
61
 72
31
 73
33
 74
62
 0
VERTEX
 8
MANOPOLA
 10
0
 20
0
 30
0
 70
128
 71
62
 72
33
 73
35
 74
63
 0
VERTEX
 8
MANOPOLA
 10
0
 20
0
 30
0
 70
128
 71
63
 72
35
 73
37
 74
64
 0
VERTEX
 8
MANOPOLA
 10
0
 20
0
 30
0
 70
128
 71
64
 72
37
 73
39
 74
65
 0
VERTEX
 8
MANOPOLA
 10
0
 20
0
 30
0
 70
128
 71
65
 72
39
 73
41
 74
66
 0
VERTEX
 8
MANOPOLA
 10
0
 20
0
 30
0
 70
128
 71
66
 72
41
 73
43
 74
67
 0
VERTEX
 8
MANOPOLA
 10
0
 20
0
 30
0
 70
128
 71
67
 72
43
 73
45
 74
68
 0
VERTEX
 8
MANOPOLA
 10
0
 20
0
 30
0
 70
128
 71
68
 72
45
 73
3
 74
47
 0
VERTEX
 8
MANOPOLA
 10
0
 20
0
 30
0
 70
128
 71
69
 72
47
 73
48
 74
70
 0
VERTEX
 8
MANOPOLA
 10
0
 20
0
 30
0
 70
128
 71
70
 72
48
 73
49
 74
71
 0
VERTEX
 8
MANOPOLA
 10
0
 20
0
 30
0
 70
128
 71
71
 72
49
 73
50
 74
72
 0
VERTEX
 8
MANOPOLA
 10
0
 20
0
 30
0
 70
128
 71
72
 72
50
 73
51
 74
73
 0
VERTEX
 8
MANOPOLA
 10
0
 20
0
 30
0
 70
128
 71
73
 72
51
 73
52
 74
74
 0
VERTEX
 8
MANOPOLA
 10
0
 20
0
 30
0
 70
128
 71
74
 72
52
 73
53
 74
75
 0
VERTEX
 8
MANOPOLA
 10
0
 20
0
 30
0
 70
128
 71
75
 72
53
 73
54
 74
76
 0
VERTEX
 8
MANOPOLA
 10
0
 20
0
 30
0
 70
128
 71
76
 72
54
 73
55
 74
77
 0
VERTEX
 8
MANOPOLA
 10
0
 20
0
 30
0
 70
128
 71
77
 72
55
 73
56
 74
78
 0
VERTEX
 8
MANOPOLA
 10
0
 20
0
 30
0
 70
128
 71
78
 72
56
 73
57
 74
79
 0
VERTEX
 8
MANOPOLA
 10
0
 20
0
 30
0
 70
128
 71
79
 72
57
 73
58
 74
80
 0
VERTEX
 8
MANOPOLA
 10
0
 20
0
 30
0
 70
128
 71
80
 72
58
 73
59
 74
81
 0
VERTEX
 8
MANOPOLA
 10
0
 20
0
 30
0
 70
128
 71
81
 72
59
 73
60
 74
82
 0
VERTEX
 8
MANOPOLA
 10
0
 20
0
 30
0
 70
128
 71
82
 72
60
 73
61
 74
83
 0
VERTEX
 8
MANOPOLA
 10
0
 20
0
 30
0
 70
128
 71
83
 72
61
 73
62
 74
84
 0
VERTEX
 8
MANOPOLA
 10
0
 20
0
 30
0
 70
128
 71
84
 72
62
 73
63
 74
85
 0
VERTEX
 8
MANOPOLA
 10
0
 20
0
 30
0
 70
128
 71
85
 72
63
 73
64
 74
86
 0
VERTEX
 8
MANOPOLA
 10
0
 20
0
 30
0
 70
128
 71
86
 72
64
 73
65
 74
87
 0
VERTEX
 8
MANOPOLA
 10
0
 20
0
 30
0
 70
128
 71
87
 72
65
 73
66
 74
88
 0
VERTEX
 8
MANOPOLA
 10
0
 20
0
 30
0
 70
128
 71
88
 72
66
 73
67
 74
89
 0
VERTEX
 8
MANOPOLA
 10
0
 20
0
 30
0
 70
128
 71
89
 72
67
 73
68
 74
90
 0
VERTEX
 8
MANOPOLA
 10
0
 20
0
 30
0
 70
128
 71
90
 72
68
 73
47
 74
69
 0
VERTEX
 8
MANOPOLA
 10
0
 20
0
 30
0
 70
128
 71
91
 72
69
 73
70
 74
92
 0
VERTEX
 8
MANOPOLA
 10
0
 20
0
 30
0
 70
128
 71
92
 72
70
 73
71
 74
93
 0
VERTEX
 8
MANOPOLA
 10
0
 20
0
 30
0
 70
128
 71
93
 72
71
 73
72
 74
94
 0
VERTEX
 8
MANOPOLA
 10
0
 20
0
 30
0
 70
128
 71
94
 72
72
 73
73
 74
95
 0
VERTEX
 8
MANOPOLA
 10
0
 20
0
 30
0
 70
128
 71
95
 72
73
 73
74
 74
96
 0
VERTEX
 8
MANOPOLA
 10
0
 20
0
 30
0
 70
128
 71
96
 72
74
 73
75
 74
97
 0
VERTEX
 8
MANOPOLA
 10
0
 20
0
 30
0
 70
128
 71
97
 72
75
 73
76
 74
98
 0
VERTEX
 8
MANOPOLA
 10
0
 20
0
 30
0
 70
128
 71
98
 72
76
 73
77
 74
99
 0
VERTEX
 8
MANOPOLA
 10
0
 20
0
 30
0
 70
128
 71
99
 72
77
 73
78
 74
100
 0
VERTEX
 8
MANOPOLA
 10
0
 20
0
 30
0
 70
128
 71
100
 72
78
 73
79
 74
101
 0
VERTEX
 8
MANOPOLA
 10
0
 20
0
 30
0
 70
128
 71
101
 72
79
 73
80
 74
102
 0
VERTEX
 8
MANOPOLA
 10
0
 20
0
 30
0
 70
128
 71
102
 72
80
 73
81
 74
103
 0
VERTEX
 8
MANOPOLA
 10
0
 20
0
 30
0
 70
128
 71
103
 72
81
 73
82
 74
104
 0
VERTEX
 8
MANOPOLA
 10
0
 20
0
 30
0
 70
128
 71
104
 72
82
 73
83
 74
105
 0
VERTEX
 8
MANOPOLA
 10
0
 20
0
 30
0
 70
128
 71
105
 72
83
 73
84
 74
106
 0
VERTEX
 8
MANOPOLA
 10
0
 20
0
 30
0
 70
128
 71
106
 72
84
 73
85
 74
107
 0
VERTEX
 8
MANOPOLA
 10
0
 20
0
 30
0
 70
128
 71
159
 72
157
 73
158
 74
160
 0
VERTEX
 8
MANOPOLA
 10
0
 20
0
 30
0
 70
128
 71
108
 72
86
 73
87
 74
109
 0
VERTEX
 8
MANOPOLA
 10
0
 20
0
 30
0
 70
128
 71
109
 72
87
 73
88
 74
110
 0
VERTEX
 8
MANOPOLA
 10
0
 20
0
 30
0
 70
128
 71
110
 72
88
 73
89
 74
111
 0
VERTEX
 8
MANOPOLA
 10
0
 20
0
 30
0
 70
128
 71
111
 72
89
 73
90
 74
112
 0
VERTEX
 8
MANOPOLA
 10
0
 20
0
 30
0
 70
128
 71
112
 72
90
 73
69
 74
91
 0
VERTEX
 8
MANOPOLA
 10
0
 20
0
 30
0
 70
128
 71
113
 72
91
 73
92
 74
114
 0
VERTEX
 8
MANOPOLA
 10
0
 20
0
 30
0
 70
128
 71
114
 72
92
 73
93
 74
115
 0
VERTEX
 8
MANOPOLA
 10
0
 20
0
 30
0
 70
128
 71
115
 72
93
 73
94
 74
116
 0
VERTEX
 8
MANOPOLA
 10
0
 20
0
 30
0
 70
128
 71
116
 72
94
 73
95
 74
117
 0
VERTEX
 8
MANOPOLA
 10
0
 20
0
 30
0
 70
128
 71
117
 72
95
 73
96
 74
118
 0
VERTEX
 8
MANOPOLA
 10
0
 20
0
 30
0
 70
128
 71
118
 72
96
 73
97
 74
119
 0
VERTEX
 8
MANOPOLA
 10
0
 20
0
 30
0
 70
128
 71
119
 72
97
 73
98
 74
120
 0
VERTEX
 8
MANOPOLA
 10
0
 20
0
 30
0
 70
128
 71
120
 72
98
 73
99
 74
121
 0
VERTEX
 8
MANOPOLA
 10
0
 20
0
 30
0
 70
128
 71
121
 72
99
 73
100
 74
122
 0
VERTEX
 8
MANOPOLA
 10
0
 20
0
 30
0
 70
128
 71
122
 72
100
 73
101
 74
123
 0
VERTEX
 8
MANOPOLA
 10
0
 20
0
 30
0
 70
128
 71
123
 72
101
 73
102
 74
124
 0
VERTEX
 8
MANOPOLA
 10
0
 20
0
 30
0
 70
128
 71
124
 72
102
 73
103
 74
125
 0
VERTEX
 8
MANOPOLA
 10
0
 20
0
 30
0
 70
128
 71
125
 72
103
 73
104
 74
126
 0
VERTEX
 8
MANOPOLA
 10
0
 20
0
 30
0
 70
128
 71
126
 72
104
 73
105
 74
127
 0
VERTEX
 8
MANOPOLA
 10
0
 20
0
 30
0
 70
128
 71
127
 72
105
 73
106
 74
128
 0
VERTEX
 8
MANOPOLA
 10
0
 20
0
 30
0
 70
128
 71
128
 72
106
 73
107
 74
129
 0
VERTEX
 8
MANOPOLA
 10
0
 20
0
 30
0
 70
128
 71
161
 72
159
 73
160
 74
162
 0
VERTEX
 8
MANOPOLA
 10
0
 20
0
 30
0
 70
128
 71
130
 72
108
 73
109
 74
131
 0
VERTEX
 8
MANOPOLA
 10
0
 20
0
 30
0
 70
128
 71
131
 72
109
 73
110
 74
132
 0
VERTEX
 8
MANOPOLA
 10
0
 20
0
 30
0
 70
128
 71
132
 72
110
 73
111
 74
133
 0
VERTEX
 8
MANOPOLA
 10
0
 20
0
 30
0
 70
128
 71
133
 72
111
 73
112
 74
134
 0
VERTEX
 8
MANOPOLA
 10
0
 20
0
 30
0
 70
128
 71
134
 72
112
 73
91
 74
113
 0
VERTEX
 8
MANOPOLA
 10
0
 20
0
 30
0
 70
128
 71
135
 72
113
 73
114
 74
136
 0
VERTEX
 8
MANOPOLA
 10
0
 20
0
 30
0
 70
128
 71
136
 72
114
 73
115
 74
137
 0
VERTEX
 8
MANOPOLA
 10
0
 20
0
 30
0
 70
128
 71
137
 72
115
 73
116
 74
138
 0
VERTEX
 8
MANOPOLA
 10
0
 20
0
 30
0
 70
128
 71
138
 72
116
 73
117
 74
139
 0
VERTEX
 8
MANOPOLA
 10
0
 20
0
 30
0
 70
128
 71
139
 72
117
 73
118
 74
140
 0
VERTEX
 8
MANOPOLA
 10
0
 20
0
 30
0
 70
128
 71
140
 72
118
 73
119
 74
141
 0
VERTEX
 8
MANOPOLA
 10
0
 20
0
 30
0
 70
128
 71
141
 72
119
 73
120
 74
142
 0
VERTEX
 8
MANOPOLA
 10
0
 20
0
 30
0
 70
128
 71
142
 72
120
 73
121
 74
143
 0
VERTEX
 8
MANOPOLA
 10
0
 20
0
 30
0
 70
128
 71
143
 72
121
 73
122
 74
144
 0
VERTEX
 8
MANOPOLA
 10
0
 20
0
 30
0
 70
128
 71
144
 72
122
 73
123
 74
145
 0
VERTEX
 8
MANOPOLA
 10
0
 20
0
 30
0
 70
128
 71
145
 72
123
 73
124
 74
146
 0
VERTEX
 8
MANOPOLA
 10
0
 20
0
 30
0
 70
128
 71
146
 72
124
 73
125
 74
147
 0
VERTEX
 8
MANOPOLA
 10
0
 20
0
 30
0
 70
128
 71
147
 72
125
 73
126
 74
148
 0
VERTEX
 8
MANOPOLA
 10
0
 20
0
 30
0
 70
128
 71
148
 72
126
 73
127
 74
149
 0
VERTEX
 8
MANOPOLA
 10
0
 20
0
 30
0
 70
128
 71
149
 72
127
 73
128
 74
150
 0
VERTEX
 8
MANOPOLA
 10
0
 20
0
 30
0
 70
128
 71
150
 72
128
 73
129
 74
151
 0
VERTEX
 8
MANOPOLA
 10
0
 20
0
 30
0
 70
128
 71
165
 72
163
 73
164
 74
166
 0
VERTEX
 8
MANOPOLA
 10
0
 20
0
 30
0
 70
128
 71
152
 72
130
 73
131
 74
153
 0
VERTEX
 8
MANOPOLA
 10
0
 20
0
 30
0
 70
128
 71
153
 72
131
 73
132
 74
154
 0
VERTEX
 8
MANOPOLA
 10
0
 20
0
 30
0
 70
128
 71
154
 72
132
 73
133
 74
155
 0
VERTEX
 8
MANOPOLA
 10
0
 20
0
 30
0
 70
128
 71
155
 72
133
 73
134
 74
156
 0
VERTEX
 8
MANOPOLA
 10
0
 20
0
 30
0
 70
128
 71
156
 72
134
 73
113
 74
135
 0
VERTEX
 8
MANOPOLA
 10
0
 20
0
 30
0
 70
128
 71
159
 72
107
 73
85
 74
157
 0
VERTEX
 8
MANOPOLA
 10
0
 20
0
 30
0
 70
128
 71
157
 72
85
 73
86
 74
158
 0
VERTEX
 8
MANOPOLA
 10
0
 20
0
 30
0
 70
128
 71
158
 72
86
 73
108
 74
160
 0
VERTEX
 8
MANOPOLA
 10
0
 20
0
 30
0
 70
128
 71
161
 72
129
 73
107
 74
159
 0
VERTEX
 8
MANOPOLA
 10
0
 20
0
 30
0
 70
128
 71
160
 72
108
 73
130
 74
162
 0
VERTEX
 8
MANOPOLA
 10
0
 20
0
 30
0
 70
128
 71
168
 72
129
 73
161
 74
161
 0
VERTEX
 8
MANOPOLA
 10
0
 20
0
 30
0
 70
128
 71
165
 72
151
 73
129
 74
163
 0
VERTEX
 8
MANOPOLA
 10
0
 20
0
 30
0
 70
128
 71
167
 72
130
 73
164
 74
164
 0
VERTEX
 8
MANOPOLA
 10
0
 20
0
 30
0
 70
128
 71
164
 72
130
 73
152
 74
166
 0
VERTEX
 8
MANOPOLA
 10
0
 20
0
 30
0
 70
128
 71
166
 72
152
 73
151
 74
165
 0
VERTEX
 8
MANOPOLA
 10
0
 20
0
 30
0
 70
128
 71
162
 72
130
 73
167
 74
167
 0
VERTEX
 8
MANOPOLA
 10
0
 20
0
 30
0
 70
128
 71
163
 72
129
 73
168
 74
168
 0
VERTEX
 8
MANOPOLA
 10
0
 20
0
 30
0
 70
128
 71
167
 72
168
 73
161
 74
162
 0
VERTEX
 8
MANOPOLA
 10
0
 20
0
 30
0
 70
128
 71
168
 72
167
 73
164
 74
163
 0
VERTEX
 8
MANOPOLA
 10
0
 20
0
 30
0
 70
128
 71
169
 72
135
 73
136
 74
170
 0
VERTEX
 8
MANOPOLA
 10
0
 20
0
 30
0
 70
128
 71
170
 72
136
 73
137
 74
171
 0
VERTEX
 8
MANOPOLA
 10
0
 20
0
 30
0
 70
128
 71
171
 72
137
 73
138
 74
172
 0
VERTEX
 8
MANOPOLA
 10
0
 20
0
 30
0
 70
128
 71
172
 72
138
 73
139
 74
173
 0
VERTEX
 8
MANOPOLA
 10
0
 20
0
 30
0
 70
128
 71
173
 72
139
 73
140
 74
174
 0
VERTEX
 8
MANOPOLA
 10
0
 20
0
 30
0
 70
128
 71
174
 72
140
 73
141
 74
175
 0
VERTEX
 8
MANOPOLA
 10
0
 20
0
 30
0
 70
128
 71
175
 72
141
 73
142
 74
176
 0
VERTEX
 8
MANOPOLA
 10
0
 20
0
 30
0
 70
128
 71
176
 72
142
 73
143
 74
177
 0
VERTEX
 8
MANOPOLA
 10
0
 20
0
 30
0
 70
128
 71
177
 72
143
 73
144
 74
178
 0
VERTEX
 8
MANOPOLA
 10
0
 20
0
 30
0
 70
128
 71
178
 72
144
 73
145
 74
179
 0
VERTEX
 8
MANOPOLA
 10
0
 20
0
 30
0
 70
128
 71
179
 72
145
 73
146
 74
180
 0
VERTEX
 8
MANOPOLA
 10
0
 20
0
 30
0
 70
128
 71
180
 72
146
 73
147
 74
181
 0
VERTEX
 8
MANOPOLA
 10
0
 20
0
 30
0
 70
128
 71
181
 72
147
 73
148
 74
182
 0
VERTEX
 8
MANOPOLA
 10
0
 20
0
 30
0
 70
128
 71
182
 72
148
 73
149
 74
183
 0
VERTEX
 8
MANOPOLA
 10
0
 20
0
 30
0
 70
128
 71
183
 72
149
 73
150
 74
184
 0
VERTEX
 8
MANOPOLA
 10
0
 20
0
 30
0
 70
128
 71
184
 72
150
 73
151
 74
185
 0
VERTEX
 8
MANOPOLA
 10
0
 20
0
 30
0
 70
128
 71
185
 72
151
 73
152
 74
186
 0
VERTEX
 8
MANOPOLA
 10
0
 20
0
 30
0
 70
128
 71
186
 72
152
 73
153
 74
187
 0
VERTEX
 8
MANOPOLA
 10
0
 20
0
 30
0
 70
128
 71
187
 72
153
 73
154
 74
188
 0
VERTEX
 8
MANOPOLA
 10
0
 20
0
 30
0
 70
128
 71
188
 72
154
 73
155
 74
189
 0
VERTEX
 8
MANOPOLA
 10
0
 20
0
 30
0
 70
128
 71
189
 72
155
 73
156
 74
190
 0
VERTEX
 8
MANOPOLA
 10
0
 20
0
 30
0
 70
128
 71
190
 72
156
 73
135
 74
169
 0
VERTEX
 8
MANOPOLA
 10
0
 20
0
 30
0
 70
128
 71
192
 72
6
 73
4
 74
191
 0
VERTEX
 8
MANOPOLA
 10
0
 20
0
 30
0
 70
128
 71
193
 72
8
 73
6
 74
192
 0
VERTEX
 8
MANOPOLA
 10
0
 20
0
 30
0
 70
128
 71
194
 72
10
 73
8
 74
193
 0
VERTEX
 8
MANOPOLA
 10
0
 20
0
 30
0
 70
128
 71
195
 72
12
 73
10
 74
194
 0
VERTEX
 8
MANOPOLA
 10
0
 20
0
 30
0
 70
128
 71
196
 72
14
 73
12
 74
195
 0
VERTEX
 8
MANOPOLA
 10
0
 20
0
 30
0
 70
128
 71
197
 72
16
 73
14
 74
196
 0
VERTEX
 8
MANOPOLA
 10
0
 20
0
 30
0
 70
128
 71
198
 72
18
 73
16
 74
197
 0
VERTEX
 8
MANOPOLA
 10
0
 20
0
 30
0
 70
128
 71
199
 72
20
 73
18
 74
198
 0
VERTEX
 8
MANOPOLA
 10
0
 20
0
 30
0
 70
128
 71
200
 72
22
 73
20
 74
199
 0
VERTEX
 8
MANOPOLA
 10
0
 20
0
 30
0
 70
128
 71
201
 72
24
 73
22
 74
200
 0
VERTEX
 8
MANOPOLA
 10
0
 20
0
 30
0
 70
128
 71
202
 72
26
 73
24
 74
201
 0
VERTEX
 8
MANOPOLA
 10
0
 20
0
 30
0
 70
128
 71
203
 72
28
 73
26
 74
202
 0
VERTEX
 8
MANOPOLA
 10
0
 20
0
 30
0
 70
128
 71
204
 72
30
 73
28
 74
203
 0
VERTEX
 8
MANOPOLA
 10
0
 20
0
 30
0
 70
128
 71
205
 72
32
 73
30
 74
204
 0
VERTEX
 8
MANOPOLA
 10
0
 20
0
 30
0
 70
128
 71
206
 72
34
 73
32
 74
205
 0
VERTEX
 8
MANOPOLA
 10
0
 20
0
 30
0
 70
128
 71
207
 72
36
 73
34
 74
206
 0
VERTEX
 8
MANOPOLA
 10
0
 20
0
 30
0
 70
128
 71
208
 72
38
 73
36
 74
207
 0
VERTEX
 8
MANOPOLA
 10
0
 20
0
 30
0
 70
128
 71
209
 72
40
 73
38
 74
208
 0
VERTEX
 8
MANOPOLA
 10
0
 20
0
 30
0
 70
128
 71
210
 72
42
 73
40
 74
209
 0
VERTEX
 8
MANOPOLA
 10
0
 20
0
 30
0
 70
128
 71
211
 72
44
 73
42
 74
210
 0
VERTEX
 8
MANOPOLA
 10
0
 20
0
 30
0
 70
128
 71
212
 72
46
 73
44
 74
211
 0
VERTEX
 8
MANOPOLA
 10
0
 20
0
 30
0
 70
128
 71
191
 72
4
 73
46
 74
212
 0
VERTEX
 8
MANOPOLA
 10
0
 20
0
 30
0
 70
128
 71
214
 72
192
 73
191
 74
213
 0
VERTEX
 8
MANOPOLA
 10
0
 20
0
 30
0
 70
128
 71
215
 72
193
 73
192
 74
214
 0
VERTEX
 8
MANOPOLA
 10
0
 20
0
 30
0
 70
128
 71
216
 72
194
 73
193
 74
215
 0
VERTEX
 8
MANOPOLA
 10
0
 20
0
 30
0
 70
128
 71
217
 72
195
 73
194
 74
216
 0
VERTEX
 8
MANOPOLA
 10
0
 20
0
 30
0
 70
128
 71
218
 72
196
 73
195
 74
217
 0
VERTEX
 8
MANOPOLA
 10
0
 20
0
 30
0
 70
128
 71
219
 72
197
 73
196
 74
218
 0
VERTEX
 8
MANOPOLA
 10
0
 20
0
 30
0
 70
128
 71
220
 72
198
 73
197
 74
219
 0
VERTEX
 8
MANOPOLA
 10
0
 20
0
 30
0
 70
128
 71
221
 72
199
 73
198
 74
220
 0
VERTEX
 8
MANOPOLA
 10
0
 20
0
 30
0
 70
128
 71
222
 72
200
 73
199
 74
221
 0
VERTEX
 8
MANOPOLA
 10
0
 20
0
 30
0
 70
128
 71
223
 72
201
 73
200
 74
222
 0
VERTEX
 8
MANOPOLA
 10
0
 20
0
 30
0
 70
128
 71
224
 72
202
 73
201
 74
223
 0
VERTEX
 8
MANOPOLA
 10
0
 20
0
 30
0
 70
128
 71
225
 72
203
 73
202
 74
224
 0
VERTEX
 8
MANOPOLA
 10
0
 20
0
 30
0
 70
128
 71
226
 72
204
 73
203
 74
225
 0
VERTEX
 8
MANOPOLA
 10
0
 20
0
 30
0
 70
128
 71
227
 72
205
 73
204
 74
226
 0
VERTEX
 8
MANOPOLA
 10
0
 20
0
 30
0
 70
128
 71
228
 72
206
 73
205
 74
227
 0
VERTEX
 8
MANOPOLA
 10
0
 20
0
 30
0
 70
128
 71
229
 72
207
 73
206
 74
228
 0
VERTEX
 8
MANOPOLA
 10
0
 20
0
 30
0
 70
128
 71
230
 72
208
 73
207
 74
229
 0
VERTEX
 8
MANOPOLA
 10
0
 20
0
 30
0
 70
128
 71
231
 72
209
 73
208
 74
230
 0
VERTEX
 8
MANOPOLA
 10
0
 20
0
 30
0
 70
128
 71
232
 72
210
 73
209
 74
231
 0
VERTEX
 8
MANOPOLA
 10
0
 20
0
 30
0
 70
128
 71
233
 72
211
 73
210
 74
232
 0
VERTEX
 8
MANOPOLA
 10
0
 20
0
 30
0
 70
128
 71
234
 72
212
 73
211
 74
233
 0
VERTEX
 8
MANOPOLA
 10
0
 20
0
 30
0
 70
128
 71
213
 72
191
 73
212
 74
234
 0
SEQEND
 0
POLYLINE
 8
PIANO
 66
1
 10
0.0
 20
0.0
 30
0.0
 70
64
 71
8
 72
6
 0
VERTEX
 8
PIANO
 10
52.302
 20
22
 30
18.9
 70
192
 0
VERTEX
 8
PIANO
 10
52.302
 20
-32
 30
18.9
 70
192
 0
VERTEX
 8
PIANO
 10
-52.298
 20
22
 30
18.9
 70
192
 0
VERTEX
 8
PIANO
 10
-52.298
 20
-32
 30
18.9
 70
192
 0
VERTEX
 8
PIANO
 10
-52.298
 20
22
 30
18.0001
 70
192
 0
VERTEX
 8
PIANO
 10
-52.298
 20
-32
 30
18.0001
 70
192
 0
VERTEX
 8
PIANO
 10
52.302
 20
22
 30
18.0001
 70
192
 0
VERTEX
 8
PIANO
 10
52.302
 20
-32
 30
18.0001
 70
192
 0
VERTEX
 8
PIANO
 10
0
 20
0
 30
0
 70
128
 71
1
 72
2
 73
4
 74
3
 0
VERTEX
 8
PIANO
 10
0
 20
0
 30
0
 70
128
 71
3
 72
4
 73
6
 74
5
 0
VERTEX
 8
PIANO
 10
0
 20
0
 30
0
 70
128
 71
5
 72
6
 73
8
 74
7
 0
VERTEX
 8
PIANO
 10
0
 20
0
 30
0
 70
128
 71
7
 72
8
 73
2
 74
1
 0
VERTEX
 8
PIANO
 10
0
 20
0
 30
0
 70
128
 71
2
 72
8
 73
6
 74
4
 0
VERTEX
 8
PIANO
 10
0
 20
0
 30
0
 70
128
 71
7
 72
1
 73
3
 74
5
 0
SEQEND
 0
ENDSEC
 0
EOF
