 0
SECTION
 2
HEADER
 9
$ACADVER
 1
AC1009
 0
ENDSEC
 0
SECTION
 2
TABLES
 0
TABLE
 2
LTYPE
 70
1
 0
LTYPE
 2
CONTINUOUS
 70
64
 3
solid line
 72
65
 73
0
 40
0.0
 0
ENDTAB
 0
TABLE
 2
LAYER
 70
6
 0
LAYER
 2
0
 70
0
 62
7
 6
CONTINUOUS
 0
LAYER
 2
FUO_6011_P_MT_MBK
 70
64
 62
7
 6
CONTINUOUS
 0
LAYER
 2
TARGHETTA_LOGO
 70
64
 62
7
 6
CONTINUOUS
 0
LAYER
 2
LOGO_FULGOR_MILANO
 70
64
 62
7
 6
CONTINUOUS
 0
LAYER
 2
FULGOR
 70
64
 62
7
 6
CONTINUOUS
 0
LAYER
 2
MILANO
 70
64
 62
7
 6
CONTINUOUS
 0
LAYER
 2
CUBO
 70
64
 62
39
 6
CONTINUOUS
 0
LAYER
 2
MANIGLIA
 70
64
 62
7
 6
CONTINUOUS
 0
LAYER
 2
CILINDRO
 70
64
 62
39
 6
CONTINUOUS
 0
LAYER
 2
CUBO_5
 70
64
 62
39
 6
CONTINUOUS
 0
LAYER
 2
CUBO_4
 70
64
 62
39
 6
CONTINUOUS
 0
LAYER
 2
CUBO_3
 70
64
 62
39
 6
CONTINUOUS
 0
LAYER
 2
PANNELLO_FRONTALE
 70
64
 62
39
 6
CONTINUOUS
 0
LAYER
 2
VETRO
 70
64
 62
37
 6
CONTINUOUS
 0
LAYER
 2
CORNICE_DISPLAY
 70
64
 62
39
 6
CONTINUOUS
 0
LAYER
 2
PANNELLO_DISPALY
 70
64
 62
39
 6
CONTINUOUS
 0
LAYER
 2
CUBO_1
 70
64
 62
39
 6
CONTINUOUS
 0
LAYER
 2
FORNO
 70
64
 62
253
 6
CONTINUOUS
 0
LAYER
 2
MANOPOLA
 70
64
 62
7
 6
CONTINUOUS
 0
LAYER
 2
TACCA_1
 70
64
 62
39
 6
CONTINUOUS
 0
LAYER
 2
CILINDRO_1
 70
64
 62
39
 6
CONTINUOUS
 0
LAYER
 2
MANOPOLA_1
 70
64
 62
7
 6
CONTINUOUS
 0
LAYER
 2
TACCA_1_1
 70
64
 62
39
 6
CONTINUOUS
 0
LAYER
 2
CILINDRO_2
 70
64
 62
39
 6
CONTINUOUS
 0
ENDTAB
 0
ENDSEC
 0
SECTION
 2
BLOCKS
 0
ENDSEC
 0
SECTION
 2
ENTITIES
 0
POLYLINE
 8
FULGOR
 66
1
 10
0.0
 20
0.0
 30
0.0
 70
64
 71
726
 72
729
 0
VERTEX
 8
FULGOR
 10
0.2444
 20
-0.3801
 30
112.694
 70
192
 0
VERTEX
 8
FULGOR
 10
-2.475
 20
-0.3801
 30
112.5913
 70
192
 0
VERTEX
 8
FULGOR
 10
1.3654
 20
-0.3801
 30
112.6173
 70
192
 0
VERTEX
 8
FULGOR
 10
-2.3203
 20
-0.3801
 30
112.8881
 70
192
 0
VERTEX
 8
FULGOR
 10
-2.3203
 20
-0.3801
 30
112.9816
 70
192
 0
VERTEX
 8
FULGOR
 10
-1.9405
 20
-0.3801
 30
112.9816
 70
192
 0
VERTEX
 8
FULGOR
 10
-1.9405
 20
-0.3801
 30
113.0924
 70
192
 0
VERTEX
 8
FULGOR
 10
-2.475
 20
-0.3801
 30
113.0924
 70
192
 0
VERTEX
 8
FULGOR
 10
-1.7834
 20
-0.3801
 30
112.8091
 70
192
 0
VERTEX
 8
FULGOR
 10
-1.7822
 20
-0.3801
 30
112.7857
 70
192
 0
VERTEX
 8
FULGOR
 10
-1.7786
 20
-0.3801
 30
112.764
 70
192
 0
VERTEX
 8
FULGOR
 10
-2.3203
 20
-0.3801
 30
112.5913
 70
192
 0
VERTEX
 8
FULGOR
 10
-2.3203
 20
-0.3801
 30
112.799
 70
192
 0
VERTEX
 8
FULGOR
 10
-1.9405
 20
-0.3801
 30
112.799
 70
192
 0
VERTEX
 8
FULGOR
 10
-1.9405
 20
-0.3801
 30
112.8881
 70
192
 0
VERTEX
 8
FULGOR
 10
-1.7834
 20
-0.3801
 30
113.0924
 70
192
 0
VERTEX
 8
FULGOR
 10
-1.7729
 20
-0.3801
 30
112.7441
 70
192
 0
VERTEX
 8
FULGOR
 10
-1.7651
 20
-0.3801
 30
112.7258
 70
192
 0
VERTEX
 8
FULGOR
 10
-1.7555
 20
-0.3801
 30
112.7091
 70
192
 0
VERTEX
 8
FULGOR
 10
-1.7442
 20
-0.3801
 30
112.6939
 70
192
 0
VERTEX
 8
FULGOR
 10
-1.6067
 20
-0.3801
 30
112.6173
 70
192
 0
VERTEX
 8
FULGOR
 10
-1.5537
 20
-0.3801
 30
112.6064
 70
192
 0
VERTEX
 8
FULGOR
 10
-1.4675
 20
-0.3801
 30
112.5972
 70
192
 0
VERTEX
 8
FULGOR
 10
-1.3781
 20
-0.3801
 30
112.5944
 70
192
 0
VERTEX
 8
FULGOR
 10
-1.2781
 20
-0.3801
 30
112.598
 70
192
 0
VERTEX
 8
FULGOR
 10
-1.2027
 20
-0.3801
 30
112.608
 70
192
 0
VERTEX
 8
FULGOR
 10
-1.7312
 20
-0.3801
 30
112.6801
 70
192
 0
VERTEX
 8
FULGOR
 10
-1.1098
 20
-0.3801
 30
112.6333
 70
192
 0
VERTEX
 8
FULGOR
 10
-1.7167
 20
-0.3801
 30
112.6676
 70
192
 0
VERTEX
 8
FULGOR
 10
-1.7009
 20
-0.3801
 30
112.6564
 70
192
 0
VERTEX
 8
FULGOR
 10
-1.675
 20
-0.3801
 30
112.6419
 70
192
 0
VERTEX
 8
FULGOR
 10
-1.6469
 20
-0.3801
 30
112.6299
 70
192
 0
VERTEX
 8
FULGOR
 10
-1.007
 20
-0.3801
 30
112.7026
 70
192
 0
VERTEX
 8
FULGOR
 10
-1.1498
 20
-0.3801
 30
112.6201
 70
192
 0
VERTEX
 8
FULGOR
 10
-1.0817
 20
-0.3801
 30
112.6456
 70
192
 0
VERTEX
 8
FULGOR
 10
-1.0559
 20
-0.3801
 30
112.6599
 70
192
 0
VERTEX
 8
FULGOR
 10
-1.0328
 20
-0.3801
 30
112.6766
 70
192
 0
VERTEX
 8
FULGOR
 10
-0.9752
 20
-0.3801
 30
112.7789
 70
192
 0
VERTEX
 8
FULGOR
 10
-0.974
 20
-0.3801
 30
112.7995
 70
192
 0
VERTEX
 8
FULGOR
 10
-0.9738
 20
-0.3801
 30
113.0924
 70
192
 0
VERTEX
 8
FULGOR
 10
-1.0192
 20
-0.3801
 30
112.689
 70
192
 0
VERTEX
 8
FULGOR
 10
-0.9966
 20
-0.3801
 30
112.7174
 70
192
 0
VERTEX
 8
FULGOR
 10
-1.1285
 20
-0.3801
 30
112.801
 70
192
 0
VERTEX
 8
FULGOR
 10
-1.1294
 20
-0.3801
 30
112.794
 70
192
 0
VERTEX
 8
FULGOR
 10
-1.131
 20
-0.3801
 30
112.787
 70
192
 0
VERTEX
 8
FULGOR
 10
-1.1333
 20
-0.3801
 30
112.78
 70
192
 0
VERTEX
 8
FULGOR
 10
-1.1363
 20
-0.3801
 30
112.7732
 70
192
 0
VERTEX
 8
FULGOR
 10
-1.1402
 20
-0.3801
 30
112.7665
 70
192
 0
VERTEX
 8
FULGOR
 10
-1.1448
 20
-0.3801
 30
112.7599
 70
192
 0
VERTEX
 8
FULGOR
 10
-1.1531
 20
-0.3801
 30
112.7503
 70
192
 0
VERTEX
 8
FULGOR
 10
-1.1633
 20
-0.3801
 30
112.7412
 70
192
 0
VERTEX
 8
FULGOR
 10
-1.1754
 20
-0.3801
 30
112.7326
 70
192
 0
VERTEX
 8
FULGOR
 10
-1.1895
 20
-0.3801
 30
112.7246
 70
192
 0
VERTEX
 8
FULGOR
 10
-0.988
 20
-0.3801
 30
112.7334
 70
192
 0
VERTEX
 8
FULGOR
 10
-0.9813
 20
-0.3801
 30
112.7506
 70
192
 0
VERTEX
 8
FULGOR
 10
-0.9767
 20
-0.3801
 30
112.7692
 70
192
 0
VERTEX
 8
FULGOR
 10
-1.1284
 20
-0.3801
 30
113.0924
 70
192
 0
VERTEX
 8
FULGOR
 10
-1.1284
 20
-0.3801
 30
112.8081
 70
192
 0
VERTEX
 8
FULGOR
 10
-1.4662
 20
-0.3801
 30
112.6951
 70
192
 0
VERTEX
 8
FULGOR
 10
-1.2114
 20
-0.3801
 30
112.7149
 70
192
 0
VERTEX
 8
FULGOR
 10
-1.5394
 20
-0.3801
 30
112.7088
 70
192
 0
VERTEX
 8
FULGOR
 10
-1.5621
 20
-0.3801
 30
112.7169
 70
192
 0
VERTEX
 8
FULGOR
 10
-1.2369
 20
-0.3801
 30
112.7066
 70
192
 0
VERTEX
 8
FULGOR
 10
-1.2742
 20
-0.3801
 30
112.6985
 70
192
 0
VERTEX
 8
FULGOR
 10
-1.3178
 20
-0.3801
 30
112.6932
 70
192
 0
VERTEX
 8
FULGOR
 10
-1.6064
 20
-0.3801
 30
112.7472
 70
192
 0
VERTEX
 8
FULGOR
 10
-1.6118
 20
-0.3801
 30
112.754
 70
192
 0
VERTEX
 8
FULGOR
 10
-1.6164
 20
-0.3801
 30
112.7611
 70
192
 0
VERTEX
 8
FULGOR
 10
-1.6203
 20
-0.3801
 30
112.7686
 70
192
 0
VERTEX
 8
FULGOR
 10
-1.6234
 20
-0.3801
 30
112.7765
 70
192
 0
VERTEX
 8
FULGOR
 10
-1.3786
 20
-0.3801
 30
112.6909
 70
192
 0
VERTEX
 8
FULGOR
 10
-1.6281
 20
-0.3801
 30
112.7979
 70
192
 0
VERTEX
 8
FULGOR
 10
-1.6288
 20
-0.3801
 30
112.8119
 70
192
 0
VERTEX
 8
FULGOR
 10
-1.6288
 20
-0.3801
 30
113.0924
 70
192
 0
VERTEX
 8
FULGOR
 10
-1.513
 20
-0.3801
 30
112.7022
 70
192
 0
VERTEX
 8
FULGOR
 10
-1.5767
 20
-0.3801
 30
112.7241
 70
192
 0
VERTEX
 8
FULGOR
 10
-1.5894
 20
-0.3801
 30
112.732
 70
192
 0
VERTEX
 8
FULGOR
 10
-1.6002
 20
-0.3801
 30
112.7409
 70
192
 0
VERTEX
 8
FULGOR
 10
-0.6624
 20
-0.3801
 30
112.702
 70
192
 0
VERTEX
 8
FULGOR
 10
-0.6624
 20
-0.3801
 30
113.0924
 70
192
 0
VERTEX
 8
FULGOR
 10
0.5666
 20
-0.3801
 30
113.0462
 70
192
 0
VERTEX
 8
FULGOR
 10
-1.6258
 20
-0.3801
 30
112.7848
 70
192
 0
VERTEX
 8
FULGOR
 10
-0.8171
 20
-0.3801
 30
113.0924
 70
192
 0
VERTEX
 8
FULGOR
 10
0.2606
 20
-0.3801
 30
113.092
 70
192
 0
VERTEX
 8
FULGOR
 10
-0.8171
 20
-0.3801
 30
112.5913
 70
192
 0
VERTEX
 8
FULGOR
 10
-0.2827
 20
-0.3801
 30
112.5913
 70
192
 0
VERTEX
 8
FULGOR
 10
-0.2827
 20
-0.3801
 30
112.702
 70
192
 0
VERTEX
 8
FULGOR
 10
0.4792
 20
-0.3801
 30
113.066
 70
192
 0
VERTEX
 8
FULGOR
 10
0.3866
 20
-0.3801
 30
113.0807
 70
192
 0
VERTEX
 8
FULGOR
 10
0.1902
 20
-0.3801
 30
113.0918
 70
192
 0
VERTEX
 8
FULGOR
 10
-0.0813
 20
-0.3801
 30
113.016
 70
192
 0
VERTEX
 8
FULGOR
 10
-0.1076
 20
-0.3801
 30
112.9988
 70
192
 0
VERTEX
 8
FULGOR
 10
-0.1299
 20
-0.3801
 30
112.981
 70
192
 0
VERTEX
 8
FULGOR
 10
-0.1488
 20
-0.3801
 30
112.9626
 70
192
 0
VERTEX
 8
FULGOR
 10
0.1264
 20
-0.3801
 30
113.0854
 70
192
 0
VERTEX
 8
FULGOR
 10
0.0697
 20
-0.3801
 30
113.0745
 70
192
 0
VERTEX
 8
FULGOR
 10
0.014
 20
-0.3801
 30
113.0585
 70
192
 0
VERTEX
 8
FULGOR
 10
-0.1912
 20
-0.3801
 30
112.8947
 70
192
 0
VERTEX
 8
FULGOR
 10
-0.1957
 20
-0.3801
 30
112.8803
 70
192
 0
VERTEX
 8
FULGOR
 10
-0.0362
 20
-0.3801
 30
113.0389
 70
192
 0
VERTEX
 8
FULGOR
 10
-0.062
 20
-0.3801
 30
113.0265
 70
192
 0
VERTEX
 8
FULGOR
 10
-0.1635
 20
-0.3801
 30
112.9451
 70
192
 0
VERTEX
 8
FULGOR
 10
-0.2
 20
-0.3801
 30
112.8216
 70
192
 0
VERTEX
 8
FULGOR
 10
-0.1742
 20
-0.3801
 30
112.9296
 70
192
 0
VERTEX
 8
FULGOR
 10
-0.1835
 20
-0.3801
 30
112.9128
 70
192
 0
VERTEX
 8
FULGOR
 10
-0.1989
 20
-0.3801
 30
112.8651
 70
192
 0
VERTEX
 8
FULGOR
 10
-0.2002
 20
-0.3801
 30
112.8546
 70
192
 0
VERTEX
 8
FULGOR
 10
-0.201
 20
-0.3801
 30
112.8382
 70
192
 0
VERTEX
 8
FULGOR
 10
-0.1971
 20
-0.3801
 30
112.8054
 70
192
 0
VERTEX
 8
FULGOR
 10
-0.1321
 20
-0.3801
 30
112.7052
 70
192
 0
VERTEX
 8
FULGOR
 10
-0.1075
 20
-0.3801
 30
112.6854
 70
192
 0
VERTEX
 8
FULGOR
 10
-0.1924
 20
-0.3801
 30
112.7896
 70
192
 0
VERTEX
 8
FULGOR
 10
-0.0395
 20
-0.3801
 30
112.6455
 70
192
 0
VERTEX
 8
FULGOR
 10
-0.0024
 20
-0.3801
 30
112.63
 70
192
 0
VERTEX
 8
FULGOR
 10
-0.186
 20
-0.3801
 30
112.7743
 70
192
 0
VERTEX
 8
FULGOR
 10
-0.178
 20
-0.3801
 30
112.7594
 70
192
 0
VERTEX
 8
FULGOR
 10
0.1726
 20
-0.3801
 30
112.5938
 70
192
 0
VERTEX
 8
FULGOR
 10
0.221
 20
-0.3801
 30
112.5915
 70
192
 0
VERTEX
 8
FULGOR
 10
0.2606
 20
-0.3801
 30
112.5917
 70
192
 0
VERTEX
 8
FULGOR
 10
0.3233
 20
-0.3801
 30
112.5954
 70
192
 0
VERTEX
 8
FULGOR
 10
-0.165
 20
-0.3801
 30
112.7404
 70
192
 0
VERTEX
 8
FULGOR
 10
-0.1496
 20
-0.3801
 30
112.7223
 70
192
 0
VERTEX
 8
FULGOR
 10
-0.0749
 20
-0.3801
 30
112.664
 70
192
 0
VERTEX
 8
FULGOR
 10
0.3888
 20
-0.3801
 30
112.8514
 70
192
 0
VERTEX
 8
FULGOR
 10
0.0482
 20
-0.3801
 30
112.6142
 70
192
 0
VERTEX
 8
FULGOR
 10
0.104
 20
-0.3801
 30
112.6022
 70
192
 0
VERTEX
 8
FULGOR
 10
0.4013
 20
-0.3801
 30
112.6056
 70
192
 0
VERTEX
 8
FULGOR
 10
0.5666
 20
-0.3801
 30
112.6374
 70
192
 0
VERTEX
 8
FULGOR
 10
0.2153
 20
-0.3801
 30
112.6943
 70
192
 0
VERTEX
 8
FULGOR
 10
0.1813
 20
-0.3801
 30
112.697
 70
192
 0
VERTEX
 8
FULGOR
 10
0.5666
 20
-0.3801
 30
112.8514
 70
192
 0
VERTEX
 8
FULGOR
 10
0.1177
 20
-0.3801
 30
112.7112
 70
192
 0
VERTEX
 8
FULGOR
 10
0.0946
 20
-0.3801
 30
112.7202
 70
192
 0
VERTEX
 8
FULGOR
 10
0.3887
 20
-0.3801
 30
112.7047
 70
192
 0
VERTEX
 8
FULGOR
 10
0.3685
 20
-0.3801
 30
112.701
 70
192
 0
VERTEX
 8
FULGOR
 10
0.0413
 20
-0.3801
 30
112.7541
 70
192
 0
VERTEX
 8
FULGOR
 10
0.3128
 20
-0.3801
 30
112.6953
 70
192
 0
VERTEX
 8
FULGOR
 10
0.2718
 20
-0.3801
 30
112.6937
 70
192
 0
VERTEX
 8
FULGOR
 10
0.1486
 20
-0.3801
 30
112.7026
 70
192
 0
VERTEX
 8
FULGOR
 10
0.0734
 20
-0.3801
 30
112.731
 70
192
 0
VERTEX
 8
FULGOR
 10
0.002
 20
-0.3801
 30
112.8164
 70
192
 0
VERTEX
 8
FULGOR
 10
-0.0003
 20
-0.3801
 30
112.827
 70
192
 0
VERTEX
 8
FULGOR
 10
-0.0018
 20
-0.3801
 30
112.838
 70
192
 0
VERTEX
 8
FULGOR
 10
-0.0023
 20
-0.3801
 30
112.8494
 70
192
 0
VERTEX
 8
FULGOR
 10
-0.0016
 20
-0.3801
 30
112.8607
 70
192
 0
VERTEX
 8
FULGOR
 10
0.0542
 20
-0.3801
 30
112.7435
 70
192
 0
VERTEX
 8
FULGOR
 10
0.0298
 20
-0.3801
 30
112.7657
 70
192
 0
VERTEX
 8
FULGOR
 10
0.0199
 20
-0.3801
 30
112.7782
 70
192
 0
VERTEX
 8
FULGOR
 10
0.0124
 20
-0.3801
 30
112.901
 70
192
 0
VERTEX
 8
FULGOR
 10
0.0185
 20
-0.3801
 30
112.9098
 70
192
 0
VERTEX
 8
FULGOR
 10
0.0254
 20
-0.3801
 30
112.9182
 70
192
 0
VERTEX
 8
FULGOR
 10
0.0117
 20
-0.3801
 30
112.7917
 70
192
 0
VERTEX
 8
FULGOR
 10
0.0506
 20
-0.3801
 30
112.9402
 70
192
 0
VERTEX
 8
FULGOR
 10
0.0652
 20
-0.3801
 30
112.9496
 70
192
 0
VERTEX
 8
FULGOR
 10
0.0053
 20
-0.3801
 30
112.8062
 70
192
 0
VERTEX
 8
FULGOR
 10
0.1145
 20
-0.3801
 30
112.9717
 70
192
 0
VERTEX
 8
FULGOR
 10
0.1436
 20
-0.3801
 30
112.9799
 70
192
 0
VERTEX
 8
FULGOR
 10
0.0002
 20
-0.3801
 30
112.8715
 70
192
 0
VERTEX
 8
FULGOR
 10
0.1946
 20
-0.3801
 30
112.988
 70
192
 0
VERTEX
 8
FULGOR
 10
0.0032
 20
-0.3801
 30
112.8819
 70
192
 0
VERTEX
 8
FULGOR
 10
0.3191
 20
-0.3801
 30
112.9838
 70
192
 0
VERTEX
 8
FULGOR
 10
0.0073
 20
-0.3801
 30
112.8917
 70
192
 0
VERTEX
 8
FULGOR
 10
0.5666
 20
-0.3801
 30
112.9393
 70
192
 0
VERTEX
 8
FULGOR
 10
0.7237
 20
-0.3801
 30
112.8418
 70
192
 0
VERTEX
 8
FULGOR
 10
0.725
 20
-0.3801
 30
112.8195
 70
192
 0
VERTEX
 8
FULGOR
 10
0.0372
 20
-0.3801
 30
112.9297
 70
192
 0
VERTEX
 8
FULGOR
 10
0.0863
 20
-0.3801
 30
112.9606
 70
192
 0
VERTEX
 8
FULGOR
 10
0.7434
 20
-0.3801
 30
112.76
 70
192
 0
VERTEX
 8
FULGOR
 10
0.7538
 20
-0.3801
 30
112.7425
 70
192
 0
VERTEX
 8
FULGOR
 10
0.7662
 20
-0.3801
 30
112.7262
 70
192
 0
VERTEX
 8
FULGOR
 10
0.7803
 20
-0.3801
 30
112.711
 70
192
 0
VERTEX
 8
FULGOR
 10
0.8045
 20
-0.3801
 30
112.6901
 70
192
 0
VERTEX
 8
FULGOR
 10
0.1781
 20
-0.3801
 30
112.9862
 70
192
 0
VERTEX
 8
FULGOR
 10
0.2153
 20
-0.3801
 30
112.9888
 70
192
 0
VERTEX
 8
FULGOR
 10
0.4156
 20
-0.3801
 30
112.97
 70
192
 0
VERTEX
 8
FULGOR
 10
0.7288
 20
-0.3801
 30
112.7985
 70
192
 0
VERTEX
 8
FULGOR
 10
0.735
 20
-0.3801
 30
112.7786
 70
192
 0
VERTEX
 8
FULGOR
 10
1.104
 20
-0.3801
 30
112.5953
 70
192
 0
VERTEX
 8
FULGOR
 10
1.1688
 20
-0.3801
 30
112.5927
 70
192
 0
VERTEX
 8
FULGOR
 10
0.8318
 20
-0.3801
 30
112.6716
 70
192
 0
VERTEX
 8
FULGOR
 10
1.3273
 20
-0.3801
 30
112.608
 70
192
 0
VERTEX
 8
FULGOR
 10
0.8618
 20
-0.3801
 30
112.6553
 70
192
 0
VERTEX
 8
FULGOR
 10
0.905
 20
-0.3801
 30
112.6369
 70
192
 0
VERTEX
 8
FULGOR
 10
0.9626
 20
-0.3801
 30
112.6188
 70
192
 0
VERTEX
 8
FULGOR
 10
1.034
 20
-0.3801
 30
112.6038
 70
192
 0
VERTEX
 8
FULGOR
 10
1.2449
 20
-0.3801
 30
112.5963
 70
192
 0
VERTEX
 8
FULGOR
 10
1.5643
 20
-0.3801
 30
112.7185
 70
192
 0
VERTEX
 8
FULGOR
 10
1.3982
 20
-0.3801
 30
112.6254
 70
192
 0
VERTEX
 8
FULGOR
 10
1.4544
 20
-0.3801
 30
112.6457
 70
192
 0
VERTEX
 8
FULGOR
 10
1.4959
 20
-0.3801
 30
112.666
 70
192
 0
VERTEX
 8
FULGOR
 10
1.5241
 20
-0.3801
 30
112.6837
 70
192
 0
VERTEX
 8
FULGOR
 10
1.5494
 20
-0.3801
 30
112.7038
 70
192
 0
VERTEX
 8
FULGOR
 10
1.6124
 20
-0.3801
 30
112.8194
 70
192
 0
VERTEX
 8
FULGOR
 10
1.6137
 20
-0.3801
 30
112.8417
 70
192
 0
VERTEX
 8
FULGOR
 10
1.6125
 20
-0.3801
 30
112.8639
 70
192
 0
VERTEX
 8
FULGOR
 10
1.6087
 20
-0.3801
 30
112.8849
 70
192
 0
VERTEX
 8
FULGOR
 10
1.5776
 20
-0.3801
 30
112.7342
 70
192
 0
VERTEX
 8
FULGOR
 10
1.589
 20
-0.3801
 30
112.7511
 70
192
 0
VERTEX
 8
FULGOR
 10
1.5984
 20
-0.3801
 30
112.7691
 70
192
 0
VERTEX
 8
FULGOR
 10
1.5714
 20
-0.3801
 30
112.9571
 70
192
 0
VERTEX
 8
FULGOR
 10
1.5573
 20
-0.3801
 30
112.9724
 70
192
 0
VERTEX
 8
FULGOR
 10
1.5332
 20
-0.3801
 30
112.9932
 70
192
 0
VERTEX
 8
FULGOR
 10
1.5058
 20
-0.3801
 30
113.0118
 70
192
 0
VERTEX
 8
FULGOR
 10
1.4759
 20
-0.3801
 30
113.0281
 70
192
 0
VERTEX
 8
FULGOR
 10
1.4326
 20
-0.3801
 30
113.0466
 70
192
 0
VERTEX
 8
FULGOR
 10
1.6057
 20
-0.3801
 30
112.7883
 70
192
 0
VERTEX
 8
FULGOR
 10
1.6108
 20
-0.3801
 30
112.8087
 70
192
 0
VERTEX
 8
FULGOR
 10
1.6025
 20
-0.3801
 30
112.9047
 70
192
 0
VERTEX
 8
FULGOR
 10
1.5942
 20
-0.3801
 30
112.9233
 70
192
 0
VERTEX
 8
FULGOR
 10
1.0926
 20
-0.3801
 30
113.0873
 70
192
 0
VERTEX
 8
FULGOR
 10
1.5838
 20
-0.3801
 30
112.9408
 70
192
 0
VERTEX
 8
FULGOR
 10
1.375
 20
-0.3801
 30
113.0647
 70
192
 0
VERTEX
 8
FULGOR
 10
1.3036
 20
-0.3801
 30
113.0798
 70
192
 0
VERTEX
 8
FULGOR
 10
1.2335
 20
-0.3801
 30
113.0883
 70
192
 0
VERTEX
 8
FULGOR
 10
0.8131
 20
-0.3801
 30
112.9999
 70
192
 0
VERTEX
 8
FULGOR
 10
0.7878
 20
-0.3801
 30
112.9799
 70
192
 0
VERTEX
 8
FULGOR
 10
0.7729
 20
-0.3801
 30
112.9652
 70
192
 0
VERTEX
 8
FULGOR
 10
0.7596
 20
-0.3801
 30
112.9494
 70
192
 0
VERTEX
 8
FULGOR
 10
0.7482
 20
-0.3801
 30
112.9325
 70
192
 0
VERTEX
 8
FULGOR
 10
0.7388
 20
-0.3801
 30
112.9144
 70
192
 0
VERTEX
 8
FULGOR
 10
0.7315
 20
-0.3801
 30
112.8952
 70
192
 0
VERTEX
 8
FULGOR
 10
1.1688
 20
-0.3801
 30
113.0909
 70
192
 0
VERTEX
 8
FULGOR
 10
0.725
 20
-0.3801
 30
112.8641
 70
192
 0
VERTEX
 8
FULGOR
 10
0.9236
 20
-0.3801
 30
112.8417
 70
192
 0
VERTEX
 8
FULGOR
 10
0.9242
 20
-0.3801
 30
112.8296
 70
192
 0
VERTEX
 8
FULGOR
 10
1.0101
 20
-0.3801
 30
113.0756
 70
192
 0
VERTEX
 8
FULGOR
 10
0.9391
 20
-0.3801
 30
113.0583
 70
192
 0
VERTEX
 8
FULGOR
 10
0.8829
 20
-0.3801
 30
113.038
 70
192
 0
VERTEX
 8
FULGOR
 10
0.8414
 20
-0.3801
 30
113.0177
 70
192
 0
VERTEX
 8
FULGOR
 10
0.7266
 20
-0.3801
 30
112.8748
 70
192
 0
VERTEX
 8
FULGOR
 10
0.9482
 20
-0.3801
 30
112.7687
 70
192
 0
VERTEX
 8
FULGOR
 10
0.9553
 20
-0.3801
 30
112.7604
 70
192
 0
VERTEX
 8
FULGOR
 10
0.9257
 20
-0.3801
 30
112.8181
 70
192
 0
VERTEX
 8
FULGOR
 10
0.9283
 20
-0.3801
 30
112.8071
 70
192
 0
VERTEX
 8
FULGOR
 10
0.9319
 20
-0.3801
 30
112.7967
 70
192
 0
VERTEX
 8
FULGOR
 10
0.9364
 20
-0.3801
 30
112.7868
 70
192
 0
VERTEX
 8
FULGOR
 10
1.0443
 20
-0.3801
 30
112.7104
 70
192
 0
VERTEX
 8
FULGOR
 10
1.0783
 20
-0.3801
 30
112.7023
 70
192
 0
VERTEX
 8
FULGOR
 10
0.9419
 20
-0.3801
 30
112.7775
 70
192
 0
VERTEX
 8
FULGOR
 10
1.1688
 20
-0.3801
 30
112.6944
 70
192
 0
VERTEX
 8
FULGOR
 10
1.2228
 20
-0.3801
 30
112.6971
 70
192
 0
VERTEX
 8
FULGOR
 10
0.9674
 20
-0.3801
 30
112.7489
 70
192
 0
VERTEX
 8
FULGOR
 10
1.2996
 20
-0.3801
 30
112.7124
 70
192
 0
VERTEX
 8
FULGOR
 10
1.3241
 20
-0.3801
 30
112.7214
 70
192
 0
VERTEX
 8
FULGOR
 10
1.3462
 20
-0.3801
 30
112.7324
 70
192
 0
VERTEX
 8
FULGOR
 10
0.9813
 20
-0.3801
 30
112.7386
 70
192
 0
VERTEX
 8
FULGOR
 10
1.3744
 20
-0.3801
 30
112.7527
 70
192
 0
VERTEX
 8
FULGOR
 10
0.9967
 20
-0.3801
 30
112.7294
 70
192
 0
VERTEX
 8
FULGOR
 10
1.0194
 20
-0.3801
 30
112.7189
 70
192
 0
VERTEX
 8
FULGOR
 10
1.3986
 20
-0.3801
 30
112.7821
 70
192
 0
VERTEX
 8
FULGOR
 10
1.1222
 20
-0.3801
 30
112.6964
 70
192
 0
VERTEX
 8
FULGOR
 10
1.2663
 20
-0.3801
 30
112.7037
 70
192
 0
VERTEX
 8
FULGOR
 10
1.3611
 20
-0.3801
 30
112.742
 70
192
 0
VERTEX
 8
FULGOR
 10
1.4128
 20
-0.3801
 30
112.8238
 70
192
 0
VERTEX
 8
FULGOR
 10
1.4134
 20
-0.3801
 30
112.8296
 70
192
 0
VERTEX
 8
FULGOR
 10
1.414
 20
-0.3801
 30
112.8417
 70
192
 0
VERTEX
 8
FULGOR
 10
1.4134
 20
-0.3801
 30
112.8537
 70
192
 0
VERTEX
 8
FULGOR
 10
1.386
 20
-0.3801
 30
112.7645
 70
192
 0
VERTEX
 8
FULGOR
 10
1.3927
 20
-0.3801
 30
112.7731
 70
192
 0
VERTEX
 8
FULGOR
 10
1.4057
 20
-0.3801
 30
112.8865
 70
192
 0
VERTEX
 8
FULGOR
 10
1.4011
 20
-0.3801
 30
112.8964
 70
192
 0
VERTEX
 8
FULGOR
 10
1.4035
 20
-0.3801
 30
112.7917
 70
192
 0
VERTEX
 8
FULGOR
 10
1.4076
 20
-0.3801
 30
112.8019
 70
192
 0
VERTEX
 8
FULGOR
 10
1.3823
 20
-0.3801
 30
112.9227
 70
192
 0
VERTEX
 8
FULGOR
 10
1.4107
 20
-0.3801
 30
112.8126
 70
192
 0
VERTEX
 8
FULGOR
 10
1.4119
 20
-0.3801
 30
112.8652
 70
192
 0
VERTEX
 8
FULGOR
 10
1.3408
 20
-0.3801
 30
112.9536
 70
192
 0
VERTEX
 8
FULGOR
 10
1.3181
 20
-0.3801
 30
112.964
 70
192
 0
VERTEX
 8
FULGOR
 10
1.4093
 20
-0.3801
 30
112.8761
 70
192
 0
VERTEX
 8
FULGOR
 10
1.3957
 20
-0.3801
 30
112.9057
 70
192
 0
VERTEX
 8
FULGOR
 10
1.3894
 20
-0.3801
 30
112.9145
 70
192
 0
VERTEX
 8
FULGOR
 10
1.3701
 20
-0.3801
 30
112.9342
 70
192
 0
VERTEX
 8
FULGOR
 10
1.1147
 20
-0.3801
 30
112.9858
 70
192
 0
VERTEX
 8
FULGOR
 10
1.0713
 20
-0.3801
 30
112.9793
 70
192
 0
VERTEX
 8
FULGOR
 10
1.038
 20
-0.3801
 30
112.9707
 70
192
 0
VERTEX
 8
FULGOR
 10
1.3562
 20
-0.3801
 30
112.9444
 70
192
 0
VERTEX
 8
FULGOR
 10
1.2931
 20
-0.3801
 30
112.9726
 70
192
 0
VERTEX
 8
FULGOR
 10
1.2592
 20
-0.3801
 30
112.9806
 70
192
 0
VERTEX
 8
FULGOR
 10
1.2153
 20
-0.3801
 30
112.9865
 70
192
 0
VERTEX
 8
FULGOR
 10
1.1688
 20
-0.3801
 30
112.9884
 70
192
 0
VERTEX
 8
FULGOR
 10
1.0136
 20
-0.3801
 30
112.9617
 70
192
 0
VERTEX
 8
FULGOR
 10
0.9914
 20
-0.3801
 30
112.9507
 70
192
 0
VERTEX
 8
FULGOR
 10
0.9765
 20
-0.3801
 30
112.9412
 70
192
 0
VERTEX
 8
FULGOR
 10
0.9632
 20
-0.3801
 30
112.9306
 70
192
 0
VERTEX
 8
FULGOR
 10
0.9516
 20
-0.3801
 30
112.9188
 70
192
 0
VERTEX
 8
FULGOR
 10
0.9449
 20
-0.3801
 30
112.9102
 70
192
 0
VERTEX
 8
FULGOR
 10
0.9391
 20
-0.3801
 30
112.9012
 70
192
 0
VERTEX
 8
FULGOR
 10
0.9341
 20
-0.3801
 30
112.8916
 70
192
 0
VERTEX
 8
FULGOR
 10
0.93
 20
-0.3801
 30
112.8815
 70
192
 0
VERTEX
 8
FULGOR
 10
0.9269
 20
-0.3801
 30
112.8708
 70
192
 0
VERTEX
 8
FULGOR
 10
2.0197
 20
-0.3801
 30
112.8031
 70
192
 0
VERTEX
 8
FULGOR
 10
0.9248
 20
-0.3801
 30
112.8595
 70
192
 0
VERTEX
 8
FULGOR
 10
0.9242
 20
-0.3801
 30
112.8537
 70
192
 0
VERTEX
 8
FULGOR
 10
1.7708
 20
-0.3801
 30
112.5912
 70
192
 0
VERTEX
 8
FULGOR
 10
1.9255
 20
-0.3801
 30
112.5912
 70
192
 0
VERTEX
 8
FULGOR
 10
1.9255
 20
-0.3801
 30
112.8031
 70
192
 0
VERTEX
 8
FULGOR
 10
2.1289
 20
-0.3801
 30
112.7529
 70
192
 0
VERTEX
 8
FULGOR
 10
2.1409
 20
-0.3801
 30
112.7401
 70
192
 0
VERTEX
 8
FULGOR
 10
2.2496
 20
-0.3801
 30
112.5912
 70
192
 0
VERTEX
 8
FULGOR
 10
2.5257
 20
-0.3801
 30
112.5912
 70
192
 0
VERTEX
 8
FULGOR
 10
2.4886
 20
-0.3801
 30
112.6106
 70
192
 0
VERTEX
 8
FULGOR
 10
2.0709
 20
-0.3801
 30
112.7927
 70
192
 0
VERTEX
 8
FULGOR
 10
2.0836
 20
-0.3801
 30
112.7868
 70
192
 0
VERTEX
 8
FULGOR
 10
2.4348
 20
-0.3801
 30
112.6477
 70
192
 0
VERTEX
 8
FULGOR
 10
2.3945
 20
-0.3801
 30
112.6853
 70
192
 0
VERTEX
 8
FULGOR
 10
1.7708
 20
-0.3801
 30
112.8921
 70
192
 0
VERTEX
 8
FULGOR
 10
2.3433
 20
-0.3801
 30
112.7544
 70
192
 0
VERTEX
 8
FULGOR
 10
2.3184
 20
-0.3801
 30
112.7826
 70
192
 0
VERTEX
 8
FULGOR
 10
2.2947
 20
-0.3801
 30
112.8027
 70
192
 0
VERTEX
 8
FULGOR
 10
2.1137
 20
-0.3801
 30
112.7666
 70
192
 0
VERTEX
 8
FULGOR
 10
1.2873
 20
-0.3801
 30
112.6023
 70
192
 0
VERTEX
 8
FULGOR
 10
2.238
 20
-0.3801
 30
112.8333
 70
192
 0
VERTEX
 8
FULGOR
 10
2.4574
 20
-0.3801
 30
112.6302
 70
192
 0
VERTEX
 8
FULGOR
 10
2.313
 20
-0.3801
 30
112.8647
 70
192
 0
VERTEX
 8
FULGOR
 10
2.272
 20
-0.3801
 30
112.8176
 70
192
 0
VERTEX
 8
FULGOR
 10
2.3394
 20
-0.3801
 30
112.8864
 70
192
 0
VERTEX
 8
FULGOR
 10
2.2545
 20
-0.3801
 30
112.8269
 70
192
 0
VERTEX
 8
FULGOR
 10
2.3642
 20
-0.3801
 30
112.9249
 70
192
 0
VERTEX
 8
FULGOR
 10
2.3698
 20
-0.3801
 30
112.9462
 70
192
 0
VERTEX
 8
FULGOR
 10
2.274
 20
-0.3801
 30
112.8446
 70
192
 0
VERTEX
 8
FULGOR
 10
2.3675
 20
-0.3801
 30
112.9875
 70
192
 0
VERTEX
 8
FULGOR
 10
2.3583
 20
-0.3801
 30
113.008
 70
192
 0
VERTEX
 8
FULGOR
 10
2.3441
 20
-0.3801
 30
113.0259
 70
192
 0
VERTEX
 8
FULGOR
 10
2.3207
 20
-0.3801
 30
113.0445
 70
192
 0
VERTEX
 8
FULGOR
 10
2.355
 20
-0.3801
 30
112.9062
 70
192
 0
VERTEX
 8
FULGOR
 10
2.2072
 20
-0.3801
 30
113.0841
 70
192
 0
VERTEX
 8
FULGOR
 10
2.1619
 20
-0.3801
 30
113.0901
 70
192
 0
VERTEX
 8
FULGOR
 10
2.3709
 20
-0.3801
 30
112.9641
 70
192
 0
VERTEX
 8
FULGOR
 10
1.9255
 20
-0.3801
 30
113.0032
 70
192
 0
VERTEX
 8
FULGOR
 10
2.28
 20
-0.3801
 30
113.0647
 70
192
 0
VERTEX
 8
FULGOR
 10
2.1175
 20
-0.3801
 30
113.0924
 70
192
 0
VERTEX
 8
FULGOR
 10
1.7708
 20
-0.3801
 30
113.0924
 70
192
 0
VERTEX
 8
FULGOR
 10
1.9255
 20
-0.3801
 30
112.8923
 70
192
 0
VERTEX
 8
FULGOR
 10
2.0667
 20
-0.3801
 30
112.8921
 70
192
 0
VERTEX
 8
FULGOR
 10
2.1068
 20
-0.3801
 30
112.8954
 70
192
 0
VERTEX
 8
FULGOR
 10
2.1522
 20
-0.3801
 30
112.9117
 70
192
 0
VERTEX
 8
FULGOR
 10
2.1622
 20
-0.3801
 30
112.9198
 70
192
 0
VERTEX
 8
FULGOR
 10
2.1683
 20
-0.3801
 30
112.9276
 70
192
 0
VERTEX
 8
FULGOR
 10
2.1739
 20
-0.3801
 30
112.9549
 70
192
 0
VERTEX
 8
FULGOR
 10
2.1712
 20
-0.3801
 30
112.9647
 70
192
 0
VERTEX
 8
FULGOR
 10
2.0986
 20
-0.3801
 30
113.0015
 70
192
 0
VERTEX
 8
FULGOR
 10
2.1489
 20
-0.3801
 30
112.9875
 70
192
 0
VERTEX
 8
FULGOR
 10
2.0809
 20
-0.3801
 30
113.0029
 70
192
 0
VERTEX
 8
FULGOR
 10
2.1308
 20
-0.3801
 30
112.995
 70
192
 0
VERTEX
 8
FULGOR
 10
2.1165
 20
-0.3801
 30
112.9986
 70
192
 0
VERTEX
 8
FULGOR
 10
0.9978
 20
-0.3801
 30
112.6114
 70
192
 0
VERTEX
 8
FULGOR
 10
0.9367
 20
-0.3801
 30
112.6269
 70
192
 0
VERTEX
 8
FULGOR
 10
2.0619
 20
-0.3801
 30
113.0032
 70
192
 0
VERTEX
 8
FULGOR
 10
2.0588
 20
-0.3801
 30
113.0924
 70
192
 0
VERTEX
 8
FULGOR
 10
2.166
 20
-0.3801
 30
112.9731
 70
192
 0
VERTEX
 8
FULGOR
 10
2.1593
 20
-0.3801
 30
112.9802
 70
192
 0
VERTEX
 8
FULGOR
 10
2.1741
 20
-0.3801
 30
112.9455
 70
192
 0
VERTEX
 8
FULGOR
 10
2.1724
 20
-0.3801
 30
112.9364
 70
192
 0
VERTEX
 8
FULGOR
 10
2.0196
 20
-0.3801
 30
112.8922
 70
192
 0
VERTEX
 8
FULGOR
 10
2.244
 20
-0.3801
 30
112.599
 70
192
 0
VERTEX
 8
FULGOR
 10
2.236
 20
-0.3801
 30
112.61
 70
192
 0
VERTEX
 8
FULGOR
 10
0.1645
 20
-0.3801
 30
112.6999
 70
192
 0
VERTEX
 8
FULGOR
 10
2.2218
 20
-0.3801
 30
112.6296
 70
192
 0
VERTEX
 8
FULGOR
 10
2.2086
 20
-0.3801
 30
112.6479
 70
192
 0
VERTEX
 8
FULGOR
 10
0.1977
 20
-0.3801
 30
112.6957
 70
192
 0
VERTEX
 8
FULGOR
 10
1.7708
 20
-0.3801
 30
112.8029
 70
192
 0
VERTEX
 8
FULGOR
 10
2.1731
 20
-0.3801
 30
112.6969
 70
192
 0
VERTEX
 8
FULGOR
 10
2.1598
 20
-0.3801
 30
112.7153
 70
192
 0
VERTEX
 8
FULGOR
 10
-2.475
 20
-0.3
 30
112.5913
 70
192
 0
VERTEX
 8
FULGOR
 10
-2.3203
 20
-0.3
 30
112.8881
 70
192
 0
VERTEX
 8
FULGOR
 10
-2.3203
 20
-0.3
 30
112.9816
 70
192
 0
VERTEX
 8
FULGOR
 10
-1.9405
 20
-0.3
 30
112.9816
 70
192
 0
VERTEX
 8
FULGOR
 10
-1.9405
 20
-0.3
 30
113.0924
 70
192
 0
VERTEX
 8
FULGOR
 10
-2.475
 20
-0.3
 30
113.0924
 70
192
 0
VERTEX
 8
FULGOR
 10
-2.3203
 20
-0.3
 30
112.5913
 70
192
 0
VERTEX
 8
FULGOR
 10
-2.3203
 20
-0.3
 30
112.799
 70
192
 0
VERTEX
 8
FULGOR
 10
-1.9405
 20
-0.3
 30
112.799
 70
192
 0
VERTEX
 8
FULGOR
 10
-1.9405
 20
-0.3
 30
112.8881
 70
192
 0
VERTEX
 8
FULGOR
 10
-1.7834
 20
-0.3
 30
112.8091
 70
192
 0
VERTEX
 8
FULGOR
 10
-1.7822
 20
-0.3
 30
112.7857
 70
192
 0
VERTEX
 8
FULGOR
 10
-1.7786
 20
-0.3
 30
112.764
 70
192
 0
VERTEX
 8
FULGOR
 10
-1.7834
 20
-0.3
 30
113.0924
 70
192
 0
VERTEX
 8
FULGOR
 10
-1.7729
 20
-0.3
 30
112.7441
 70
192
 0
VERTEX
 8
FULGOR
 10
-1.7651
 20
-0.3
 30
112.7258
 70
192
 0
VERTEX
 8
FULGOR
 10
-1.7555
 20
-0.3
 30
112.7091
 70
192
 0
VERTEX
 8
FULGOR
 10
-1.7442
 20
-0.3
 30
112.6939
 70
192
 0
VERTEX
 8
FULGOR
 10
-1.6067
 20
-0.3
 30
112.6173
 70
192
 0
VERTEX
 8
FULGOR
 10
-1.5537
 20
-0.3
 30
112.6064
 70
192
 0
VERTEX
 8
FULGOR
 10
-1.4675
 20
-0.3
 30
112.5972
 70
192
 0
VERTEX
 8
FULGOR
 10
-1.3781
 20
-0.3
 30
112.5944
 70
192
 0
VERTEX
 8
FULGOR
 10
-1.2781
 20
-0.3
 30
112.598
 70
192
 0
VERTEX
 8
FULGOR
 10
-1.2027
 20
-0.3
 30
112.608
 70
192
 0
VERTEX
 8
FULGOR
 10
-1.7312
 20
-0.3
 30
112.6801
 70
192
 0
VERTEX
 8
FULGOR
 10
-1.1098
 20
-0.3
 30
112.6333
 70
192
 0
VERTEX
 8
FULGOR
 10
-1.7167
 20
-0.3
 30
112.6676
 70
192
 0
VERTEX
 8
FULGOR
 10
-1.7009
 20
-0.3
 30
112.6564
 70
192
 0
VERTEX
 8
FULGOR
 10
-1.675
 20
-0.3
 30
112.6419
 70
192
 0
VERTEX
 8
FULGOR
 10
-1.6469
 20
-0.3
 30
112.6299
 70
192
 0
VERTEX
 8
FULGOR
 10
-1.007
 20
-0.3
 30
112.7026
 70
192
 0
VERTEX
 8
FULGOR
 10
-1.1498
 20
-0.3
 30
112.6201
 70
192
 0
VERTEX
 8
FULGOR
 10
-1.0817
 20
-0.3
 30
112.6456
 70
192
 0
VERTEX
 8
FULGOR
 10
-1.0559
 20
-0.3
 30
112.6599
 70
192
 0
VERTEX
 8
FULGOR
 10
-1.0328
 20
-0.3
 30
112.6766
 70
192
 0
VERTEX
 8
FULGOR
 10
-0.9752
 20
-0.3
 30
112.7789
 70
192
 0
VERTEX
 8
FULGOR
 10
-0.974
 20
-0.3
 30
112.7995
 70
192
 0
VERTEX
 8
FULGOR
 10
-0.9738
 20
-0.3
 30
113.0924
 70
192
 0
VERTEX
 8
FULGOR
 10
-1.0192
 20
-0.3
 30
112.689
 70
192
 0
VERTEX
 8
FULGOR
 10
-0.9966
 20
-0.3
 30
112.7174
 70
192
 0
VERTEX
 8
FULGOR
 10
-1.1285
 20
-0.3
 30
112.801
 70
192
 0
VERTEX
 8
FULGOR
 10
-1.1294
 20
-0.3
 30
112.794
 70
192
 0
VERTEX
 8
FULGOR
 10
-1.131
 20
-0.3
 30
112.787
 70
192
 0
VERTEX
 8
FULGOR
 10
-1.1333
 20
-0.3
 30
112.78
 70
192
 0
VERTEX
 8
FULGOR
 10
-1.1363
 20
-0.3
 30
112.7732
 70
192
 0
VERTEX
 8
FULGOR
 10
-1.1402
 20
-0.3
 30
112.7665
 70
192
 0
VERTEX
 8
FULGOR
 10
-1.1448
 20
-0.3
 30
112.7599
 70
192
 0
VERTEX
 8
FULGOR
 10
-1.1531
 20
-0.3
 30
112.7503
 70
192
 0
VERTEX
 8
FULGOR
 10
-1.1633
 20
-0.3
 30
112.7412
 70
192
 0
VERTEX
 8
FULGOR
 10
-1.1754
 20
-0.3
 30
112.7326
 70
192
 0
VERTEX
 8
FULGOR
 10
-1.1895
 20
-0.3
 30
112.7246
 70
192
 0
VERTEX
 8
FULGOR
 10
-0.988
 20
-0.3
 30
112.7334
 70
192
 0
VERTEX
 8
FULGOR
 10
-0.9813
 20
-0.3
 30
112.7506
 70
192
 0
VERTEX
 8
FULGOR
 10
-0.9767
 20
-0.3
 30
112.7692
 70
192
 0
VERTEX
 8
FULGOR
 10
-1.1284
 20
-0.3
 30
113.0924
 70
192
 0
VERTEX
 8
FULGOR
 10
-1.1284
 20
-0.3
 30
112.8081
 70
192
 0
VERTEX
 8
FULGOR
 10
-1.4662
 20
-0.3
 30
112.6951
 70
192
 0
VERTEX
 8
FULGOR
 10
-1.2114
 20
-0.3
 30
112.7149
 70
192
 0
VERTEX
 8
FULGOR
 10
-1.5394
 20
-0.3
 30
112.7088
 70
192
 0
VERTEX
 8
FULGOR
 10
-1.5621
 20
-0.3
 30
112.7169
 70
192
 0
VERTEX
 8
FULGOR
 10
-1.2369
 20
-0.3
 30
112.7066
 70
192
 0
VERTEX
 8
FULGOR
 10
-1.2742
 20
-0.3
 30
112.6985
 70
192
 0
VERTEX
 8
FULGOR
 10
-1.3178
 20
-0.3
 30
112.6932
 70
192
 0
VERTEX
 8
FULGOR
 10
-1.6064
 20
-0.3
 30
112.7472
 70
192
 0
VERTEX
 8
FULGOR
 10
-1.6118
 20
-0.3
 30
112.754
 70
192
 0
VERTEX
 8
FULGOR
 10
-1.6164
 20
-0.3
 30
112.7611
 70
192
 0
VERTEX
 8
FULGOR
 10
-1.6203
 20
-0.3
 30
112.7686
 70
192
 0
VERTEX
 8
FULGOR
 10
-1.6234
 20
-0.3
 30
112.7765
 70
192
 0
VERTEX
 8
FULGOR
 10
-1.3786
 20
-0.3
 30
112.6909
 70
192
 0
VERTEX
 8
FULGOR
 10
-1.6281
 20
-0.3
 30
112.7979
 70
192
 0
VERTEX
 8
FULGOR
 10
-1.6288
 20
-0.3
 30
112.8119
 70
192
 0
VERTEX
 8
FULGOR
 10
-1.6288
 20
-0.3
 30
113.0924
 70
192
 0
VERTEX
 8
FULGOR
 10
-1.513
 20
-0.3
 30
112.7022
 70
192
 0
VERTEX
 8
FULGOR
 10
-1.5767
 20
-0.3
 30
112.7241
 70
192
 0
VERTEX
 8
FULGOR
 10
-1.5894
 20
-0.3
 30
112.732
 70
192
 0
VERTEX
 8
FULGOR
 10
-1.6002
 20
-0.3
 30
112.7409
 70
192
 0
VERTEX
 8
FULGOR
 10
-1.6258
 20
-0.3
 30
112.7848
 70
192
 0
VERTEX
 8
FULGOR
 10
-0.6624
 20
-0.3
 30
112.702
 70
192
 0
VERTEX
 8
FULGOR
 10
-0.6624
 20
-0.3
 30
113.0924
 70
192
 0
VERTEX
 8
FULGOR
 10
-0.8171
 20
-0.3
 30
113.0924
 70
192
 0
VERTEX
 8
FULGOR
 10
-0.8171
 20
-0.3
 30
112.5913
 70
192
 0
VERTEX
 8
FULGOR
 10
-0.2827
 20
-0.3
 30
112.5913
 70
192
 0
VERTEX
 8
FULGOR
 10
-0.2827
 20
-0.3
 30
112.702
 70
192
 0
VERTEX
 8
FULGOR
 10
1.3654
 20
-0.3
 30
112.6173
 70
192
 0
VERTEX
 8
FULGOR
 10
0.7237
 20
-0.3
 30
112.8418
 70
192
 0
VERTEX
 8
FULGOR
 10
0.725
 20
-0.3
 30
112.8195
 70
192
 0
VERTEX
 8
FULGOR
 10
0.7434
 20
-0.3
 30
112.76
 70
192
 0
VERTEX
 8
FULGOR
 10
0.7538
 20
-0.3
 30
112.7425
 70
192
 0
VERTEX
 8
FULGOR
 10
0.7662
 20
-0.3
 30
112.7262
 70
192
 0
VERTEX
 8
FULGOR
 10
0.7803
 20
-0.3
 30
112.711
 70
192
 0
VERTEX
 8
FULGOR
 10
0.8045
 20
-0.3
 30
112.6901
 70
192
 0
VERTEX
 8
FULGOR
 10
0.7288
 20
-0.3
 30
112.7985
 70
192
 0
VERTEX
 8
FULGOR
 10
0.735
 20
-0.3
 30
112.7786
 70
192
 0
VERTEX
 8
FULGOR
 10
1.104
 20
-0.3
 30
112.5953
 70
192
 0
VERTEX
 8
FULGOR
 10
1.1688
 20
-0.3
 30
112.5927
 70
192
 0
VERTEX
 8
FULGOR
 10
0.8318
 20
-0.3
 30
112.6716
 70
192
 0
VERTEX
 8
FULGOR
 10
1.3273
 20
-0.3
 30
112.608
 70
192
 0
VERTEX
 8
FULGOR
 10
0.8618
 20
-0.3
 30
112.6553
 70
192
 0
VERTEX
 8
FULGOR
 10
0.905
 20
-0.3
 30
112.6369
 70
192
 0
VERTEX
 8
FULGOR
 10
0.9626
 20
-0.3
 30
112.6188
 70
192
 0
VERTEX
 8
FULGOR
 10
1.034
 20
-0.3
 30
112.6038
 70
192
 0
VERTEX
 8
FULGOR
 10
1.2449
 20
-0.3
 30
112.5963
 70
192
 0
VERTEX
 8
FULGOR
 10
1.5643
 20
-0.3
 30
112.7185
 70
192
 0
VERTEX
 8
FULGOR
 10
1.3982
 20
-0.3
 30
112.6254
 70
192
 0
VERTEX
 8
FULGOR
 10
1.4544
 20
-0.3
 30
112.6457
 70
192
 0
VERTEX
 8
FULGOR
 10
1.4959
 20
-0.3
 30
112.666
 70
192
 0
VERTEX
 8
FULGOR
 10
1.5241
 20
-0.3
 30
112.6837
 70
192
 0
VERTEX
 8
FULGOR
 10
1.5494
 20
-0.3
 30
112.7038
 70
192
 0
VERTEX
 8
FULGOR
 10
1.6124
 20
-0.3
 30
112.8194
 70
192
 0
VERTEX
 8
FULGOR
 10
1.6137
 20
-0.3
 30
112.8417
 70
192
 0
VERTEX
 8
FULGOR
 10
1.6125
 20
-0.3
 30
112.8639
 70
192
 0
VERTEX
 8
FULGOR
 10
1.6087
 20
-0.3
 30
112.8849
 70
192
 0
VERTEX
 8
FULGOR
 10
1.5776
 20
-0.3
 30
112.7342
 70
192
 0
VERTEX
 8
FULGOR
 10
1.589
 20
-0.3
 30
112.7511
 70
192
 0
VERTEX
 8
FULGOR
 10
1.5984
 20
-0.3
 30
112.7691
 70
192
 0
VERTEX
 8
FULGOR
 10
1.5714
 20
-0.3
 30
112.9571
 70
192
 0
VERTEX
 8
FULGOR
 10
1.5573
 20
-0.3
 30
112.9724
 70
192
 0
VERTEX
 8
FULGOR
 10
1.5332
 20
-0.3
 30
112.9932
 70
192
 0
VERTEX
 8
FULGOR
 10
1.5058
 20
-0.3
 30
113.0118
 70
192
 0
VERTEX
 8
FULGOR
 10
1.4759
 20
-0.3
 30
113.0281
 70
192
 0
VERTEX
 8
FULGOR
 10
1.4326
 20
-0.3
 30
113.0466
 70
192
 0
VERTEX
 8
FULGOR
 10
1.6057
 20
-0.3
 30
112.7883
 70
192
 0
VERTEX
 8
FULGOR
 10
1.6108
 20
-0.3
 30
112.8087
 70
192
 0
VERTEX
 8
FULGOR
 10
1.6025
 20
-0.3
 30
112.9047
 70
192
 0
VERTEX
 8
FULGOR
 10
1.5942
 20
-0.3
 30
112.9233
 70
192
 0
VERTEX
 8
FULGOR
 10
1.0926
 20
-0.3
 30
113.0873
 70
192
 0
VERTEX
 8
FULGOR
 10
1.5838
 20
-0.3
 30
112.9408
 70
192
 0
VERTEX
 8
FULGOR
 10
1.375
 20
-0.3
 30
113.0647
 70
192
 0
VERTEX
 8
FULGOR
 10
1.3036
 20
-0.3
 30
113.0798
 70
192
 0
VERTEX
 8
FULGOR
 10
1.2335
 20
-0.3
 30
113.0883
 70
192
 0
VERTEX
 8
FULGOR
 10
0.8131
 20
-0.3
 30
112.9999
 70
192
 0
VERTEX
 8
FULGOR
 10
0.7878
 20
-0.3
 30
112.9799
 70
192
 0
VERTEX
 8
FULGOR
 10
0.7729
 20
-0.3
 30
112.9652
 70
192
 0
VERTEX
 8
FULGOR
 10
0.7596
 20
-0.3
 30
112.9494
 70
192
 0
VERTEX
 8
FULGOR
 10
0.7482
 20
-0.3
 30
112.9325
 70
192
 0
VERTEX
 8
FULGOR
 10
0.7388
 20
-0.3
 30
112.9144
 70
192
 0
VERTEX
 8
FULGOR
 10
0.7315
 20
-0.3
 30
112.8952
 70
192
 0
VERTEX
 8
FULGOR
 10
1.1688
 20
-0.3
 30
113.0909
 70
192
 0
VERTEX
 8
FULGOR
 10
0.725
 20
-0.3
 30
112.8641
 70
192
 0
VERTEX
 8
FULGOR
 10
0.9236
 20
-0.3
 30
112.8417
 70
192
 0
VERTEX
 8
FULGOR
 10
0.9242
 20
-0.3
 30
112.8296
 70
192
 0
VERTEX
 8
FULGOR
 10
1.0101
 20
-0.3
 30
113.0756
 70
192
 0
VERTEX
 8
FULGOR
 10
0.9391
 20
-0.3
 30
113.0583
 70
192
 0
VERTEX
 8
FULGOR
 10
0.8829
 20
-0.3
 30
113.038
 70
192
 0
VERTEX
 8
FULGOR
 10
0.8414
 20
-0.3
 30
113.0177
 70
192
 0
VERTEX
 8
FULGOR
 10
0.7266
 20
-0.3
 30
112.8748
 70
192
 0
VERTEX
 8
FULGOR
 10
0.9482
 20
-0.3
 30
112.7687
 70
192
 0
VERTEX
 8
FULGOR
 10
0.9553
 20
-0.3
 30
112.7604
 70
192
 0
VERTEX
 8
FULGOR
 10
0.9257
 20
-0.3
 30
112.8181
 70
192
 0
VERTEX
 8
FULGOR
 10
0.9283
 20
-0.3
 30
112.8071
 70
192
 0
VERTEX
 8
FULGOR
 10
0.9319
 20
-0.3
 30
112.7967
 70
192
 0
VERTEX
 8
FULGOR
 10
0.9364
 20
-0.3
 30
112.7868
 70
192
 0
VERTEX
 8
FULGOR
 10
1.0443
 20
-0.3
 30
112.7104
 70
192
 0
VERTEX
 8
FULGOR
 10
1.0783
 20
-0.3
 30
112.7023
 70
192
 0
VERTEX
 8
FULGOR
 10
0.9419
 20
-0.3
 30
112.7775
 70
192
 0
VERTEX
 8
FULGOR
 10
1.1688
 20
-0.3
 30
112.6944
 70
192
 0
VERTEX
 8
FULGOR
 10
1.2228
 20
-0.3
 30
112.6971
 70
192
 0
VERTEX
 8
FULGOR
 10
0.9674
 20
-0.3
 30
112.7489
 70
192
 0
VERTEX
 8
FULGOR
 10
1.2996
 20
-0.3
 30
112.7124
 70
192
 0
VERTEX
 8
FULGOR
 10
1.3241
 20
-0.3
 30
112.7214
 70
192
 0
VERTEX
 8
FULGOR
 10
1.3462
 20
-0.3
 30
112.7324
 70
192
 0
VERTEX
 8
FULGOR
 10
0.9813
 20
-0.3
 30
112.7386
 70
192
 0
VERTEX
 8
FULGOR
 10
1.3744
 20
-0.3
 30
112.7527
 70
192
 0
VERTEX
 8
FULGOR
 10
0.9967
 20
-0.3
 30
112.7294
 70
192
 0
VERTEX
 8
FULGOR
 10
1.0194
 20
-0.3
 30
112.7189
 70
192
 0
VERTEX
 8
FULGOR
 10
1.3986
 20
-0.3
 30
112.7821
 70
192
 0
VERTEX
 8
FULGOR
 10
1.1222
 20
-0.3
 30
112.6964
 70
192
 0
VERTEX
 8
FULGOR
 10
1.2663
 20
-0.3
 30
112.7037
 70
192
 0
VERTEX
 8
FULGOR
 10
1.3611
 20
-0.3
 30
112.742
 70
192
 0
VERTEX
 8
FULGOR
 10
1.4128
 20
-0.3
 30
112.8238
 70
192
 0
VERTEX
 8
FULGOR
 10
1.4134
 20
-0.3
 30
112.8296
 70
192
 0
VERTEX
 8
FULGOR
 10
1.414
 20
-0.3
 30
112.8417
 70
192
 0
VERTEX
 8
FULGOR
 10
1.4134
 20
-0.3
 30
112.8537
 70
192
 0
VERTEX
 8
FULGOR
 10
1.386
 20
-0.3
 30
112.7645
 70
192
 0
VERTEX
 8
FULGOR
 10
1.3927
 20
-0.3
 30
112.7731
 70
192
 0
VERTEX
 8
FULGOR
 10
1.4057
 20
-0.3
 30
112.8865
 70
192
 0
VERTEX
 8
FULGOR
 10
1.4011
 20
-0.3
 30
112.8964
 70
192
 0
VERTEX
 8
FULGOR
 10
1.4035
 20
-0.3
 30
112.7917
 70
192
 0
VERTEX
 8
FULGOR
 10
1.4076
 20
-0.3
 30
112.8019
 70
192
 0
VERTEX
 8
FULGOR
 10
1.3823
 20
-0.3
 30
112.9227
 70
192
 0
VERTEX
 8
FULGOR
 10
1.4107
 20
-0.3
 30
112.8126
 70
192
 0
VERTEX
 8
FULGOR
 10
1.4119
 20
-0.3
 30
112.8652
 70
192
 0
VERTEX
 8
FULGOR
 10
1.3408
 20
-0.3
 30
112.9536
 70
192
 0
VERTEX
 8
FULGOR
 10
1.3181
 20
-0.3
 30
112.964
 70
192
 0
VERTEX
 8
FULGOR
 10
1.4093
 20
-0.3
 30
112.8761
 70
192
 0
VERTEX
 8
FULGOR
 10
1.3957
 20
-0.3
 30
112.9057
 70
192
 0
VERTEX
 8
FULGOR
 10
1.3894
 20
-0.3
 30
112.9145
 70
192
 0
VERTEX
 8
FULGOR
 10
1.3701
 20
-0.3
 30
112.9342
 70
192
 0
VERTEX
 8
FULGOR
 10
1.1147
 20
-0.3
 30
112.9858
 70
192
 0
VERTEX
 8
FULGOR
 10
1.0713
 20
-0.3
 30
112.9793
 70
192
 0
VERTEX
 8
FULGOR
 10
1.038
 20
-0.3
 30
112.9707
 70
192
 0
VERTEX
 8
FULGOR
 10
1.3562
 20
-0.3
 30
112.9444
 70
192
 0
VERTEX
 8
FULGOR
 10
1.2931
 20
-0.3
 30
112.9726
 70
192
 0
VERTEX
 8
FULGOR
 10
1.2592
 20
-0.3
 30
112.9806
 70
192
 0
VERTEX
 8
FULGOR
 10
1.2153
 20
-0.3
 30
112.9865
 70
192
 0
VERTEX
 8
FULGOR
 10
1.1688
 20
-0.3
 30
112.9884
 70
192
 0
VERTEX
 8
FULGOR
 10
1.0136
 20
-0.3
 30
112.9617
 70
192
 0
VERTEX
 8
FULGOR
 10
0.9914
 20
-0.3
 30
112.9507
 70
192
 0
VERTEX
 8
FULGOR
 10
0.9765
 20
-0.3
 30
112.9412
 70
192
 0
VERTEX
 8
FULGOR
 10
0.9632
 20
-0.3
 30
112.9306
 70
192
 0
VERTEX
 8
FULGOR
 10
0.9516
 20
-0.3
 30
112.9188
 70
192
 0
VERTEX
 8
FULGOR
 10
0.9449
 20
-0.3
 30
112.9102
 70
192
 0
VERTEX
 8
FULGOR
 10
0.9391
 20
-0.3
 30
112.9012
 70
192
 0
VERTEX
 8
FULGOR
 10
0.9341
 20
-0.3
 30
112.8916
 70
192
 0
VERTEX
 8
FULGOR
 10
0.93
 20
-0.3
 30
112.8815
 70
192
 0
VERTEX
 8
FULGOR
 10
0.9269
 20
-0.3
 30
112.8708
 70
192
 0
VERTEX
 8
FULGOR
 10
0.9248
 20
-0.3
 30
112.8595
 70
192
 0
VERTEX
 8
FULGOR
 10
0.9242
 20
-0.3
 30
112.8537
 70
192
 0
VERTEX
 8
FULGOR
 10
1.2873
 20
-0.3
 30
112.6023
 70
192
 0
VERTEX
 8
FULGOR
 10
0.9978
 20
-0.3
 30
112.6114
 70
192
 0
VERTEX
 8
FULGOR
 10
0.9367
 20
-0.3
 30
112.6269
 70
192
 0
VERTEX
 8
FULGOR
 10
0.2444
 20
-0.3
 30
112.694
 70
192
 0
VERTEX
 8
FULGOR
 10
0.5666
 20
-0.3
 30
113.0462
 70
192
 0
VERTEX
 8
FULGOR
 10
0.2606
 20
-0.3
 30
113.092
 70
192
 0
VERTEX
 8
FULGOR
 10
0.4792
 20
-0.3
 30
113.066
 70
192
 0
VERTEX
 8
FULGOR
 10
0.3866
 20
-0.3
 30
113.0807
 70
192
 0
VERTEX
 8
FULGOR
 10
0.1902
 20
-0.3
 30
113.0918
 70
192
 0
VERTEX
 8
FULGOR
 10
-0.0813
 20
-0.3
 30
113.016
 70
192
 0
VERTEX
 8
FULGOR
 10
-0.1076
 20
-0.3
 30
112.9988
 70
192
 0
VERTEX
 8
FULGOR
 10
-0.1299
 20
-0.3
 30
112.981
 70
192
 0
VERTEX
 8
FULGOR
 10
-0.1488
 20
-0.3
 30
112.9626
 70
192
 0
VERTEX
 8
FULGOR
 10
0.1264
 20
-0.3
 30
113.0854
 70
192
 0
VERTEX
 8
FULGOR
 10
0.0697
 20
-0.3
 30
113.0745
 70
192
 0
VERTEX
 8
FULGOR
 10
0.014
 20
-0.3
 30
113.0585
 70
192
 0
VERTEX
 8
FULGOR
 10
-0.1912
 20
-0.3
 30
112.8947
 70
192
 0
VERTEX
 8
FULGOR
 10
-0.1957
 20
-0.3
 30
112.8803
 70
192
 0
VERTEX
 8
FULGOR
 10
-0.0362
 20
-0.3
 30
113.0389
 70
192
 0
VERTEX
 8
FULGOR
 10
-0.062
 20
-0.3
 30
113.0265
 70
192
 0
VERTEX
 8
FULGOR
 10
-0.1635
 20
-0.3
 30
112.9451
 70
192
 0
VERTEX
 8
FULGOR
 10
-0.2
 20
-0.3
 30
112.8216
 70
192
 0
VERTEX
 8
FULGOR
 10
-0.1742
 20
-0.3
 30
112.9296
 70
192
 0
VERTEX
 8
FULGOR
 10
-0.1835
 20
-0.3
 30
112.9128
 70
192
 0
VERTEX
 8
FULGOR
 10
-0.1989
 20
-0.3
 30
112.8651
 70
192
 0
VERTEX
 8
FULGOR
 10
-0.2002
 20
-0.3
 30
112.8546
 70
192
 0
VERTEX
 8
FULGOR
 10
-0.201
 20
-0.3
 30
112.8382
 70
192
 0
VERTEX
 8
FULGOR
 10
-0.1971
 20
-0.3
 30
112.8054
 70
192
 0
VERTEX
 8
FULGOR
 10
-0.1321
 20
-0.3
 30
112.7052
 70
192
 0
VERTEX
 8
FULGOR
 10
-0.1075
 20
-0.3
 30
112.6854
 70
192
 0
VERTEX
 8
FULGOR
 10
-0.1924
 20
-0.3
 30
112.7896
 70
192
 0
VERTEX
 8
FULGOR
 10
-0.0395
 20
-0.3
 30
112.6455
 70
192
 0
VERTEX
 8
FULGOR
 10
-0.0024
 20
-0.3
 30
112.63
 70
192
 0
VERTEX
 8
FULGOR
 10
-0.186
 20
-0.3
 30
112.7743
 70
192
 0
VERTEX
 8
FULGOR
 10
-0.178
 20
-0.3
 30
112.7594
 70
192
 0
VERTEX
 8
FULGOR
 10
0.1726
 20
-0.3
 30
112.5938
 70
192
 0
VERTEX
 8
FULGOR
 10
0.221
 20
-0.3
 30
112.5915
 70
192
 0
VERTEX
 8
FULGOR
 10
0.2606
 20
-0.3
 30
112.5917
 70
192
 0
VERTEX
 8
FULGOR
 10
0.3233
 20
-0.3
 30
112.5954
 70
192
 0
VERTEX
 8
FULGOR
 10
-0.165
 20
-0.3
 30
112.7404
 70
192
 0
VERTEX
 8
FULGOR
 10
-0.1496
 20
-0.3
 30
112.7223
 70
192
 0
VERTEX
 8
FULGOR
 10
-0.0749
 20
-0.3
 30
112.664
 70
192
 0
VERTEX
 8
FULGOR
 10
0.3888
 20
-0.3
 30
112.8514
 70
192
 0
VERTEX
 8
FULGOR
 10
0.0482
 20
-0.3
 30
112.6142
 70
192
 0
VERTEX
 8
FULGOR
 10
0.104
 20
-0.3
 30
112.6022
 70
192
 0
VERTEX
 8
FULGOR
 10
0.4013
 20
-0.3
 30
112.6056
 70
192
 0
VERTEX
 8
FULGOR
 10
0.5666
 20
-0.3
 30
112.6374
 70
192
 0
VERTEX
 8
FULGOR
 10
0.2153
 20
-0.3
 30
112.6943
 70
192
 0
VERTEX
 8
FULGOR
 10
0.1813
 20
-0.3
 30
112.697
 70
192
 0
VERTEX
 8
FULGOR
 10
0.5666
 20
-0.3
 30
112.8514
 70
192
 0
VERTEX
 8
FULGOR
 10
0.1177
 20
-0.3
 30
112.7112
 70
192
 0
VERTEX
 8
FULGOR
 10
0.0946
 20
-0.3
 30
112.7202
 70
192
 0
VERTEX
 8
FULGOR
 10
0.3887
 20
-0.3
 30
112.7047
 70
192
 0
VERTEX
 8
FULGOR
 10
0.3685
 20
-0.3
 30
112.701
 70
192
 0
VERTEX
 8
FULGOR
 10
0.0413
 20
-0.3
 30
112.7541
 70
192
 0
VERTEX
 8
FULGOR
 10
0.3128
 20
-0.3
 30
112.6953
 70
192
 0
VERTEX
 8
FULGOR
 10
0.2718
 20
-0.3
 30
112.6937
 70
192
 0
VERTEX
 8
FULGOR
 10
0.1486
 20
-0.3
 30
112.7026
 70
192
 0
VERTEX
 8
FULGOR
 10
0.0734
 20
-0.3
 30
112.731
 70
192
 0
VERTEX
 8
FULGOR
 10
0.002
 20
-0.3
 30
112.8164
 70
192
 0
VERTEX
 8
FULGOR
 10
-0.0003
 20
-0.3
 30
112.827
 70
192
 0
VERTEX
 8
FULGOR
 10
-0.0018
 20
-0.3
 30
112.838
 70
192
 0
VERTEX
 8
FULGOR
 10
-0.0023
 20
-0.3
 30
112.8494
 70
192
 0
VERTEX
 8
FULGOR
 10
-0.0016
 20
-0.3
 30
112.8607
 70
192
 0
VERTEX
 8
FULGOR
 10
0.0542
 20
-0.3
 30
112.7435
 70
192
 0
VERTEX
 8
FULGOR
 10
0.0298
 20
-0.3
 30
112.7657
 70
192
 0
VERTEX
 8
FULGOR
 10
0.0199
 20
-0.3
 30
112.7782
 70
192
 0
VERTEX
 8
FULGOR
 10
0.0124
 20
-0.3
 30
112.901
 70
192
 0
VERTEX
 8
FULGOR
 10
0.0185
 20
-0.3
 30
112.9098
 70
192
 0
VERTEX
 8
FULGOR
 10
0.0254
 20
-0.3
 30
112.9182
 70
192
 0
VERTEX
 8
FULGOR
 10
0.0117
 20
-0.3
 30
112.7917
 70
192
 0
VERTEX
 8
FULGOR
 10
0.0506
 20
-0.3
 30
112.9402
 70
192
 0
VERTEX
 8
FULGOR
 10
0.0652
 20
-0.3
 30
112.9496
 70
192
 0
VERTEX
 8
FULGOR
 10
0.0053
 20
-0.3
 30
112.8062
 70
192
 0
VERTEX
 8
FULGOR
 10
0.1145
 20
-0.3
 30
112.9717
 70
192
 0
VERTEX
 8
FULGOR
 10
0.1436
 20
-0.3
 30
112.9799
 70
192
 0
VERTEX
 8
FULGOR
 10
0.0002
 20
-0.3
 30
112.8715
 70
192
 0
VERTEX
 8
FULGOR
 10
0.1946
 20
-0.3
 30
112.988
 70
192
 0
VERTEX
 8
FULGOR
 10
0.0032
 20
-0.3
 30
112.8819
 70
192
 0
VERTEX
 8
FULGOR
 10
0.3191
 20
-0.3
 30
112.9838
 70
192
 0
VERTEX
 8
FULGOR
 10
0.0073
 20
-0.3
 30
112.8917
 70
192
 0
VERTEX
 8
FULGOR
 10
0.5666
 20
-0.3
 30
112.9393
 70
192
 0
VERTEX
 8
FULGOR
 10
0.0372
 20
-0.3
 30
112.9297
 70
192
 0
VERTEX
 8
FULGOR
 10
0.0863
 20
-0.3
 30
112.9606
 70
192
 0
VERTEX
 8
FULGOR
 10
0.1781
 20
-0.3
 30
112.9862
 70
192
 0
VERTEX
 8
FULGOR
 10
0.2153
 20
-0.3
 30
112.9888
 70
192
 0
VERTEX
 8
FULGOR
 10
0.4156
 20
-0.3
 30
112.97
 70
192
 0
VERTEX
 8
FULGOR
 10
0.1645
 20
-0.3
 30
112.6999
 70
192
 0
VERTEX
 8
FULGOR
 10
0.1977
 20
-0.3
 30
112.6957
 70
192
 0
VERTEX
 8
FULGOR
 10
2.0197
 20
-0.3
 30
112.8031
 70
192
 0
VERTEX
 8
FULGOR
 10
1.7708
 20
-0.3
 30
112.5912
 70
192
 0
VERTEX
 8
FULGOR
 10
1.9255
 20
-0.3
 30
112.5912
 70
192
 0
VERTEX
 8
FULGOR
 10
1.9255
 20
-0.3
 30
112.8031
 70
192
 0
VERTEX
 8
FULGOR
 10
2.1289
 20
-0.3
 30
112.7529
 70
192
 0
VERTEX
 8
FULGOR
 10
2.1409
 20
-0.3
 30
112.7401
 70
192
 0
VERTEX
 8
FULGOR
 10
2.2496
 20
-0.3
 30
112.5912
 70
192
 0
VERTEX
 8
FULGOR
 10
2.5257
 20
-0.3
 30
112.5912
 70
192
 0
VERTEX
 8
FULGOR
 10
2.4886
 20
-0.3
 30
112.6106
 70
192
 0
VERTEX
 8
FULGOR
 10
2.0709
 20
-0.3
 30
112.7927
 70
192
 0
VERTEX
 8
FULGOR
 10
2.0836
 20
-0.3
 30
112.7868
 70
192
 0
VERTEX
 8
FULGOR
 10
2.4348
 20
-0.3
 30
112.6477
 70
192
 0
VERTEX
 8
FULGOR
 10
2.3945
 20
-0.3
 30
112.6853
 70
192
 0
VERTEX
 8
FULGOR
 10
1.7708
 20
-0.3
 30
112.8921
 70
192
 0
VERTEX
 8
FULGOR
 10
2.3433
 20
-0.3
 30
112.7544
 70
192
 0
VERTEX
 8
FULGOR
 10
2.3184
 20
-0.3
 30
112.7826
 70
192
 0
VERTEX
 8
FULGOR
 10
2.2947
 20
-0.3
 30
112.8027
 70
192
 0
VERTEX
 8
FULGOR
 10
2.1137
 20
-0.3
 30
112.7666
 70
192
 0
VERTEX
 8
FULGOR
 10
2.238
 20
-0.3
 30
112.8333
 70
192
 0
VERTEX
 8
FULGOR
 10
2.4574
 20
-0.3
 30
112.6302
 70
192
 0
VERTEX
 8
FULGOR
 10
2.313
 20
-0.3
 30
112.8647
 70
192
 0
VERTEX
 8
FULGOR
 10
2.272
 20
-0.3
 30
112.8176
 70
192
 0
VERTEX
 8
FULGOR
 10
2.3394
 20
-0.3
 30
112.8864
 70
192
 0
VERTEX
 8
FULGOR
 10
2.2545
 20
-0.3
 30
112.8269
 70
192
 0
VERTEX
 8
FULGOR
 10
2.3642
 20
-0.3
 30
112.9249
 70
192
 0
VERTEX
 8
FULGOR
 10
2.3698
 20
-0.3
 30
112.9462
 70
192
 0
VERTEX
 8
FULGOR
 10
2.274
 20
-0.3
 30
112.8446
 70
192
 0
VERTEX
 8
FULGOR
 10
2.3675
 20
-0.3
 30
112.9875
 70
192
 0
VERTEX
 8
FULGOR
 10
2.3583
 20
-0.3
 30
113.008
 70
192
 0
VERTEX
 8
FULGOR
 10
2.3441
 20
-0.3
 30
113.0259
 70
192
 0
VERTEX
 8
FULGOR
 10
2.3207
 20
-0.3
 30
113.0445
 70
192
 0
VERTEX
 8
FULGOR
 10
2.355
 20
-0.3
 30
112.9062
 70
192
 0
VERTEX
 8
FULGOR
 10
2.2072
 20
-0.3
 30
113.0841
 70
192
 0
VERTEX
 8
FULGOR
 10
2.1619
 20
-0.3
 30
113.0901
 70
192
 0
VERTEX
 8
FULGOR
 10
2.3709
 20
-0.3
 30
112.9641
 70
192
 0
VERTEX
 8
FULGOR
 10
1.9255
 20
-0.3
 30
113.0032
 70
192
 0
VERTEX
 8
FULGOR
 10
2.28
 20
-0.3
 30
113.0647
 70
192
 0
VERTEX
 8
FULGOR
 10
2.1175
 20
-0.3
 30
113.0924
 70
192
 0
VERTEX
 8
FULGOR
 10
1.7708
 20
-0.3
 30
113.0924
 70
192
 0
VERTEX
 8
FULGOR
 10
1.9255
 20
-0.3
 30
112.8923
 70
192
 0
VERTEX
 8
FULGOR
 10
2.0667
 20
-0.3
 30
112.8921
 70
192
 0
VERTEX
 8
FULGOR
 10
2.1068
 20
-0.3
 30
112.8954
 70
192
 0
VERTEX
 8
FULGOR
 10
2.1522
 20
-0.3
 30
112.9117
 70
192
 0
VERTEX
 8
FULGOR
 10
2.1622
 20
-0.3
 30
112.9198
 70
192
 0
VERTEX
 8
FULGOR
 10
2.1683
 20
-0.3
 30
112.9276
 70
192
 0
VERTEX
 8
FULGOR
 10
2.1739
 20
-0.3
 30
112.9549
 70
192
 0
VERTEX
 8
FULGOR
 10
2.1712
 20
-0.3
 30
112.9647
 70
192
 0
VERTEX
 8
FULGOR
 10
2.0986
 20
-0.3
 30
113.0015
 70
192
 0
VERTEX
 8
FULGOR
 10
2.1489
 20
-0.3
 30
112.9875
 70
192
 0
VERTEX
 8
FULGOR
 10
2.0809
 20
-0.3
 30
113.0029
 70
192
 0
VERTEX
 8
FULGOR
 10
2.1308
 20
-0.3
 30
112.995
 70
192
 0
VERTEX
 8
FULGOR
 10
2.1165
 20
-0.3
 30
112.9986
 70
192
 0
VERTEX
 8
FULGOR
 10
2.0619
 20
-0.3
 30
113.0032
 70
192
 0
VERTEX
 8
FULGOR
 10
2.0588
 20
-0.3
 30
113.0924
 70
192
 0
VERTEX
 8
FULGOR
 10
2.166
 20
-0.3
 30
112.9731
 70
192
 0
VERTEX
 8
FULGOR
 10
2.1593
 20
-0.3
 30
112.9802
 70
192
 0
VERTEX
 8
FULGOR
 10
2.1741
 20
-0.3
 30
112.9455
 70
192
 0
VERTEX
 8
FULGOR
 10
2.1724
 20
-0.3
 30
112.9364
 70
192
 0
VERTEX
 8
FULGOR
 10
2.0196
 20
-0.3
 30
112.8922
 70
192
 0
VERTEX
 8
FULGOR
 10
2.244
 20
-0.3
 30
112.599
 70
192
 0
VERTEX
 8
FULGOR
 10
2.236
 20
-0.3
 30
112.61
 70
192
 0
VERTEX
 8
FULGOR
 10
2.2218
 20
-0.3
 30
112.6296
 70
192
 0
VERTEX
 8
FULGOR
 10
2.2086
 20
-0.3
 30
112.6479
 70
192
 0
VERTEX
 8
FULGOR
 10
1.7708
 20
-0.3
 30
112.8029
 70
192
 0
VERTEX
 8
FULGOR
 10
2.1731
 20
-0.3
 30
112.6969
 70
192
 0
VERTEX
 8
FULGOR
 10
2.1598
 20
-0.3
 30
112.7153
 70
192
 0
VERTEX
 8
FULGOR
 10
0
 20
0
 30
0
 70
128
 71
8
 72
4
 73
13
 74
2
 0
VERTEX
 8
FULGOR
 10
0
 20
0
 30
0
 70
128
 71
13
 72
12
 73
2
 74
2
 0
VERTEX
 8
FULGOR
 10
0
 20
0
 30
0
 70
128
 71
13
 72
4
 73
15
 74
14
 0
VERTEX
 8
FULGOR
 10
0
 20
0
 30
0
 70
128
 71
8
 72
5
 73
4
 74
4
 0
VERTEX
 8
FULGOR
 10
0
 20
0
 30
0
 70
128
 71
5
 72
8
 73
7
 74
6
 0
VERTEX
 8
FULGOR
 10
0
 20
0
 30
0
 70
128
 71
16
 72
74
 73
73
 74
9
 0
VERTEX
 8
FULGOR
 10
0
 20
0
 30
0
 70
128
 71
73
 72
72
 73
10
 74
9
 0
VERTEX
 8
FULGOR
 10
0
 20
0
 30
0
 70
128
 71
72
 72
82
 73
11
 74
10
 0
VERTEX
 8
FULGOR
 10
0
 20
0
 30
0
 70
128
 71
82
 72
17
 73
11
 74
11
 0
VERTEX
 8
FULGOR
 10
0
 20
0
 30
0
 70
128
 71
82
 72
70
 73
18
 74
17
 0
VERTEX
 8
FULGOR
 10
0
 20
0
 30
0
 70
128
 71
70
 72
19
 73
18
 74
18
 0
VERTEX
 8
FULGOR
 10
0
 20
0
 30
0
 70
128
 71
70
 72
69
 73
20
 74
19
 0
VERTEX
 8
FULGOR
 10
0
 20
0
 30
0
 70
128
 71
69
 72
68
 73
27
 74
20
 0
VERTEX
 8
FULGOR
 10
0
 20
0
 30
0
 70
128
 71
68
 72
67
 73
29
 74
27
 0
VERTEX
 8
FULGOR
 10
0
 20
0
 30
0
 70
128
 71
67
 72
66
 73
30
 74
29
 0
VERTEX
 8
FULGOR
 10
0
 20
0
 30
0
 70
128
 71
66
 72
78
 73
31
 74
30
 0
VERTEX
 8
FULGOR
 10
0
 20
0
 30
0
 70
128
 71
78
 72
77
 73
32
 74
31
 0
VERTEX
 8
FULGOR
 10
0
 20
0
 30
0
 70
128
 71
32
 72
77
 73
76
 74
21
 0
VERTEX
 8
FULGOR
 10
0
 20
0
 30
0
 70
128
 71
62
 72
61
 73
22
 74
21
 0
VERTEX
 8
FULGOR
 10
0
 20
0
 30
0
 70
128
 71
75
 72
59
 73
23
 74
22
 0
VERTEX
 8
FULGOR
 10
0
 20
0
 30
0
 70
128
 71
23
 72
59
 73
71
 74
24
 0
VERTEX
 8
FULGOR
 10
0
 20
0
 30
0
 70
128
 71
24
 72
71
 73
65
 74
25
 0
VERTEX
 8
FULGOR
 10
0
 20
0
 30
0
 70
128
 71
64
 72
63
 73
26
 74
25
 0
VERTEX
 8
FULGOR
 10
0
 20
0
 30
0
 70
128
 71
60
 72
53
 73
34
 74
26
 0
VERTEX
 8
FULGOR
 10
0
 20
0
 30
0
 70
128
 71
52
 72
51
 73
28
 74
34
 0
VERTEX
 8
FULGOR
 10
0
 20
0
 30
0
 70
128
 71
51
 72
50
 73
35
 74
28
 0
VERTEX
 8
FULGOR
 10
0
 20
0
 30
0
 70
128
 71
50
 72
49
 73
36
 74
35
 0
VERTEX
 8
FULGOR
 10
0
 20
0
 30
0
 70
128
 71
36
 72
49
 73
48
 74
37
 0
VERTEX
 8
FULGOR
 10
0
 20
0
 30
0
 70
128
 71
37
 72
48
 73
47
 74
41
 0
VERTEX
 8
FULGOR
 10
0
 20
0
 30
0
 70
128
 71
47
 72
33
 73
41
 74
41
 0
VERTEX
 8
FULGOR
 10
0
 20
0
 30
0
 70
128
 71
33
 72
47
 73
46
 74
42
 0
VERTEX
 8
FULGOR
 10
0
 20
0
 30
0
 70
128
 71
42
 72
46
 73
45
 74
54
 0
VERTEX
 8
FULGOR
 10
0
 20
0
 30
0
 70
128
 71
45
 72
55
 73
54
 74
54
 0
VERTEX
 8
FULGOR
 10
0
 20
0
 30
0
 70
128
 71
55
 72
45
 73
44
 74
56
 0
VERTEX
 8
FULGOR
 10
0
 20
0
 30
0
 70
128
 71
44
 72
43
 73
38
 74
56
 0
VERTEX
 8
FULGOR
 10
0
 20
0
 30
0
 70
128
 71
43
 72
58
 73
39
 74
38
 0
VERTEX
 8
FULGOR
 10
0
 20
0
 30
0
 70
128
 71
58
 72
57
 73
40
 74
39
 0
VERTEX
 8
FULGOR
 10
0
 20
0
 30
0
 70
128
 71
53
 72
52
 73
34
 74
34
 0
VERTEX
 8
FULGOR
 10
0
 20
0
 30
0
 70
128
 71
63
 72
60
 73
26
 74
26
 0
VERTEX
 8
FULGOR
 10
0
 20
0
 30
0
 70
128
 71
65
 72
64
 73
25
 74
25
 0
VERTEX
 8
FULGOR
 10
0
 20
0
 30
0
 70
128
 71
61
 72
75
 73
22
 74
22
 0
VERTEX
 8
FULGOR
 10
0
 20
0
 30
0
 70
128
 71
76
 72
62
 73
21
 74
21
 0
VERTEX
 8
FULGOR
 10
0
 20
0
 30
0
 70
128
 71
83
 72
80
 73
79
 74
85
 0
VERTEX
 8
FULGOR
 10
0
 20
0
 30
0
 70
128
 71
79
 72
87
 73
86
 74
85
 0
VERTEX
 8
FULGOR
 10
0
 20
0
 30
0
 70
128
 71
369
 72
365
 73
371
 74
364
 0
VERTEX
 8
FULGOR
 10
0
 20
0
 30
0
 70
128
 71
371
 72
370
 73
364
 74
364
 0
VERTEX
 8
FULGOR
 10
0
 20
0
 30
0
 70
128
 71
371
 72
365
 73
373
 74
372
 0
VERTEX
 8
FULGOR
 10
0
 20
0
 30
0
 70
128
 71
369
 72
366
 73
365
 74
365
 0
VERTEX
 8
FULGOR
 10
0
 20
0
 30
0
 70
128
 71
366
 72
369
 73
368
 74
367
 0
VERTEX
 8
FULGOR
 10
0
 20
0
 30
0
 70
128
 71
377
 72
435
 73
434
 74
374
 0
VERTEX
 8
FULGOR
 10
0
 20
0
 30
0
 70
128
 71
434
 72
433
 73
375
 74
374
 0
VERTEX
 8
FULGOR
 10
0
 20
0
 30
0
 70
128
 71
433
 72
440
 73
376
 74
375
 0
VERTEX
 8
FULGOR
 10
0
 20
0
 30
0
 70
128
 71
440
 72
378
 73
376
 74
376
 0
VERTEX
 8
FULGOR
 10
0
 20
0
 30
0
 70
128
 71
440
 72
431
 73
379
 74
378
 0
VERTEX
 8
FULGOR
 10
0
 20
0
 30
0
 70
128
 71
431
 72
380
 73
379
 74
379
 0
VERTEX
 8
FULGOR
 10
0
 20
0
 30
0
 70
128
 71
431
 72
430
 73
381
 74
380
 0
VERTEX
 8
FULGOR
 10
0
 20
0
 30
0
 70
128
 71
430
 72
429
 73
388
 74
381
 0
VERTEX
 8
FULGOR
 10
0
 20
0
 30
0
 70
128
 71
429
 72
428
 73
390
 74
388
 0
VERTEX
 8
FULGOR
 10
0
 20
0
 30
0
 70
128
 71
428
 72
427
 73
391
 74
390
 0
VERTEX
 8
FULGOR
 10
0
 20
0
 30
0
 70
128
 71
427
 72
439
 73
392
 74
391
 0
VERTEX
 8
FULGOR
 10
0
 20
0
 30
0
 70
128
 71
439
 72
438
 73
393
 74
392
 0
VERTEX
 8
FULGOR
 10
0
 20
0
 30
0
 70
128
 71
393
 72
438
 73
437
 74
382
 0
VERTEX
 8
FULGOR
 10
0
 20
0
 30
0
 70
128
 71
423
 72
422
 73
383
 74
382
 0
VERTEX
 8
FULGOR
 10
0
 20
0
 30
0
 70
128
 71
436
 72
420
 73
384
 74
383
 0
VERTEX
 8
FULGOR
 10
0
 20
0
 30
0
 70
128
 71
384
 72
420
 73
432
 74
385
 0
VERTEX
 8
FULGOR
 10
0
 20
0
 30
0
 70
128
 71
385
 72
432
 73
426
 74
386
 0
VERTEX
 8
FULGOR
 10
0
 20
0
 30
0
 70
128
 71
425
 72
424
 73
387
 74
386
 0
VERTEX
 8
FULGOR
 10
0
 20
0
 30
0
 70
128
 71
421
 72
414
 73
395
 74
387
 0
VERTEX
 8
FULGOR
 10
0
 20
0
 30
0
 70
128
 71
413
 72
412
 73
389
 74
395
 0
VERTEX
 8
FULGOR
 10
0
 20
0
 30
0
 70
128
 71
412
 72
411
 73
396
 74
389
 0
VERTEX
 8
FULGOR
 10
0
 20
0
 30
0
 70
128
 71
411
 72
410
 73
397
 74
396
 0
VERTEX
 8
FULGOR
 10
0
 20
0
 30
0
 70
128
 71
397
 72
410
 73
409
 74
398
 0
VERTEX
 8
FULGOR
 10
0
 20
0
 30
0
 70
128
 71
398
 72
409
 73
408
 74
402
 0
VERTEX
 8
FULGOR
 10
0
 20
0
 30
0
 70
128
 71
408
 72
394
 73
402
 74
402
 0
VERTEX
 8
FULGOR
 10
0
 20
0
 30
0
 70
128
 71
394
 72
408
 73
407
 74
403
 0
VERTEX
 8
FULGOR
 10
0
 20
0
 30
0
 70
128
 71
403
 72
407
 73
406
 74
415
 0
VERTEX
 8
FULGOR
 10
0
 20
0
 30
0
 70
128
 71
406
 72
416
 73
415
 74
415
 0
VERTEX
 8
FULGOR
 10
0
 20
0
 30
0
 70
128
 71
416
 72
406
 73
405
 74
417
 0
VERTEX
 8
FULGOR
 10
0
 20
0
 30
0
 70
128
 71
405
 72
404
 73
399
 74
417
 0
VERTEX
 8
FULGOR
 10
0
 20
0
 30
0
 70
128
 71
404
 72
419
 73
400
 74
399
 0
VERTEX
 8
FULGOR
 10
0
 20
0
 30
0
 70
128
 71
419
 72
418
 73
401
 74
400
 0
VERTEX
 8
FULGOR
 10
0
 20
0
 30
0
 70
128
 71
414
 72
413
 73
395
 74
395
 0
VERTEX
 8
FULGOR
 10
0
 20
0
 30
0
 70
128
 71
424
 72
421
 73
387
 74
387
 0
VERTEX
 8
FULGOR
 10
0
 20
0
 30
0
 70
128
 71
426
 72
425
 73
386
 74
386
 0
VERTEX
 8
FULGOR
 10
0
 20
0
 30
0
 70
128
 71
422
 72
436
 73
383
 74
383
 0
VERTEX
 8
FULGOR
 10
0
 20
0
 30
0
 70
128
 71
437
 72
423
 73
382
 74
382
 0
VERTEX
 8
FULGOR
 10
0
 20
0
 30
0
 70
128
 71
443
 72
442
 73
441
 74
444
 0
VERTEX
 8
FULGOR
 10
0
 20
0
 30
0
 70
128
 71
441
 72
446
 73
445
 74
444
 0
VERTEX
 8
FULGOR
 10
0
 20
0
 30
0
 70
128
 71
244
 72
245
 73
188
 74
3
 0
VERTEX
 8
FULGOR
 10
0
 20
0
 30
0
 70
128
 71
137
 72
135
 73
127
 74
120
 0
VERTEX
 8
FULGOR
 10
0
 20
0
 30
0
 70
128
 71
287
 72
288
 73
220
 74
219
 0
VERTEX
 8
FULGOR
 10
0
 20
0
 30
0
 70
128
 71
135
 72
134
 73
128
 74
127
 0
VERTEX
 8
FULGOR
 10
0
 20
0
 30
0
 70
128
 71
145
 72
144
 73
106
 74
99
 0
VERTEX
 8
FULGOR
 10
0
 20
0
 30
0
 70
128
 71
152
 72
148
 73
115
 74
112
 0
VERTEX
 8
FULGOR
 10
0
 20
0
 30
0
 70
128
 71
288
 72
289
 73
221
 74
220
 0
VERTEX
 8
FULGOR
 10
0
 20
0
 30
0
 70
128
 71
155
 72
152
 73
112
 74
109
 0
VERTEX
 8
FULGOR
 10
0
 20
0
 30
0
 70
128
 71
141
 72
155
 73
109
 74
103
 0
VERTEX
 8
FULGOR
 10
0
 20
0
 30
0
 70
128
 71
289
 72
290
 73
230
 74
221
 0
VERTEX
 8
FULGOR
 10
0
 20
0
 30
0
 70
128
 71
290
 72
292
 73
223
 74
230
 0
VERTEX
 8
FULGOR
 10
0
 20
0
 30
0
 70
128
 71
142
 72
141
 73
103
 74
108
 0
VERTEX
 8
FULGOR
 10
0
 20
0
 30
0
 70
128
 71
143
 72
142
 73
108
 74
107
 0
VERTEX
 8
FULGOR
 10
0
 20
0
 30
0
 70
128
 71
144
 72
143
 73
107
 74
106
 0
VERTEX
 8
FULGOR
 10
0
 20
0
 30
0
 70
128
 71
254
 72
255
 73
207
 74
206
 0
VERTEX
 8
FULGOR
 10
0
 20
0
 30
0
 70
128
 71
265
 72
254
 73
206
 74
199
 0
VERTEX
 8
FULGOR
 10
0
 20
0
 30
0
 70
128
 71
263
 72
265
 73
199
 74
198
 0
VERTEX
 8
FULGOR
 10
0
 20
0
 30
0
 70
128
 71
251
 72
240
 73
179
 74
178
 0
VERTEX
 8
FULGOR
 10
0
 20
0
 30
0
 70
128
 71
237
 72
238
 73
185
 74
346
 0
VERTEX
 8
FULGOR
 10
0
 20
0
 30
0
 70
128
 71
339
 72
340
 73
321
 74
328
 0
VERTEX
 8
FULGOR
 10
0
 20
0
 30
0
 70
128
 71
161
 72
174
 73
84
 74
89
 0
VERTEX
 8
FULGOR
 10
0
 20
0
 30
0
 70
128
 71
174
 72
159
 73
90
 74
84
 0
VERTEX
 8
FULGOR
 10
0
 20
0
 30
0
 70
128
 71
249
 72
237
 73
346
 74
184
 0
VERTEX
 8
FULGOR
 10
0
 20
0
 30
0
 70
128
 71
248
 72
249
 73
184
 74
347
 0
VERTEX
 8
FULGOR
 10
0
 20
0
 30
0
 70
128
 71
159
 72
173
 73
95
 74
90
 0
VERTEX
 8
FULGOR
 10
0
 20
0
 30
0
 70
128
 71
173
 72
157
 73
96
 74
95
 0
VERTEX
 8
FULGOR
 10
0
 20
0
 30
0
 70
128
 71
246
 72
248
 73
347
 74
183
 0
VERTEX
 8
FULGOR
 10
0
 20
0
 30
0
 70
128
 71
362
 72
307
 73
305
 74
359
 0
VERTEX
 8
FULGOR
 10
0
 20
0
 30
0
 70
128
 71
151
 72
150
 73
94
 74
93
 0
VERTEX
 8
FULGOR
 10
0
 20
0
 30
0
 70
128
 71
353
 72
352
 73
319
 74
318
 0
VERTEX
 8
FULGOR
 10
0
 20
0
 30
0
 70
128
 71
175
 72
161
 73
89
 74
88
 0
VERTEX
 8
FULGOR
 10
0
 20
0
 30
0
 70
128
 71
253
 72
247
 73
190
 74
189
 0
VERTEX
 8
FULGOR
 10
0
 20
0
 30
0
 70
128
 71
153
 72
166
 73
92
 74
91
 0
VERTEX
 8
FULGOR
 10
0
 20
0
 30
0
 70
128
 71
166
 72
151
 73
93
 74
92
 0
VERTEX
 8
FULGOR
 10
0
 20
0
 30
0
 70
128
 71
273
 72
274
 73
226
 74
210
 0
VERTEX
 8
FULGOR
 10
0
 20
0
 30
0
 70
128
 71
163
 72
175
 73
88
 74
81
 0
VERTEX
 8
FULGOR
 10
0
 20
0
 30
0
 70
128
 71
167
 72
154
 73
101
 74
100
 0
VERTEX
 8
FULGOR
 10
0
 20
0
 30
0
 70
128
 71
154
 72
153
 73
91
 74
101
 0
VERTEX
 8
FULGOR
 10
0
 20
0
 30
0
 70
128
 71
274
 72
275
 73
227
 74
226
 0
VERTEX
 8
FULGOR
 10
0
 20
0
 30
0
 70
128
 71
275
 72
281
 73
228
 74
227
 0
VERTEX
 8
FULGOR
 10
0
 20
0
 30
0
 70
128
 71
157
 72
156
 73
97
 74
96
 0
VERTEX
 8
FULGOR
 10
0
 20
0
 30
0
 70
128
 71
291
 72
296
 73
333
 74
354
 0
VERTEX
 8
FULGOR
 10
0
 20
0
 30
0
 70
128
 71
281
 72
282
 73
229
 74
228
 0
VERTEX
 8
FULGOR
 10
0
 20
0
 30
0
 70
128
 71
282
 72
283
 73
215
 74
229
 0
VERTEX
 8
FULGOR
 10
0
 20
0
 30
0
 70
128
 71
283
 72
284
 73
216
 74
215
 0
VERTEX
 8
FULGOR
 10
0
 20
0
 30
0
 70
128
 71
129
 72
1
 73
118
 74
117
 0
VERTEX
 8
FULGOR
 10
0
 20
0
 30
0
 70
128
 71
238
 72
251
 73
178
 74
185
 0
VERTEX
 8
FULGOR
 10
0
 20
0
 30
0
 70
128
 71
245
 72
253
 73
189
 74
188
 0
VERTEX
 8
FULGOR
 10
0
 20
0
 30
0
 70
128
 71
337
 72
338
 73
325
 74
316
 0
VERTEX
 8
FULGOR
 10
0
 20
0
 30
0
 70
128
 71
336
 72
337
 73
316
 74
314
 0
VERTEX
 8
FULGOR
 10
0
 20
0
 30
0
 70
128
 71
241
 72
252
 73
311
 74
186
 0
VERTEX
 8
FULGOR
 10
0
 20
0
 30
0
 70
128
 71
156
 72
167
 73
100
 74
97
 0
VERTEX
 8
FULGOR
 10
0
 20
0
 30
0
 70
128
 71
149
 72
162
 73
104
 74
102
 0
VERTEX
 8
FULGOR
 10
0
 20
0
 30
0
 70
128
 71
162
 72
160
 73
105
 74
104
 0
VERTEX
 8
FULGOR
 10
0
 20
0
 30
0
 70
128
 71
266
 72
269
 73
196
 74
195
 0
VERTEX
 8
FULGOR
 10
0
 20
0
 30
0
 70
128
 71
360
 72
129
 73
117
 74
126
 0
VERTEX
 8
FULGOR
 10
0
 20
0
 30
0
 70
128
 71
134
 72
124
 73
131
 74
128
 0
VERTEX
 8
FULGOR
 10
0
 20
0
 30
0
 70
128
 71
334
 72
335
 73
320
 74
312
 0
VERTEX
 8
FULGOR
 10
0
 20
0
 30
0
 70
128
 71
308
 72
307
 73
362
 74
363
 0
VERTEX
 8
FULGOR
 10
0
 20
0
 30
0
 70
128
 71
139
 72
357
 73
114
 74
113
 0
VERTEX
 8
FULGOR
 10
0
 20
0
 30
0
 70
128
 71
305
 72
304
 73
358
 74
359
 0
VERTEX
 8
FULGOR
 10
0
 20
0
 30
0
 70
128
 71
335
 72
336
 73
314
 74
320
 0
VERTEX
 8
FULGOR
 10
0
 20
0
 30
0
 70
128
 71
355
 72
356
 73
313
 74
301
 0
VERTEX
 8
FULGOR
 10
0
 20
0
 30
0
 70
128
 71
301
 72
300
 73
299
 74
355
 0
VERTEX
 8
FULGOR
 10
0
 20
0
 30
0
 70
128
 71
352
 72
339
 73
328
 74
319
 0
VERTEX
 8
FULGOR
 10
0
 20
0
 30
0
 70
128
 71
343
 72
348
 73
349
 74
331
 0
VERTEX
 8
FULGOR
 10
0
 20
0
 30
0
 70
128
 71
342
 72
344
 73
330
 74
324
 0
VERTEX
 8
FULGOR
 10
0
 20
0
 30
0
 70
128
 71
262
 72
263
 73
198
 74
197
 0
VERTEX
 8
FULGOR
 10
0
 20
0
 30
0
 70
128
 71
303
 72
312
 73
317
 74
310
 0
VERTEX
 8
FULGOR
 10
0
 20
0
 30
0
 70
128
 71
250
 72
262
 73
197
 74
187
 0
VERTEX
 8
FULGOR
 10
0
 20
0
 30
0
 70
128
 71
291
 72
354
 73
334
 74
302
 0
VERTEX
 8
FULGOR
 10
0
 20
0
 30
0
 70
128
 71
341
 72
343
 73
331
 74
327
 0
VERTEX
 8
FULGOR
 10
0
 20
0
 30
0
 70
128
 71
150
 72
149
 73
102
 74
94
 0
VERTEX
 8
FULGOR
 10
0
 20
0
 30
0
 70
128
 71
1
 72
138
 73
119
 74
118
 0
VERTEX
 8
FULGOR
 10
0
 20
0
 30
0
 70
128
 71
338
 72
353
 73
318
 74
325
 0
VERTEX
 8
FULGOR
 10
0
 20
0
 30
0
 70
128
 71
280
 72
273
 73
210
 74
222
 0
VERTEX
 8
FULGOR
 10
0
 20
0
 30
0
 70
128
 71
285
 72
286
 73
218
 74
217
 0
VERTEX
 8
FULGOR
 10
0
 20
0
 30
0
 70
128
 71
160
 72
158
 73
98
 74
105
 0
VERTEX
 8
FULGOR
 10
0
 20
0
 30
0
 70
128
 71
138
 72
137
 73
120
 74
119
 0
VERTEX
 8
FULGOR
 10
0
 20
0
 30
0
 70
128
 71
286
 72
287
 73
219
 74
218
 0
VERTEX
 8
FULGOR
 10
0
 20
0
 30
0
 70
128
 71
261
 72
270
 73
211
 74
209
 0
VERTEX
 8
FULGOR
 10
0
 20
0
 30
0
 70
128
 71
348
 72
329
 73
332
 74
349
 0
VERTEX
 8
FULGOR
 10
0
 20
0
 30
0
 70
128
 71
329
 72
333
 73
306
 74
332
 0
VERTEX
 8
FULGOR
 10
0
 20
0
 30
0
 70
128
 71
333
 72
296
 73
361
 74
306
 0
VERTEX
 8
FULGOR
 10
0
 20
0
 30
0
 70
128
 71
296
 72
295
 73
294
 74
361
 0
VERTEX
 8
FULGOR
 10
0
 20
0
 30
0
 70
128
 71
358
 72
304
 73
313
 74
356
 0
VERTEX
 8
FULGOR
 10
0
 20
0
 30
0
 70
128
 71
148
 72
147
 73
116
 74
115
 0
VERTEX
 8
FULGOR
 10
0
 20
0
 30
0
 70
128
 71
158
 72
145
 73
99
 74
98
 0
VERTEX
 8
FULGOR
 10
0
 20
0
 30
0
 70
128
 71
260
 72
261
 73
209
 74
208
 0
VERTEX
 8
FULGOR
 10
0
 20
0
 30
0
 70
128
 71
269
 72
260
 73
208
 74
196
 0
VERTEX
 8
FULGOR
 10
0
 20
0
 30
0
 70
128
 71
276
 72
267
 73
204
 74
203
 0
VERTEX
 8
FULGOR
 10
0
 20
0
 30
0
 70
128
 71
232
 72
242
 73
182
 74
180
 0
VERTEX
 8
FULGOR
 10
0
 20
0
 30
0
 70
128
 71
242
 72
246
 73
183
 74
182
 0
VERTEX
 8
FULGOR
 10
0
 20
0
 30
0
 70
128
 71
272
 72
276
 73
203
 74
202
 0
VERTEX
 8
FULGOR
 10
0
 20
0
 30
0
 70
128
 71
264
 72
272
 73
202
 74
201
 0
VERTEX
 8
FULGOR
 10
0
 20
0
 30
0
 70
128
 71
240
 72
241
 73
186
 74
179
 0
VERTEX
 8
FULGOR
 10
0
 20
0
 30
0
 70
128
 71
147
 72
136
 73
121
 74
116
 0
VERTEX
 8
FULGOR
 10
0
 20
0
 30
0
 70
128
 71
340
 72
350
 73
322
 74
321
 0
VERTEX
 8
FULGOR
 10
0
 20
0
 30
0
 70
128
 71
303
 72
302
 73
334
 74
312
 0
VERTEX
 8
FULGOR
 10
0
 20
0
 30
0
 70
128
 71
345
 72
341
 73
327
 74
326
 0
VERTEX
 8
FULGOR
 10
0
 20
0
 30
0
 70
128
 71
252
 72
243
 73
181
 74
311
 0
VERTEX
 8
FULGOR
 10
0
 20
0
 30
0
 70
128
 71
344
 72
345
 73
326
 74
330
 0
VERTEX
 8
FULGOR
 10
0
 20
0
 30
0
 70
128
 71
231
 72
232
 73
180
 74
172
 0
VERTEX
 8
FULGOR
 10
0
 20
0
 30
0
 70
128
 71
257
 72
266
 73
195
 74
194
 0
VERTEX
 8
FULGOR
 10
0
 20
0
 30
0
 70
128
 71
256
 72
257
 73
194
 74
193
 0
VERTEX
 8
FULGOR
 10
0
 20
0
 30
0
 70
128
 71
297
 72
310
 73
317
 74
315
 0
VERTEX
 8
FULGOR
 10
0
 20
0
 30
0
 70
128
 71
357
 72
130
 73
125
 74
114
 0
VERTEX
 8
FULGOR
 10
0
 20
0
 30
0
 70
128
 71
255
 72
256
 73
193
 74
207
 0
VERTEX
 8
FULGOR
 10
0
 20
0
 30
0
 70
128
 71
298
 72
297
 73
315
 74
309
 0
VERTEX
 8
FULGOR
 10
0
 20
0
 30
0
 70
128
 71
298
 72
309
 73
308
 74
363
 0
VERTEX
 8
FULGOR
 10
0
 20
0
 30
0
 70
128
 71
243
 72
244
 73
3
 74
181
 0
VERTEX
 8
FULGOR
 10
0
 20
0
 30
0
 70
128
 71
259
 72
250
 73
187
 74
192
 0
VERTEX
 8
FULGOR
 10
0
 20
0
 30
0
 70
128
 71
279
 72
280
 73
222
 74
214
 0
VERTEX
 8
FULGOR
 10
0
 20
0
 30
0
 70
128
 71
278
 72
279
 73
214
 74
213
 0
VERTEX
 8
FULGOR
 10
0
 20
0
 30
0
 70
128
 71
258
 72
259
 73
192
 74
191
 0
VERTEX
 8
FULGOR
 10
0
 20
0
 30
0
 70
128
 71
247
 72
258
 73
191
 74
190
 0
VERTEX
 8
FULGOR
 10
0
 20
0
 30
0
 70
128
 71
351
 72
342
 73
324
 74
323
 0
VERTEX
 8
FULGOR
 10
0
 20
0
 30
0
 70
128
 71
350
 72
351
 73
323
 74
322
 0
VERTEX
 8
FULGOR
 10
0
 20
0
 30
0
 70
128
 71
284
 72
285
 73
217
 74
216
 0
VERTEX
 8
FULGOR
 10
0
 20
0
 30
0
 70
128
 71
136
 72
146
 73
122
 74
121
 0
VERTEX
 8
FULGOR
 10
0
 20
0
 30
0
 70
128
 71
146
 72
140
 73
110
 74
122
 0
VERTEX
 8
FULGOR
 10
0
 20
0
 30
0
 70
128
 71
130
 72
360
 73
126
 74
125
 0
VERTEX
 8
FULGOR
 10
0
 20
0
 30
0
 70
128
 71
140
 72
133
 73
111
 74
110
 0
VERTEX
 8
FULGOR
 10
0
 20
0
 30
0
 70
128
 71
133
 72
132
 73
123
 74
111
 0
VERTEX
 8
FULGOR
 10
0
 20
0
 30
0
 70
128
 71
132
 72
139
 73
113
 74
123
 0
VERTEX
 8
FULGOR
 10
0
 20
0
 30
0
 70
128
 71
292
 72
293
 73
164
 74
223
 0
VERTEX
 8
FULGOR
 10
0
 20
0
 30
0
 70
128
 71
293
 72
224
 73
165
 74
164
 0
VERTEX
 8
FULGOR
 10
0
 20
0
 30
0
 70
128
 71
224
 72
225
 73
176
 74
165
 0
VERTEX
 8
FULGOR
 10
0
 20
0
 30
0
 70
128
 71
225
 72
233
 73
177
 74
176
 0
VERTEX
 8
FULGOR
 10
0
 20
0
 30
0
 70
128
 71
233
 72
234
 73
168
 74
177
 0
VERTEX
 8
FULGOR
 10
0
 20
0
 30
0
 70
128
 71
234
 72
235
 73
169
 74
168
 0
VERTEX
 8
FULGOR
 10
0
 20
0
 30
0
 70
128
 71
235
 72
236
 73
170
 74
169
 0
VERTEX
 8
FULGOR
 10
0
 20
0
 30
0
 70
128
 71
236
 72
239
 73
171
 74
170
 0
VERTEX
 8
FULGOR
 10
0
 20
0
 30
0
 70
128
 71
239
 72
231
 73
172
 74
171
 0
VERTEX
 8
FULGOR
 10
0
 20
0
 30
0
 70
128
 71
213
 72
212
 73
277
 74
278
 0
VERTEX
 8
FULGOR
 10
0
 20
0
 30
0
 70
128
 71
212
 72
205
 73
268
 74
277
 0
VERTEX
 8
FULGOR
 10
0
 20
0
 30
0
 70
128
 71
267
 72
268
 73
205
 74
204
 0
VERTEX
 8
FULGOR
 10
0
 20
0
 30
0
 70
128
 71
270
 72
271
 73
200
 74
211
 0
VERTEX
 8
FULGOR
 10
0
 20
0
 30
0
 70
128
 71
271
 72
264
 73
201
 74
200
 0
VERTEX
 8
FULGOR
 10
0
 20
0
 30
0
 70
128
 71
523
 72
524
 73
467
 74
447
 0
VERTEX
 8
FULGOR
 10
0
 20
0
 30
0
 70
128
 71
566
 72
567
 73
499
 74
498
 0
VERTEX
 8
FULGOR
 10
0
 20
0
 30
0
 70
128
 71
567
 72
568
 73
500
 74
499
 0
VERTEX
 8
FULGOR
 10
0
 20
0
 30
0
 70
128
 71
568
 72
569
 73
509
 74
500
 0
VERTEX
 8
FULGOR
 10
0
 20
0
 30
0
 70
128
 71
569
 72
570
 73
502
 74
509
 0
VERTEX
 8
FULGOR
 10
0
 20
0
 30
0
 70
128
 71
533
 72
534
 73
486
 74
485
 0
VERTEX
 8
FULGOR
 10
0
 20
0
 30
0
 70
128
 71
544
 72
533
 73
485
 74
478
 0
VERTEX
 8
FULGOR
 10
0
 20
0
 30
0
 70
128
 71
542
 72
544
 73
478
 74
477
 0
VERTEX
 8
FULGOR
 10
0
 20
0
 30
0
 70
128
 71
530
 72
519
 73
458
 74
457
 0
VERTEX
 8
FULGOR
 10
0
 20
0
 30
0
 70
128
 71
516
 72
517
 73
464
 74
573
 0
VERTEX
 8
FULGOR
 10
0
 20
0
 30
0
 70
128
 71
528
 72
516
 73
573
 74
463
 0
VERTEX
 8
FULGOR
 10
0
 20
0
 30
0
 70
128
 71
527
 72
528
 73
463
 74
574
 0
VERTEX
 8
FULGOR
 10
0
 20
0
 30
0
 70
128
 71
525
 72
527
 73
574
 74
462
 0
VERTEX
 8
FULGOR
 10
0
 20
0
 30
0
 70
128
 71
532
 72
526
 73
469
 74
468
 0
VERTEX
 8
FULGOR
 10
0
 20
0
 30
0
 70
128
 71
552
 72
553
 73
505
 74
489
 0
VERTEX
 8
FULGOR
 10
0
 20
0
 30
0
 70
128
 71
553
 72
554
 73
506
 74
505
 0
VERTEX
 8
FULGOR
 10
0
 20
0
 30
0
 70
128
 71
554
 72
560
 73
507
 74
506
 0
VERTEX
 8
FULGOR
 10
0
 20
0
 30
0
 70
128
 71
560
 72
561
 73
508
 74
507
 0
VERTEX
 8
FULGOR
 10
0
 20
0
 30
0
 70
128
 71
561
 72
562
 73
494
 74
508
 0
VERTEX
 8
FULGOR
 10
0
 20
0
 30
0
 70
128
 71
562
 72
563
 73
495
 74
494
 0
VERTEX
 8
FULGOR
 10
0
 20
0
 30
0
 70
128
 71
517
 72
530
 73
457
 74
464
 0
VERTEX
 8
FULGOR
 10
0
 20
0
 30
0
 70
128
 71
524
 72
532
 73
468
 74
467
 0
VERTEX
 8
FULGOR
 10
0
 20
0
 30
0
 70
128
 71
520
 72
531
 73
572
 74
465
 0
VERTEX
 8
FULGOR
 10
0
 20
0
 30
0
 70
128
 71
545
 72
548
 73
475
 74
474
 0
VERTEX
 8
FULGOR
 10
0
 20
0
 30
0
 70
128
 71
541
 72
542
 73
477
 74
476
 0
VERTEX
 8
FULGOR
 10
0
 20
0
 30
0
 70
128
 71
529
 72
541
 73
476
 74
466
 0
VERTEX
 8
FULGOR
 10
0
 20
0
 30
0
 70
128
 71
559
 72
552
 73
489
 74
501
 0
VERTEX
 8
FULGOR
 10
0
 20
0
 30
0
 70
128
 71
564
 72
565
 73
497
 74
496
 0
VERTEX
 8
FULGOR
 10
0
 20
0
 30
0
 70
128
 71
565
 72
566
 73
498
 74
497
 0
VERTEX
 8
FULGOR
 10
0
 20
0
 30
0
 70
128
 71
540
 72
549
 73
490
 74
488
 0
VERTEX
 8
FULGOR
 10
0
 20
0
 30
0
 70
128
 71
539
 72
540
 73
488
 74
487
 0
VERTEX
 8
FULGOR
 10
0
 20
0
 30
0
 70
128
 71
548
 72
539
 73
487
 74
475
 0
VERTEX
 8
FULGOR
 10
0
 20
0
 30
0
 70
128
 71
555
 72
546
 73
483
 74
482
 0
VERTEX
 8
FULGOR
 10
0
 20
0
 30
0
 70
128
 71
511
 72
521
 73
461
 74
459
 0
VERTEX
 8
FULGOR
 10
0
 20
0
 30
0
 70
128
 71
521
 72
525
 73
462
 74
461
 0
VERTEX
 8
FULGOR
 10
0
 20
0
 30
0
 70
128
 71
551
 72
555
 73
482
 74
481
 0
VERTEX
 8
FULGOR
 10
0
 20
0
 30
0
 70
128
 71
543
 72
551
 73
481
 74
480
 0
VERTEX
 8
FULGOR
 10
0
 20
0
 30
0
 70
128
 71
519
 72
520
 73
465
 74
458
 0
VERTEX
 8
FULGOR
 10
0
 20
0
 30
0
 70
128
 71
531
 72
522
 73
460
 74
572
 0
VERTEX
 8
FULGOR
 10
0
 20
0
 30
0
 70
128
 71
510
 72
511
 73
459
 74
454
 0
VERTEX
 8
FULGOR
 10
0
 20
0
 30
0
 70
128
 71
536
 72
545
 73
474
 74
473
 0
VERTEX
 8
FULGOR
 10
0
 20
0
 30
0
 70
128
 71
535
 72
536
 73
473
 74
472
 0
VERTEX
 8
FULGOR
 10
0
 20
0
 30
0
 70
128
 71
534
 72
535
 73
472
 74
486
 0
VERTEX
 8
FULGOR
 10
0
 20
0
 30
0
 70
128
 71
522
 72
523
 73
447
 74
460
 0
VERTEX
 8
FULGOR
 10
0
 20
0
 30
0
 70
128
 71
538
 72
529
 73
466
 74
471
 0
VERTEX
 8
FULGOR
 10
0
 20
0
 30
0
 70
128
 71
558
 72
559
 73
501
 74
493
 0
VERTEX
 8
FULGOR
 10
0
 20
0
 30
0
 70
128
 71
557
 72
558
 73
493
 74
492
 0
VERTEX
 8
FULGOR
 10
0
 20
0
 30
0
 70
128
 71
537
 72
538
 73
471
 74
470
 0
VERTEX
 8
FULGOR
 10
0
 20
0
 30
0
 70
128
 71
526
 72
537
 73
470
 74
469
 0
VERTEX
 8
FULGOR
 10
0
 20
0
 30
0
 70
128
 71
563
 72
564
 73
496
 74
495
 0
VERTEX
 8
FULGOR
 10
0
 20
0
 30
0
 70
128
 71
570
 72
571
 73
448
 74
502
 0
VERTEX
 8
FULGOR
 10
0
 20
0
 30
0
 70
128
 71
571
 72
503
 73
449
 74
448
 0
VERTEX
 8
FULGOR
 10
0
 20
0
 30
0
 70
128
 71
503
 72
504
 73
455
 74
449
 0
VERTEX
 8
FULGOR
 10
0
 20
0
 30
0
 70
128
 71
504
 72
512
 73
456
 74
455
 0
VERTEX
 8
FULGOR
 10
0
 20
0
 30
0
 70
128
 71
512
 72
513
 73
450
 74
456
 0
VERTEX
 8
FULGOR
 10
0
 20
0
 30
0
 70
128
 71
513
 72
514
 73
451
 74
450
 0
VERTEX
 8
FULGOR
 10
0
 20
0
 30
0
 70
128
 71
514
 72
515
 73
452
 74
451
 0
VERTEX
 8
FULGOR
 10
0
 20
0
 30
0
 70
128
 71
515
 72
518
 73
453
 74
452
 0
VERTEX
 8
FULGOR
 10
0
 20
0
 30
0
 70
128
 71
518
 72
510
 73
454
 74
453
 0
VERTEX
 8
FULGOR
 10
0
 20
0
 30
0
 70
128
 71
492
 72
491
 73
556
 74
557
 0
VERTEX
 8
FULGOR
 10
0
 20
0
 30
0
 70
128
 71
491
 72
484
 73
547
 74
556
 0
VERTEX
 8
FULGOR
 10
0
 20
0
 30
0
 70
128
 71
546
 72
547
 73
484
 74
483
 0
VERTEX
 8
FULGOR
 10
0
 20
0
 30
0
 70
128
 71
549
 72
550
 73
479
 74
490
 0
VERTEX
 8
FULGOR
 10
0
 20
0
 30
0
 70
128
 71
550
 72
543
 73
480
 74
479
 0
VERTEX
 8
FULGOR
 10
0
 20
0
 30
0
 70
128
 71
627
 72
625
 73
617
 74
610
 0
VERTEX
 8
FULGOR
 10
0
 20
0
 30
0
 70
128
 71
625
 72
624
 73
618
 74
617
 0
VERTEX
 8
FULGOR
 10
0
 20
0
 30
0
 70
128
 71
635
 72
634
 73
596
 74
589
 0
VERTEX
 8
FULGOR
 10
0
 20
0
 30
0
 70
128
 71
642
 72
638
 73
605
 74
602
 0
VERTEX
 8
FULGOR
 10
0
 20
0
 30
0
 70
128
 71
645
 72
642
 73
602
 74
599
 0
VERTEX
 8
FULGOR
 10
0
 20
0
 30
0
 70
128
 71
631
 72
645
 73
599
 74
593
 0
VERTEX
 8
FULGOR
 10
0
 20
0
 30
0
 70
128
 71
632
 72
631
 73
593
 74
598
 0
VERTEX
 8
FULGOR
 10
0
 20
0
 30
0
 70
128
 71
633
 72
632
 73
598
 74
597
 0
VERTEX
 8
FULGOR
 10
0
 20
0
 30
0
 70
128
 71
634
 72
633
 73
597
 74
596
 0
VERTEX
 8
FULGOR
 10
0
 20
0
 30
0
 70
128
 71
651
 72
657
 73
577
 74
579
 0
VERTEX
 8
FULGOR
 10
0
 20
0
 30
0
 70
128
 71
657
 72
649
 73
580
 74
577
 0
VERTEX
 8
FULGOR
 10
0
 20
0
 30
0
 70
128
 71
649
 72
656
 73
585
 74
580
 0
VERTEX
 8
FULGOR
 10
0
 20
0
 30
0
 70
128
 71
656
 72
647
 73
586
 74
585
 0
VERTEX
 8
FULGOR
 10
0
 20
0
 30
0
 70
128
 71
641
 72
640
 73
584
 74
583
 0
VERTEX
 8
FULGOR
 10
0
 20
0
 30
0
 70
128
 71
658
 72
651
 73
579
 74
578
 0
VERTEX
 8
FULGOR
 10
0
 20
0
 30
0
 70
128
 71
643
 72
654
 73
582
 74
581
 0
VERTEX
 8
FULGOR
 10
0
 20
0
 30
0
 70
128
 71
654
 72
641
 73
583
 74
582
 0
VERTEX
 8
FULGOR
 10
0
 20
0
 30
0
 70
128
 71
653
 72
658
 73
578
 74
576
 0
VERTEX
 8
FULGOR
 10
0
 20
0
 30
0
 70
128
 71
655
 72
644
 73
591
 74
590
 0
VERTEX
 8
FULGOR
 10
0
 20
0
 30
0
 70
128
 71
644
 72
643
 73
581
 74
591
 0
VERTEX
 8
FULGOR
 10
0
 20
0
 30
0
 70
128
 71
647
 72
646
 73
587
 74
586
 0
VERTEX
 8
FULGOR
 10
0
 20
0
 30
0
 70
128
 71
619
 72
575
 73
608
 74
607
 0
VERTEX
 8
FULGOR
 10
0
 20
0
 30
0
 70
128
 71
646
 72
655
 73
590
 74
587
 0
VERTEX
 8
FULGOR
 10
0
 20
0
 30
0
 70
128
 71
639
 72
652
 73
594
 74
592
 0
VERTEX
 8
FULGOR
 10
0
 20
0
 30
0
 70
128
 71
652
 72
650
 73
595
 74
594
 0
VERTEX
 8
FULGOR
 10
0
 20
0
 30
0
 70
128
 71
660
 72
619
 73
607
 74
616
 0
VERTEX
 8
FULGOR
 10
0
 20
0
 30
0
 70
128
 71
624
 72
614
 73
621
 74
618
 0
VERTEX
 8
FULGOR
 10
0
 20
0
 30
0
 70
128
 71
629
 72
659
 73
604
 74
603
 0
VERTEX
 8
FULGOR
 10
0
 20
0
 30
0
 70
128
 71
640
 72
639
 73
592
 74
584
 0
VERTEX
 8
FULGOR
 10
0
 20
0
 30
0
 70
128
 71
575
 72
628
 73
609
 74
608
 0
VERTEX
 8
FULGOR
 10
0
 20
0
 30
0
 70
128
 71
650
 72
648
 73
588
 74
595
 0
VERTEX
 8
FULGOR
 10
0
 20
0
 30
0
 70
128
 71
628
 72
627
 73
610
 74
609
 0
VERTEX
 8
FULGOR
 10
0
 20
0
 30
0
 70
128
 71
638
 72
637
 73
606
 74
605
 0
VERTEX
 8
FULGOR
 10
0
 20
0
 30
0
 70
128
 71
648
 72
635
 73
589
 74
588
 0
VERTEX
 8
FULGOR
 10
0
 20
0
 30
0
 70
128
 71
637
 72
626
 73
611
 74
606
 0
VERTEX
 8
FULGOR
 10
0
 20
0
 30
0
 70
128
 71
659
 72
620
 73
615
 74
604
 0
VERTEX
 8
FULGOR
 10
0
 20
0
 30
0
 70
128
 71
626
 72
636
 73
612
 74
611
 0
VERTEX
 8
FULGOR
 10
0
 20
0
 30
0
 70
128
 71
636
 72
630
 73
600
 74
612
 0
VERTEX
 8
FULGOR
 10
0
 20
0
 30
0
 70
128
 71
620
 72
660
 73
616
 74
615
 0
VERTEX
 8
FULGOR
 10
0
 20
0
 30
0
 70
128
 71
630
 72
623
 73
601
 74
600
 0
VERTEX
 8
FULGOR
 10
0
 20
0
 30
0
 70
128
 71
623
 72
622
 73
613
 74
601
 0
VERTEX
 8
FULGOR
 10
0
 20
0
 30
0
 70
128
 71
622
 72
629
 73
603
 74
613
 0
VERTEX
 8
FULGOR
 10
0
 20
0
 30
0
 70
128
 71
706
 72
707
 73
688
 74
695
 0
VERTEX
 8
FULGOR
 10
0
 20
0
 30
0
 70
128
 71
725
 72
675
 73
673
 74
723
 0
VERTEX
 8
FULGOR
 10
0
 20
0
 30
0
 70
128
 71
718
 72
717
 73
686
 74
685
 0
VERTEX
 8
FULGOR
 10
0
 20
0
 30
0
 70
128
 71
661
 72
664
 73
700
 74
719
 0
VERTEX
 8
FULGOR
 10
0
 20
0
 30
0
 70
128
 71
704
 72
705
 73
692
 74
683
 0
VERTEX
 8
FULGOR
 10
0
 20
0
 30
0
 70
128
 71
703
 72
704
 73
683
 74
681
 0
VERTEX
 8
FULGOR
 10
0
 20
0
 30
0
 70
128
 71
701
 72
702
 73
687
 74
679
 0
VERTEX
 8
FULGOR
 10
0
 20
0
 30
0
 70
128
 71
676
 72
675
 73
725
 74
726
 0
VERTEX
 8
FULGOR
 10
0
 20
0
 30
0
 70
128
 71
673
 72
672
 73
722
 74
723
 0
VERTEX
 8
FULGOR
 10
0
 20
0
 30
0
 70
128
 71
702
 72
703
 73
681
 74
687
 0
VERTEX
 8
FULGOR
 10
0
 20
0
 30
0
 70
128
 71
720
 72
721
 73
680
 74
669
 0
VERTEX
 8
FULGOR
 10
0
 20
0
 30
0
 70
128
 71
669
 72
668
 73
667
 74
720
 0
VERTEX
 8
FULGOR
 10
0
 20
0
 30
0
 70
128
 71
717
 72
706
 73
695
 74
686
 0
VERTEX
 8
FULGOR
 10
0
 20
0
 30
0
 70
128
 71
710
 72
713
 73
714
 74
698
 0
VERTEX
 8
FULGOR
 10
0
 20
0
 30
0
 70
128
 71
709
 72
711
 73
697
 74
691
 0
VERTEX
 8
FULGOR
 10
0
 20
0
 30
0
 70
128
 71
671
 72
679
 73
684
 74
678
 0
VERTEX
 8
FULGOR
 10
0
 20
0
 30
0
 70
128
 71
661
 72
719
 73
701
 74
670
 0
VERTEX
 8
FULGOR
 10
0
 20
0
 30
0
 70
128
 71
708
 72
710
 73
698
 74
694
 0
VERTEX
 8
FULGOR
 10
0
 20
0
 30
0
 70
128
 71
705
 72
718
 73
685
 74
692
 0
VERTEX
 8
FULGOR
 10
0
 20
0
 30
0
 70
128
 71
713
 72
696
 73
699
 74
714
 0
VERTEX
 8
FULGOR
 10
0
 20
0
 30
0
 70
128
 71
696
 72
700
 73
674
 74
699
 0
VERTEX
 8
FULGOR
 10
0
 20
0
 30
0
 70
128
 71
700
 72
664
 73
724
 74
674
 0
VERTEX
 8
FULGOR
 10
0
 20
0
 30
0
 70
128
 71
664
 72
663
 73
662
 74
724
 0
VERTEX
 8
FULGOR
 10
0
 20
0
 30
0
 70
128
 71
722
 72
672
 73
680
 74
721
 0
VERTEX
 8
FULGOR
 10
0
 20
0
 30
0
 70
128
 71
707
 72
715
 73
689
 74
688
 0
VERTEX
 8
FULGOR
 10
0
 20
0
 30
0
 70
128
 71
671
 72
670
 73
701
 74
679
 0
VERTEX
 8
FULGOR
 10
0
 20
0
 30
0
 70
128
 71
712
 72
708
 73
694
 74
693
 0
VERTEX
 8
FULGOR
 10
0
 20
0
 30
0
 70
128
 71
711
 72
712
 73
693
 74
697
 0
VERTEX
 8
FULGOR
 10
0
 20
0
 30
0
 70
128
 71
665
 72
678
 73
684
 74
682
 0
VERTEX
 8
FULGOR
 10
0
 20
0
 30
0
 70
128
 71
666
 72
665
 73
682
 74
677
 0
VERTEX
 8
FULGOR
 10
0
 20
0
 30
0
 70
128
 71
666
 72
677
 73
676
 74
726
 0
VERTEX
 8
FULGOR
 10
0
 20
0
 30
0
 70
128
 71
716
 72
709
 73
691
 74
690
 0
VERTEX
 8
FULGOR
 10
0
 20
0
 30
0
 70
128
 71
715
 72
716
 73
690
 74
689
 0
VERTEX
 8
FULGOR
 10
0
 20
0
 30
0
 70
128
 71
369
 72
368
 73
7
 74
8
 0
VERTEX
 8
FULGOR
 10
0
 20
0
 30
0
 70
128
 71
368
 72
367
 73
6
 74
7
 0
VERTEX
 8
FULGOR
 10
0
 20
0
 30
0
 70
128
 71
367
 72
366
 73
5
 74
6
 0
VERTEX
 8
FULGOR
 10
0
 20
0
 30
0
 70
128
 71
366
 72
365
 73
4
 74
5
 0
VERTEX
 8
FULGOR
 10
0
 20
0
 30
0
 70
128
 71
365
 72
373
 73
15
 74
4
 0
VERTEX
 8
FULGOR
 10
0
 20
0
 30
0
 70
128
 71
373
 72
372
 73
14
 74
15
 0
VERTEX
 8
FULGOR
 10
0
 20
0
 30
0
 70
128
 71
372
 72
371
 73
13
 74
14
 0
VERTEX
 8
FULGOR
 10
0
 20
0
 30
0
 70
128
 71
371
 72
370
 73
12
 74
13
 0
VERTEX
 8
FULGOR
 10
0
 20
0
 30
0
 70
128
 71
370
 72
364
 73
2
 74
12
 0
VERTEX
 8
FULGOR
 10
0
 20
0
 30
0
 70
128
 71
364
 72
369
 73
8
 74
2
 0
VERTEX
 8
FULGOR
 10
0
 20
0
 30
0
 70
128
 71
377
 72
435
 73
74
 74
16
 0
VERTEX
 8
FULGOR
 10
0
 20
0
 30
0
 70
128
 71
435
 72
434
 73
73
 74
74
 0
VERTEX
 8
FULGOR
 10
0
 20
0
 30
0
 70
128
 71
434
 72
433
 73
72
 74
73
 0
VERTEX
 8
FULGOR
 10
0
 20
0
 30
0
 70
128
 71
433
 72
440
 73
82
 74
72
 0
VERTEX
 8
FULGOR
 10
0
 20
0
 30
0
 70
128
 71
440
 72
431
 73
70
 74
82
 0
VERTEX
 8
FULGOR
 10
0
 20
0
 30
0
 70
128
 71
431
 72
430
 73
69
 74
70
 0
VERTEX
 8
FULGOR
 10
0
 20
0
 30
0
 70
128
 71
430
 72
429
 73
68
 74
69
 0
VERTEX
 8
FULGOR
 10
0
 20
0
 30
0
 70
128
 71
429
 72
428
 73
67
 74
68
 0
VERTEX
 8
FULGOR
 10
0
 20
0
 30
0
 70
128
 71
428
 72
427
 73
66
 74
67
 0
VERTEX
 8
FULGOR
 10
0
 20
0
 30
0
 70
128
 71
427
 72
439
 73
78
 74
66
 0
VERTEX
 8
FULGOR
 10
0
 20
0
 30
0
 70
128
 71
439
 72
438
 73
77
 74
78
 0
VERTEX
 8
FULGOR
 10
0
 20
0
 30
0
 70
128
 71
438
 72
437
 73
76
 74
77
 0
VERTEX
 8
FULGOR
 10
0
 20
0
 30
0
 70
128
 71
437
 72
423
 73
62
 74
76
 0
VERTEX
 8
FULGOR
 10
0
 20
0
 30
0
 70
128
 71
423
 72
422
 73
61
 74
62
 0
VERTEX
 8
FULGOR
 10
0
 20
0
 30
0
 70
128
 71
422
 72
436
 73
75
 74
61
 0
VERTEX
 8
FULGOR
 10
0
 20
0
 30
0
 70
128
 71
436
 72
420
 73
59
 74
75
 0
VERTEX
 8
FULGOR
 10
0
 20
0
 30
0
 70
128
 71
420
 72
432
 73
71
 74
59
 0
VERTEX
 8
FULGOR
 10
0
 20
0
 30
0
 70
128
 71
432
 72
426
 73
65
 74
71
 0
VERTEX
 8
FULGOR
 10
0
 20
0
 30
0
 70
128
 71
426
 72
425
 73
64
 74
65
 0
VERTEX
 8
FULGOR
 10
0
 20
0
 30
0
 70
128
 71
425
 72
424
 73
63
 74
64
 0
VERTEX
 8
FULGOR
 10
0
 20
0
 30
0
 70
128
 71
424
 72
421
 73
60
 74
63
 0
VERTEX
 8
FULGOR
 10
0
 20
0
 30
0
 70
128
 71
421
 72
414
 73
53
 74
60
 0
VERTEX
 8
FULGOR
 10
0
 20
0
 30
0
 70
128
 71
414
 72
413
 73
52
 74
53
 0
VERTEX
 8
FULGOR
 10
0
 20
0
 30
0
 70
128
 71
413
 72
412
 73
51
 74
52
 0
VERTEX
 8
FULGOR
 10
0
 20
0
 30
0
 70
128
 71
412
 72
411
 73
50
 74
51
 0
VERTEX
 8
FULGOR
 10
0
 20
0
 30
0
 70
128
 71
411
 72
410
 73
49
 74
50
 0
VERTEX
 8
FULGOR
 10
0
 20
0
 30
0
 70
128
 71
410
 72
409
 73
48
 74
49
 0
VERTEX
 8
FULGOR
 10
0
 20
0
 30
0
 70
128
 71
409
 72
408
 73
47
 74
48
 0
VERTEX
 8
FULGOR
 10
0
 20
0
 30
0
 70
128
 71
408
 72
407
 73
46
 74
47
 0
VERTEX
 8
FULGOR
 10
0
 20
0
 30
0
 70
128
 71
407
 72
406
 73
45
 74
46
 0
VERTEX
 8
FULGOR
 10
0
 20
0
 30
0
 70
128
 71
406
 72
405
 73
44
 74
45
 0
VERTEX
 8
FULGOR
 10
0
 20
0
 30
0
 70
128
 71
405
 72
404
 73
43
 74
44
 0
VERTEX
 8
FULGOR
 10
0
 20
0
 30
0
 70
128
 71
404
 72
419
 73
58
 74
43
 0
VERTEX
 8
FULGOR
 10
0
 20
0
 30
0
 70
128
 71
419
 72
418
 73
57
 74
58
 0
VERTEX
 8
FULGOR
 10
0
 20
0
 30
0
 70
128
 71
418
 72
401
 73
40
 74
57
 0
VERTEX
 8
FULGOR
 10
0
 20
0
 30
0
 70
128
 71
401
 72
400
 73
39
 74
40
 0
VERTEX
 8
FULGOR
 10
0
 20
0
 30
0
 70
128
 71
400
 72
399
 73
38
 74
39
 0
VERTEX
 8
FULGOR
 10
0
 20
0
 30
0
 70
128
 71
399
 72
417
 73
56
 74
38
 0
VERTEX
 8
FULGOR
 10
0
 20
0
 30
0
 70
128
 71
417
 72
416
 73
55
 74
56
 0
VERTEX
 8
FULGOR
 10
0
 20
0
 30
0
 70
128
 71
416
 72
415
 73
54
 74
55
 0
VERTEX
 8
FULGOR
 10
0
 20
0
 30
0
 70
128
 71
415
 72
403
 73
42
 74
54
 0
VERTEX
 8
FULGOR
 10
0
 20
0
 30
0
 70
128
 71
403
 72
394
 73
33
 74
42
 0
VERTEX
 8
FULGOR
 10
0
 20
0
 30
0
 70
128
 71
394
 72
402
 73
41
 74
33
 0
VERTEX
 8
FULGOR
 10
0
 20
0
 30
0
 70
128
 71
402
 72
398
 73
37
 74
41
 0
VERTEX
 8
FULGOR
 10
0
 20
0
 30
0
 70
128
 71
398
 72
397
 73
36
 74
37
 0
VERTEX
 8
FULGOR
 10
0
 20
0
 30
0
 70
128
 71
397
 72
396
 73
35
 74
36
 0
VERTEX
 8
FULGOR
 10
0
 20
0
 30
0
 70
128
 71
396
 72
389
 73
28
 74
35
 0
VERTEX
 8
FULGOR
 10
0
 20
0
 30
0
 70
128
 71
389
 72
395
 73
34
 74
28
 0
VERTEX
 8
FULGOR
 10
0
 20
0
 30
0
 70
128
 71
395
 72
387
 73
26
 74
34
 0
VERTEX
 8
FULGOR
 10
0
 20
0
 30
0
 70
128
 71
387
 72
386
 73
25
 74
26
 0
VERTEX
 8
FULGOR
 10
0
 20
0
 30
0
 70
128
 71
386
 72
385
 73
24
 74
25
 0
VERTEX
 8
FULGOR
 10
0
 20
0
 30
0
 70
128
 71
385
 72
384
 73
23
 74
24
 0
VERTEX
 8
FULGOR
 10
0
 20
0
 30
0
 70
128
 71
384
 72
383
 73
22
 74
23
 0
VERTEX
 8
FULGOR
 10
0
 20
0
 30
0
 70
128
 71
383
 72
382
 73
21
 74
22
 0
VERTEX
 8
FULGOR
 10
0
 20
0
 30
0
 70
128
 71
382
 72
393
 73
32
 74
21
 0
VERTEX
 8
FULGOR
 10
0
 20
0
 30
0
 70
128
 71
393
 72
392
 73
31
 74
32
 0
VERTEX
 8
FULGOR
 10
0
 20
0
 30
0
 70
128
 71
392
 72
391
 73
30
 74
31
 0
VERTEX
 8
FULGOR
 10
0
 20
0
 30
0
 70
128
 71
391
 72
390
 73
29
 74
30
 0
VERTEX
 8
FULGOR
 10
0
 20
0
 30
0
 70
128
 71
390
 72
388
 73
27
 74
29
 0
VERTEX
 8
FULGOR
 10
0
 20
0
 30
0
 70
128
 71
388
 72
381
 73
20
 74
27
 0
VERTEX
 8
FULGOR
 10
0
 20
0
 30
0
 70
128
 71
381
 72
380
 73
19
 74
20
 0
VERTEX
 8
FULGOR
 10
0
 20
0
 30
0
 70
128
 71
380
 72
379
 73
18
 74
19
 0
VERTEX
 8
FULGOR
 10
0
 20
0
 30
0
 70
128
 71
379
 72
378
 73
17
 74
18
 0
VERTEX
 8
FULGOR
 10
0
 20
0
 30
0
 70
128
 71
378
 72
376
 73
11
 74
17
 0
VERTEX
 8
FULGOR
 10
0
 20
0
 30
0
 70
128
 71
376
 72
375
 73
10
 74
11
 0
VERTEX
 8
FULGOR
 10
0
 20
0
 30
0
 70
128
 71
375
 72
374
 73
9
 74
10
 0
VERTEX
 8
FULGOR
 10
0
 20
0
 30
0
 70
128
 71
374
 72
377
 73
16
 74
9
 0
VERTEX
 8
FULGOR
 10
0
 20
0
 30
0
 70
128
 71
443
 72
442
 73
80
 74
83
 0
VERTEX
 8
FULGOR
 10
0
 20
0
 30
0
 70
128
 71
442
 72
441
 73
79
 74
80
 0
VERTEX
 8
FULGOR
 10
0
 20
0
 30
0
 70
128
 71
441
 72
446
 73
87
 74
79
 0
VERTEX
 8
FULGOR
 10
0
 20
0
 30
0
 70
128
 71
446
 72
445
 73
86
 74
87
 0
VERTEX
 8
FULGOR
 10
0
 20
0
 30
0
 70
128
 71
445
 72
444
 73
85
 74
86
 0
VERTEX
 8
FULGOR
 10
0
 20
0
 30
0
 70
128
 71
444
 72
443
 73
83
 74
85
 0
VERTEX
 8
FULGOR
 10
0
 20
0
 30
0
 70
128
 71
541
 72
542
 73
263
 74
262
 0
VERTEX
 8
FULGOR
 10
0
 20
0
 30
0
 70
128
 71
477
 72
476
 73
197
 74
198
 0
VERTEX
 8
FULGOR
 10
0
 20
0
 30
0
 70
128
 71
491
 72
484
 73
205
 74
212
 0
VERTEX
 8
FULGOR
 10
0
 20
0
 30
0
 70
128
 71
547
 72
556
 73
277
 74
268
 0
VERTEX
 8
FULGOR
 10
0
 20
0
 30
0
 70
128
 71
523
 72
524
 73
245
 74
244
 0
VERTEX
 8
FULGOR
 10
0
 20
0
 30
0
 70
128
 71
467
 72
447
 73
3
 74
188
 0
VERTEX
 8
FULGOR
 10
0
 20
0
 30
0
 70
128
 71
549
 72
550
 73
271
 74
270
 0
VERTEX
 8
FULGOR
 10
0
 20
0
 30
0
 70
128
 71
479
 72
490
 73
211
 74
200
 0
VERTEX
 8
FULGOR
 10
0
 20
0
 30
0
 70
128
 71
566
 72
567
 73
288
 74
287
 0
VERTEX
 8
FULGOR
 10
0
 20
0
 30
0
 70
128
 71
499
 72
498
 73
219
 74
220
 0
VERTEX
 8
FULGOR
 10
0
 20
0
 30
0
 70
128
 71
570
 72
571
 73
293
 74
292
 0
VERTEX
 8
FULGOR
 10
0
 20
0
 30
0
 70
128
 71
448
 72
502
 73
223
 74
164
 0
VERTEX
 8
FULGOR
 10
0
 20
0
 30
0
 70
128
 71
567
 72
568
 73
289
 74
288
 0
VERTEX
 8
FULGOR
 10
0
 20
0
 30
0
 70
128
 71
500
 72
499
 73
220
 74
221
 0
VERTEX
 8
FULGOR
 10
0
 20
0
 30
0
 70
128
 71
559
 72
552
 73
273
 74
280
 0
VERTEX
 8
FULGOR
 10
0
 20
0
 30
0
 70
128
 71
489
 72
501
 73
222
 74
210
 0
VERTEX
 8
FULGOR
 10
0
 20
0
 30
0
 70
128
 71
564
 72
565
 73
286
 74
285
 0
VERTEX
 8
FULGOR
 10
0
 20
0
 30
0
 70
128
 71
497
 72
496
 73
217
 74
218
 0
VERTEX
 8
FULGOR
 10
0
 20
0
 30
0
 70
128
 71
529
 72
541
 73
262
 74
250
 0
VERTEX
 8
FULGOR
 10
0
 20
0
 30
0
 70
128
 71
476
 72
466
 73
187
 74
197
 0
VERTEX
 8
FULGOR
 10
0
 20
0
 30
0
 70
128
 71
513
 72
514
 73
235
 74
234
 0
VERTEX
 8
FULGOR
 10
0
 20
0
 30
0
 70
128
 71
451
 72
450
 73
168
 74
169
 0
VERTEX
 8
FULGOR
 10
0
 20
0
 30
0
 70
128
 71
568
 72
569
 73
290
 74
289
 0
VERTEX
 8
FULGOR
 10
0
 20
0
 30
0
 70
128
 71
509
 72
500
 73
221
 74
230
 0
VERTEX
 8
FULGOR
 10
0
 20
0
 30
0
 70
128
 71
512
 72
513
 73
234
 74
233
 0
VERTEX
 8
FULGOR
 10
0
 20
0
 30
0
 70
128
 71
450
 72
456
 73
177
 74
168
 0
VERTEX
 8
FULGOR
 10
0
 20
0
 30
0
 70
128
 71
569
 72
570
 73
292
 74
290
 0
VERTEX
 8
FULGOR
 10
0
 20
0
 30
0
 70
128
 71
502
 72
509
 73
230
 74
223
 0
VERTEX
 8
FULGOR
 10
0
 20
0
 30
0
 70
128
 71
533
 72
534
 73
255
 74
254
 0
VERTEX
 8
FULGOR
 10
0
 20
0
 30
0
 70
128
 71
486
 72
485
 73
206
 74
207
 0
VERTEX
 8
FULGOR
 10
0
 20
0
 30
0
 70
128
 71
542
 72
544
 73
265
 74
263
 0
VERTEX
 8
FULGOR
 10
0
 20
0
 30
0
 70
128
 71
478
 72
477
 73
198
 74
199
 0
VERTEX
 8
FULGOR
 10
0
 20
0
 30
0
 70
128
 71
544
 72
533
 73
254
 74
265
 0
VERTEX
 8
FULGOR
 10
0
 20
0
 30
0
 70
128
 71
485
 72
478
 73
199
 74
206
 0
VERTEX
 8
FULGOR
 10
0
 20
0
 30
0
 70
128
 71
516
 72
517
 73
238
 74
237
 0
VERTEX
 8
FULGOR
 10
0
 20
0
 30
0
 70
128
 71
464
 72
573
 73
346
 74
185
 0
VERTEX
 8
FULGOR
 10
0
 20
0
 30
0
 70
128
 71
530
 72
519
 73
240
 74
251
 0
VERTEX
 8
FULGOR
 10
0
 20
0
 30
0
 70
128
 71
458
 72
457
 73
178
 74
179
 0
VERTEX
 8
FULGOR
 10
0
 20
0
 30
0
 70
128
 71
540
 72
549
 73
270
 74
261
 0
VERTEX
 8
FULGOR
 10
0
 20
0
 30
0
 70
128
 71
490
 72
488
 73
209
 74
211
 0
VERTEX
 8
FULGOR
 10
0
 20
0
 30
0
 70
128
 71
565
 72
566
 73
287
 74
286
 0
VERTEX
 8
FULGOR
 10
0
 20
0
 30
0
 70
128
 71
498
 72
497
 73
218
 74
219
 0
VERTEX
 8
FULGOR
 10
0
 20
0
 30
0
 70
128
 71
555
 72
546
 73
267
 74
276
 0
VERTEX
 8
FULGOR
 10
0
 20
0
 30
0
 70
128
 71
483
 72
482
 73
203
 74
204
 0
VERTEX
 8
FULGOR
 10
0
 20
0
 30
0
 70
128
 71
528
 72
516
 73
237
 74
249
 0
VERTEX
 8
FULGOR
 10
0
 20
0
 30
0
 70
128
 71
573
 72
463
 73
184
 74
346
 0
VERTEX
 8
FULGOR
 10
0
 20
0
 30
0
 70
128
 71
548
 72
539
 73
260
 74
269
 0
VERTEX
 8
FULGOR
 10
0
 20
0
 30
0
 70
128
 71
487
 72
475
 73
196
 74
208
 0
VERTEX
 8
FULGOR
 10
0
 20
0
 30
0
 70
128
 71
521
 72
525
 73
246
 74
242
 0
VERTEX
 8
FULGOR
 10
0
 20
0
 30
0
 70
128
 71
462
 72
461
 73
182
 74
183
 0
VERTEX
 8
FULGOR
 10
0
 20
0
 30
0
 70
128
 71
511
 72
521
 73
242
 74
232
 0
VERTEX
 8
FULGOR
 10
0
 20
0
 30
0
 70
128
 71
461
 72
459
 73
180
 74
182
 0
VERTEX
 8
FULGOR
 10
0
 20
0
 30
0
 70
128
 71
527
 72
528
 73
249
 74
248
 0
VERTEX
 8
FULGOR
 10
0
 20
0
 30
0
 70
128
 71
463
 72
574
 73
347
 74
184
 0
VERTEX
 8
FULGOR
 10
0
 20
0
 30
0
 70
128
 71
525
 72
527
 73
248
 74
246
 0
VERTEX
 8
FULGOR
 10
0
 20
0
 30
0
 70
128
 71
574
 72
462
 73
183
 74
347
 0
VERTEX
 8
FULGOR
 10
0
 20
0
 30
0
 70
128
 71
539
 72
540
 73
261
 74
260
 0
VERTEX
 8
FULGOR
 10
0
 20
0
 30
0
 70
128
 71
488
 72
487
 73
208
 74
209
 0
VERTEX
 8
FULGOR
 10
0
 20
0
 30
0
 70
128
 71
532
 72
526
 73
247
 74
253
 0
VERTEX
 8
FULGOR
 10
0
 20
0
 30
0
 70
128
 71
469
 72
468
 73
189
 74
190
 0
VERTEX
 8
FULGOR
 10
0
 20
0
 30
0
 70
128
 71
531
 72
522
 73
243
 74
252
 0
VERTEX
 8
FULGOR
 10
0
 20
0
 30
0
 70
128
 71
460
 72
572
 73
311
 74
181
 0
VERTEX
 8
FULGOR
 10
0
 20
0
 30
0
 70
128
 71
519
 72
520
 73
241
 74
240
 0
VERTEX
 8
FULGOR
 10
0
 20
0
 30
0
 70
128
 71
465
 72
458
 73
179
 74
186
 0
VERTEX
 8
FULGOR
 10
0
 20
0
 30
0
 70
128
 71
551
 72
555
 73
276
 74
272
 0
VERTEX
 8
FULGOR
 10
0
 20
0
 30
0
 70
128
 71
482
 72
481
 73
202
 74
203
 0
VERTEX
 8
FULGOR
 10
0
 20
0
 30
0
 70
128
 71
543
 72
551
 73
272
 74
264
 0
VERTEX
 8
FULGOR
 10
0
 20
0
 30
0
 70
128
 71
481
 72
480
 73
201
 74
202
 0
VERTEX
 8
FULGOR
 10
0
 20
0
 30
0
 70
128
 71
552
 72
553
 73
274
 74
273
 0
VERTEX
 8
FULGOR
 10
0
 20
0
 30
0
 70
128
 71
505
 72
489
 73
210
 74
226
 0
VERTEX
 8
FULGOR
 10
0
 20
0
 30
0
 70
128
 71
554
 72
560
 73
281
 74
275
 0
VERTEX
 8
FULGOR
 10
0
 20
0
 30
0
 70
128
 71
507
 72
506
 73
227
 74
228
 0
VERTEX
 8
FULGOR
 10
0
 20
0
 30
0
 70
128
 71
553
 72
554
 73
275
 74
274
 0
VERTEX
 8
FULGOR
 10
0
 20
0
 30
0
 70
128
 71
506
 72
505
 73
226
 74
227
 0
VERTEX
 8
FULGOR
 10
0
 20
0
 30
0
 70
128
 71
536
 72
545
 73
266
 74
257
 0
VERTEX
 8
FULGOR
 10
0
 20
0
 30
0
 70
128
 71
474
 72
473
 73
194
 74
195
 0
VERTEX
 8
FULGOR
 10
0
 20
0
 30
0
 70
128
 71
561
 72
562
 73
283
 74
282
 0
VERTEX
 8
FULGOR
 10
0
 20
0
 30
0
 70
128
 71
494
 72
508
 73
229
 74
215
 0
VERTEX
 8
FULGOR
 10
0
 20
0
 30
0
 70
128
 71
535
 72
536
 73
257
 74
256
 0
VERTEX
 8
FULGOR
 10
0
 20
0
 30
0
 70
128
 71
473
 72
472
 73
193
 74
194
 0
VERTEX
 8
FULGOR
 10
0
 20
0
 30
0
 70
128
 71
562
 72
563
 73
284
 74
283
 0
VERTEX
 8
FULGOR
 10
0
 20
0
 30
0
 70
128
 71
495
 72
494
 73
215
 74
216
 0
VERTEX
 8
FULGOR
 10
0
 20
0
 30
0
 70
128
 71
510
 72
511
 73
232
 74
231
 0
VERTEX
 8
FULGOR
 10
0
 20
0
 30
0
 70
128
 71
459
 72
454
 73
172
 74
180
 0
VERTEX
 8
FULGOR
 10
0
 20
0
 30
0
 70
128
 71
560
 72
561
 73
282
 74
281
 0
VERTEX
 8
FULGOR
 10
0
 20
0
 30
0
 70
128
 71
508
 72
507
 73
228
 74
229
 0
VERTEX
 8
FULGOR
 10
0
 20
0
 30
0
 70
128
 71
524
 72
532
 73
253
 74
245
 0
VERTEX
 8
FULGOR
 10
0
 20
0
 30
0
 70
128
 71
468
 72
467
 73
188
 74
189
 0
VERTEX
 8
FULGOR
 10
0
 20
0
 30
0
 70
128
 71
517
 72
530
 73
251
 74
238
 0
VERTEX
 8
FULGOR
 10
0
 20
0
 30
0
 70
128
 71
457
 72
464
 73
185
 74
178
 0
VERTEX
 8
FULGOR
 10
0
 20
0
 30
0
 70
128
 71
520
 72
531
 73
252
 74
241
 0
VERTEX
 8
FULGOR
 10
0
 20
0
 30
0
 70
128
 71
572
 72
465
 73
186
 74
311
 0
VERTEX
 8
FULGOR
 10
0
 20
0
 30
0
 70
128
 71
545
 72
548
 73
269
 74
266
 0
VERTEX
 8
FULGOR
 10
0
 20
0
 30
0
 70
128
 71
475
 72
474
 73
195
 74
196
 0
VERTEX
 8
FULGOR
 10
0
 20
0
 30
0
 70
128
 71
534
 72
535
 73
256
 74
255
 0
VERTEX
 8
FULGOR
 10
0
 20
0
 30
0
 70
128
 71
472
 72
486
 73
207
 74
193
 0
VERTEX
 8
FULGOR
 10
0
 20
0
 30
0
 70
128
 71
522
 72
523
 73
244
 74
243
 0
VERTEX
 8
FULGOR
 10
0
 20
0
 30
0
 70
128
 71
447
 72
460
 73
181
 74
3
 0
VERTEX
 8
FULGOR
 10
0
 20
0
 30
0
 70
128
 71
538
 72
529
 73
250
 74
259
 0
VERTEX
 8
FULGOR
 10
0
 20
0
 30
0
 70
128
 71
466
 72
471
 73
192
 74
187
 0
VERTEX
 8
FULGOR
 10
0
 20
0
 30
0
 70
128
 71
558
 72
559
 73
280
 74
279
 0
VERTEX
 8
FULGOR
 10
0
 20
0
 30
0
 70
128
 71
501
 72
493
 73
214
 74
222
 0
VERTEX
 8
FULGOR
 10
0
 20
0
 30
0
 70
128
 71
557
 72
558
 73
279
 74
278
 0
VERTEX
 8
FULGOR
 10
0
 20
0
 30
0
 70
128
 71
493
 72
492
 73
213
 74
214
 0
VERTEX
 8
FULGOR
 10
0
 20
0
 30
0
 70
128
 71
537
 72
538
 73
259
 74
258
 0
VERTEX
 8
FULGOR
 10
0
 20
0
 30
0
 70
128
 71
471
 72
470
 73
191
 74
192
 0
VERTEX
 8
FULGOR
 10
0
 20
0
 30
0
 70
128
 71
526
 72
537
 73
258
 74
247
 0
VERTEX
 8
FULGOR
 10
0
 20
0
 30
0
 70
128
 71
470
 72
469
 73
190
 74
191
 0
VERTEX
 8
FULGOR
 10
0
 20
0
 30
0
 70
128
 71
563
 72
564
 73
285
 74
284
 0
VERTEX
 8
FULGOR
 10
0
 20
0
 30
0
 70
128
 71
496
 72
495
 73
216
 74
217
 0
VERTEX
 8
FULGOR
 10
0
 20
0
 30
0
 70
128
 71
571
 72
503
 73
224
 74
293
 0
VERTEX
 8
FULGOR
 10
0
 20
0
 30
0
 70
128
 71
449
 72
448
 73
164
 74
165
 0
VERTEX
 8
FULGOR
 10
0
 20
0
 30
0
 70
128
 71
503
 72
504
 73
225
 74
224
 0
VERTEX
 8
FULGOR
 10
0
 20
0
 30
0
 70
128
 71
455
 72
449
 73
165
 74
176
 0
VERTEX
 8
FULGOR
 10
0
 20
0
 30
0
 70
128
 71
504
 72
512
 73
233
 74
225
 0
VERTEX
 8
FULGOR
 10
0
 20
0
 30
0
 70
128
 71
456
 72
455
 73
176
 74
177
 0
VERTEX
 8
FULGOR
 10
0
 20
0
 30
0
 70
128
 71
514
 72
515
 73
236
 74
235
 0
VERTEX
 8
FULGOR
 10
0
 20
0
 30
0
 70
128
 71
452
 72
451
 73
169
 74
170
 0
VERTEX
 8
FULGOR
 10
0
 20
0
 30
0
 70
128
 71
515
 72
518
 73
239
 74
236
 0
VERTEX
 8
FULGOR
 10
0
 20
0
 30
0
 70
128
 71
453
 72
452
 73
170
 74
171
 0
VERTEX
 8
FULGOR
 10
0
 20
0
 30
0
 70
128
 71
518
 72
510
 73
231
 74
239
 0
VERTEX
 8
FULGOR
 10
0
 20
0
 30
0
 70
128
 71
454
 72
453
 73
171
 74
172
 0
VERTEX
 8
FULGOR
 10
0
 20
0
 30
0
 70
128
 71
492
 72
491
 73
212
 74
213
 0
VERTEX
 8
FULGOR
 10
0
 20
0
 30
0
 70
128
 71
556
 72
557
 73
278
 74
277
 0
VERTEX
 8
FULGOR
 10
0
 20
0
 30
0
 70
128
 71
546
 72
547
 73
268
 74
267
 0
VERTEX
 8
FULGOR
 10
0
 20
0
 30
0
 70
128
 71
484
 72
483
 73
204
 74
205
 0
VERTEX
 8
FULGOR
 10
0
 20
0
 30
0
 70
128
 71
550
 72
543
 73
264
 74
271
 0
VERTEX
 8
FULGOR
 10
0
 20
0
 30
0
 70
128
 71
480
 72
479
 73
200
 74
201
 0
VERTEX
 8
FULGOR
 10
0
 20
0
 30
0
 70
128
 71
627
 72
625
 73
135
 74
137
 0
VERTEX
 8
FULGOR
 10
0
 20
0
 30
0
 70
128
 71
617
 72
610
 73
120
 74
127
 0
VERTEX
 8
FULGOR
 10
0
 20
0
 30
0
 70
128
 71
625
 72
624
 73
134
 74
135
 0
VERTEX
 8
FULGOR
 10
0
 20
0
 30
0
 70
128
 71
618
 72
617
 73
127
 74
128
 0
VERTEX
 8
FULGOR
 10
0
 20
0
 30
0
 70
128
 71
635
 72
634
 73
144
 74
145
 0
VERTEX
 8
FULGOR
 10
0
 20
0
 30
0
 70
128
 71
596
 72
589
 73
99
 74
106
 0
VERTEX
 8
FULGOR
 10
0
 20
0
 30
0
 70
128
 71
575
 72
628
 73
138
 74
1
 0
VERTEX
 8
FULGOR
 10
0
 20
0
 30
0
 70
128
 71
609
 72
608
 73
118
 74
119
 0
VERTEX
 8
FULGOR
 10
0
 20
0
 30
0
 70
128
 71
642
 72
638
 73
148
 74
152
 0
VERTEX
 8
FULGOR
 10
0
 20
0
 30
0
 70
128
 71
605
 72
602
 73
112
 74
115
 0
VERTEX
 8
FULGOR
 10
0
 20
0
 30
0
 70
128
 71
645
 72
642
 73
152
 74
155
 0
VERTEX
 8
FULGOR
 10
0
 20
0
 30
0
 70
128
 71
602
 72
599
 73
109
 74
112
 0
VERTEX
 8
FULGOR
 10
0
 20
0
 30
0
 70
128
 71
631
 72
645
 73
155
 74
141
 0
VERTEX
 8
FULGOR
 10
0
 20
0
 30
0
 70
128
 71
599
 72
593
 73
103
 74
109
 0
VERTEX
 8
FULGOR
 10
0
 20
0
 30
0
 70
128
 71
632
 72
631
 73
141
 74
142
 0
VERTEX
 8
FULGOR
 10
0
 20
0
 30
0
 70
128
 71
593
 72
598
 73
108
 74
103
 0
VERTEX
 8
FULGOR
 10
0
 20
0
 30
0
 70
128
 71
640
 72
639
 73
149
 74
150
 0
VERTEX
 8
FULGOR
 10
0
 20
0
 30
0
 70
128
 71
592
 72
584
 73
94
 74
102
 0
VERTEX
 8
FULGOR
 10
0
 20
0
 30
0
 70
128
 71
633
 72
632
 73
142
 74
143
 0
VERTEX
 8
FULGOR
 10
0
 20
0
 30
0
 70
128
 71
598
 72
597
 73
107
 74
108
 0
VERTEX
 8
FULGOR
 10
0
 20
0
 30
0
 70
128
 71
634
 72
633
 73
143
 74
144
 0
VERTEX
 8
FULGOR
 10
0
 20
0
 30
0
 70
128
 71
597
 72
596
 73
106
 74
107
 0
VERTEX
 8
FULGOR
 10
0
 20
0
 30
0
 70
128
 71
628
 72
627
 73
137
 74
138
 0
VERTEX
 8
FULGOR
 10
0
 20
0
 30
0
 70
128
 71
610
 72
609
 73
119
 74
120
 0
VERTEX
 8
FULGOR
 10
0
 20
0
 30
0
 70
128
 71
650
 72
648
 73
158
 74
160
 0
VERTEX
 8
FULGOR
 10
0
 20
0
 30
0
 70
128
 71
588
 72
595
 73
105
 74
98
 0
VERTEX
 8
FULGOR
 10
0
 20
0
 30
0
 70
128
 71
651
 72
657
 73
174
 74
161
 0
VERTEX
 8
FULGOR
 10
0
 20
0
 30
0
 70
128
 71
577
 72
579
 73
89
 74
84
 0
VERTEX
 8
FULGOR
 10
0
 20
0
 30
0
 70
128
 71
657
 72
649
 73
159
 74
174
 0
VERTEX
 8
FULGOR
 10
0
 20
0
 30
0
 70
128
 71
580
 72
577
 73
84
 74
90
 0
VERTEX
 8
FULGOR
 10
0
 20
0
 30
0
 70
128
 71
649
 72
656
 73
173
 74
159
 0
VERTEX
 8
FULGOR
 10
0
 20
0
 30
0
 70
128
 71
585
 72
580
 73
90
 74
95
 0
VERTEX
 8
FULGOR
 10
0
 20
0
 30
0
 70
128
 71
638
 72
637
 73
147
 74
148
 0
VERTEX
 8
FULGOR
 10
0
 20
0
 30
0
 70
128
 71
606
 72
605
 73
115
 74
116
 0
VERTEX
 8
FULGOR
 10
0
 20
0
 30
0
 70
128
 71
656
 72
647
 73
157
 74
173
 0
VERTEX
 8
FULGOR
 10
0
 20
0
 30
0
 70
128
 71
586
 72
585
 73
95
 74
96
 0
VERTEX
 8
FULGOR
 10
0
 20
0
 30
0
 70
128
 71
641
 72
640
 73
150
 74
151
 0
VERTEX
 8
FULGOR
 10
0
 20
0
 30
0
 70
128
 71
584
 72
583
 73
93
 74
94
 0
VERTEX
 8
FULGOR
 10
0
 20
0
 30
0
 70
128
 71
648
 72
635
 73
145
 74
158
 0
VERTEX
 8
FULGOR
 10
0
 20
0
 30
0
 70
128
 71
589
 72
588
 73
98
 74
99
 0
VERTEX
 8
FULGOR
 10
0
 20
0
 30
0
 70
128
 71
643
 72
654
 73
166
 74
153
 0
VERTEX
 8
FULGOR
 10
0
 20
0
 30
0
 70
128
 71
582
 72
581
 73
91
 74
92
 0
VERTEX
 8
FULGOR
 10
0
 20
0
 30
0
 70
128
 71
658
 72
651
 73
161
 74
175
 0
VERTEX
 8
FULGOR
 10
0
 20
0
 30
0
 70
128
 71
579
 72
578
 73
88
 74
89
 0
VERTEX
 8
FULGOR
 10
0
 20
0
 30
0
 70
128
 71
653
 72
658
 73
175
 74
163
 0
VERTEX
 8
FULGOR
 10
0
 20
0
 30
0
 70
128
 71
578
 72
576
 73
81
 74
88
 0
VERTEX
 8
FULGOR
 10
0
 20
0
 30
0
 70
128
 71
576
 72
653
 73
163
 74
81
 0
VERTEX
 8
FULGOR
 10
0
 20
0
 30
0
 70
128
 71
637
 72
626
 73
136
 74
147
 0
VERTEX
 8
FULGOR
 10
0
 20
0
 30
0
 70
128
 71
611
 72
606
 73
116
 74
121
 0
VERTEX
 8
FULGOR
 10
0
 20
0
 30
0
 70
128
 71
655
 72
644
 73
154
 74
167
 0
VERTEX
 8
FULGOR
 10
0
 20
0
 30
0
 70
128
 71
591
 72
590
 73
100
 74
101
 0
VERTEX
 8
FULGOR
 10
0
 20
0
 30
0
 70
128
 71
654
 72
641
 73
151
 74
166
 0
VERTEX
 8
FULGOR
 10
0
 20
0
 30
0
 70
128
 71
583
 72
582
 73
92
 74
93
 0
VERTEX
 8
FULGOR
 10
0
 20
0
 30
0
 70
128
 71
647
 72
646
 73
156
 74
157
 0
VERTEX
 8
FULGOR
 10
0
 20
0
 30
0
 70
128
 71
587
 72
586
 73
96
 74
97
 0
VERTEX
 8
FULGOR
 10
0
 20
0
 30
0
 70
128
 71
644
 72
643
 73
153
 74
154
 0
VERTEX
 8
FULGOR
 10
0
 20
0
 30
0
 70
128
 71
581
 72
591
 73
101
 74
91
 0
VERTEX
 8
FULGOR
 10
0
 20
0
 30
0
 70
128
 71
659
 72
620
 73
130
 74
357
 0
VERTEX
 8
FULGOR
 10
0
 20
0
 30
0
 70
128
 71
615
 72
604
 73
114
 74
125
 0
VERTEX
 8
FULGOR
 10
0
 20
0
 30
0
 70
128
 71
619
 72
575
 73
1
 74
129
 0
VERTEX
 8
FULGOR
 10
0
 20
0
 30
0
 70
128
 71
608
 72
607
 73
117
 74
118
 0
VERTEX
 8
FULGOR
 10
0
 20
0
 30
0
 70
128
 71
639
 72
652
 73
162
 74
149
 0
VERTEX
 8
FULGOR
 10
0
 20
0
 30
0
 70
128
 71
594
 72
592
 73
102
 74
104
 0
VERTEX
 8
FULGOR
 10
0
 20
0
 30
0
 70
128
 71
646
 72
655
 73
167
 74
156
 0
VERTEX
 8
FULGOR
 10
0
 20
0
 30
0
 70
128
 71
590
 72
587
 73
97
 74
100
 0
VERTEX
 8
FULGOR
 10
0
 20
0
 30
0
 70
128
 71
622
 72
629
 73
139
 74
132
 0
VERTEX
 8
FULGOR
 10
0
 20
0
 30
0
 70
128
 71
603
 72
613
 73
123
 74
113
 0
VERTEX
 8
FULGOR
 10
0
 20
0
 30
0
 70
128
 71
624
 72
614
 73
124
 74
134
 0
VERTEX
 8
FULGOR
 10
0
 20
0
 30
0
 70
128
 71
614
 72
621
 73
131
 74
124
 0
VERTEX
 8
FULGOR
 10
0
 20
0
 30
0
 70
128
 71
621
 72
618
 73
128
 74
131
 0
VERTEX
 8
FULGOR
 10
0
 20
0
 30
0
 70
128
 71
623
 72
622
 73
132
 74
133
 0
VERTEX
 8
FULGOR
 10
0
 20
0
 30
0
 70
128
 71
613
 72
601
 73
111
 74
123
 0
VERTEX
 8
FULGOR
 10
0
 20
0
 30
0
 70
128
 71
660
 72
619
 73
129
 74
360
 0
VERTEX
 8
FULGOR
 10
0
 20
0
 30
0
 70
128
 71
607
 72
616
 73
126
 74
117
 0
VERTEX
 8
FULGOR
 10
0
 20
0
 30
0
 70
128
 71
630
 72
623
 73
133
 74
140
 0
VERTEX
 8
FULGOR
 10
0
 20
0
 30
0
 70
128
 71
601
 72
600
 73
110
 74
111
 0
VERTEX
 8
FULGOR
 10
0
 20
0
 30
0
 70
128
 71
620
 72
660
 73
360
 74
130
 0
VERTEX
 8
FULGOR
 10
0
 20
0
 30
0
 70
128
 71
616
 72
615
 73
125
 74
126
 0
VERTEX
 8
FULGOR
 10
0
 20
0
 30
0
 70
128
 71
652
 72
650
 73
160
 74
162
 0
VERTEX
 8
FULGOR
 10
0
 20
0
 30
0
 70
128
 71
595
 72
594
 73
104
 74
105
 0
VERTEX
 8
FULGOR
 10
0
 20
0
 30
0
 70
128
 71
636
 72
630
 73
140
 74
146
 0
VERTEX
 8
FULGOR
 10
0
 20
0
 30
0
 70
128
 71
600
 72
612
 73
122
 74
110
 0
VERTEX
 8
FULGOR
 10
0
 20
0
 30
0
 70
128
 71
626
 72
636
 73
146
 74
136
 0
VERTEX
 8
FULGOR
 10
0
 20
0
 30
0
 70
128
 71
612
 72
611
 73
121
 74
122
 0
VERTEX
 8
FULGOR
 10
0
 20
0
 30
0
 70
128
 71
629
 72
659
 73
357
 74
139
 0
VERTEX
 8
FULGOR
 10
0
 20
0
 30
0
 70
128
 71
604
 72
603
 73
113
 74
114
 0
VERTEX
 8
FULGOR
 10
0
 20
0
 30
0
 70
128
 71
706
 72
707
 73
340
 74
339
 0
VERTEX
 8
FULGOR
 10
0
 20
0
 30
0
 70
128
 71
688
 72
695
 73
328
 74
321
 0
VERTEX
 8
FULGOR
 10
0
 20
0
 30
0
 70
128
 71
675
 72
673
 73
305
 74
307
 0
VERTEX
 8
FULGOR
 10
0
 20
0
 30
0
 70
128
 71
723
 72
725
 73
362
 74
359
 0
VERTEX
 8
FULGOR
 10
0
 20
0
 30
0
 70
128
 71
707
 72
715
 73
350
 74
340
 0
VERTEX
 8
FULGOR
 10
0
 20
0
 30
0
 70
128
 71
689
 72
688
 73
321
 74
322
 0
VERTEX
 8
FULGOR
 10
0
 20
0
 30
0
 70
128
 71
718
 72
717
 73
352
 74
353
 0
VERTEX
 8
FULGOR
 10
0
 20
0
 30
0
 70
128
 71
686
 72
685
 73
318
 74
319
 0
VERTEX
 8
FULGOR
 10
0
 20
0
 30
0
 70
128
 71
711
 72
712
 73
345
 74
344
 0
VERTEX
 8
FULGOR
 10
0
 20
0
 30
0
 70
128
 71
693
 72
697
 73
330
 74
326
 0
VERTEX
 8
FULGOR
 10
0
 20
0
 30
0
 70
128
 71
661
 72
664
 73
296
 74
291
 0
VERTEX
 8
FULGOR
 10
0
 20
0
 30
0
 70
128
 71
700
 72
719
 73
354
 74
333
 0
VERTEX
 8
FULGOR
 10
0
 20
0
 30
0
 70
128
 71
716
 72
709
 73
342
 74
351
 0
VERTEX
 8
FULGOR
 10
0
 20
0
 30
0
 70
128
 71
691
 72
690
 73
323
 74
324
 0
VERTEX
 8
FULGOR
 10
0
 20
0
 30
0
 70
128
 71
704
 72
705
 73
338
 74
337
 0
VERTEX
 8
FULGOR
 10
0
 20
0
 30
0
 70
128
 71
692
 72
683
 73
316
 74
325
 0
VERTEX
 8
FULGOR
 10
0
 20
0
 30
0
 70
128
 71
677
 72
676
 73
308
 74
309
 0
VERTEX
 8
FULGOR
 10
0
 20
0
 30
0
 70
128
 71
726
 72
666
 73
298
 74
363
 0
VERTEX
 8
FULGOR
 10
0
 20
0
 30
0
 70
128
 71
703
 72
704
 73
337
 74
336
 0
VERTEX
 8
FULGOR
 10
0
 20
0
 30
0
 70
128
 71
683
 72
681
 73
314
 74
316
 0
VERTEX
 8
FULGOR
 10
0
 20
0
 30
0
 70
128
 71
715
 72
716
 73
351
 74
350
 0
VERTEX
 8
FULGOR
 10
0
 20
0
 30
0
 70
128
 71
690
 72
689
 73
322
 74
323
 0
VERTEX
 8
FULGOR
 10
0
 20
0
 30
0
 70
128
 71
701
 72
702
 73
335
 74
334
 0
VERTEX
 8
FULGOR
 10
0
 20
0
 30
0
 70
128
 71
687
 72
679
 73
312
 74
320
 0
VERTEX
 8
FULGOR
 10
0
 20
0
 30
0
 70
128
 71
676
 72
675
 73
307
 74
308
 0
VERTEX
 8
FULGOR
 10
0
 20
0
 30
0
 70
128
 71
725
 72
726
 73
363
 74
362
 0
VERTEX
 8
FULGOR
 10
0
 20
0
 30
0
 70
128
 71
673
 72
672
 73
304
 74
305
 0
VERTEX
 8
FULGOR
 10
0
 20
0
 30
0
 70
128
 71
722
 72
723
 73
359
 74
358
 0
VERTEX
 8
FULGOR
 10
0
 20
0
 30
0
 70
128
 71
702
 72
703
 73
336
 74
335
 0
VERTEX
 8
FULGOR
 10
0
 20
0
 30
0
 70
128
 71
681
 72
687
 73
320
 74
314
 0
VERTEX
 8
FULGOR
 10
0
 20
0
 30
0
 70
128
 71
720
 72
721
 73
356
 74
355
 0
VERTEX
 8
FULGOR
 10
0
 20
0
 30
0
 70
128
 71
680
 72
669
 73
301
 74
313
 0
VERTEX
 8
FULGOR
 10
0
 20
0
 30
0
 70
128
 71
669
 72
668
 73
300
 74
301
 0
VERTEX
 8
FULGOR
 10
0
 20
0
 30
0
 70
128
 71
668
 72
667
 73
299
 74
300
 0
VERTEX
 8
FULGOR
 10
0
 20
0
 30
0
 70
128
 71
667
 72
720
 73
355
 74
299
 0
VERTEX
 8
FULGOR
 10
0
 20
0
 30
0
 70
128
 71
717
 72
706
 73
339
 74
352
 0
VERTEX
 8
FULGOR
 10
0
 20
0
 30
0
 70
128
 71
695
 72
686
 73
319
 74
328
 0
VERTEX
 8
FULGOR
 10
0
 20
0
 30
0
 70
128
 71
710
 72
713
 73
348
 74
343
 0
VERTEX
 8
FULGOR
 10
0
 20
0
 30
0
 70
128
 71
714
 72
698
 73
331
 74
349
 0
VERTEX
 8
FULGOR
 10
0
 20
0
 30
0
 70
128
 71
709
 72
711
 73
344
 74
342
 0
VERTEX
 8
FULGOR
 10
0
 20
0
 30
0
 70
128
 71
697
 72
691
 73
324
 74
330
 0
VERTEX
 8
FULGOR
 10
0
 20
0
 30
0
 70
128
 71
679
 72
684
 73
317
 74
312
 0
VERTEX
 8
FULGOR
 10
0
 20
0
 30
0
 70
128
 71
678
 72
671
 73
303
 74
310
 0
VERTEX
 8
FULGOR
 10
0
 20
0
 30
0
 70
128
 71
719
 72
701
 73
334
 74
354
 0
VERTEX
 8
FULGOR
 10
0
 20
0
 30
0
 70
128
 71
670
 72
661
 73
291
 74
302
 0
VERTEX
 8
FULGOR
 10
0
 20
0
 30
0
 70
128
 71
708
 72
710
 73
343
 74
341
 0
VERTEX
 8
FULGOR
 10
0
 20
0
 30
0
 70
128
 71
698
 72
694
 73
327
 74
331
 0
VERTEX
 8
FULGOR
 10
0
 20
0
 30
0
 70
128
 71
705
 72
718
 73
353
 74
338
 0
VERTEX
 8
FULGOR
 10
0
 20
0
 30
0
 70
128
 71
685
 72
692
 73
325
 74
318
 0
VERTEX
 8
FULGOR
 10
0
 20
0
 30
0
 70
128
 71
713
 72
696
 73
329
 74
348
 0
VERTEX
 8
FULGOR
 10
0
 20
0
 30
0
 70
128
 71
699
 72
714
 73
349
 74
332
 0
VERTEX
 8
FULGOR
 10
0
 20
0
 30
0
 70
128
 71
696
 72
700
 73
333
 74
329
 0
VERTEX
 8
FULGOR
 10
0
 20
0
 30
0
 70
128
 71
674
 72
699
 73
332
 74
306
 0
VERTEX
 8
FULGOR
 10
0
 20
0
 30
0
 70
128
 71
724
 72
674
 73
306
 74
361
 0
VERTEX
 8
FULGOR
 10
0
 20
0
 30
0
 70
128
 71
664
 72
663
 73
295
 74
296
 0
VERTEX
 8
FULGOR
 10
0
 20
0
 30
0
 70
128
 71
663
 72
662
 73
294
 74
295
 0
VERTEX
 8
FULGOR
 10
0
 20
0
 30
0
 70
128
 71
662
 72
724
 73
361
 74
294
 0
VERTEX
 8
FULGOR
 10
0
 20
0
 30
0
 70
128
 71
672
 72
680
 73
313
 74
304
 0
VERTEX
 8
FULGOR
 10
0
 20
0
 30
0
 70
128
 71
721
 72
722
 73
358
 74
356
 0
VERTEX
 8
FULGOR
 10
0
 20
0
 30
0
 70
128
 71
671
 72
670
 73
302
 74
303
 0
VERTEX
 8
FULGOR
 10
0
 20
0
 30
0
 70
128
 71
712
 72
708
 73
341
 74
345
 0
VERTEX
 8
FULGOR
 10
0
 20
0
 30
0
 70
128
 71
694
 72
693
 73
326
 74
327
 0
VERTEX
 8
FULGOR
 10
0
 20
0
 30
0
 70
128
 71
665
 72
678
 73
310
 74
297
 0
VERTEX
 8
FULGOR
 10
0
 20
0
 30
0
 70
128
 71
684
 72
682
 73
315
 74
317
 0
VERTEX
 8
FULGOR
 10
0
 20
0
 30
0
 70
128
 71
666
 72
665
 73
297
 74
298
 0
VERTEX
 8
FULGOR
 10
0
 20
0
 30
0
 70
128
 71
682
 72
677
 73
309
 74
315
 0
SEQEND
 0
POLYLINE
 8
MILANO
 66
1
 10
0.0
 20
0.0
 30
0.0
 70
64
 71
186
 72
187
 0
VERTEX
 8
MILANO
 10
0.2723
 20
-0.3802
 30
112.2561
 70
192
 0
VERTEX
 8
MILANO
 10
0.7042
 20
-0.3802
 30
112.0866
 70
192
 0
VERTEX
 8
MILANO
 10
0.7088
 20
-0.3802
 30
112.0477
 70
192
 0
VERTEX
 8
MILANO
 10
0.7252
 20
-0.3802
 30
112.0122
 70
192
 0
VERTEX
 8
MILANO
 10
0.7527
 20
-0.3802
 30
111.9845
 70
192
 0
VERTEX
 8
MILANO
 10
0.7869
 20
-0.3802
 30
111.9656
 70
192
 0
VERTEX
 8
MILANO
 10
0.8244
 20
-0.3802
 30
111.9546
 70
192
 0
VERTEX
 8
MILANO
 10
0.8632
 20
-0.3802
 30
111.9504
 70
192
 0
VERTEX
 8
MILANO
 10
0.5412
 20
-0.3802
 30
112.0023
 70
192
 0
VERTEX
 8
MILANO
 10
0.9021
 20
-0.3802
 30
111.9534
 70
192
 0
VERTEX
 8
MILANO
 10
0.9397
 20
-0.3802
 30
111.9638
 70
192
 0
VERTEX
 8
MILANO
 10
0.9738
 20
-0.3802
 30
111.9829
 70
192
 0
VERTEX
 8
MILANO
 10
0.1088
 20
-0.3802
 30
112.0247
 70
192
 0
VERTEX
 8
MILANO
 10
0.1702
 20
-0.3802
 30
111.9142
 70
192
 0
VERTEX
 8
MILANO
 10
0.2206
 20
-0.3802
 30
111.9142
 70
192
 0
VERTEX
 8
MILANO
 10
1.0004
 20
-0.3802
 30
112.0115
 70
192
 0
VERTEX
 8
MILANO
 10
1.0176
 20
-0.3802
 30
112.0466
 70
192
 0
VERTEX
 8
MILANO
 10
-0.1695
 20
-0.3802
 30
111.9142
 70
192
 0
VERTEX
 8
MILANO
 10
-0.0345
 20
-0.3802
 30
112.0627
 70
192
 0
VERTEX
 8
MILANO
 10
0.0881
 20
-0.3802
 30
112.0627
 70
192
 0
VERTEX
 8
MILANO
 10
1.0231
 20
-0.3802
 30
112.0853
 70
192
 0
VERTEX
 8
MILANO
 10
1.0181
 20
-0.3802
 30
112.1242
 70
192
 0
VERTEX
 8
MILANO
 10
1.0016
 20
-0.3802
 30
112.1596
 70
192
 0
VERTEX
 8
MILANO
 10
-0.3379
 20
-0.3802
 30
112.2561
 70
192
 0
VERTEX
 8
MILANO
 10
-0.3379
 20
-0.3802
 30
111.9514
 70
192
 0
VERTEX
 8
MILANO
 10
0.9748
 20
-0.3802
 30
112.188
 70
192
 0
VERTEX
 8
MILANO
 10
0.9408
 20
-0.3802
 30
112.2071
 70
192
 0
VERTEX
 8
MILANO
 10
0.9031
 20
-0.3802
 30
112.2175
 70
192
 0
VERTEX
 8
MILANO
 10
-0.5093
 20
-0.3802
 30
112.2561
 70
192
 0
VERTEX
 8
MILANO
 10
-0.4668
 20
-0.3802
 30
112.2561
 70
192
 0
VERTEX
 8
MILANO
 10
-0.4668
 20
-0.3802
 30
111.9142
 70
192
 0
VERTEX
 8
MILANO
 10
-0.5093
 20
-0.3802
 30
111.9142
 70
192
 0
VERTEX
 8
MILANO
 10
-1.0211
 20
-0.3802
 30
111.9142
 70
192
 0
VERTEX
 8
MILANO
 10
-0.9682
 20
-0.3802
 30
112.2582
 70
192
 0
VERTEX
 8
MILANO
 10
-0.6454
 20
-0.3802
 30
112.2582
 70
192
 0
VERTEX
 8
MILANO
 10
-0.6296
 20
-0.3802
 30
112.2582
 70
192
 0
VERTEX
 8
MILANO
 10
-0.5737
 20
-0.3802
 30
111.9142
 70
192
 0
VERTEX
 8
MILANO
 10
-0.6199
 20
-0.3802
 30
111.9142
 70
192
 0
VERTEX
 8
MILANO
 10
-0.8071
 20
-0.3802
 30
111.9142
 70
192
 0
VERTEX
 8
MILANO
 10
-0.942
 20
-0.3802
 30
112.145
 70
192
 0
VERTEX
 8
MILANO
 10
-0.1866
 20
-0.3802
 30
111.9514
 70
192
 0
VERTEX
 8
MILANO
 10
-0.1866
 20
-0.3802
 30
111.9142
 70
192
 0
VERTEX
 8
MILANO
 10
-0.3799
 20
-0.3802
 30
111.9142
 70
192
 0
VERTEX
 8
MILANO
 10
-0.9578
 20
-0.3802
 30
112.2582
 70
192
 0
VERTEX
 8
MILANO
 10
-0.7986
 20
-0.3802
 30
111.9844
 70
192
 0
VERTEX
 8
MILANO
 10
-0.657
 20
-0.3802
 30
112.145
 70
192
 0
VERTEX
 8
MILANO
 10
-0.7864
 20
-0.3802
 30
111.9142
 70
192
 0
VERTEX
 8
MILANO
 10
-0.9755
 20
-0.3802
 30
111.9142
 70
192
 0
VERTEX
 8
MILANO
 10
0.8644
 20
-0.3802
 30
112.2619
 70
192
 0
VERTEX
 8
MILANO
 10
0.8134
 20
-0.3802
 30
112.2591
 70
192
 0
VERTEX
 8
MILANO
 10
0.7638
 20
-0.3802
 30
112.2467
 70
192
 0
VERTEX
 8
MILANO
 10
0.7201
 20
-0.3802
 30
112.2206
 70
192
 0
VERTEX
 8
MILANO
 10
0.685
 20
-0.3802
 30
112.1833
 70
192
 0
VERTEX
 8
MILANO
 10
0.6622
 20
-0.3802
 30
112.1376
 70
192
 0
VERTEX
 8
MILANO
 10
0.6551
 20
-0.3802
 30
112.0869
 70
192
 0
VERTEX
 8
MILANO
 10
0.6611
 20
-0.3802
 30
112.036
 70
192
 0
VERTEX
 8
MILANO
 10
0.6826
 20
-0.3802
 30
111.9897
 70
192
 0
VERTEX
 8
MILANO
 10
0.7185
 20
-0.3802
 30
111.9535
 70
192
 0
VERTEX
 8
MILANO
 10
0.7632
 20
-0.3802
 30
111.9288
 70
192
 0
VERTEX
 8
MILANO
 10
0.8122
 20
-0.3802
 30
111.9144
 70
192
 0
VERTEX
 8
MILANO
 10
0.863
 20
-0.3802
 30
111.9089
 70
192
 0
VERTEX
 8
MILANO
 10
0.9139
 20
-0.3802
 30
111.9127
 70
192
 0
VERTEX
 8
MILANO
 10
0.9631
 20
-0.3802
 30
111.9264
 70
192
 0
VERTEX
 8
MILANO
 10
1.0077
 20
-0.3802
 30
111.9514
 70
192
 0
VERTEX
 8
MILANO
 10
1.0425
 20
-0.3802
 30
111.9887
 70
192
 0
VERTEX
 8
MILANO
 10
1.065
 20
-0.3802
 30
112.0346
 70
192
 0
VERTEX
 8
MILANO
 10
1.0722
 20
-0.3802
 30
112.0853
 70
192
 0
VERTEX
 8
MILANO
 10
1.0657
 20
-0.3802
 30
112.1361
 70
192
 0
VERTEX
 8
MILANO
 10
1.044
 20
-0.3802
 30
112.1824
 70
192
 0
VERTEX
 8
MILANO
 10
1.009
 20
-0.3802
 30
112.2196
 70
192
 0
VERTEX
 8
MILANO
 10
0.2723
 20
-0.3802
 30
111.9142
 70
192
 0
VERTEX
 8
MILANO
 10
0.3169
 20
-0.3802
 30
111.9142
 70
192
 0
VERTEX
 8
MILANO
 10
0.3169
 20
-0.3802
 30
112.1635
 70
192
 0
VERTEX
 8
MILANO
 10
0.5708
 20
-0.3802
 30
111.9142
 70
192
 0
VERTEX
 8
MILANO
 10
0.5854
 20
-0.3802
 30
111.9142
 70
192
 0
VERTEX
 8
MILANO
 10
0.5854
 20
-0.3802
 30
112.2561
 70
192
 0
VERTEX
 8
MILANO
 10
0.5406
 20
-0.3802
 30
112.2561
 70
192
 0
VERTEX
 8
MILANO
 10
0.9645
 20
-0.3802
 30
112.2446
 70
192
 0
VERTEX
 8
MILANO
 10
0.2889
 20
-0.3802
 30
112.2561
 70
192
 0
VERTEX
 8
MILANO
 10
-0.1135
 20
-0.3802
 30
111.9142
 70
192
 0
VERTEX
 8
MILANO
 10
-0.0565
 20
-0.3802
 30
112.0247
 70
192
 0
VERTEX
 8
MILANO
 10
0.9153
 20
-0.3802
 30
112.2581
 70
192
 0
VERTEX
 8
MILANO
 10
0.8642
 20
-0.3802
 30
112.2204
 70
192
 0
VERTEX
 8
MILANO
 10
0.8252
 20
-0.3802
 30
112.2182
 70
192
 0
VERTEX
 8
MILANO
 10
0.0337
 20
-0.3802
 30
112.2561
 70
192
 0
VERTEX
 8
MILANO
 10
0.0192
 20
-0.3802
 30
112.2561
 70
192
 0
VERTEX
 8
MILANO
 10
0.7873
 20
-0.3802
 30
112.2087
 70
192
 0
VERTEX
 8
MILANO
 10
0.7539
 20
-0.3802
 30
112.1888
 70
192
 0
VERTEX
 8
MILANO
 10
0.7271
 20
-0.3802
 30
112.1603
 70
192
 0
VERTEX
 8
MILANO
 10
0.0311
 20
-0.3802
 30
112.1722
 70
192
 0
VERTEX
 8
MILANO
 10
0.0211
 20
-0.3802
 30
112.1722
 70
192
 0
VERTEX
 8
MILANO
 10
-0.3835
 20
-0.3802
 30
112.2561
 70
192
 0
VERTEX
 8
MILANO
 10
0.7096
 20
-0.3802
 30
112.1253
 70
192
 0
VERTEX
 8
MILANO
 10
0.2723
 20
-0.3
 30
112.2561
 70
192
 0
VERTEX
 8
MILANO
 10
0.5412
 20
-0.3
 30
112.0023
 70
192
 0
VERTEX
 8
MILANO
 10
0.2723
 20
-0.3
 30
111.9142
 70
192
 0
VERTEX
 8
MILANO
 10
0.3169
 20
-0.3
 30
111.9142
 70
192
 0
VERTEX
 8
MILANO
 10
0.3169
 20
-0.3
 30
112.1635
 70
192
 0
VERTEX
 8
MILANO
 10
0.5708
 20
-0.3
 30
111.9142
 70
192
 0
VERTEX
 8
MILANO
 10
0.5854
 20
-0.3
 30
111.9142
 70
192
 0
VERTEX
 8
MILANO
 10
0.5854
 20
-0.3
 30
112.2561
 70
192
 0
VERTEX
 8
MILANO
 10
0.5406
 20
-0.3
 30
112.2561
 70
192
 0
VERTEX
 8
MILANO
 10
0.2889
 20
-0.3
 30
112.2561
 70
192
 0
VERTEX
 8
MILANO
 10
0.1088
 20
-0.3
 30
112.0247
 70
192
 0
VERTEX
 8
MILANO
 10
0.1702
 20
-0.3
 30
111.9142
 70
192
 0
VERTEX
 8
MILANO
 10
0.2206
 20
-0.3
 30
111.9142
 70
192
 0
VERTEX
 8
MILANO
 10
-0.1695
 20
-0.3
 30
111.9142
 70
192
 0
VERTEX
 8
MILANO
 10
-0.0345
 20
-0.3
 30
112.0627
 70
192
 0
VERTEX
 8
MILANO
 10
0.0881
 20
-0.3
 30
112.0627
 70
192
 0
VERTEX
 8
MILANO
 10
-0.1135
 20
-0.3
 30
111.9142
 70
192
 0
VERTEX
 8
MILANO
 10
-0.0565
 20
-0.3
 30
112.0247
 70
192
 0
VERTEX
 8
MILANO
 10
0.0337
 20
-0.3
 30
112.2561
 70
192
 0
VERTEX
 8
MILANO
 10
0.0192
 20
-0.3
 30
112.2561
 70
192
 0
VERTEX
 8
MILANO
 10
0.0311
 20
-0.3
 30
112.1722
 70
192
 0
VERTEX
 8
MILANO
 10
0.0211
 20
-0.3
 30
112.1722
 70
192
 0
VERTEX
 8
MILANO
 10
-0.3379
 20
-0.3
 30
112.2561
 70
192
 0
VERTEX
 8
MILANO
 10
-0.3379
 20
-0.3
 30
111.9514
 70
192
 0
VERTEX
 8
MILANO
 10
-0.1866
 20
-0.3
 30
111.9514
 70
192
 0
VERTEX
 8
MILANO
 10
-0.1866
 20
-0.3
 30
111.9142
 70
192
 0
VERTEX
 8
MILANO
 10
-0.3799
 20
-0.3
 30
111.9142
 70
192
 0
VERTEX
 8
MILANO
 10
-0.3835
 20
-0.3
 30
112.2561
 70
192
 0
VERTEX
 8
MILANO
 10
-1.0211
 20
-0.3
 30
111.9142
 70
192
 0
VERTEX
 8
MILANO
 10
-0.9682
 20
-0.3
 30
112.2582
 70
192
 0
VERTEX
 8
MILANO
 10
-0.6454
 20
-0.3
 30
112.2582
 70
192
 0
VERTEX
 8
MILANO
 10
-0.6296
 20
-0.3
 30
112.2582
 70
192
 0
VERTEX
 8
MILANO
 10
-0.5737
 20
-0.3
 30
111.9142
 70
192
 0
VERTEX
 8
MILANO
 10
-0.6199
 20
-0.3
 30
111.9142
 70
192
 0
VERTEX
 8
MILANO
 10
-0.8071
 20
-0.3
 30
111.9142
 70
192
 0
VERTEX
 8
MILANO
 10
-0.942
 20
-0.3
 30
112.145
 70
192
 0
VERTEX
 8
MILANO
 10
-0.9578
 20
-0.3
 30
112.2582
 70
192
 0
VERTEX
 8
MILANO
 10
-0.7986
 20
-0.3
 30
111.9844
 70
192
 0
VERTEX
 8
MILANO
 10
-0.657
 20
-0.3
 30
112.145
 70
192
 0
VERTEX
 8
MILANO
 10
-0.7864
 20
-0.3
 30
111.9142
 70
192
 0
VERTEX
 8
MILANO
 10
-0.9755
 20
-0.3
 30
111.9142
 70
192
 0
VERTEX
 8
MILANO
 10
-0.5093
 20
-0.3
 30
112.2561
 70
192
 0
VERTEX
 8
MILANO
 10
-0.4668
 20
-0.3
 30
112.2561
 70
192
 0
VERTEX
 8
MILANO
 10
-0.4668
 20
-0.3
 30
111.9142
 70
192
 0
VERTEX
 8
MILANO
 10
-0.5093
 20
-0.3
 30
111.9142
 70
192
 0
VERTEX
 8
MILANO
 10
0.7042
 20
-0.3
 30
112.0866
 70
192
 0
VERTEX
 8
MILANO
 10
0.7088
 20
-0.3
 30
112.0477
 70
192
 0
VERTEX
 8
MILANO
 10
0.7252
 20
-0.3
 30
112.0122
 70
192
 0
VERTEX
 8
MILANO
 10
0.7527
 20
-0.3
 30
111.9845
 70
192
 0
VERTEX
 8
MILANO
 10
0.7869
 20
-0.3
 30
111.9656
 70
192
 0
VERTEX
 8
MILANO
 10
0.8244
 20
-0.3
 30
111.9546
 70
192
 0
VERTEX
 8
MILANO
 10
0.8632
 20
-0.3
 30
111.9504
 70
192
 0
VERTEX
 8
MILANO
 10
0.9021
 20
-0.3
 30
111.9534
 70
192
 0
VERTEX
 8
MILANO
 10
0.9397
 20
-0.3
 30
111.9638
 70
192
 0
VERTEX
 8
MILANO
 10
0.9738
 20
-0.3
 30
111.9829
 70
192
 0
VERTEX
 8
MILANO
 10
1.0004
 20
-0.3
 30
112.0115
 70
192
 0
VERTEX
 8
MILANO
 10
1.0176
 20
-0.3
 30
112.0466
 70
192
 0
VERTEX
 8
MILANO
 10
1.0231
 20
-0.3
 30
112.0853
 70
192
 0
VERTEX
 8
MILANO
 10
1.0181
 20
-0.3
 30
112.1242
 70
192
 0
VERTEX
 8
MILANO
 10
1.0016
 20
-0.3
 30
112.1596
 70
192
 0
VERTEX
 8
MILANO
 10
0.9748
 20
-0.3
 30
112.188
 70
192
 0
VERTEX
 8
MILANO
 10
0.9408
 20
-0.3
 30
112.2071
 70
192
 0
VERTEX
 8
MILANO
 10
0.9031
 20
-0.3
 30
112.2175
 70
192
 0
VERTEX
 8
MILANO
 10
0.8644
 20
-0.3
 30
112.2619
 70
192
 0
VERTEX
 8
MILANO
 10
0.8134
 20
-0.3
 30
112.2591
 70
192
 0
VERTEX
 8
MILANO
 10
0.7638
 20
-0.3
 30
112.2467
 70
192
 0
VERTEX
 8
MILANO
 10
0.7201
 20
-0.3
 30
112.2206
 70
192
 0
VERTEX
 8
MILANO
 10
0.685
 20
-0.3
 30
112.1833
 70
192
 0
VERTEX
 8
MILANO
 10
0.6622
 20
-0.3
 30
112.1376
 70
192
 0
VERTEX
 8
MILANO
 10
0.6551
 20
-0.3
 30
112.0869
 70
192
 0
VERTEX
 8
MILANO
 10
0.6611
 20
-0.3
 30
112.036
 70
192
 0
VERTEX
 8
MILANO
 10
0.6826
 20
-0.3
 30
111.9897
 70
192
 0
VERTEX
 8
MILANO
 10
0.7185
 20
-0.3
 30
111.9535
 70
192
 0
VERTEX
 8
MILANO
 10
0.7632
 20
-0.3
 30
111.9288
 70
192
 0
VERTEX
 8
MILANO
 10
0.8122
 20
-0.3
 30
111.9144
 70
192
 0
VERTEX
 8
MILANO
 10
0.863
 20
-0.3
 30
111.9089
 70
192
 0
VERTEX
 8
MILANO
 10
0.9139
 20
-0.3
 30
111.9127
 70
192
 0
VERTEX
 8
MILANO
 10
0.9631
 20
-0.3
 30
111.9264
 70
192
 0
VERTEX
 8
MILANO
 10
1.0077
 20
-0.3
 30
111.9514
 70
192
 0
VERTEX
 8
MILANO
 10
1.0425
 20
-0.3
 30
111.9887
 70
192
 0
VERTEX
 8
MILANO
 10
1.065
 20
-0.3
 30
112.0346
 70
192
 0
VERTEX
 8
MILANO
 10
1.0722
 20
-0.3
 30
112.0853
 70
192
 0
VERTEX
 8
MILANO
 10
1.0657
 20
-0.3
 30
112.1361
 70
192
 0
VERTEX
 8
MILANO
 10
1.044
 20
-0.3
 30
112.1824
 70
192
 0
VERTEX
 8
MILANO
 10
1.009
 20
-0.3
 30
112.2196
 70
192
 0
VERTEX
 8
MILANO
 10
0.9645
 20
-0.3
 30
112.2446
 70
192
 0
VERTEX
 8
MILANO
 10
0.9153
 20
-0.3
 30
112.2581
 70
192
 0
VERTEX
 8
MILANO
 10
0.8642
 20
-0.3
 30
112.2204
 70
192
 0
VERTEX
 8
MILANO
 10
0.8252
 20
-0.3
 30
112.2182
 70
192
 0
VERTEX
 8
MILANO
 10
0.7873
 20
-0.3
 30
112.2087
 70
192
 0
VERTEX
 8
MILANO
 10
0.7539
 20
-0.3
 30
112.1888
 70
192
 0
VERTEX
 8
MILANO
 10
0.7271
 20
-0.3
 30
112.1603
 70
192
 0
VERTEX
 8
MILANO
 10
0.7096
 20
-0.3
 30
112.1253
 70
192
 0
VERTEX
 8
MILANO
 10
0
 20
0
 30
0
 70
128
 71
71
 72
1
 73
73
 74
72
 0
VERTEX
 8
MILANO
 10
0
 20
0
 30
0
 70
128
 71
73
 72
79
 73
9
 74
74
 0
VERTEX
 8
MILANO
 10
0
 20
0
 30
0
 70
128
 71
9
 72
75
 73
74
 74
74
 0
VERTEX
 8
MILANO
 10
0
 20
0
 30
0
 70
128
 71
76
 72
75
 73
9
 74
77
 0
VERTEX
 8
MILANO
 10
0
 20
0
 30
0
 70
128
 71
1
 72
79
 73
73
 74
73
 0
VERTEX
 8
MILANO
 10
0
 20
0
 30
0
 70
128
 71
80
 72
18
 73
81
 74
81
 0
VERTEX
 8
MILANO
 10
0
 20
0
 30
0
 70
128
 71
13
 72
81
 73
19
 74
20
 0
VERTEX
 8
MILANO
 10
0
 20
0
 30
0
 70
128
 71
15
 72
14
 73
13
 74
13
 0
VERTEX
 8
MILANO
 10
0
 20
0
 30
0
 70
128
 71
85
 72
15
 73
20
 74
90
 0
VERTEX
 8
MILANO
 10
0
 20
0
 30
0
 70
128
 71
86
 72
85
 73
90
 74
91
 0
VERTEX
 8
MILANO
 10
0
 20
0
 30
0
 70
128
 71
18
 72
86
 73
19
 74
81
 0
VERTEX
 8
MILANO
 10
0
 20
0
 30
0
 70
128
 71
86
 72
91
 73
19
 74
19
 0
VERTEX
 8
MILANO
 10
0
 20
0
 30
0
 70
128
 71
15
 72
13
 73
20
 74
20
 0
VERTEX
 8
MILANO
 10
0
 20
0
 30
0
 70
128
 71
92
 72
24
 73
25
 74
43
 0
VERTEX
 8
MILANO
 10
0
 20
0
 30
0
 70
128
 71
25
 72
41
 73
42
 74
43
 0
VERTEX
 8
MILANO
 10
0
 20
0
 30
0
 70
128
 71
33
 72
34
 73
40
 74
48
 0
VERTEX
 8
MILANO
 10
0
 20
0
 30
0
 70
128
 71
40
 72
44
 73
45
 74
39
 0
VERTEX
 8
MILANO
 10
0
 20
0
 30
0
 70
128
 71
45
 72
47
 73
39
 74
39
 0
VERTEX
 8
MILANO
 10
0
 20
0
 30
0
 70
128
 71
45
 72
35
 73
46
 74
47
 0
VERTEX
 8
MILANO
 10
0
 20
0
 30
0
 70
128
 71
46
 72
36
 73
37
 74
38
 0
VERTEX
 8
MILANO
 10
0
 20
0
 30
0
 70
128
 71
35
 72
36
 73
46
 74
46
 0
VERTEX
 8
MILANO
 10
0
 20
0
 30
0
 70
128
 71
34
 72
44
 73
40
 74
40
 0
VERTEX
 8
MILANO
 10
0
 20
0
 30
0
 70
128
 71
96
 72
94
 73
98
 74
97
 0
VERTEX
 8
MILANO
 10
0
 20
0
 30
0
 70
128
 71
98
 72
103
 73
95
 74
99
 0
VERTEX
 8
MILANO
 10
0
 20
0
 30
0
 70
128
 71
95
 72
100
 73
99
 74
99
 0
VERTEX
 8
MILANO
 10
0
 20
0
 30
0
 70
128
 71
101
 72
100
 73
95
 74
102
 0
VERTEX
 8
MILANO
 10
0
 20
0
 30
0
 70
128
 71
94
 72
103
 73
98
 74
98
 0
VERTEX
 8
MILANO
 10
0
 20
0
 30
0
 70
128
 71
110
 72
107
 73
111
 74
111
 0
VERTEX
 8
MILANO
 10
0
 20
0
 30
0
 70
128
 71
104
 72
111
 73
108
 74
109
 0
VERTEX
 8
MILANO
 10
0
 20
0
 30
0
 70
128
 71
106
 72
105
 73
104
 74
104
 0
VERTEX
 8
MILANO
 10
0
 20
0
 30
0
 70
128
 71
112
 72
106
 73
109
 74
114
 0
VERTEX
 8
MILANO
 10
0
 20
0
 30
0
 70
128
 71
113
 72
112
 73
114
 74
115
 0
VERTEX
 8
MILANO
 10
0
 20
0
 30
0
 70
128
 71
107
 72
113
 73
108
 74
111
 0
VERTEX
 8
MILANO
 10
0
 20
0
 30
0
 70
128
 71
113
 72
115
 73
108
 74
108
 0
VERTEX
 8
MILANO
 10
0
 20
0
 30
0
 70
128
 71
106
 72
104
 73
109
 74
109
 0
VERTEX
 8
MILANO
 10
0
 20
0
 30
0
 70
128
 71
121
 72
116
 73
117
 74
120
 0
VERTEX
 8
MILANO
 10
0
 20
0
 30
0
 70
128
 71
117
 72
118
 73
119
 74
120
 0
VERTEX
 8
MILANO
 10
0
 20
0
 30
0
 70
128
 71
122
 72
123
 73
129
 74
134
 0
VERTEX
 8
MILANO
 10
0
 20
0
 30
0
 70
128
 71
129
 72
130
 73
131
 74
128
 0
VERTEX
 8
MILANO
 10
0
 20
0
 30
0
 70
128
 71
131
 72
133
 73
128
 74
128
 0
VERTEX
 8
MILANO
 10
0
 20
0
 30
0
 70
128
 71
131
 72
124
 73
132
 74
133
 0
VERTEX
 8
MILANO
 10
0
 20
0
 30
0
 70
128
 71
132
 72
125
 73
126
 74
127
 0
VERTEX
 8
MILANO
 10
0
 20
0
 30
0
 70
128
 71
124
 72
125
 73
132
 74
132
 0
VERTEX
 8
MILANO
 10
0
 20
0
 30
0
 70
128
 71
123
 72
130
 73
129
 74
129
 0
VERTEX
 8
MILANO
 10
0
 20
0
 30
0
 70
128
 71
29
 72
30
 73
31
 74
32
 0
VERTEX
 8
MILANO
 10
0
 20
0
 30
0
 70
128
 71
50
 72
49
 73
83
 74
84
 0
VERTEX
 8
MILANO
 10
0
 20
0
 30
0
 70
128
 71
51
 72
50
 73
84
 74
87
 0
VERTEX
 8
MILANO
 10
0
 20
0
 30
0
 70
128
 71
5
 72
6
 73
59
 74
58
 0
VERTEX
 8
MILANO
 10
0
 20
0
 30
0
 70
128
 71
28
 72
83
 73
49
 74
82
 0
VERTEX
 8
MILANO
 10
0
 20
0
 30
0
 70
128
 71
27
 72
28
 73
82
 74
78
 0
VERTEX
 8
MILANO
 10
0
 20
0
 30
0
 70
128
 71
26
 72
27
 73
78
 74
70
 0
VERTEX
 8
MILANO
 10
0
 20
0
 30
0
 70
128
 71
23
 72
26
 73
70
 74
69
 0
VERTEX
 8
MILANO
 10
0
 20
0
 30
0
 70
128
 71
6
 72
7
 73
60
 74
59
 0
VERTEX
 8
MILANO
 10
0
 20
0
 30
0
 70
128
 71
7
 72
8
 73
61
 74
60
 0
VERTEX
 8
MILANO
 10
0
 20
0
 30
0
 70
128
 71
22
 72
23
 73
69
 74
68
 0
VERTEX
 8
MILANO
 10
0
 20
0
 30
0
 70
128
 71
21
 72
22
 73
68
 74
67
 0
VERTEX
 8
MILANO
 10
0
 20
0
 30
0
 70
128
 71
17
 72
21
 73
67
 74
66
 0
VERTEX
 8
MILANO
 10
0
 20
0
 30
0
 70
128
 71
16
 72
17
 73
66
 74
65
 0
VERTEX
 8
MILANO
 10
0
 20
0
 30
0
 70
128
 71
12
 72
16
 73
65
 74
64
 0
VERTEX
 8
MILANO
 10
0
 20
0
 30
0
 70
128
 71
11
 72
12
 73
64
 74
63
 0
VERTEX
 8
MILANO
 10
0
 20
0
 30
0
 70
128
 71
10
 72
11
 73
63
 74
62
 0
VERTEX
 8
MILANO
 10
0
 20
0
 30
0
 70
128
 71
4
 72
5
 73
58
 74
57
 0
VERTEX
 8
MILANO
 10
0
 20
0
 30
0
 70
128
 71
57
 72
56
 73
3
 74
4
 0
VERTEX
 8
MILANO
 10
0
 20
0
 30
0
 70
128
 71
56
 72
55
 73
2
 74
3
 0
VERTEX
 8
MILANO
 10
0
 20
0
 30
0
 70
128
 71
55
 72
54
 73
93
 74
2
 0
VERTEX
 8
MILANO
 10
0
 20
0
 30
0
 70
128
 71
54
 72
53
 73
89
 74
93
 0
VERTEX
 8
MILANO
 10
0
 20
0
 30
0
 70
128
 71
53
 72
52
 73
88
 74
89
 0
VERTEX
 8
MILANO
 10
0
 20
0
 30
0
 70
128
 71
52
 72
51
 73
87
 74
88
 0
VERTEX
 8
MILANO
 10
0
 20
0
 30
0
 70
128
 71
8
 72
10
 73
62
 74
61
 0
VERTEX
 8
MILANO
 10
0
 20
0
 30
0
 70
128
 71
135
 72
136
 73
137
 74
138
 0
VERTEX
 8
MILANO
 10
0
 20
0
 30
0
 70
128
 71
158
 72
157
 73
181
 74
182
 0
VERTEX
 8
MILANO
 10
0
 20
0
 30
0
 70
128
 71
159
 72
158
 73
182
 74
183
 0
VERTEX
 8
MILANO
 10
0
 20
0
 30
0
 70
128
 71
142
 72
143
 73
167
 74
166
 0
VERTEX
 8
MILANO
 10
0
 20
0
 30
0
 70
128
 71
156
 72
181
 73
157
 74
180
 0
VERTEX
 8
MILANO
 10
0
 20
0
 30
0
 70
128
 71
155
 72
156
 73
180
 74
179
 0
VERTEX
 8
MILANO
 10
0
 20
0
 30
0
 70
128
 71
154
 72
155
 73
179
 74
178
 0
VERTEX
 8
MILANO
 10
0
 20
0
 30
0
 70
128
 71
153
 72
154
 73
178
 74
177
 0
VERTEX
 8
MILANO
 10
0
 20
0
 30
0
 70
128
 71
143
 72
144
 73
168
 74
167
 0
VERTEX
 8
MILANO
 10
0
 20
0
 30
0
 70
128
 71
144
 72
145
 73
169
 74
168
 0
VERTEX
 8
MILANO
 10
0
 20
0
 30
0
 70
128
 71
152
 72
153
 73
177
 74
176
 0
VERTEX
 8
MILANO
 10
0
 20
0
 30
0
 70
128
 71
151
 72
152
 73
176
 74
175
 0
VERTEX
 8
MILANO
 10
0
 20
0
 30
0
 70
128
 71
150
 72
151
 73
175
 74
174
 0
VERTEX
 8
MILANO
 10
0
 20
0
 30
0
 70
128
 71
149
 72
150
 73
174
 74
173
 0
VERTEX
 8
MILANO
 10
0
 20
0
 30
0
 70
128
 71
148
 72
149
 73
173
 74
172
 0
VERTEX
 8
MILANO
 10
0
 20
0
 30
0
 70
128
 71
147
 72
148
 73
172
 74
171
 0
VERTEX
 8
MILANO
 10
0
 20
0
 30
0
 70
128
 71
146
 72
147
 73
171
 74
170
 0
VERTEX
 8
MILANO
 10
0
 20
0
 30
0
 70
128
 71
141
 72
142
 73
166
 74
165
 0
VERTEX
 8
MILANO
 10
0
 20
0
 30
0
 70
128
 71
165
 72
164
 73
140
 74
141
 0
VERTEX
 8
MILANO
 10
0
 20
0
 30
0
 70
128
 71
164
 72
163
 73
139
 74
140
 0
VERTEX
 8
MILANO
 10
0
 20
0
 30
0
 70
128
 71
163
 72
162
 73
186
 74
139
 0
VERTEX
 8
MILANO
 10
0
 20
0
 30
0
 70
128
 71
162
 72
161
 73
185
 74
186
 0
VERTEX
 8
MILANO
 10
0
 20
0
 30
0
 70
128
 71
161
 72
160
 73
184
 74
185
 0
VERTEX
 8
MILANO
 10
0
 20
0
 30
0
 70
128
 71
160
 72
159
 73
183
 74
184
 0
VERTEX
 8
MILANO
 10
0
 20
0
 30
0
 70
128
 71
145
 72
146
 73
170
 74
169
 0
VERTEX
 8
MILANO
 10
0
 20
0
 30
0
 70
128
 71
94
 72
103
 73
79
 74
1
 0
VERTEX
 8
MILANO
 10
0
 20
0
 30
0
 70
128
 71
103
 72
95
 73
9
 74
79
 0
VERTEX
 8
MILANO
 10
0
 20
0
 30
0
 70
128
 71
95
 72
102
 73
77
 74
9
 0
VERTEX
 8
MILANO
 10
0
 20
0
 30
0
 70
128
 71
102
 72
101
 73
76
 74
77
 0
VERTEX
 8
MILANO
 10
0
 20
0
 30
0
 70
128
 71
101
 72
100
 73
75
 74
76
 0
VERTEX
 8
MILANO
 10
0
 20
0
 30
0
 70
128
 71
100
 72
99
 73
74
 74
75
 0
VERTEX
 8
MILANO
 10
0
 20
0
 30
0
 70
128
 71
99
 72
98
 73
73
 74
74
 0
VERTEX
 8
MILANO
 10
0
 20
0
 30
0
 70
128
 71
98
 72
97
 73
72
 74
73
 0
VERTEX
 8
MILANO
 10
0
 20
0
 30
0
 70
128
 71
97
 72
96
 73
71
 74
72
 0
VERTEX
 8
MILANO
 10
0
 20
0
 30
0
 70
128
 71
96
 72
94
 73
1
 74
71
 0
VERTEX
 8
MILANO
 10
0
 20
0
 30
0
 70
128
 71
110
 72
107
 73
18
 74
80
 0
VERTEX
 8
MILANO
 10
0
 20
0
 30
0
 70
128
 71
107
 72
113
 73
86
 74
18
 0
VERTEX
 8
MILANO
 10
0
 20
0
 30
0
 70
128
 71
113
 72
112
 73
85
 74
86
 0
VERTEX
 8
MILANO
 10
0
 20
0
 30
0
 70
128
 71
112
 72
106
 73
15
 74
85
 0
VERTEX
 8
MILANO
 10
0
 20
0
 30
0
 70
128
 71
106
 72
105
 73
14
 74
15
 0
VERTEX
 8
MILANO
 10
0
 20
0
 30
0
 70
128
 71
105
 72
104
 73
13
 74
14
 0
VERTEX
 8
MILANO
 10
0
 20
0
 30
0
 70
128
 71
104
 72
111
 73
81
 74
13
 0
VERTEX
 8
MILANO
 10
0
 20
0
 30
0
 70
128
 71
111
 72
110
 73
80
 74
81
 0
VERTEX
 8
MILANO
 10
0
 20
0
 30
0
 70
128
 71
108
 72
109
 73
20
 74
19
 0
VERTEX
 8
MILANO
 10
0
 20
0
 30
0
 70
128
 71
109
 72
114
 73
90
 74
20
 0
VERTEX
 8
MILANO
 10
0
 20
0
 30
0
 70
128
 71
114
 72
115
 73
91
 74
90
 0
VERTEX
 8
MILANO
 10
0
 20
0
 30
0
 70
128
 71
115
 72
108
 73
19
 74
91
 0
VERTEX
 8
MILANO
 10
0
 20
0
 30
0
 70
128
 71
121
 72
116
 73
24
 74
92
 0
VERTEX
 8
MILANO
 10
0
 20
0
 30
0
 70
128
 71
116
 72
117
 73
25
 74
24
 0
VERTEX
 8
MILANO
 10
0
 20
0
 30
0
 70
128
 71
117
 72
118
 73
41
 74
25
 0
VERTEX
 8
MILANO
 10
0
 20
0
 30
0
 70
128
 71
118
 72
119
 73
42
 74
41
 0
VERTEX
 8
MILANO
 10
0
 20
0
 30
0
 70
128
 71
119
 72
120
 73
43
 74
42
 0
VERTEX
 8
MILANO
 10
0
 20
0
 30
0
 70
128
 71
120
 72
121
 73
92
 74
43
 0
VERTEX
 8
MILANO
 10
0
 20
0
 30
0
 70
128
 71
122
 72
123
 73
34
 74
33
 0
VERTEX
 8
MILANO
 10
0
 20
0
 30
0
 70
128
 71
123
 72
130
 73
44
 74
34
 0
VERTEX
 8
MILANO
 10
0
 20
0
 30
0
 70
128
 71
130
 72
131
 73
45
 74
44
 0
VERTEX
 8
MILANO
 10
0
 20
0
 30
0
 70
128
 71
131
 72
124
 73
35
 74
45
 0
VERTEX
 8
MILANO
 10
0
 20
0
 30
0
 70
128
 71
124
 72
125
 73
36
 74
35
 0
VERTEX
 8
MILANO
 10
0
 20
0
 30
0
 70
128
 71
125
 72
126
 73
37
 74
36
 0
VERTEX
 8
MILANO
 10
0
 20
0
 30
0
 70
128
 71
126
 72
127
 73
38
 74
37
 0
VERTEX
 8
MILANO
 10
0
 20
0
 30
0
 70
128
 71
127
 72
132
 73
46
 74
38
 0
VERTEX
 8
MILANO
 10
0
 20
0
 30
0
 70
128
 71
132
 72
133
 73
47
 74
46
 0
VERTEX
 8
MILANO
 10
0
 20
0
 30
0
 70
128
 71
133
 72
128
 73
39
 74
47
 0
VERTEX
 8
MILANO
 10
0
 20
0
 30
0
 70
128
 71
128
 72
129
 73
40
 74
39
 0
VERTEX
 8
MILANO
 10
0
 20
0
 30
0
 70
128
 71
129
 72
134
 73
48
 74
40
 0
VERTEX
 8
MILANO
 10
0
 20
0
 30
0
 70
128
 71
134
 72
122
 73
33
 74
48
 0
VERTEX
 8
MILANO
 10
0
 20
0
 30
0
 70
128
 71
135
 72
136
 73
30
 74
29
 0
VERTEX
 8
MILANO
 10
0
 20
0
 30
0
 70
128
 71
136
 72
137
 73
31
 74
30
 0
VERTEX
 8
MILANO
 10
0
 20
0
 30
0
 70
128
 71
137
 72
138
 73
32
 74
31
 0
VERTEX
 8
MILANO
 10
0
 20
0
 30
0
 70
128
 71
138
 72
135
 73
29
 74
32
 0
VERTEX
 8
MILANO
 10
0
 20
0
 30
0
 70
128
 71
158
 72
157
 73
49
 74
50
 0
VERTEX
 8
MILANO
 10
0
 20
0
 30
0
 70
128
 71
181
 72
182
 73
84
 74
83
 0
VERTEX
 8
MILANO
 10
0
 20
0
 30
0
 70
128
 71
159
 72
158
 73
50
 74
51
 0
VERTEX
 8
MILANO
 10
0
 20
0
 30
0
 70
128
 71
182
 72
183
 73
87
 74
84
 0
VERTEX
 8
MILANO
 10
0
 20
0
 30
0
 70
128
 71
142
 72
143
 73
6
 74
5
 0
VERTEX
 8
MILANO
 10
0
 20
0
 30
0
 70
128
 71
167
 72
166
 73
58
 74
59
 0
VERTEX
 8
MILANO
 10
0
 20
0
 30
0
 70
128
 71
156
 72
181
 73
83
 74
28
 0
VERTEX
 8
MILANO
 10
0
 20
0
 30
0
 70
128
 71
157
 72
180
 73
82
 74
49
 0
VERTEX
 8
MILANO
 10
0
 20
0
 30
0
 70
128
 71
155
 72
156
 73
28
 74
27
 0
VERTEX
 8
MILANO
 10
0
 20
0
 30
0
 70
128
 71
180
 72
179
 73
78
 74
82
 0
VERTEX
 8
MILANO
 10
0
 20
0
 30
0
 70
128
 71
154
 72
155
 73
27
 74
26
 0
VERTEX
 8
MILANO
 10
0
 20
0
 30
0
 70
128
 71
179
 72
178
 73
70
 74
78
 0
VERTEX
 8
MILANO
 10
0
 20
0
 30
0
 70
128
 71
153
 72
154
 73
26
 74
23
 0
VERTEX
 8
MILANO
 10
0
 20
0
 30
0
 70
128
 71
178
 72
177
 73
69
 74
70
 0
VERTEX
 8
MILANO
 10
0
 20
0
 30
0
 70
128
 71
143
 72
144
 73
7
 74
6
 0
VERTEX
 8
MILANO
 10
0
 20
0
 30
0
 70
128
 71
168
 72
167
 73
59
 74
60
 0
VERTEX
 8
MILANO
 10
0
 20
0
 30
0
 70
128
 71
144
 72
145
 73
8
 74
7
 0
VERTEX
 8
MILANO
 10
0
 20
0
 30
0
 70
128
 71
169
 72
168
 73
60
 74
61
 0
VERTEX
 8
MILANO
 10
0
 20
0
 30
0
 70
128
 71
152
 72
153
 73
23
 74
22
 0
VERTEX
 8
MILANO
 10
0
 20
0
 30
0
 70
128
 71
177
 72
176
 73
68
 74
69
 0
VERTEX
 8
MILANO
 10
0
 20
0
 30
0
 70
128
 71
151
 72
152
 73
22
 74
21
 0
VERTEX
 8
MILANO
 10
0
 20
0
 30
0
 70
128
 71
176
 72
175
 73
67
 74
68
 0
VERTEX
 8
MILANO
 10
0
 20
0
 30
0
 70
128
 71
150
 72
151
 73
21
 74
17
 0
VERTEX
 8
MILANO
 10
0
 20
0
 30
0
 70
128
 71
175
 72
174
 73
66
 74
67
 0
VERTEX
 8
MILANO
 10
0
 20
0
 30
0
 70
128
 71
149
 72
150
 73
17
 74
16
 0
VERTEX
 8
MILANO
 10
0
 20
0
 30
0
 70
128
 71
174
 72
173
 73
65
 74
66
 0
VERTEX
 8
MILANO
 10
0
 20
0
 30
0
 70
128
 71
148
 72
149
 73
16
 74
12
 0
VERTEX
 8
MILANO
 10
0
 20
0
 30
0
 70
128
 71
173
 72
172
 73
64
 74
65
 0
VERTEX
 8
MILANO
 10
0
 20
0
 30
0
 70
128
 71
147
 72
148
 73
12
 74
11
 0
VERTEX
 8
MILANO
 10
0
 20
0
 30
0
 70
128
 71
172
 72
171
 73
63
 74
64
 0
VERTEX
 8
MILANO
 10
0
 20
0
 30
0
 70
128
 71
146
 72
147
 73
11
 74
10
 0
VERTEX
 8
MILANO
 10
0
 20
0
 30
0
 70
128
 71
171
 72
170
 73
62
 74
63
 0
VERTEX
 8
MILANO
 10
0
 20
0
 30
0
 70
128
 71
141
 72
142
 73
5
 74
4
 0
VERTEX
 8
MILANO
 10
0
 20
0
 30
0
 70
128
 71
166
 72
165
 73
57
 74
58
 0
VERTEX
 8
MILANO
 10
0
 20
0
 30
0
 70
128
 71
165
 72
164
 73
56
 74
57
 0
VERTEX
 8
MILANO
 10
0
 20
0
 30
0
 70
128
 71
140
 72
141
 73
4
 74
3
 0
VERTEX
 8
MILANO
 10
0
 20
0
 30
0
 70
128
 71
164
 72
163
 73
55
 74
56
 0
VERTEX
 8
MILANO
 10
0
 20
0
 30
0
 70
128
 71
139
 72
140
 73
3
 74
2
 0
VERTEX
 8
MILANO
 10
0
 20
0
 30
0
 70
128
 71
163
 72
162
 73
54
 74
55
 0
VERTEX
 8
MILANO
 10
0
 20
0
 30
0
 70
128
 71
186
 72
139
 73
2
 74
93
 0
VERTEX
 8
MILANO
 10
0
 20
0
 30
0
 70
128
 71
162
 72
161
 73
53
 74
54
 0
VERTEX
 8
MILANO
 10
0
 20
0
 30
0
 70
128
 71
185
 72
186
 73
93
 74
89
 0
VERTEX
 8
MILANO
 10
0
 20
0
 30
0
 70
128
 71
161
 72
160
 73
52
 74
53
 0
VERTEX
 8
MILANO
 10
0
 20
0
 30
0
 70
128
 71
184
 72
185
 73
89
 74
88
 0
VERTEX
 8
MILANO
 10
0
 20
0
 30
0
 70
128
 71
160
 72
159
 73
51
 74
52
 0
VERTEX
 8
MILANO
 10
0
 20
0
 30
0
 70
128
 71
183
 72
184
 73
88
 74
87
 0
VERTEX
 8
MILANO
 10
0
 20
0
 30
0
 70
128
 71
145
 72
146
 73
10
 74
8
 0
VERTEX
 8
MILANO
 10
0
 20
0
 30
0
 70
128
 71
170
 72
169
 73
61
 74
62
 0
SEQEND
 0
POLYLINE
 8
CUBO
 66
1
 10
0.0
 20
0.0
 30
0.0
 70
64
 71
8
 72
6
 0
VERTEX
 8
CUBO
 10
-4.575
 20
-0.3002
 30
116.62
 70
192
 0
VERTEX
 8
CUBO
 10
-4.575
 20
-0.05
 30
116.62
 70
192
 0
VERTEX
 8
CUBO
 10
4.625
 20
-0.3002
 30
116.62
 70
192
 0
VERTEX
 8
CUBO
 10
4.625
 20
-0.05
 30
116.62
 70
192
 0
VERTEX
 8
CUBO
 10
4.625
 20
-0.3002
 30
110.42
 70
192
 0
VERTEX
 8
CUBO
 10
4.625
 20
-0.05
 30
110.42
 70
192
 0
VERTEX
 8
CUBO
 10
-4.575
 20
-0.3002
 30
110.42
 70
192
 0
VERTEX
 8
CUBO
 10
-4.575
 20
-0.05
 30
110.42
 70
192
 0
VERTEX
 8
CUBO
 10
0
 20
0
 30
0
 70
128
 71
1
 72
2
 73
4
 74
3
 0
VERTEX
 8
CUBO
 10
0
 20
0
 30
0
 70
128
 71
3
 72
4
 73
6
 74
5
 0
VERTEX
 8
CUBO
 10
0
 20
0
 30
0
 70
128
 71
5
 72
6
 73
8
 74
7
 0
VERTEX
 8
CUBO
 10
0
 20
0
 30
0
 70
128
 71
7
 72
8
 73
2
 74
1
 0
VERTEX
 8
CUBO
 10
0
 20
0
 30
0
 70
128
 71
2
 72
8
 73
6
 74
4
 0
VERTEX
 8
CUBO
 10
0
 20
0
 30
0
 70
128
 71
7
 72
1
 73
3
 74
5
 0
SEQEND
 0
POLYLINE
 8
CILINDRO
 66
1
 10
0.0
 20
0.0
 30
0.0
 70
64
 71
80
 72
80
 0
VERTEX
 8
CILINDRO
 10
-11.872
 20
-3.3595
 30
143.0197
 70
192
 0
VERTEX
 8
CILINDRO
 10
11.8721
 20
-3.3595
 30
143.0197
 70
192
 0
VERTEX
 8
CILINDRO
 10
-11.952
 20
-3.3595
 30
143.3868
 70
192
 0
VERTEX
 8
CILINDRO
 10
11.9521
 20
-3.3595
 30
143.3868
 70
192
 0
VERTEX
 8
CILINDRO
 10
-11.952
 20
-3.3595
 30
144.1534
 70
192
 0
VERTEX
 8
CILINDRO
 10
11.9521
 20
-3.3595
 30
144.1534
 70
192
 0
VERTEX
 8
CILINDRO
 10
-11.952
 20
-3.3595
 30
144.8865
 70
192
 0
VERTEX
 8
CILINDRO
 10
11.9521
 20
-3.3595
 30
144.8865
 70
192
 0
VERTEX
 8
CILINDRO
 10
-11.952
 20
-3.3595
 30
145.6531
 70
192
 0
VERTEX
 8
CILINDRO
 10
-11.872
 20
-3.3595
 30
146.0202
 70
192
 0
VERTEX
 8
CILINDRO
 10
11.9521
 20
-3.3595
 30
145.6531
 70
192
 0
VERTEX
 8
CILINDRO
 10
11.8721
 20
-3.3595
 30
146.0202
 70
192
 0
VERTEX
 8
CILINDRO
 10
-11.872
 20
-3.2167
 30
143.3404
 70
192
 0
VERTEX
 8
CILINDRO
 10
11.8721
 20
-3.2167
 30
143.3404
 70
192
 0
VERTEX
 8
CILINDRO
 10
11.8721
 20
-3.2167
 30
145.6995
 70
192
 0
VERTEX
 8
CILINDRO
 10
-11.872
 20
-3.2167
 30
145.6995
 70
192
 0
VERTEX
 8
CILINDRO
 10
11.8721
 20
-3.0508
 30
144.919
 70
192
 0
VERTEX
 8
CILINDRO
 10
-11.872
 20
-3.0508
 30
144.919
 70
192
 0
VERTEX
 8
CILINDRO
 10
11.8721
 20
-3.0508
 30
144.121
 70
192
 0
VERTEX
 8
CILINDRO
 10
-11.872
 20
-3.0508
 30
144.121
 70
192
 0
VERTEX
 8
CILINDRO
 10
-11.872
 20
-4.2099
 30
143.0197
 70
192
 0
VERTEX
 8
CILINDRO
 10
11.8721
 20
-4.2099
 30
143.0197
 70
192
 0
VERTEX
 8
CILINDRO
 10
-11.872
 20
-4.2099
 30
143.3868
 70
192
 0
VERTEX
 8
CILINDRO
 10
11.8721
 20
-4.2099
 30
143.3868
 70
192
 0
VERTEX
 8
CILINDRO
 10
-11.872
 20
-4.2099
 30
144.1534
 70
192
 0
VERTEX
 8
CILINDRO
 10
11.8721
 20
-4.2099
 30
144.1534
 70
192
 0
VERTEX
 8
CILINDRO
 10
-11.872
 20
-4.2099
 30
144.8865
 70
192
 0
VERTEX
 8
CILINDRO
 10
11.8721
 20
-4.2099
 30
144.8865
 70
192
 0
VERTEX
 8
CILINDRO
 10
-11.872
 20
-4.2099
 30
145.6531
 70
192
 0
VERTEX
 8
CILINDRO
 10
-11.872
 20
-4.2099
 30
146.0202
 70
192
 0
VERTEX
 8
CILINDRO
 10
11.8721
 20
-4.2099
 30
145.6531
 70
192
 0
VERTEX
 8
CILINDRO
 10
11.8721
 20
-4.2099
 30
146.0202
 70
192
 0
VERTEX
 8
CILINDRO
 10
-11.872
 20
-3.379
 30
143.0497
 70
192
 0
VERTEX
 8
CILINDRO
 10
-11.872
 20
-3.379
 30
145.9902
 70
192
 0
VERTEX
 8
CILINDRO
 10
-11.872
 20
-3.2454
 30
143.3497
 70
192
 0
VERTEX
 8
CILINDRO
 10
-11.872
 20
-3.2454
 30
145.6902
 70
192
 0
VERTEX
 8
CILINDRO
 10
-11.872
 20
-3.0808
 30
144.9158
 70
192
 0
VERTEX
 8
CILINDRO
 10
-11.872
 20
-3.0808
 30
144.1241
 70
192
 0
VERTEX
 8
CILINDRO
 10
-11.872
 20
-4.1799
 30
143.0497
 70
192
 0
VERTEX
 8
CILINDRO
 10
-11.872
 20
-4.1799
 30
143.3868
 70
192
 0
VERTEX
 8
CILINDRO
 10
-11.872
 20
-4.1799
 30
144.1534
 70
192
 0
VERTEX
 8
CILINDRO
 10
-11.872
 20
-4.1799
 30
144.8865
 70
192
 0
VERTEX
 8
CILINDRO
 10
-11.872
 20
-4.1799
 30
145.6531
 70
192
 0
VERTEX
 8
CILINDRO
 10
-11.872
 20
-4.1799
 30
145.9902
 70
192
 0
VERTEX
 8
CILINDRO
 10
11.8721
 20
-3.379
 30
143.0497
 70
192
 0
VERTEX
 8
CILINDRO
 10
11.8721
 20
-3.379
 30
145.9902
 70
192
 0
VERTEX
 8
CILINDRO
 10
11.8721
 20
-3.2454
 30
143.3497
 70
192
 0
VERTEX
 8
CILINDRO
 10
11.8721
 20
-3.2454
 30
145.6902
 70
192
 0
VERTEX
 8
CILINDRO
 10
11.8721
 20
-3.0808
 30
144.9158
 70
192
 0
VERTEX
 8
CILINDRO
 10
11.8721
 20
-3.0808
 30
144.1241
 70
192
 0
VERTEX
 8
CILINDRO
 10
11.8721
 20
-4.1799
 30
143.0497
 70
192
 0
VERTEX
 8
CILINDRO
 10
11.8721
 20
-4.1799
 30
143.3868
 70
192
 0
VERTEX
 8
CILINDRO
 10
11.8721
 20
-4.1799
 30
144.1534
 70
192
 0
VERTEX
 8
CILINDRO
 10
11.8721
 20
-4.1799
 30
144.8865
 70
192
 0
VERTEX
 8
CILINDRO
 10
11.8721
 20
-4.1799
 30
145.6531
 70
192
 0
VERTEX
 8
CILINDRO
 10
11.8721
 20
-4.1799
 30
145.9902
 70
192
 0
VERTEX
 8
CILINDRO
 10
-11.952
 20
-3.379
 30
143.0497
 70
192
 0
VERTEX
 8
CILINDRO
 10
-11.952
 20
-3.379
 30
145.9902
 70
192
 0
VERTEX
 8
CILINDRO
 10
-11.952
 20
-3.2454
 30
143.3497
 70
192
 0
VERTEX
 8
CILINDRO
 10
-11.952
 20
-3.2454
 30
145.6902
 70
192
 0
VERTEX
 8
CILINDRO
 10
-11.952
 20
-3.0808
 30
144.9158
 70
192
 0
VERTEX
 8
CILINDRO
 10
-11.952
 20
-3.0808
 30
144.1241
 70
192
 0
VERTEX
 8
CILINDRO
 10
-11.952
 20
-4.1799
 30
143.0497
 70
192
 0
VERTEX
 8
CILINDRO
 10
-11.952
 20
-4.1799
 30
143.3868
 70
192
 0
VERTEX
 8
CILINDRO
 10
-11.952
 20
-4.1799
 30
144.1534
 70
192
 0
VERTEX
 8
CILINDRO
 10
-11.952
 20
-4.1799
 30
144.8865
 70
192
 0
VERTEX
 8
CILINDRO
 10
-11.952
 20
-4.1799
 30
145.6531
 70
192
 0
VERTEX
 8
CILINDRO
 10
-11.952
 20
-4.1799
 30
145.9902
 70
192
 0
VERTEX
 8
CILINDRO
 10
11.9521
 20
-3.379
 30
143.0497
 70
192
 0
VERTEX
 8
CILINDRO
 10
11.9521
 20
-3.379
 30
145.9902
 70
192
 0
VERTEX
 8
CILINDRO
 10
11.9521
 20
-3.2454
 30
143.3497
 70
192
 0
VERTEX
 8
CILINDRO
 10
11.9521
 20
-3.2454
 30
145.6902
 70
192
 0
VERTEX
 8
CILINDRO
 10
11.9521
 20
-3.0808
 30
144.9158
 70
192
 0
VERTEX
 8
CILINDRO
 10
11.9521
 20
-3.0808
 30
144.1241
 70
192
 0
VERTEX
 8
CILINDRO
 10
11.9521
 20
-4.1799
 30
143.0497
 70
192
 0
VERTEX
 8
CILINDRO
 10
11.9521
 20
-4.1799
 30
143.3868
 70
192
 0
VERTEX
 8
CILINDRO
 10
11.9521
 20
-4.1799
 30
144.1534
 70
192
 0
VERTEX
 8
CILINDRO
 10
11.9521
 20
-4.1799
 30
144.8865
 70
192
 0
VERTEX
 8
CILINDRO
 10
11.9521
 20
-4.1799
 30
145.6531
 70
192
 0
VERTEX
 8
CILINDRO
 10
11.9521
 20
-4.1799
 30
145.9902
 70
192
 0
VERTEX
 8
CILINDRO
 10
0
 20
0
 30
0
 70
128
 71
3
 72
59
 73
62
 74
5
 0
VERTEX
 8
CILINDRO
 10
0
 20
0
 30
0
 70
128
 71
6
 72
74
 73
71
 74
4
 0
VERTEX
 8
CILINDRO
 10
0
 20
0
 30
0
 70
128
 71
5
 72
62
 73
61
 74
7
 0
VERTEX
 8
CILINDRO
 10
0
 20
0
 30
0
 70
128
 71
8
 72
73
 73
74
 74
6
 0
VERTEX
 8
CILINDRO
 10
0
 20
0
 30
0
 70
128
 71
7
 72
61
 73
60
 74
9
 0
VERTEX
 8
CILINDRO
 10
0
 20
0
 30
0
 70
128
 71
11
 72
72
 73
73
 74
8
 0
VERTEX
 8
CILINDRO
 10
0
 20
0
 30
0
 70
128
 71
10
 72
16
 73
15
 74
12
 0
VERTEX
 8
CILINDRO
 10
0
 20
0
 30
0
 70
128
 71
59
 72
3
 73
57
 74
57
 0
VERTEX
 8
CILINDRO
 10
0
 20
0
 30
0
 70
128
 71
14
 72
13
 73
1
 74
2
 0
VERTEX
 8
CILINDRO
 10
0
 20
0
 30
0
 70
128
 71
4
 72
71
 73
69
 74
69
 0
VERTEX
 8
CILINDRO
 10
0
 20
0
 30
0
 70
128
 71
19
 72
20
 73
13
 74
14
 0
VERTEX
 8
CILINDRO
 10
0
 20
0
 30
0
 70
128
 71
17
 72
18
 73
20
 74
19
 0
VERTEX
 8
CILINDRO
 10
0
 20
0
 30
0
 70
128
 71
15
 72
16
 73
18
 74
17
 0
VERTEX
 8
CILINDRO
 10
0
 20
0
 30
0
 70
128
 71
9
 72
60
 73
58
 74
58
 0
VERTEX
 8
CILINDRO
 10
0
 20
0
 30
0
 70
128
 71
70
 72
72
 73
11
 74
11
 0
VERTEX
 8
CILINDRO
 10
0
 20
0
 30
0
 70
128
 71
30
 72
32
 73
31
 74
29
 0
VERTEX
 8
CILINDRO
 10
0
 20
0
 30
0
 70
128
 71
24
 72
22
 73
21
 74
23
 0
VERTEX
 8
CILINDRO
 10
0
 20
0
 30
0
 70
128
 71
29
 72
31
 73
28
 74
27
 0
VERTEX
 8
CILINDRO
 10
0
 20
0
 30
0
 70
128
 71
24
 72
23
 73
25
 74
26
 0
VERTEX
 8
CILINDRO
 10
0
 20
0
 30
0
 70
128
 71
27
 72
28
 73
26
 74
25
 0
VERTEX
 8
CILINDRO
 10
0
 20
0
 30
0
 70
128
 71
30
 72
10
 73
12
 74
32
 0
VERTEX
 8
CILINDRO
 10
0
 20
0
 30
0
 70
128
 71
80
 72
70
 73
11
 74
79
 0
VERTEX
 8
CILINDRO
 10
0
 20
0
 30
0
 70
128
 71
67
 72
9
 73
58
 74
68
 0
VERTEX
 8
CILINDRO
 10
0
 20
0
 30
0
 70
128
 71
76
 72
4
 73
69
 74
75
 0
VERTEX
 8
CILINDRO
 10
0
 20
0
 30
0
 70
128
 71
22
 72
2
 73
1
 74
21
 0
VERTEX
 8
CILINDRO
 10
0
 20
0
 30
0
 70
128
 71
63
 72
57
 73
3
 74
64
 0
VERTEX
 8
CILINDRO
 10
0
 20
0
 30
0
 70
128
 71
79
 72
11
 73
8
 74
78
 0
VERTEX
 8
CILINDRO
 10
0
 20
0
 30
0
 70
128
 71
66
 72
7
 73
9
 74
67
 0
VERTEX
 8
CILINDRO
 10
0
 20
0
 30
0
 70
128
 71
64
 72
3
 73
5
 74
65
 0
VERTEX
 8
CILINDRO
 10
0
 20
0
 30
0
 70
128
 71
77
 72
6
 73
4
 74
76
 0
VERTEX
 8
CILINDRO
 10
0
 20
0
 30
0
 70
128
 71
78
 72
8
 73
6
 74
77
 0
VERTEX
 8
CILINDRO
 10
0
 20
0
 30
0
 70
128
 71
65
 72
5
 73
7
 74
66
 0
VERTEX
 8
CILINDRO
 10
0
 20
0
 30
0
 70
128
 71
35
 72
13
 73
20
 74
38
 0
VERTEX
 8
CILINDRO
 10
0
 20
0
 30
0
 70
128
 71
38
 72
20
 73
18
 74
37
 0
VERTEX
 8
CILINDRO
 10
0
 20
0
 30
0
 70
128
 71
37
 72
18
 73
16
 74
36
 0
VERTEX
 8
CILINDRO
 10
0
 20
0
 30
0
 70
128
 71
33
 72
1
 73
13
 74
35
 0
VERTEX
 8
CILINDRO
 10
0
 20
0
 30
0
 70
128
 71
36
 72
16
 73
10
 74
34
 0
VERTEX
 8
CILINDRO
 10
0
 20
0
 30
0
 70
128
 71
34
 72
10
 73
30
 74
44
 0
VERTEX
 8
CILINDRO
 10
0
 20
0
 30
0
 70
128
 71
44
 72
30
 73
29
 74
43
 0
VERTEX
 8
CILINDRO
 10
0
 20
0
 30
0
 70
128
 71
39
 72
21
 73
1
 74
33
 0
VERTEX
 8
CILINDRO
 10
0
 20
0
 30
0
 70
128
 71
40
 72
23
 73
21
 74
39
 0
VERTEX
 8
CILINDRO
 10
0
 20
0
 30
0
 70
128
 71
43
 72
29
 73
27
 74
42
 0
VERTEX
 8
CILINDRO
 10
0
 20
0
 30
0
 70
128
 71
41
 72
25
 73
23
 74
40
 0
VERTEX
 8
CILINDRO
 10
0
 20
0
 30
0
 70
128
 71
42
 72
27
 73
25
 74
41
 0
VERTEX
 8
CILINDRO
 10
0
 20
0
 30
0
 70
128
 71
50
 72
19
 73
14
 74
47
 0
VERTEX
 8
CILINDRO
 10
0
 20
0
 30
0
 70
128
 71
49
 72
17
 73
19
 74
50
 0
VERTEX
 8
CILINDRO
 10
0
 20
0
 30
0
 70
128
 71
48
 72
15
 73
17
 74
49
 0
VERTEX
 8
CILINDRO
 10
0
 20
0
 30
0
 70
128
 71
47
 72
14
 73
2
 74
45
 0
VERTEX
 8
CILINDRO
 10
0
 20
0
 30
0
 70
128
 71
46
 72
12
 73
15
 74
48
 0
VERTEX
 8
CILINDRO
 10
0
 20
0
 30
0
 70
128
 71
56
 72
32
 73
12
 74
46
 0
VERTEX
 8
CILINDRO
 10
0
 20
0
 30
0
 70
128
 71
55
 72
31
 73
32
 74
56
 0
VERTEX
 8
CILINDRO
 10
0
 20
0
 30
0
 70
128
 71
45
 72
2
 73
22
 74
51
 0
VERTEX
 8
CILINDRO
 10
0
 20
0
 30
0
 70
128
 71
51
 72
22
 73
24
 74
52
 0
VERTEX
 8
CILINDRO
 10
0
 20
0
 30
0
 70
128
 71
54
 72
28
 73
31
 74
55
 0
VERTEX
 8
CILINDRO
 10
0
 20
0
 30
0
 70
128
 71
52
 72
24
 73
26
 74
53
 0
VERTEX
 8
CILINDRO
 10
0
 20
0
 30
0
 70
128
 71
53
 72
26
 73
28
 74
54
 0
VERTEX
 8
CILINDRO
 10
0
 20
0
 30
0
 70
128
 71
59
 72
35
 73
38
 74
62
 0
VERTEX
 8
CILINDRO
 10
0
 20
0
 30
0
 70
128
 71
62
 72
38
 73
37
 74
61
 0
VERTEX
 8
CILINDRO
 10
0
 20
0
 30
0
 70
128
 71
61
 72
37
 73
36
 74
60
 0
VERTEX
 8
CILINDRO
 10
0
 20
0
 30
0
 70
128
 71
57
 72
33
 73
35
 74
59
 0
VERTEX
 8
CILINDRO
 10
0
 20
0
 30
0
 70
128
 71
60
 72
36
 73
34
 74
58
 0
VERTEX
 8
CILINDRO
 10
0
 20
0
 30
0
 70
128
 71
58
 72
34
 73
44
 74
68
 0
VERTEX
 8
CILINDRO
 10
0
 20
0
 30
0
 70
128
 71
68
 72
44
 73
43
 74
67
 0
VERTEX
 8
CILINDRO
 10
0
 20
0
 30
0
 70
128
 71
63
 72
39
 73
33
 74
57
 0
VERTEX
 8
CILINDRO
 10
0
 20
0
 30
0
 70
128
 71
64
 72
40
 73
39
 74
63
 0
VERTEX
 8
CILINDRO
 10
0
 20
0
 30
0
 70
128
 71
67
 72
43
 73
42
 74
66
 0
VERTEX
 8
CILINDRO
 10
0
 20
0
 30
0
 70
128
 71
65
 72
41
 73
40
 74
64
 0
VERTEX
 8
CILINDRO
 10
0
 20
0
 30
0
 70
128
 71
66
 72
42
 73
41
 74
65
 0
VERTEX
 8
CILINDRO
 10
0
 20
0
 30
0
 70
128
 71
74
 72
50
 73
47
 74
71
 0
VERTEX
 8
CILINDRO
 10
0
 20
0
 30
0
 70
128
 71
73
 72
49
 73
50
 74
74
 0
VERTEX
 8
CILINDRO
 10
0
 20
0
 30
0
 70
128
 71
72
 72
48
 73
49
 74
73
 0
VERTEX
 8
CILINDRO
 10
0
 20
0
 30
0
 70
128
 71
71
 72
47
 73
45
 74
69
 0
VERTEX
 8
CILINDRO
 10
0
 20
0
 30
0
 70
128
 71
70
 72
46
 73
48
 74
72
 0
VERTEX
 8
CILINDRO
 10
0
 20
0
 30
0
 70
128
 71
80
 72
56
 73
46
 74
70
 0
VERTEX
 8
CILINDRO
 10
0
 20
0
 30
0
 70
128
 71
79
 72
55
 73
56
 74
80
 0
VERTEX
 8
CILINDRO
 10
0
 20
0
 30
0
 70
128
 71
69
 72
45
 73
51
 74
75
 0
VERTEX
 8
CILINDRO
 10
0
 20
0
 30
0
 70
128
 71
75
 72
51
 73
52
 74
76
 0
VERTEX
 8
CILINDRO
 10
0
 20
0
 30
0
 70
128
 71
78
 72
54
 73
55
 74
79
 0
VERTEX
 8
CILINDRO
 10
0
 20
0
 30
0
 70
128
 71
76
 72
52
 73
53
 74
77
 0
VERTEX
 8
CILINDRO
 10
0
 20
0
 30
0
 70
128
 71
77
 72
53
 73
54
 74
78
 0
SEQEND
 0
POLYLINE
 8
CUBO_5
 66
1
 10
0.0
 20
0.0
 30
0.0
 70
64
 71
8
 72
6
 0
VERTEX
 8
CUBO_5
 10
-11.9183
 20
-4.21
 30
143.0202
 70
192
 0
VERTEX
 8
CUBO_5
 10
-11.9183
 20
-4.21
 30
146.02
 70
192
 0
VERTEX
 8
CUBO_5
 10
-19.9997
 20
-4.21
 30
143.0202
 70
192
 0
VERTEX
 8
CUBO_5
 10
-19.9997
 20
-4.21
 30
146.02
 70
192
 0
VERTEX
 8
CUBO_5
 10
-19.9997
 20
-0.51
 30
143.0202
 70
192
 0
VERTEX
 8
CUBO_5
 10
-19.9997
 20
-0.51
 30
146.02
 70
192
 0
VERTEX
 8
CUBO_5
 10
-11.9995
 20
-0.51
 30
143.0202
 70
192
 0
VERTEX
 8
CUBO_5
 10
-11.9995
 20
-0.51
 30
146.02
 70
192
 0
VERTEX
 8
CUBO_5
 10
0
 20
0
 30
0
 70
128
 71
1
 72
3
 73
4
 74
2
 0
VERTEX
 8
CUBO_5
 10
0
 20
0
 30
0
 70
128
 71
3
 72
5
 73
6
 74
4
 0
VERTEX
 8
CUBO_5
 10
0
 20
0
 30
0
 70
128
 71
5
 72
7
 73
8
 74
6
 0
VERTEX
 8
CUBO_5
 10
0
 20
0
 30
0
 70
128
 71
7
 72
1
 73
2
 74
8
 0
VERTEX
 8
CUBO_5
 10
0
 20
0
 30
0
 70
128
 71
2
 72
4
 73
6
 74
8
 0
VERTEX
 8
CUBO_5
 10
0
 20
0
 30
0
 70
128
 71
7
 72
5
 73
3
 74
1
 0
SEQEND
 0
POLYLINE
 8
CUBO_4
 66
1
 10
0.0
 20
0.0
 30
0.0
 70
64
 71
8
 72
6
 0
VERTEX
 8
CUBO_4
 10
11.9186
 20
-4.21
 30
143.0202
 70
192
 0
VERTEX
 8
CUBO_4
 10
11.9186
 20
-4.21
 30
146.02
 70
192
 0
VERTEX
 8
CUBO_4
 10
20
 20
-4.21
 30
143.0202
 70
192
 0
VERTEX
 8
CUBO_4
 10
20
 20
-4.21
 30
146.02
 70
192
 0
VERTEX
 8
CUBO_4
 10
20
 20
-0.51
 30
143.0202
 70
192
 0
VERTEX
 8
CUBO_4
 10
20
 20
-0.51
 30
146.02
 70
192
 0
VERTEX
 8
CUBO_4
 10
11.9997
 20
-0.51
 30
143.0202
 70
192
 0
VERTEX
 8
CUBO_4
 10
11.9997
 20
-0.51
 30
146.02
 70
192
 0
VERTEX
 8
CUBO_4
 10
0
 20
0
 30
0
 70
128
 71
1
 72
2
 73
4
 74
3
 0
VERTEX
 8
CUBO_4
 10
0
 20
0
 30
0
 70
128
 71
3
 72
4
 73
6
 74
5
 0
VERTEX
 8
CUBO_4
 10
0
 20
0
 30
0
 70
128
 71
5
 72
6
 73
8
 74
7
 0
VERTEX
 8
CUBO_4
 10
0
 20
0
 30
0
 70
128
 71
7
 72
8
 73
2
 74
1
 0
VERTEX
 8
CUBO_4
 10
0
 20
0
 30
0
 70
128
 71
2
 72
8
 73
6
 74
4
 0
VERTEX
 8
CUBO_4
 10
0
 20
0
 30
0
 70
128
 71
7
 72
1
 73
3
 74
5
 0
SEQEND
 0
POLYLINE
 8
CUBO_3
 66
1
 10
0.0
 20
0.0
 30
0.0
 70
64
 71
8
 72
6
 0
VERTEX
 8
CUBO_3
 10
-20
 20
-0.5099
 30
139.32
 70
192
 0
VERTEX
 8
CUBO_3
 10
-20
 20
-0.5099
 30
146.02
 70
192
 0
VERTEX
 8
CUBO_3
 10
20
 20
-0.5099
 30
139.32
 70
192
 0
VERTEX
 8
CUBO_3
 10
20
 20
-0.5099
 30
146.02
 70
192
 0
VERTEX
 8
CUBO_3
 10
20
 20
-0.1299
 30
139.32
 70
192
 0
VERTEX
 8
CUBO_3
 10
20
 20
-0.1299
 30
146.02
 70
192
 0
VERTEX
 8
CUBO_3
 10
-20
 20
-0.1299
 30
139.32
 70
192
 0
VERTEX
 8
CUBO_3
 10
-20
 20
-0.1299
 30
146.02
 70
192
 0
VERTEX
 8
CUBO_3
 10
0
 20
0
 30
0
 70
128
 71
1
 72
2
 73
4
 74
3
 0
VERTEX
 8
CUBO_3
 10
0
 20
0
 30
0
 70
128
 71
3
 72
4
 73
6
 74
5
 0
VERTEX
 8
CUBO_3
 10
0
 20
0
 30
0
 70
128
 71
5
 72
6
 73
8
 74
7
 0
VERTEX
 8
CUBO_3
 10
0
 20
0
 30
0
 70
128
 71
7
 72
8
 73
2
 74
1
 0
VERTEX
 8
CUBO_3
 10
0
 20
0
 30
0
 70
128
 71
2
 72
8
 73
6
 74
4
 0
VERTEX
 8
CUBO_3
 10
0
 20
0
 30
0
 70
128
 71
7
 72
1
 73
3
 74
5
 0
SEQEND
 0
POLYLINE
 8
PANNELLO_FRONTALE
 66
1
 10
0.0
 20
0.0
 30
0.0
 70
64
 71
32
 72
32
 0
VERTEX
 8
PANNELLO_FRONTALE
 10
-29.7017
 20
-0.1298
 30
102.02
 70
192
 0
VERTEX
 8
PANNELLO_FRONTALE
 10
-29.7017
 20
-0.1298
 30
148.2198
 70
192
 0
VERTEX
 8
PANNELLO_FRONTALE
 10
29.7017
 20
-0.1298
 30
102.02
 70
192
 0
VERTEX
 8
PANNELLO_FRONTALE
 10
29.7017
 20
-0.1298
 30
148.2198
 70
192
 0
VERTEX
 8
PANNELLO_FRONTALE
 10
29.7017
 20
0.4501
 30
102.02
 70
192
 0
VERTEX
 8
PANNELLO_FRONTALE
 10
29.7017
 20
0.4501
 30
148.2198
 70
192
 0
VERTEX
 8
PANNELLO_FRONTALE
 10
-29.7017
 20
0.4501
 30
102.02
 70
192
 0
VERTEX
 8
PANNELLO_FRONTALE
 10
-29.7017
 20
0.4501
 30
148.2198
 70
192
 0
VERTEX
 8
PANNELLO_FRONTALE
 10
20
 20
-0.1298
 30
148.2198
 70
192
 0
VERTEX
 8
PANNELLO_FRONTALE
 10
20
 20
-0.1298
 30
102.02
 70
192
 0
VERTEX
 8
PANNELLO_FRONTALE
 10
20
 20
0.4501
 30
148.2198
 70
192
 0
VERTEX
 8
PANNELLO_FRONTALE
 10
20
 20
0.4501
 30
102.02
 70
192
 0
VERTEX
 8
PANNELLO_FRONTALE
 10
-29.7017
 20
-0.1298
 30
139.22
 70
192
 0
VERTEX
 8
PANNELLO_FRONTALE
 10
20
 20
-0.1298
 30
139.22
 70
192
 0
VERTEX
 8
PANNELLO_FRONTALE
 10
29.7017
 20
-0.1298
 30
139.22
 70
192
 0
VERTEX
 8
PANNELLO_FRONTALE
 10
29.7017
 20
0.4501
 30
139.22
 70
192
 0
VERTEX
 8
PANNELLO_FRONTALE
 10
20
 20
0.4501
 30
139.22
 70
192
 0
VERTEX
 8
PANNELLO_FRONTALE
 10
-29.7017
 20
0.4501
 30
139.22
 70
192
 0
VERTEX
 8
PANNELLO_FRONTALE
 10
-20
 20
-0.1298
 30
139.22
 70
192
 0
VERTEX
 8
PANNELLO_FRONTALE
 10
-20
 20
-0.1298
 30
102.02
 70
192
 0
VERTEX
 8
PANNELLO_FRONTALE
 10
-20
 20
0.4501
 30
148.2198
 70
192
 0
VERTEX
 8
PANNELLO_FRONTALE
 10
-20
 20
-0.1298
 30
148.2198
 70
192
 0
VERTEX
 8
PANNELLO_FRONTALE
 10
-20
 20
0.4501
 30
102.02
 70
192
 0
VERTEX
 8
PANNELLO_FRONTALE
 10
-20
 20
0.4501
 30
139.22
 70
192
 0
VERTEX
 8
PANNELLO_FRONTALE
 10
-29.7017
 20
-0.1298
 30
115.2201
 70
192
 0
VERTEX
 8
PANNELLO_FRONTALE
 10
-20
 20
-0.1298
 30
115.2201
 70
192
 0
VERTEX
 8
PANNELLO_FRONTALE
 10
29.7017
 20
-0.1298
 30
115.2201
 70
192
 0
VERTEX
 8
PANNELLO_FRONTALE
 10
29.7017
 20
0.4501
 30
115.2201
 70
192
 0
VERTEX
 8
PANNELLO_FRONTALE
 10
20
 20
0.4501
 30
115.2201
 70
192
 0
VERTEX
 8
PANNELLO_FRONTALE
 10
-29.7017
 20
0.4501
 30
115.2201
 70
192
 0
VERTEX
 8
PANNELLO_FRONTALE
 10
20
 20
-0.1298
 30
115.2201
 70
192
 0
VERTEX
 8
PANNELLO_FRONTALE
 10
-20
 20
0.4501
 30
115.2201
 70
192
 0
VERTEX
 8
PANNELLO_FRONTALE
 10
0
 20
0
 30
0
 70
128
 71
1
 72
25
 73
26
 74
20
 0
VERTEX
 8
PANNELLO_FRONTALE
 10
0
 20
0
 30
0
 70
128
 71
3
 72
27
 73
28
 74
5
 0
VERTEX
 8
PANNELLO_FRONTALE
 10
0
 20
0
 30
0
 70
128
 71
5
 72
28
 73
29
 74
12
 0
VERTEX
 8
PANNELLO_FRONTALE
 10
0
 20
0
 30
0
 70
128
 71
7
 72
30
 73
25
 74
1
 0
VERTEX
 8
PANNELLO_FRONTALE
 10
0
 20
0
 30
0
 70
128
 71
2
 72
8
 73
21
 74
22
 0
VERTEX
 8
PANNELLO_FRONTALE
 10
0
 20
0
 30
0
 70
128
 71
7
 72
1
 73
20
 74
23
 0
VERTEX
 8
PANNELLO_FRONTALE
 10
0
 20
0
 30
0
 70
128
 71
9
 72
4
 73
15
 74
14
 0
VERTEX
 8
PANNELLO_FRONTALE
 10
0
 20
0
 30
0
 70
128
 71
11
 72
21
 73
24
 74
17
 0
VERTEX
 8
PANNELLO_FRONTALE
 10
0
 20
0
 30
0
 70
128
 71
11
 72
6
 73
4
 74
9
 0
VERTEX
 8
PANNELLO_FRONTALE
 10
0
 20
0
 30
0
 70
128
 71
10
 72
3
 73
5
 74
12
 0
VERTEX
 8
PANNELLO_FRONTALE
 10
0
 20
0
 30
0
 70
128
 71
13
 72
2
 73
22
 74
19
 0
VERTEX
 8
PANNELLO_FRONTALE
 10
0
 20
0
 30
0
 70
128
 71
15
 72
4
 73
6
 74
16
 0
VERTEX
 8
PANNELLO_FRONTALE
 10
0
 20
0
 30
0
 70
128
 71
16
 72
6
 73
11
 74
17
 0
VERTEX
 8
PANNELLO_FRONTALE
 10
0
 20
0
 30
0
 70
128
 71
18
 72
8
 73
2
 74
13
 0
VERTEX
 8
PANNELLO_FRONTALE
 10
0
 20
0
 30
0
 70
128
 71
15
 72
27
 73
31
 74
14
 0
VERTEX
 8
PANNELLO_FRONTALE
 10
0
 20
0
 30
0
 70
128
 71
18
 72
30
 73
32
 74
24
 0
VERTEX
 8
PANNELLO_FRONTALE
 10
0
 20
0
 30
0
 70
128
 71
31
 72
10
 73
20
 74
26
 0
VERTEX
 8
PANNELLO_FRONTALE
 10
0
 20
0
 30
0
 70
128
 71
21
 72
11
 73
9
 74
22
 0
VERTEX
 8
PANNELLO_FRONTALE
 10
0
 20
0
 30
0
 70
128
 71
20
 72
10
 73
12
 74
23
 0
VERTEX
 8
PANNELLO_FRONTALE
 10
0
 20
0
 30
0
 70
128
 71
21
 72
8
 73
18
 74
24
 0
VERTEX
 8
PANNELLO_FRONTALE
 10
0
 20
0
 30
0
 70
128
 71
22
 72
9
 73
14
 74
19
 0
VERTEX
 8
PANNELLO_FRONTALE
 10
0
 20
0
 30
0
 70
128
 71
23
 72
12
 73
29
 74
32
 0
VERTEX
 8
PANNELLO_FRONTALE
 10
0
 20
0
 30
0
 70
128
 71
25
 72
13
 73
19
 74
26
 0
VERTEX
 8
PANNELLO_FRONTALE
 10
0
 20
0
 30
0
 70
128
 71
27
 72
15
 73
16
 74
28
 0
VERTEX
 8
PANNELLO_FRONTALE
 10
0
 20
0
 30
0
 70
128
 71
28
 72
16
 73
17
 74
29
 0
VERTEX
 8
PANNELLO_FRONTALE
 10
0
 20
0
 30
0
 70
128
 71
30
 72
18
 73
13
 74
25
 0
VERTEX
 8
PANNELLO_FRONTALE
 10
0
 20
0
 30
0
 70
128
 71
27
 72
3
 73
10
 74
31
 0
VERTEX
 8
PANNELLO_FRONTALE
 10
0
 20
0
 30
0
 70
128
 71
30
 72
7
 73
23
 74
32
 0
VERTEX
 8
PANNELLO_FRONTALE
 10
0
 20
0
 30
0
 70
128
 71
26
 72
19
 73
24
 74
32
 0
VERTEX
 8
PANNELLO_FRONTALE
 10
0
 20
0
 30
0
 70
128
 71
31
 72
26
 73
32
 74
29
 0
VERTEX
 8
PANNELLO_FRONTALE
 10
0
 20
0
 30
0
 70
128
 71
17
 72
24
 73
19
 74
14
 0
VERTEX
 8
PANNELLO_FRONTALE
 10
0
 20
0
 30
0
 70
128
 71
29
 72
17
 73
14
 74
31
 0
SEQEND
 0
POLYLINE
 8
VETRO
 66
1
 10
0.0
 20
0.0
 30
0.0
 70
64
 71
8
 72
6
 0
VERTEX
 8
VETRO
 10
20
 20
-0.1298
 30
139.22
 70
192
 0
VERTEX
 8
VETRO
 10
20
 20
0.4501
 30
139.22
 70
192
 0
VERTEX
 8
VETRO
 10
-20
 20
-0.1298
 30
139.22
 70
192
 0
VERTEX
 8
VETRO
 10
-20
 20
0.4501
 30
139.22
 70
192
 0
VERTEX
 8
VETRO
 10
-20
 20
-0.1298
 30
115.2201
 70
192
 0
VERTEX
 8
VETRO
 10
20
 20
0.4501
 30
115.2201
 70
192
 0
VERTEX
 8
VETRO
 10
20
 20
-0.1298
 30
115.2201
 70
192
 0
VERTEX
 8
VETRO
 10
-20
 20
0.4501
 30
115.2201
 70
192
 0
VERTEX
 8
VETRO
 10
0
 20
0
 30
0
 70
128
 71
3
 72
1
 73
7
 74
5
 0
VERTEX
 8
VETRO
 10
0
 20
0
 30
0
 70
128
 71
6
 72
2
 73
4
 74
8
 0
VERTEX
 8
VETRO
 10
0
 20
0
 30
0
 70
128
 71
2
 72
6
 73
7
 74
1
 0
VERTEX
 8
VETRO
 10
0
 20
0
 30
0
 70
128
 71
4
 72
2
 73
1
 74
3
 0
VERTEX
 8
VETRO
 10
0
 20
0
 30
0
 70
128
 71
6
 72
8
 73
5
 74
7
 0
VERTEX
 8
VETRO
 10
0
 20
0
 30
0
 70
128
 71
8
 72
4
 73
3
 74
5
 0
SEQEND
 0
POLYLINE
 8
CORNICE_DISPLAY
 66
1
 10
0.0
 20
0.0
 30
0.0
 70
64
 71
32
 72
32
 0
VERTEX
 8
CORNICE_DISPLAY
 10
-8.5027
 20
-0.2099
 30
151.1224
 70
192
 0
VERTEX
 8
CORNICE_DISPLAY
 10
-8.5027
 20
-0.2099
 30
158.1277
 70
192
 0
VERTEX
 8
CORNICE_DISPLAY
 10
8.5027
 20
-0.2099
 30
151.1224
 70
192
 0
VERTEX
 8
CORNICE_DISPLAY
 10
8.5027
 20
-0.2099
 30
158.1277
 70
192
 0
VERTEX
 8
CORNICE_DISPLAY
 10
8.5027
 20
0.3701
 30
151.1224
 70
192
 0
VERTEX
 8
CORNICE_DISPLAY
 10
8.5027
 20
0.3701
 30
158.1277
 70
192
 0
VERTEX
 8
CORNICE_DISPLAY
 10
-8.5027
 20
0.3701
 30
151.1224
 70
192
 0
VERTEX
 8
CORNICE_DISPLAY
 10
-8.5027
 20
0.3701
 30
158.1277
 70
192
 0
VERTEX
 8
CORNICE_DISPLAY
 10
-8.199
 20
-0.2099
 30
158.1277
 70
192
 0
VERTEX
 8
CORNICE_DISPLAY
 10
-8.199
 20
-0.2099
 30
151.1224
 70
192
 0
VERTEX
 8
CORNICE_DISPLAY
 10
-8.199
 20
0.3701
 30
158.1277
 70
192
 0
VERTEX
 8
CORNICE_DISPLAY
 10
-8.199
 20
0.3701
 30
151.1224
 70
192
 0
VERTEX
 8
CORNICE_DISPLAY
 10
-8.5027
 20
-0.2099
 30
151.4223
 70
192
 0
VERTEX
 8
CORNICE_DISPLAY
 10
-8.199
 20
-0.2099
 30
151.4223
 70
192
 0
VERTEX
 8
CORNICE_DISPLAY
 10
8.5027
 20
-0.2099
 30
151.4223
 70
192
 0
VERTEX
 8
CORNICE_DISPLAY
 10
8.5027
 20
0.3701
 30
151.4223
 70
192
 0
VERTEX
 8
CORNICE_DISPLAY
 10
-8.199
 20
0.3701
 30
151.4223
 70
192
 0
VERTEX
 8
CORNICE_DISPLAY
 10
-8.5027
 20
0.3701
 30
151.4223
 70
192
 0
VERTEX
 8
CORNICE_DISPLAY
 10
8.1989
 20
0.3701
 30
151.4223
 70
192
 0
VERTEX
 8
CORNICE_DISPLAY
 10
8.1989
 20
0.3701
 30
151.1224
 70
192
 0
VERTEX
 8
CORNICE_DISPLAY
 10
8.1989
 20
-0.2099
 30
158.1277
 70
192
 0
VERTEX
 8
CORNICE_DISPLAY
 10
8.1989
 20
-0.2099
 30
151.4223
 70
192
 0
VERTEX
 8
CORNICE_DISPLAY
 10
8.1989
 20
0.3701
 30
158.1277
 70
192
 0
VERTEX
 8
CORNICE_DISPLAY
 10
8.1989
 20
-0.2099
 30
151.1224
 70
192
 0
VERTEX
 8
CORNICE_DISPLAY
 10
8.1989
 20
-0.2099
 30
157.8275
 70
192
 0
VERTEX
 8
CORNICE_DISPLAY
 10
-8.199
 20
-0.2099
 30
157.8275
 70
192
 0
VERTEX
 8
CORNICE_DISPLAY
 10
-8.5027
 20
0.3701
 30
157.8275
 70
192
 0
VERTEX
 8
CORNICE_DISPLAY
 10
-8.199
 20
0.3701
 30
157.8275
 70
192
 0
VERTEX
 8
CORNICE_DISPLAY
 10
-8.5027
 20
-0.2099
 30
157.8275
 70
192
 0
VERTEX
 8
CORNICE_DISPLAY
 10
8.5027
 20
-0.2099
 30
157.8275
 70
192
 0
VERTEX
 8
CORNICE_DISPLAY
 10
8.5027
 20
0.3701
 30
157.8275
 70
192
 0
VERTEX
 8
CORNICE_DISPLAY
 10
8.1989
 20
0.3701
 30
157.8275
 70
192
 0
VERTEX
 8
CORNICE_DISPLAY
 10
0
 20
0
 30
0
 70
128
 71
1
 72
13
 73
14
 74
10
 0
VERTEX
 8
CORNICE_DISPLAY
 10
0
 20
0
 30
0
 70
128
 71
3
 72
15
 73
16
 74
5
 0
VERTEX
 8
CORNICE_DISPLAY
 10
0
 20
0
 30
0
 70
128
 71
5
 72
16
 73
19
 74
20
 0
VERTEX
 8
CORNICE_DISPLAY
 10
0
 20
0
 30
0
 70
128
 71
7
 72
18
 73
13
 74
1
 0
VERTEX
 8
CORNICE_DISPLAY
 10
0
 20
0
 30
0
 70
128
 71
2
 72
8
 73
11
 74
9
 0
VERTEX
 8
CORNICE_DISPLAY
 10
0
 20
0
 30
0
 70
128
 71
7
 72
1
 73
10
 74
12
 0
VERTEX
 8
CORNICE_DISPLAY
 10
0
 20
0
 30
0
 70
128
 71
9
 72
21
 73
25
 74
26
 0
VERTEX
 8
CORNICE_DISPLAY
 10
0
 20
0
 30
0
 70
128
 71
11
 72
8
 73
27
 74
28
 0
VERTEX
 8
CORNICE_DISPLAY
 10
0
 20
0
 30
0
 70
128
 71
11
 72
23
 73
21
 74
9
 0
VERTEX
 8
CORNICE_DISPLAY
 10
0
 20
0
 30
0
 70
128
 71
10
 72
24
 73
20
 74
12
 0
VERTEX
 8
CORNICE_DISPLAY
 10
0
 20
0
 30
0
 70
128
 71
13
 72
29
 73
26
 74
14
 0
VERTEX
 8
CORNICE_DISPLAY
 10
0
 20
0
 30
0
 70
128
 71
15
 72
30
 73
31
 74
16
 0
VERTEX
 8
CORNICE_DISPLAY
 10
0
 20
0
 30
0
 70
128
 71
16
 72
31
 73
32
 74
19
 0
VERTEX
 8
CORNICE_DISPLAY
 10
0
 20
0
 30
0
 70
128
 71
18
 72
27
 73
29
 74
13
 0
VERTEX
 8
CORNICE_DISPLAY
 10
0
 20
0
 30
0
 70
128
 71
15
 72
3
 73
24
 74
22
 0
VERTEX
 8
CORNICE_DISPLAY
 10
0
 20
0
 30
0
 70
128
 71
18
 72
7
 73
12
 74
17
 0
VERTEX
 8
CORNICE_DISPLAY
 10
0
 20
0
 30
0
 70
128
 71
19
 72
17
 73
12
 74
20
 0
VERTEX
 8
CORNICE_DISPLAY
 10
0
 20
0
 30
0
 70
128
 71
21
 72
4
 73
30
 74
25
 0
VERTEX
 8
CORNICE_DISPLAY
 10
0
 20
0
 30
0
 70
128
 71
23
 72
6
 73
4
 74
21
 0
VERTEX
 8
CORNICE_DISPLAY
 10
0
 20
0
 30
0
 70
128
 71
24
 72
3
 73
5
 74
20
 0
VERTEX
 8
CORNICE_DISPLAY
 10
0
 20
0
 30
0
 70
128
 71
23
 72
11
 73
28
 74
32
 0
VERTEX
 8
CORNICE_DISPLAY
 10
0
 20
0
 30
0
 70
128
 71
24
 72
10
 73
14
 74
22
 0
VERTEX
 8
CORNICE_DISPLAY
 10
0
 20
0
 30
0
 70
128
 71
30
 72
15
 73
22
 74
25
 0
VERTEX
 8
CORNICE_DISPLAY
 10
0
 20
0
 30
0
 70
128
 71
27
 72
18
 73
17
 74
28
 0
VERTEX
 8
CORNICE_DISPLAY
 10
0
 20
0
 30
0
 70
128
 71
29
 72
2
 73
9
 74
26
 0
VERTEX
 8
CORNICE_DISPLAY
 10
0
 20
0
 30
0
 70
128
 71
30
 72
4
 73
6
 74
31
 0
VERTEX
 8
CORNICE_DISPLAY
 10
0
 20
0
 30
0
 70
128
 71
31
 72
6
 73
23
 74
32
 0
VERTEX
 8
CORNICE_DISPLAY
 10
0
 20
0
 30
0
 70
128
 71
27
 72
8
 73
2
 74
29
 0
VERTEX
 8
CORNICE_DISPLAY
 10
0
 20
0
 30
0
 70
128
 71
28
 72
17
 73
14
 74
26
 0
VERTEX
 8
CORNICE_DISPLAY
 10
0
 20
0
 30
0
 70
128
 71
17
 72
19
 73
22
 74
14
 0
VERTEX
 8
CORNICE_DISPLAY
 10
0
 20
0
 30
0
 70
128
 71
19
 72
32
 73
25
 74
22
 0
VERTEX
 8
CORNICE_DISPLAY
 10
0
 20
0
 30
0
 70
128
 71
32
 72
28
 73
26
 74
25
 0
SEQEND
 0
POLYLINE
 8
PANNELLO_DISPALY
 66
1
 10
0.0
 20
0.0
 30
0.0
 70
64
 71
36
 72
34
 0
VERTEX
 8
PANNELLO_DISPALY
 10
-29.7017
 20
-0.1298
 30
148.8652
 70
192
 0
VERTEX
 8
PANNELLO_DISPALY
 10
-29.7017
 20
-0.1298
 30
160.3848
 70
192
 0
VERTEX
 8
PANNELLO_DISPALY
 10
29.7017
 20
-0.1298
 30
148.8652
 70
192
 0
VERTEX
 8
PANNELLO_DISPALY
 10
29.7017
 20
-0.1298
 30
160.3848
 70
192
 0
VERTEX
 8
PANNELLO_DISPALY
 10
29.7017
 20
0.4501
 30
148.8652
 70
192
 0
VERTEX
 8
PANNELLO_DISPALY
 10
29.7017
 20
0.4501
 30
160.3848
 70
192
 0
VERTEX
 8
PANNELLO_DISPALY
 10
-29.7017
 20
0.4501
 30
148.8652
 70
192
 0
VERTEX
 8
PANNELLO_DISPALY
 10
-29.7017
 20
0.4501
 30
160.3848
 70
192
 0
VERTEX
 8
PANNELLO_DISPALY
 10
-8.199
 20
-0.1298
 30
160.3848
 70
192
 0
VERTEX
 8
PANNELLO_DISPALY
 10
-8.199
 20
-0.1298
 30
148.8652
 70
192
 0
VERTEX
 8
PANNELLO_DISPALY
 10
-8.199
 20
0.4501
 30
160.3848
 70
192
 0
VERTEX
 8
PANNELLO_DISPALY
 10
-8.199
 20
0.4501
 30
148.8652
 70
192
 0
VERTEX
 8
PANNELLO_DISPALY
 10
-29.7017
 20
-0.1298
 30
151.4223
 70
192
 0
VERTEX
 8
PANNELLO_DISPALY
 10
-8.199
 20
-0.1298
 30
151.4223
 70
192
 0
VERTEX
 8
PANNELLO_DISPALY
 10
29.7017
 20
-0.1298
 30
151.4223
 70
192
 0
VERTEX
 8
PANNELLO_DISPALY
 10
29.7017
 20
0.4501
 30
151.4223
 70
192
 0
VERTEX
 8
PANNELLO_DISPALY
 10
-8.199
 20
0.4501
 30
151.4223
 70
192
 0
VERTEX
 8
PANNELLO_DISPALY
 10
-29.7017
 20
0.4501
 30
151.4223
 70
192
 0
VERTEX
 8
PANNELLO_DISPALY
 10
8.1989
 20
0.4501
 30
151.4223
 70
192
 0
VERTEX
 8
PANNELLO_DISPALY
 10
8.1989
 20
0.4501
 30
148.8652
 70
192
 0
VERTEX
 8
PANNELLO_DISPALY
 10
8.1989
 20
-0.1298
 30
160.3848
 70
192
 0
VERTEX
 8
PANNELLO_DISPALY
 10
8.1989
 20
-0.1298
 30
151.4223
 70
192
 0
VERTEX
 8
PANNELLO_DISPALY
 10
8.1989
 20
0.4501
 30
160.3848
 70
192
 0
VERTEX
 8
PANNELLO_DISPALY
 10
8.1989
 20
-0.1298
 30
148.8652
 70
192
 0
VERTEX
 8
PANNELLO_DISPALY
 10
8.1989
 20
-0.1298
 30
157.8275
 70
192
 0
VERTEX
 8
PANNELLO_DISPALY
 10
-8.199
 20
-0.1298
 30
157.8275
 70
192
 0
VERTEX
 8
PANNELLO_DISPALY
 10
-29.7017
 20
0.4501
 30
157.8275
 70
192
 0
VERTEX
 8
PANNELLO_DISPALY
 10
-8.199
 20
0.4501
 30
157.8275
 70
192
 0
VERTEX
 8
PANNELLO_DISPALY
 10
-29.7017
 20
-0.1298
 30
157.8275
 70
192
 0
VERTEX
 8
PANNELLO_DISPALY
 10
29.7017
 20
-0.1298
 30
157.8275
 70
192
 0
VERTEX
 8
PANNELLO_DISPALY
 10
29.7017
 20
0.4501
 30
157.8275
 70
192
 0
VERTEX
 8
PANNELLO_DISPALY
 10
8.1989
 20
0.4501
 30
157.8275
 70
192
 0
VERTEX
 8
PANNELLO_DISPALY
 10
-8.199
 20
-0.0098
 30
151.4223
 70
192
 0
VERTEX
 8
PANNELLO_DISPALY
 10
8.1989
 20
-0.0098
 30
151.4223
 70
192
 0
VERTEX
 8
PANNELLO_DISPALY
 10
8.1989
 20
-0.0098
 30
157.8275
 70
192
 0
VERTEX
 8
PANNELLO_DISPALY
 10
-8.199
 20
-0.0098
 30
157.8275
 70
192
 0
VERTEX
 8
PANNELLO_DISPALY
 10
0
 20
0
 30
0
 70
128
 71
1
 72
13
 73
14
 74
10
 0
VERTEX
 8
PANNELLO_DISPALY
 10
0
 20
0
 30
0
 70
128
 71
3
 72
15
 73
16
 74
5
 0
VERTEX
 8
PANNELLO_DISPALY
 10
0
 20
0
 30
0
 70
128
 71
5
 72
16
 73
19
 74
20
 0
VERTEX
 8
PANNELLO_DISPALY
 10
0
 20
0
 30
0
 70
128
 71
7
 72
18
 73
13
 74
1
 0
VERTEX
 8
PANNELLO_DISPALY
 10
0
 20
0
 30
0
 70
128
 71
2
 72
8
 73
11
 74
9
 0
VERTEX
 8
PANNELLO_DISPALY
 10
0
 20
0
 30
0
 70
128
 71
7
 72
1
 73
10
 74
12
 0
VERTEX
 8
PANNELLO_DISPALY
 10
0
 20
0
 30
0
 70
128
 71
9
 72
21
 73
25
 74
26
 0
VERTEX
 8
PANNELLO_DISPALY
 10
0
 20
0
 30
0
 70
128
 71
11
 72
8
 73
27
 74
28
 0
VERTEX
 8
PANNELLO_DISPALY
 10
0
 20
0
 30
0
 70
128
 71
11
 72
23
 73
21
 74
9
 0
VERTEX
 8
PANNELLO_DISPALY
 10
0
 20
0
 30
0
 70
128
 71
10
 72
24
 73
20
 74
12
 0
VERTEX
 8
PANNELLO_DISPALY
 10
0
 20
0
 30
0
 70
128
 71
13
 72
29
 73
26
 74
14
 0
VERTEX
 8
PANNELLO_DISPALY
 10
0
 20
0
 30
0
 70
128
 71
15
 72
30
 73
31
 74
16
 0
VERTEX
 8
PANNELLO_DISPALY
 10
0
 20
0
 30
0
 70
128
 71
16
 72
31
 73
32
 74
19
 0
VERTEX
 8
PANNELLO_DISPALY
 10
0
 20
0
 30
0
 70
128
 71
18
 72
27
 73
29
 74
13
 0
VERTEX
 8
PANNELLO_DISPALY
 10
0
 20
0
 30
0
 70
128
 71
15
 72
3
 73
24
 74
22
 0
VERTEX
 8
PANNELLO_DISPALY
 10
0
 20
0
 30
0
 70
128
 71
18
 72
7
 73
12
 74
17
 0
VERTEX
 8
PANNELLO_DISPALY
 10
0
 20
0
 30
0
 70
128
 71
19
 72
17
 73
12
 74
20
 0
VERTEX
 8
PANNELLO_DISPALY
 10
0
 20
0
 30
0
 70
128
 71
21
 72
4
 73
30
 74
25
 0
VERTEX
 8
PANNELLO_DISPALY
 10
0
 20
0
 30
0
 70
128
 71
23
 72
6
 73
4
 74
21
 0
VERTEX
 8
PANNELLO_DISPALY
 10
0
 20
0
 30
0
 70
128
 71
24
 72
3
 73
5
 74
20
 0
VERTEX
 8
PANNELLO_DISPALY
 10
0
 20
0
 30
0
 70
128
 71
23
 72
11
 73
28
 74
32
 0
VERTEX
 8
PANNELLO_DISPALY
 10
0
 20
0
 30
0
 70
128
 71
24
 72
10
 73
14
 74
22
 0
VERTEX
 8
PANNELLO_DISPALY
 10
0
 20
0
 30
0
 70
128
 71
35
 72
34
 73
33
 74
36
 0
VERTEX
 8
PANNELLO_DISPALY
 10
0
 20
0
 30
0
 70
128
 71
27
 72
18
 73
17
 74
28
 0
VERTEX
 8
PANNELLO_DISPALY
 10
0
 20
0
 30
0
 70
128
 71
29
 72
2
 73
9
 74
26
 0
VERTEX
 8
PANNELLO_DISPALY
 10
0
 20
0
 30
0
 70
128
 71
30
 72
4
 73
6
 74
31
 0
VERTEX
 8
PANNELLO_DISPALY
 10
0
 20
0
 30
0
 70
128
 71
31
 72
6
 73
23
 74
32
 0
VERTEX
 8
PANNELLO_DISPALY
 10
0
 20
0
 30
0
 70
128
 71
27
 72
8
 73
2
 74
29
 0
VERTEX
 8
PANNELLO_DISPALY
 10
0
 20
0
 30
0
 70
128
 71
30
 72
15
 73
22
 74
25
 0
VERTEX
 8
PANNELLO_DISPALY
 10
0
 20
0
 30
0
 70
128
 71
28
 72
17
 73
19
 74
32
 0
VERTEX
 8
PANNELLO_DISPALY
 10
0
 20
0
 30
0
 70
128
 71
35
 72
25
 73
22
 74
34
 0
VERTEX
 8
PANNELLO_DISPALY
 10
0
 20
0
 30
0
 70
128
 71
34
 72
22
 73
14
 74
33
 0
VERTEX
 8
PANNELLO_DISPALY
 10
0
 20
0
 30
0
 70
128
 71
33
 72
14
 73
26
 74
36
 0
VERTEX
 8
PANNELLO_DISPALY
 10
0
 20
0
 30
0
 70
128
 71
36
 72
26
 73
25
 74
35
 0
SEQEND
 0
POLYLINE
 8
CUBO_1
 66
1
 10
0.0
 20
0.0
 30
0.0
 70
64
 71
60
 72
58
 0
VERTEX
 8
CUBO_1
 10
27.7501
 20
4.5938
 30
103.796
 70
192
 0
VERTEX
 8
CUBO_1
 10
-29.5999
 20
0.4501
 30
160.2999
 70
192
 0
VERTEX
 8
CUBO_1
 10
27.7501
 20
2.0499
 30
103.796
 70
192
 0
VERTEX
 8
CUBO_1
 10
29.5999
 20
0.4501
 30
160.2999
 70
192
 0
VERTEX
 8
CUBO_1
 10
27.7501
 20
4.5938
 30
148.0758
 70
192
 0
VERTEX
 8
CUBO_1
 10
-27.7502
 20
4.5938
 30
148.0758
 70
192
 0
VERTEX
 8
CUBO_1
 10
27.75
 20
2.0499
 30
149.1379
 70
192
 0
VERTEX
 8
CUBO_1
 10
-29.5999
 20
2.0499
 30
148.0758
 70
192
 0
VERTEX
 8
CUBO_1
 10
-29.5999
 20
0.4501
 30
149.1379
 70
192
 0
VERTEX
 8
CUBO_1
 10
29.5999
 20
0.4501
 30
149.1379
 70
192
 0
VERTEX
 8
CUBO_1
 10
-27.75
 20
2.0499
 30
149.1379
 70
192
 0
VERTEX
 8
CUBO_1
 10
29.5999
 20
2.0499
 30
148.0758
 70
192
 0
VERTEX
 8
CUBO_1
 10
29.5999
 20
2.0499
 30
149.1379
 70
192
 0
VERTEX
 8
CUBO_1
 10
-27.7502
 20
2.0499
 30
103.796
 70
192
 0
VERTEX
 8
CUBO_1
 10
-29.5999
 20
2.0499
 30
149.1379
 70
192
 0
VERTEX
 8
CUBO_1
 10
-27.7502
 20
4.5938
 30
103.796
 70
192
 0
VERTEX
 8
CUBO_1
 10
-29.5999
 20
2.0499
 30
160.2999
 70
192
 0
VERTEX
 8
CUBO_1
 10
29.5999
 20
2.0499
 30
160.2999
 70
192
 0
VERTEX
 8
CUBO_1
 10
27.7262
 20
0.4501
 30
149.0985
 70
192
 0
VERTEX
 8
CUBO_1
 10
27.7501
 20
1.28
 30
102.0997
 70
192
 0
VERTEX
 8
CUBO_1
 10
27.7501
 20
4.5938
 30
149.1379
 70
192
 0
VERTEX
 8
CUBO_1
 10
27.7501
 20
4.5938
 30
102.1001
 70
192
 0
VERTEX
 8
CUBO_1
 10
27.7501
 20
2.0499
 30
160.2999
 70
192
 0
VERTEX
 8
CUBO_1
 10
27.7501
 20
0.4501
 30
160.2999
 70
192
 0
VERTEX
 8
CUBO_1
 10
27.7501
 20
2.0499
 30
102.1001
 70
192
 0
VERTEX
 8
CUBO_1
 10
27.7262
 20
1.28
 30
148.0649
 70
192
 0
VERTEX
 8
CUBO_1
 10
-27.6957
 20
0.4501
 30
149.0985
 70
192
 0
VERTEX
 8
CUBO_1
 10
-27.7502
 20
1.28
 30
102.0997
 70
192
 0
VERTEX
 8
CUBO_1
 10
-27.7502
 20
2.0499
 30
160.2999
 70
192
 0
VERTEX
 8
CUBO_1
 10
-27.7502
 20
0.4501
 30
160.2999
 70
192
 0
VERTEX
 8
CUBO_1
 10
-27.7502
 20
2.0499
 30
102.1001
 70
192
 0
VERTEX
 8
CUBO_1
 10
-27.7502
 20
4.5938
 30
102.1001
 70
192
 0
VERTEX
 8
CUBO_1
 10
29.5999
 20
1.28
 30
148.0649
 70
192
 0
VERTEX
 8
CUBO_1
 10
-27.7502
 20
4.5938
 30
149.1379
 70
192
 0
VERTEX
 8
CUBO_1
 10
-29.5999
 20
1.28
 30
148.0649
 70
192
 0
VERTEX
 8
CUBO_1
 10
-27.6957
 20
1.28
 30
148.0649
 70
192
 0
VERTEX
 8
CUBO_1
 10
-27.75
 20
2.0499
 30
148.0758
 70
192
 0
VERTEX
 8
CUBO_1
 10
27.75
 20
2.0499
 30
148.0758
 70
192
 0
VERTEX
 8
CUBO_1
 10
27.7262
 20
3.851
 30
149.0985
 70
192
 0
VERTEX
 8
CUBO_1
 10
27.7262
 20
3.8512
 30
148.0649
 70
192
 0
VERTEX
 8
CUBO_1
 10
-27.6957
 20
3.851
 30
149.0985
 70
192
 0
VERTEX
 8
CUBO_1
 10
-27.6957
 20
3.8512
 30
148.0649
 70
192
 0
VERTEX
 8
CUBO_1
 10
-29.5999
 20
1.28
 30
103.796
 70
192
 0
VERTEX
 8
CUBO_1
 10
-27.7502
 20
1.28
 30
103.796
 70
192
 0
VERTEX
 8
CUBO_1
 10
29.5999
 20
1.28
 30
103.796
 70
192
 0
VERTEX
 8
CUBO_1
 10
29.5999
 20
2.0499
 30
103.796
 70
192
 0
VERTEX
 8
CUBO_1
 10
-29.5999
 20
2.0499
 30
103.796
 70
192
 0
VERTEX
 8
CUBO_1
 10
27.7501
 20
1.28
 30
103.796
 70
192
 0
VERTEX
 8
CUBO_1
 10
27.7501
 20
1.28
 30
100.8195
 70
192
 0
VERTEX
 8
CUBO_1
 10
27.7501
 20
4.5938
 30
100.8199
 70
192
 0
VERTEX
 8
CUBO_1
 10
27.7501
 20
2.0499
 30
100.8199
 70
192
 0
VERTEX
 8
CUBO_1
 10
-27.7502
 20
1.28
 30
100.8195
 70
192
 0
VERTEX
 8
CUBO_1
 10
-27.7502
 20
2.0499
 30
100.8199
 70
192
 0
VERTEX
 8
CUBO_1
 10
-27.7502
 20
4.5938
 30
100.8199
 70
192
 0
VERTEX
 8
CUBO_1
 10
27.7501
 20
0.3499
 30
102.0997
 70
192
 0
VERTEX
 8
CUBO_1
 10
27.7501
 20
0.3499
 30
148.0649
 70
192
 0
VERTEX
 8
CUBO_1
 10
-27.7502
 20
0.3499
 30
102.0997
 70
192
 0
VERTEX
 8
CUBO_1
 10
-27.7502
 20
0.3499
 30
148.0649
 70
192
 0
VERTEX
 8
CUBO_1
 10
-27.7502
 20
0.3499
 30
103.796
 70
192
 0
VERTEX
 8
CUBO_1
 10
27.7501
 20
0.3499
 30
103.796
 70
192
 0
VERTEX
 8
CUBO_1
 10
0
 20
0
 30
0
 70
128
 71
46
 72
3
 73
48
 74
45
 0
VERTEX
 8
CUBO_1
 10
0
 20
0
 30
0
 70
128
 71
46
 72
12
 73
38
 74
3
 0
VERTEX
 8
CUBO_1
 10
0
 20
0
 30
0
 70
128
 71
7
 72
11
 73
34
 74
21
 0
VERTEX
 8
CUBO_1
 10
0
 20
0
 30
0
 70
128
 71
35
 72
9
 73
27
 74
36
 0
VERTEX
 8
CUBO_1
 10
0
 20
0
 30
0
 70
128
 71
2
 72
17
 73
29
 74
30
 0
VERTEX
 8
CUBO_1
 10
0
 20
0
 30
0
 70
128
 71
35
 72
43
 73
47
 74
8
 0
VERTEX
 8
CUBO_1
 10
0
 20
0
 30
0
 70
128
 71
9
 72
2
 73
30
 74
27
 0
VERTEX
 8
CUBO_1
 10
0
 20
0
 30
0
 70
128
 71
10
 72
4
 73
18
 74
13
 0
VERTEX
 8
CUBO_1
 10
0
 20
0
 30
0
 70
128
 71
56
 72
60
 73
59
 74
58
 0
VERTEX
 8
CUBO_1
 10
0
 20
0
 30
0
 70
128
 71
11
 72
29
 73
17
 74
15
 0
VERTEX
 8
CUBO_1
 10
0
 20
0
 30
0
 70
128
 71
29
 72
11
 73
7
 74
23
 0
VERTEX
 8
CUBO_1
 10
0
 20
0
 30
0
 70
128
 71
15
 72
9
 73
35
 74
8
 0
VERTEX
 8
CUBO_1
 10
0
 20
0
 30
0
 70
128
 71
52
 72
49
 73
51
 74
53
 0
VERTEX
 8
CUBO_1
 10
0
 20
0
 30
0
 70
128
 71
1
 72
22
 73
25
 74
3
 0
VERTEX
 8
CUBO_1
 10
0
 20
0
 30
0
 70
128
 71
33
 72
10
 73
13
 74
12
 0
VERTEX
 8
CUBO_1
 10
0
 20
0
 30
0
 70
128
 71
17
 72
2
 73
9
 74
15
 0
VERTEX
 8
CUBO_1
 10
0
 20
0
 30
0
 70
128
 71
19
 72
10
 73
33
 74
26
 0
VERTEX
 8
CUBO_1
 10
0
 20
0
 30
0
 70
128
 71
21
 72
34
 73
6
 74
5
 0
VERTEX
 8
CUBO_1
 10
0
 20
0
 30
0
 70
128
 71
23
 72
18
 73
4
 74
24
 0
VERTEX
 8
CUBO_1
 10
0
 20
0
 30
0
 70
128
 71
18
 72
23
 73
7
 74
13
 0
VERTEX
 8
CUBO_1
 10
0
 20
0
 30
0
 70
128
 71
24
 72
4
 73
10
 74
19
 0
VERTEX
 8
CUBO_1
 10
0
 20
0
 30
0
 70
128
 71
6
 72
16
 73
1
 74
5
 0
VERTEX
 8
CUBO_1
 10
0
 20
0
 30
0
 70
128
 71
33
 72
45
 73
48
 74
26
 0
VERTEX
 8
CUBO_1
 10
0
 20
0
 30
0
 70
128
 71
14
 72
31
 73
32
 74
16
 0
VERTEX
 8
CUBO_1
 10
0
 20
0
 30
0
 70
128
 71
41
 72
39
 73
40
 74
42
 0
VERTEX
 8
CUBO_1
 10
0
 20
0
 30
0
 70
128
 71
29
 72
23
 73
24
 74
30
 0
VERTEX
 8
CUBO_1
 10
0
 20
0
 30
0
 70
128
 71
53
 72
51
 73
50
 74
54
 0
VERTEX
 8
CUBO_1
 10
0
 20
0
 30
0
 70
128
 71
30
 72
24
 73
19
 74
27
 0
VERTEX
 8
CUBO_1
 10
0
 20
0
 30
0
 70
128
 71
37
 72
11
 73
15
 74
8
 0
VERTEX
 8
CUBO_1
 10
0
 20
0
 30
0
 70
128
 71
37
 72
6
 73
34
 74
11
 0
VERTEX
 8
CUBO_1
 10
0
 20
0
 30
0
 70
128
 71
6
 72
37
 73
14
 74
16
 0
VERTEX
 8
CUBO_1
 10
0
 20
0
 30
0
 70
128
 71
3
 72
25
 73
20
 74
48
 0
VERTEX
 8
CUBO_1
 10
0
 20
0
 30
0
 70
128
 71
21
 72
5
 73
38
 74
7
 0
VERTEX
 8
CUBO_1
 10
0
 20
0
 30
0
 70
128
 71
12
 72
13
 73
7
 74
38
 0
VERTEX
 8
CUBO_1
 10
0
 20
0
 30
0
 70
128
 71
38
 72
5
 73
1
 74
3
 0
VERTEX
 8
CUBO_1
 10
0
 20
0
 30
0
 70
128
 71
14
 72
37
 73
8
 74
47
 0
VERTEX
 8
CUBO_1
 10
0
 20
0
 30
0
 70
128
 71
41
 72
27
 73
19
 74
39
 0
VERTEX
 8
CUBO_1
 10
0
 20
0
 30
0
 70
128
 71
39
 72
19
 73
26
 74
40
 0
VERTEX
 8
CUBO_1
 10
0
 20
0
 30
0
 70
128
 71
40
 72
26
 73
36
 74
42
 0
VERTEX
 8
CUBO_1
 10
0
 20
0
 30
0
 70
128
 71
42
 72
36
 73
27
 74
41
 0
VERTEX
 8
CUBO_1
 10
0
 20
0
 30
0
 70
128
 71
43
 72
35
 73
36
 74
44
 0
VERTEX
 8
CUBO_1
 10
0
 20
0
 30
0
 70
128
 71
45
 72
33
 73
12
 74
46
 0
VERTEX
 8
CUBO_1
 10
0
 20
0
 30
0
 70
128
 71
16
 72
32
 73
22
 74
1
 0
VERTEX
 8
CUBO_1
 10
0
 20
0
 30
0
 70
128
 71
60
 72
55
 73
57
 74
59
 0
VERTEX
 8
CUBO_1
 10
0
 20
0
 30
0
 70
128
 71
44
 72
28
 73
31
 74
14
 0
VERTEX
 8
CUBO_1
 10
0
 20
0
 30
0
 70
128
 71
43
 72
44
 73
14
 74
47
 0
VERTEX
 8
CUBO_1
 10
0
 20
0
 30
0
 70
128
 71
52
 72
28
 73
20
 74
49
 0
VERTEX
 8
CUBO_1
 10
0
 20
0
 30
0
 70
128
 71
49
 72
20
 73
25
 74
51
 0
VERTEX
 8
CUBO_1
 10
0
 20
0
 30
0
 70
128
 71
53
 72
31
 73
28
 74
52
 0
VERTEX
 8
CUBO_1
 10
0
 20
0
 30
0
 70
128
 71
51
 72
25
 73
22
 74
50
 0
VERTEX
 8
CUBO_1
 10
0
 20
0
 30
0
 70
128
 71
50
 72
22
 73
32
 74
54
 0
VERTEX
 8
CUBO_1
 10
0
 20
0
 30
0
 70
128
 71
54
 72
32
 73
31
 74
53
 0
VERTEX
 8
CUBO_1
 10
0
 20
0
 30
0
 70
128
 71
56
 72
26
 73
48
 74
60
 0
VERTEX
 8
CUBO_1
 10
0
 20
0
 30
0
 70
128
 71
59
 72
44
 73
36
 74
58
 0
VERTEX
 8
CUBO_1
 10
0
 20
0
 30
0
 70
128
 71
58
 72
36
 73
26
 74
56
 0
VERTEX
 8
CUBO_1
 10
0
 20
0
 30
0
 70
128
 71
60
 72
48
 73
20
 74
55
 0
VERTEX
 8
CUBO_1
 10
0
 20
0
 30
0
 70
128
 71
55
 72
20
 73
28
 74
57
 0
VERTEX
 8
CUBO_1
 10
0
 20
0
 30
0
 70
128
 71
57
 72
28
 73
44
 74
59
 0
SEQEND
 0
POLYLINE
 8
FORNO
 66
1
 10
0.0
 20
0.0
 30
0.0
 70
64
 71
34
 72
32
 0
VERTEX
 8
FORNO
 10
-27.15
 20
3.9207
 30
101.9001
 70
192
 0
VERTEX
 8
FORNO
 10
-27.15
 20
3.9207
 30
159.6496
 70
192
 0
VERTEX
 8
FORNO
 10
27.15
 20
3.9207
 30
101.9001
 70
192
 0
VERTEX
 8
FORNO
 10
27.15
 20
3.9207
 30
159.6492
 70
192
 0
VERTEX
 8
FORNO
 10
27.15
 20
54.7623
 30
101.9001
 70
192
 0
VERTEX
 8
FORNO
 10
27.15
 20
54.7623
 30
153.1985
 70
192
 0
VERTEX
 8
FORNO
 10
-27.15
 20
54.7623
 30
101.9001
 70
192
 0
VERTEX
 8
FORNO
 10
-27.15
 20
54.7623
 30
153.1985
 70
192
 0
VERTEX
 8
FORNO
 10
27.15
 20
25.2999
 30
153.1985
 70
192
 0
VERTEX
 8
FORNO
 10
27.15
 20
25.2999
 30
101.9001
 70
192
 0
VERTEX
 8
FORNO
 10
-27.15
 20
25.2999
 30
153.1985
 70
192
 0
VERTEX
 8
FORNO
 10
-27.15
 20
25.2999
 30
101.9001
 70
192
 0
VERTEX
 8
FORNO
 10
27.15
 20
16.7972
 30
151.5496
 70
192
 0
VERTEX
 8
FORNO
 10
27.15
 20
16.7972
 30
101.9001
 70
192
 0
VERTEX
 8
FORNO
 10
-27.15
 20
16.7972
 30
151.5499
 70
192
 0
VERTEX
 8
FORNO
 10
-27.15
 20
16.7972
 30
101.9001
 70
192
 0
VERTEX
 8
FORNO
 10
27.15
 20
16.7967
 30
157.3649
 70
192
 0
VERTEX
 8
FORNO
 10
27.15
 20
16.7412
 30
101.9001
 70
192
 0
VERTEX
 8
FORNO
 10
-27.15
 20
16.7963
 30
157.3652
 70
192
 0
VERTEX
 8
FORNO
 10
-27.15
 20
16.7412
 30
101.9001
 70
192
 0
VERTEX
 8
FORNO
 10
-27.15
 20
3.9207
 30
149.138
 70
192
 0
VERTEX
 8
FORNO
 10
27.15
 20
3.9207
 30
149.138
 70
192
 0
VERTEX
 8
FORNO
 10
27.15
 20
16.7886
 30
149.138
 70
192
 0
VERTEX
 8
FORNO
 10
27.15
 20
54.7623
 30
149.138
 70
192
 0
VERTEX
 8
FORNO
 10
-27.15
 20
54.7623
 30
149.138
 70
192
 0
VERTEX
 8
FORNO
 10
-27.15
 20
25.2999
 30
149.138
 70
192
 0
VERTEX
 8
FORNO
 10
27.15
 20
25.2999
 30
149.138
 70
192
 0
VERTEX
 8
FORNO
 10
-27.15
 20
16.7972
 30
149.138
 70
192
 0
VERTEX
 8
FORNO
 10
27.15
 20
16.7972
 30
149.138
 70
192
 0
VERTEX
 8
FORNO
 10
-27.15
 20
16.7412
 30
149.138
 70
192
 0
VERTEX
 8
FORNO
 10
-27.15
 20
1.0174
 30
159.6496
 70
192
 0
VERTEX
 8
FORNO
 10
27.15
 20
1.0174
 30
159.6492
 70
192
 0
VERTEX
 8
FORNO
 10
-27.15
 20
1.0174
 30
149.138
 70
192
 0
VERTEX
 8
FORNO
 10
27.15
 20
1.0174
 30
149.138
 70
192
 0
VERTEX
 8
FORNO
 10
0
 20
0
 30
0
 70
128
 71
1
 72
21
 73
22
 74
3
 0
VERTEX
 8
FORNO
 10
0
 20
0
 30
0
 70
128
 71
3
 72
22
 73
23
 74
18
 0
VERTEX
 8
FORNO
 10
0
 20
0
 30
0
 70
128
 71
5
 72
24
 73
25
 74
7
 0
VERTEX
 8
FORNO
 10
0
 20
0
 30
0
 70
128
 71
7
 72
25
 73
26
 74
12
 0
VERTEX
 8
FORNO
 10
0
 20
0
 30
0
 70
128
 71
2
 72
19
 73
17
 74
4
 0
VERTEX
 8
FORNO
 10
0
 20
0
 30
0
 70
128
 71
7
 72
12
 73
10
 74
5
 0
VERTEX
 8
FORNO
 10
0
 20
0
 30
0
 70
128
 71
9
 72
6
 73
24
 74
27
 0
VERTEX
 8
FORNO
 10
0
 20
0
 30
0
 70
128
 71
11
 72
15
 73
28
 74
26
 0
VERTEX
 8
FORNO
 10
0
 20
0
 30
0
 70
128
 71
11
 72
8
 73
6
 74
9
 0
VERTEX
 8
FORNO
 10
0
 20
0
 30
0
 70
128
 71
12
 72
16
 73
14
 74
10
 0
VERTEX
 8
FORNO
 10
0
 20
0
 30
0
 70
128
 71
13
 72
9
 73
27
 74
29
 0
VERTEX
 8
FORNO
 10
0
 20
0
 30
0
 70
128
 71
15
 72
11
 73
9
 74
13
 0
VERTEX
 8
FORNO
 10
0
 20
0
 30
0
 70
128
 71
15
 72
19
 73
30
 74
28
 0
VERTEX
 8
FORNO
 10
0
 20
0
 30
0
 70
128
 71
16
 72
20
 73
18
 74
14
 0
VERTEX
 8
FORNO
 10
0
 20
0
 30
0
 70
128
 71
17
 72
13
 73
29
 74
23
 0
VERTEX
 8
FORNO
 10
0
 20
0
 30
0
 70
128
 71
15
 72
13
 73
17
 74
19
 0
VERTEX
 8
FORNO
 10
0
 20
0
 30
0
 70
128
 71
19
 72
2
 73
21
 74
30
 0
VERTEX
 8
FORNO
 10
0
 20
0
 30
0
 70
128
 71
20
 72
1
 73
3
 74
18
 0
VERTEX
 8
FORNO
 10
0
 20
0
 30
0
 70
128
 71
33
 72
31
 73
32
 74
34
 0
VERTEX
 8
FORNO
 10
0
 20
0
 30
0
 70
128
 71
22
 72
4
 73
17
 74
23
 0
VERTEX
 8
FORNO
 10
0
 20
0
 30
0
 70
128
 71
24
 72
6
 73
8
 74
25
 0
VERTEX
 8
FORNO
 10
0
 20
0
 30
0
 70
128
 71
25
 72
8
 73
11
 74
26
 0
VERTEX
 8
FORNO
 10
0
 20
0
 30
0
 70
128
 71
24
 72
5
 73
10
 74
27
 0
VERTEX
 8
FORNO
 10
0
 20
0
 30
0
 70
128
 71
28
 72
16
 73
12
 74
26
 0
VERTEX
 8
FORNO
 10
0
 20
0
 30
0
 70
128
 71
27
 72
10
 73
14
 74
29
 0
VERTEX
 8
FORNO
 10
0
 20
0
 30
0
 70
128
 71
30
 72
20
 73
16
 74
28
 0
VERTEX
 8
FORNO
 10
0
 20
0
 30
0
 70
128
 71
29
 72
14
 73
18
 74
23
 0
VERTEX
 8
FORNO
 10
0
 20
0
 30
0
 70
128
 71
21
 72
1
 73
20
 74
30
 0
VERTEX
 8
FORNO
 10
0
 20
0
 30
0
 70
128
 71
33
 72
21
 73
2
 74
31
 0
VERTEX
 8
FORNO
 10
0
 20
0
 30
0
 70
128
 71
31
 72
2
 73
4
 74
32
 0
VERTEX
 8
FORNO
 10
0
 20
0
 30
0
 70
128
 71
32
 72
4
 73
22
 74
34
 0
VERTEX
 8
FORNO
 10
0
 20
0
 30
0
 70
128
 71
34
 72
22
 73
21
 74
33
 0
SEQEND
 0
POLYLINE
 8
TACCA_1
 66
1
 10
0.0
 20
0.0
 30
0.0
 70
64
 71
80
 72
80
 0
VERTEX
 8
TACCA_1
 10
-15.1402
 20
-0.9934
 30
155.8998
 70
192
 0
VERTEX
 8
TACCA_1
 10
-15.1402
 20
-0.9934
 30
156.9426
 70
192
 0
VERTEX
 8
TACCA_1
 10
-15.1402
 20
-0.995
 30
156.9485
 70
192
 0
VERTEX
 8
TACCA_1
 10
-15.1402
 20
-0.9982
 30
156.9514
 70
192
 0
VERTEX
 8
TACCA_1
 10
-15.1402
 20
-1.0042
 30
156.9525
 70
192
 0
VERTEX
 8
TACCA_1
 10
-15.1402
 20
-2.4203
 30
156.94
 70
192
 0
VERTEX
 8
TACCA_1
 10
-15.1402
 20
-2.4379
 30
156.934
 70
192
 0
VERTEX
 8
TACCA_1
 10
-15.1402
 20
-2.4498
 30
156.921
 70
192
 0
VERTEX
 8
TACCA_1
 10
-15.1402
 20
-2.4542
 30
156.9029
 70
192
 0
VERTEX
 8
TACCA_1
 10
-15.1402
 20
-2.4542
 30
155.8998
 70
192
 0
VERTEX
 8
TACCA_1
 10
-15.1264
 20
-2.4742
 30
155.8798
 70
192
 0
VERTEX
 8
TACCA_1
 10
-14.874
 20
-0.9734
 30
155.8798
 70
192
 0
VERTEX
 8
TACCA_1
 10
-15.1264
 20
-2.4742
 30
156.9054
 70
192
 0
VERTEX
 8
TACCA_1
 10
-14.874
 20
-2.4742
 30
155.8798
 70
192
 0
VERTEX
 8
TACCA_1
 10
-14.8602
 20
-2.4542
 30
155.8998
 70
192
 0
VERTEX
 8
TACCA_1
 10
-14.8602
 20
-2.4542
 30
156.9029
 70
192
 0
VERTEX
 8
TACCA_1
 10
-14.8602
 20
-2.4498
 30
156.921
 70
192
 0
VERTEX
 8
TACCA_1
 10
-14.8602
 20
-2.4379
 30
156.934
 70
192
 0
VERTEX
 8
TACCA_1
 10
-14.8602
 20
-2.4203
 30
156.94
 70
192
 0
VERTEX
 8
TACCA_1
 10
-14.8602
 20
-1.0042
 30
156.9525
 70
192
 0
VERTEX
 8
TACCA_1
 10
-14.8602
 20
-0.9982
 30
156.9514
 70
192
 0
VERTEX
 8
TACCA_1
 10
-14.8602
 20
-0.995
 30
156.9485
 70
192
 0
VERTEX
 8
TACCA_1
 10
-14.8602
 20
-0.9934
 30
156.9426
 70
192
 0
VERTEX
 8
TACCA_1
 10
-14.8602
 20
-0.9934
 30
155.8998
 70
192
 0
VERTEX
 8
TACCA_1
 10
-14.874
 20
-0.9734
 30
156.9453
 70
192
 0
VERTEX
 8
TACCA_1
 10
-15.1264
 20
-0.9734
 30
155.8798
 70
192
 0
VERTEX
 8
TACCA_1
 10
-15.1264
 20
-2.4244
 30
156.9597
 70
192
 0
VERTEX
 8
TACCA_1
 10
-14.874
 20
-2.4492
 30
156.9513
 70
192
 0
VERTEX
 8
TACCA_1
 10
-15.1264
 20
-1.0032
 30
156.9727
 70
192
 0
VERTEX
 8
TACCA_1
 10
-14.874
 20
-2.4244
 30
156.9597
 70
192
 0
VERTEX
 8
TACCA_1
 10
-15.1264
 20
-2.468
 30
156.9308
 70
192
 0
VERTEX
 8
TACCA_1
 10
-14.874
 20
-2.4742
 30
156.9054
 70
192
 0
VERTEX
 8
TACCA_1
 10
-15.1264
 20
-2.4492
 30
156.9513
 70
192
 0
VERTEX
 8
TACCA_1
 10
-14.874
 20
-2.468
 30
156.9308
 70
192
 0
VERTEX
 8
TACCA_1
 10
-15.1264
 20
-0.9889
 30
156.97
 70
192
 0
VERTEX
 8
TACCA_1
 10
-14.874
 20
-1.0032
 30
156.9727
 70
192
 0
VERTEX
 8
TACCA_1
 10
-15.1264
 20
-0.9734
 30
156.9453
 70
192
 0
VERTEX
 8
TACCA_1
 10
-14.874
 20
-0.9772
 30
156.9594
 70
192
 0
VERTEX
 8
TACCA_1
 10
-15.1264
 20
-0.9772
 30
156.9594
 70
192
 0
VERTEX
 8
TACCA_1
 10
-14.874
 20
-0.9889
 30
156.97
 70
192
 0
VERTEX
 8
TACCA_1
 10
-15.1385
 20
-0.9836
 30
155.89
 70
192
 0
VERTEX
 8
TACCA_1
 10
-15.1332
 20
-0.9759
 30
155.8823
 70
192
 0
VERTEX
 8
TACCA_1
 10
-15.1385
 20
-0.9836
 30
156.9439
 70
192
 0
VERTEX
 8
TACCA_1
 10
-15.1332
 20
-0.9759
 30
156.9449
 70
192
 0
VERTEX
 8
TACCA_1
 10
-15.1385
 20
-0.9863
 30
156.9538
 70
192
 0
VERTEX
 8
TACCA_1
 10
-15.1332
 20
-0.9795
 30
156.958
 70
192
 0
VERTEX
 8
TACCA_1
 10
-15.1385
 20
-0.9936
 30
156.9605
 70
192
 0
VERTEX
 8
TACCA_1
 10
-15.1332
 20
-0.9901
 30
156.9676
 70
192
 0
VERTEX
 8
TACCA_1
 10
-15.1385
 20
-1.0037
 30
156.9624
 70
192
 0
VERTEX
 8
TACCA_1
 10
-15.1332
 20
-1.0034
 30
156.9701
 70
192
 0
VERTEX
 8
TACCA_1
 10
-15.1385
 20
-2.4223
 30
156.9496
 70
192
 0
VERTEX
 8
TACCA_1
 10
-15.1332
 20
-2.4239
 30
156.9572
 70
192
 0
VERTEX
 8
TACCA_1
 10
-15.1385
 20
-2.4434
 30
156.9424
 70
192
 0
VERTEX
 8
TACCA_1
 10
-15.1332
 20
-2.4477
 30
156.9491
 70
192
 0
VERTEX
 8
TACCA_1
 10
-15.1385
 20
-2.4587
 30
156.9258
 70
192
 0
VERTEX
 8
TACCA_1
 10
-15.1332
 20
-2.4657
 30
156.9295
 70
192
 0
VERTEX
 8
TACCA_1
 10
-15.1385
 20
-2.464
 30
156.9041
 70
192
 0
VERTEX
 8
TACCA_1
 10
-15.1332
 20
-2.4717
 30
156.9051
 70
192
 0
VERTEX
 8
TACCA_1
 10
-15.1385
 20
-2.464
 30
155.89
 70
192
 0
VERTEX
 8
TACCA_1
 10
-15.1332
 20
-2.4717
 30
155.8823
 70
192
 0
VERTEX
 8
TACCA_1
 10
-14.8673
 20
-2.4717
 30
155.8823
 70
192
 0
VERTEX
 8
TACCA_1
 10
-14.862
 20
-2.464
 30
155.89
 70
192
 0
VERTEX
 8
TACCA_1
 10
-14.8673
 20
-0.9759
 30
155.8823
 70
192
 0
VERTEX
 8
TACCA_1
 10
-14.862
 20
-0.9836
 30
155.89
 70
192
 0
VERTEX
 8
TACCA_1
 10
-14.8673
 20
-2.4717
 30
156.9051
 70
192
 0
VERTEX
 8
TACCA_1
 10
-14.862
 20
-2.464
 30
156.9041
 70
192
 0
VERTEX
 8
TACCA_1
 10
-14.862
 20
-2.4587
 30
156.9258
 70
192
 0
VERTEX
 8
TACCA_1
 10
-14.8673
 20
-2.4657
 30
156.9295
 70
192
 0
VERTEX
 8
TACCA_1
 10
-14.862
 20
-2.4434
 30
156.9424
 70
192
 0
VERTEX
 8
TACCA_1
 10
-14.8673
 20
-2.4477
 30
156.9491
 70
192
 0
VERTEX
 8
TACCA_1
 10
-14.862
 20
-2.4223
 30
156.9496
 70
192
 0
VERTEX
 8
TACCA_1
 10
-14.8673
 20
-2.4239
 30
156.9572
 70
192
 0
VERTEX
 8
TACCA_1
 10
-14.862
 20
-1.0037
 30
156.9624
 70
192
 0
VERTEX
 8
TACCA_1
 10
-14.8673
 20
-1.0034
 30
156.9701
 70
192
 0
VERTEX
 8
TACCA_1
 10
-14.862
 20
-0.9936
 30
156.9605
 70
192
 0
VERTEX
 8
TACCA_1
 10
-14.8673
 20
-0.9901
 30
156.9676
 70
192
 0
VERTEX
 8
TACCA_1
 10
-14.862
 20
-0.9863
 30
156.9538
 70
192
 0
VERTEX
 8
TACCA_1
 10
-14.8673
 20
-0.9795
 30
156.958
 70
192
 0
VERTEX
 8
TACCA_1
 10
-14.862
 20
-0.9836
 30
156.9439
 70
192
 0
VERTEX
 8
TACCA_1
 10
-14.8673
 20
-0.9759
 30
156.9449
 70
192
 0
VERTEX
 8
TACCA_1
 10
0
 20
0
 30
0
 70
128
 71
11
 72
13
 73
32
 74
14
 0
VERTEX
 8
TACCA_1
 10
0
 20
0
 30
0
 70
128
 71
19
 72
15
 73
16
 74
18
 0
VERTEX
 8
TACCA_1
 10
0
 20
0
 30
0
 70
128
 71
12
 72
25
 73
37
 74
26
 0
VERTEX
 8
TACCA_1
 10
0
 20
0
 30
0
 70
128
 71
1
 72
2
 73
5
 74
5
 0
VERTEX
 8
TACCA_1
 10
0
 20
0
 30
0
 70
128
 71
27
 72
29
 73
36
 74
30
 0
VERTEX
 8
TACCA_1
 10
0
 20
0
 30
0
 70
128
 71
26
 72
11
 73
14
 74
12
 0
VERTEX
 8
TACCA_1
 10
0
 20
0
 30
0
 70
128
 71
20
 72
21
 73
22
 74
23
 0
VERTEX
 8
TACCA_1
 10
0
 20
0
 30
0
 70
128
 71
16
 72
17
 73
18
 74
18
 0
VERTEX
 8
TACCA_1
 10
0
 20
0
 30
0
 70
128
 71
5
 72
2
 73
3
 74
4
 0
VERTEX
 8
TACCA_1
 10
0
 20
0
 30
0
 70
128
 71
6
 72
7
 73
8
 74
8
 0
VERTEX
 8
TACCA_1
 10
0
 20
0
 30
0
 70
128
 71
13
 72
31
 73
34
 74
32
 0
VERTEX
 8
TACCA_1
 10
0
 20
0
 30
0
 70
128
 71
31
 72
33
 73
28
 74
34
 0
VERTEX
 8
TACCA_1
 10
0
 20
0
 30
0
 70
128
 71
33
 72
27
 73
30
 74
28
 0
VERTEX
 8
TACCA_1
 10
0
 20
0
 30
0
 70
128
 71
20
 72
23
 73
24
 74
24
 0
VERTEX
 8
TACCA_1
 10
0
 20
0
 30
0
 70
128
 71
24
 72
15
 73
19
 74
20
 0
VERTEX
 8
TACCA_1
 10
0
 20
0
 30
0
 70
128
 71
6
 72
8
 73
9
 74
10
 0
VERTEX
 8
TACCA_1
 10
0
 20
0
 30
0
 70
128
 71
1
 72
5
 73
6
 74
10
 0
VERTEX
 8
TACCA_1
 10
0
 20
0
 30
0
 70
128
 71
29
 72
35
 73
40
 74
36
 0
VERTEX
 8
TACCA_1
 10
0
 20
0
 30
0
 70
128
 71
35
 72
39
 73
38
 74
40
 0
VERTEX
 8
TACCA_1
 10
0
 20
0
 30
0
 70
128
 71
39
 72
37
 73
25
 74
38
 0
VERTEX
 8
TACCA_1
 10
0
 20
0
 30
0
 70
128
 71
9
 72
57
 73
59
 74
10
 0
VERTEX
 8
TACCA_1
 10
0
 20
0
 30
0
 70
128
 71
32
 72
65
 73
61
 74
14
 0
VERTEX
 8
TACCA_1
 10
0
 20
0
 30
0
 70
128
 71
30
 72
72
 73
70
 74
28
 0
VERTEX
 8
TACCA_1
 10
0
 20
0
 30
0
 70
128
 71
12
 72
63
 73
80
 74
25
 0
VERTEX
 8
TACCA_1
 10
0
 20
0
 30
0
 70
128
 71
1
 72
41
 73
43
 74
2
 0
VERTEX
 8
TACCA_1
 10
0
 20
0
 30
0
 70
128
 71
5
 72
49
 73
51
 74
6
 0
VERTEX
 8
TACCA_1
 10
0
 20
0
 30
0
 70
128
 71
36
 72
74
 73
72
 74
30
 0
VERTEX
 8
TACCA_1
 10
0
 20
0
 30
0
 70
128
 71
10
 72
59
 73
41
 74
1
 0
VERTEX
 8
TACCA_1
 10
0
 20
0
 30
0
 70
128
 71
14
 72
61
 73
63
 74
12
 0
VERTEX
 8
TACCA_1
 10
0
 20
0
 30
0
 70
128
 71
34
 72
68
 73
65
 74
32
 0
VERTEX
 8
TACCA_1
 10
0
 20
0
 30
0
 70
128
 71
28
 72
70
 73
68
 74
34
 0
VERTEX
 8
TACCA_1
 10
0
 20
0
 30
0
 70
128
 71
6
 72
51
 73
53
 74
7
 0
VERTEX
 8
TACCA_1
 10
0
 20
0
 30
0
 70
128
 71
8
 72
55
 73
57
 74
9
 0
VERTEX
 8
TACCA_1
 10
0
 20
0
 30
0
 70
128
 71
7
 72
53
 73
55
 74
8
 0
VERTEX
 8
TACCA_1
 10
0
 20
0
 30
0
 70
128
 71
40
 72
76
 73
74
 74
36
 0
VERTEX
 8
TACCA_1
 10
0
 20
0
 30
0
 70
128
 71
38
 72
78
 73
76
 74
40
 0
VERTEX
 8
TACCA_1
 10
0
 20
0
 30
0
 70
128
 71
25
 72
80
 73
78
 74
38
 0
VERTEX
 8
TACCA_1
 10
0
 20
0
 30
0
 70
128
 71
2
 72
43
 73
45
 74
3
 0
VERTEX
 8
TACCA_1
 10
0
 20
0
 30
0
 70
128
 71
3
 72
45
 73
47
 74
4
 0
VERTEX
 8
TACCA_1
 10
0
 20
0
 30
0
 70
128
 71
4
 72
47
 73
49
 74
5
 0
VERTEX
 8
TACCA_1
 10
0
 20
0
 30
0
 70
128
 71
57
 72
58
 73
60
 74
59
 0
VERTEX
 8
TACCA_1
 10
0
 20
0
 30
0
 70
128
 71
58
 72
13
 73
11
 74
60
 0
VERTEX
 8
TACCA_1
 10
0
 20
0
 30
0
 70
128
 71
65
 72
66
 73
62
 74
61
 0
VERTEX
 8
TACCA_1
 10
0
 20
0
 30
0
 70
128
 71
66
 72
16
 73
15
 74
62
 0
VERTEX
 8
TACCA_1
 10
0
 20
0
 30
0
 70
128
 71
72
 72
71
 73
69
 74
70
 0
VERTEX
 8
TACCA_1
 10
0
 20
0
 30
0
 70
128
 71
71
 72
19
 73
18
 74
69
 0
VERTEX
 8
TACCA_1
 10
0
 20
0
 30
0
 70
128
 71
63
 72
64
 73
79
 74
80
 0
VERTEX
 8
TACCA_1
 10
0
 20
0
 30
0
 70
128
 71
64
 72
24
 73
23
 74
79
 0
VERTEX
 8
TACCA_1
 10
0
 20
0
 30
0
 70
128
 71
41
 72
42
 73
44
 74
43
 0
VERTEX
 8
TACCA_1
 10
0
 20
0
 30
0
 70
128
 71
42
 72
26
 73
37
 74
44
 0
VERTEX
 8
TACCA_1
 10
0
 20
0
 30
0
 70
128
 71
49
 72
50
 73
52
 74
51
 0
VERTEX
 8
TACCA_1
 10
0
 20
0
 30
0
 70
128
 71
50
 72
29
 73
27
 74
52
 0
VERTEX
 8
TACCA_1
 10
0
 20
0
 30
0
 70
128
 71
74
 72
73
 73
71
 74
72
 0
VERTEX
 8
TACCA_1
 10
0
 20
0
 30
0
 70
128
 71
73
 72
20
 73
19
 74
71
 0
VERTEX
 8
TACCA_1
 10
0
 20
0
 30
0
 70
128
 71
59
 72
60
 73
42
 74
41
 0
VERTEX
 8
TACCA_1
 10
0
 20
0
 30
0
 70
128
 71
60
 72
11
 73
26
 74
42
 0
VERTEX
 8
TACCA_1
 10
0
 20
0
 30
0
 70
128
 71
61
 72
62
 73
64
 74
63
 0
VERTEX
 8
TACCA_1
 10
0
 20
0
 30
0
 70
128
 71
62
 72
15
 73
24
 74
64
 0
VERTEX
 8
TACCA_1
 10
0
 20
0
 30
0
 70
128
 71
68
 72
67
 73
66
 74
65
 0
VERTEX
 8
TACCA_1
 10
0
 20
0
 30
0
 70
128
 71
67
 72
17
 73
16
 74
66
 0
VERTEX
 8
TACCA_1
 10
0
 20
0
 30
0
 70
128
 71
70
 72
69
 73
67
 74
68
 0
VERTEX
 8
TACCA_1
 10
0
 20
0
 30
0
 70
128
 71
69
 72
18
 73
17
 74
67
 0
VERTEX
 8
TACCA_1
 10
0
 20
0
 30
0
 70
128
 71
51
 72
52
 73
54
 74
53
 0
VERTEX
 8
TACCA_1
 10
0
 20
0
 30
0
 70
128
 71
52
 72
27
 73
33
 74
54
 0
VERTEX
 8
TACCA_1
 10
0
 20
0
 30
0
 70
128
 71
55
 72
56
 73
58
 74
57
 0
VERTEX
 8
TACCA_1
 10
0
 20
0
 30
0
 70
128
 71
56
 72
31
 73
13
 74
58
 0
VERTEX
 8
TACCA_1
 10
0
 20
0
 30
0
 70
128
 71
53
 72
54
 73
56
 74
55
 0
VERTEX
 8
TACCA_1
 10
0
 20
0
 30
0
 70
128
 71
54
 72
33
 73
31
 74
56
 0
VERTEX
 8
TACCA_1
 10
0
 20
0
 30
0
 70
128
 71
76
 72
75
 73
73
 74
74
 0
VERTEX
 8
TACCA_1
 10
0
 20
0
 30
0
 70
128
 71
75
 72
21
 73
20
 74
73
 0
VERTEX
 8
TACCA_1
 10
0
 20
0
 30
0
 70
128
 71
78
 72
77
 73
75
 74
76
 0
VERTEX
 8
TACCA_1
 10
0
 20
0
 30
0
 70
128
 71
77
 72
22
 73
21
 74
75
 0
VERTEX
 8
TACCA_1
 10
0
 20
0
 30
0
 70
128
 71
80
 72
79
 73
77
 74
78
 0
VERTEX
 8
TACCA_1
 10
0
 20
0
 30
0
 70
128
 71
79
 72
23
 73
22
 74
77
 0
VERTEX
 8
TACCA_1
 10
0
 20
0
 30
0
 70
128
 71
43
 72
44
 73
46
 74
45
 0
VERTEX
 8
TACCA_1
 10
0
 20
0
 30
0
 70
128
 71
44
 72
37
 73
39
 74
46
 0
VERTEX
 8
TACCA_1
 10
0
 20
0
 30
0
 70
128
 71
45
 72
46
 73
48
 74
47
 0
VERTEX
 8
TACCA_1
 10
0
 20
0
 30
0
 70
128
 71
46
 72
39
 73
35
 74
48
 0
VERTEX
 8
TACCA_1
 10
0
 20
0
 30
0
 70
128
 71
47
 72
48
 73
50
 74
49
 0
VERTEX
 8
TACCA_1
 10
0
 20
0
 30
0
 70
128
 71
48
 72
35
 73
29
 74
50
 0
SEQEND
 0
POLYLINE
 8
CILINDRO_1
 66
1
 10
0.0
 20
0.0
 30
0.0
 70
64
 71
242
 72
280
 0
VERTEX
 8
CILINDRO_1
 10
-15.0002
 20
-0.1403
 30
154.6215
 70
192
 0
VERTEX
 8
CILINDRO_1
 10
-15.0002
 20
-2.4239
 30
154.6215
 70
192
 0
VERTEX
 8
CILINDRO_1
 10
-17.2157
 20
-0.6238
 30
154.6215
 70
192
 0
VERTEX
 8
CILINDRO_1
 10
-17.2157
 20
-2.4239
 30
154.6215
 70
192
 0
VERTEX
 8
CILINDRO_1
 10
-17.1885
 20
-0.6238
 30
154.2749
 70
192
 0
VERTEX
 8
CILINDRO_1
 10
-17.1885
 20
-2.4239
 30
154.2749
 70
192
 0
VERTEX
 8
CILINDRO_1
 10
-17.1073
 20
-0.6238
 30
153.9369
 70
192
 0
VERTEX
 8
CILINDRO_1
 10
-17.1073
 20
-2.4239
 30
153.9369
 70
192
 0
VERTEX
 8
CILINDRO_1
 10
-16.9743
 20
-0.6238
 30
153.6157
 70
192
 0
VERTEX
 8
CILINDRO_1
 10
-16.9743
 20
-2.4239
 30
153.6157
 70
192
 0
VERTEX
 8
CILINDRO_1
 10
-16.7926
 20
-0.6238
 30
153.3193
 70
192
 0
VERTEX
 8
CILINDRO_1
 10
-16.7926
 20
-2.4239
 30
153.3193
 70
192
 0
VERTEX
 8
CILINDRO_1
 10
-16.5668
 20
-0.6238
 30
153.0549
 70
192
 0
VERTEX
 8
CILINDRO_1
 10
-16.5668
 20
-2.4239
 30
153.0549
 70
192
 0
VERTEX
 8
CILINDRO_1
 10
-16.3025
 20
-0.6238
 30
152.8292
 70
192
 0
VERTEX
 8
CILINDRO_1
 10
-16.3025
 20
-2.4239
 30
152.8292
 70
192
 0
VERTEX
 8
CILINDRO_1
 10
-16.006
 20
-0.6238
 30
152.6475
 70
192
 0
VERTEX
 8
CILINDRO_1
 10
-16.006
 20
-2.4239
 30
152.6475
 70
192
 0
VERTEX
 8
CILINDRO_1
 10
-15.6849
 20
-0.6238
 30
152.5145
 70
192
 0
VERTEX
 8
CILINDRO_1
 10
-15.6849
 20
-2.4239
 30
152.5145
 70
192
 0
VERTEX
 8
CILINDRO_1
 10
-15.3468
 20
-0.6238
 30
152.4333
 70
192
 0
VERTEX
 8
CILINDRO_1
 10
-15.3468
 20
-2.4239
 30
152.4333
 70
192
 0
VERTEX
 8
CILINDRO_1
 10
-15.0002
 20
-0.6238
 30
152.406
 70
192
 0
VERTEX
 8
CILINDRO_1
 10
-15.0002
 20
-2.4239
 30
152.406
 70
192
 0
VERTEX
 8
CILINDRO_1
 10
-14.6536
 20
-0.6238
 30
152.4333
 70
192
 0
VERTEX
 8
CILINDRO_1
 10
-14.6536
 20
-2.4239
 30
152.4333
 70
192
 0
VERTEX
 8
CILINDRO_1
 10
-14.3156
 20
-0.6238
 30
152.5145
 70
192
 0
VERTEX
 8
CILINDRO_1
 10
-14.3156
 20
-2.4239
 30
152.5145
 70
192
 0
VERTEX
 8
CILINDRO_1
 10
-13.9944
 20
-0.6238
 30
152.6475
 70
192
 0
VERTEX
 8
CILINDRO_1
 10
-13.9944
 20
-2.4239
 30
152.6475
 70
192
 0
VERTEX
 8
CILINDRO_1
 10
-13.698
 20
-0.6238
 30
152.8292
 70
192
 0
VERTEX
 8
CILINDRO_1
 10
-13.698
 20
-2.4239
 30
152.8292
 70
192
 0
VERTEX
 8
CILINDRO_1
 10
-13.4336
 20
-0.6238
 30
153.0549
 70
192
 0
VERTEX
 8
CILINDRO_1
 10
-13.4336
 20
-2.4239
 30
153.0549
 70
192
 0
VERTEX
 8
CILINDRO_1
 10
-13.2079
 20
-0.6238
 30
153.3193
 70
192
 0
VERTEX
 8
CILINDRO_1
 10
-13.2079
 20
-2.4239
 30
153.3193
 70
192
 0
VERTEX
 8
CILINDRO_1
 10
-13.0262
 20
-0.6238
 30
153.6157
 70
192
 0
VERTEX
 8
CILINDRO_1
 10
-13.0262
 20
-2.4239
 30
153.6157
 70
192
 0
VERTEX
 8
CILINDRO_1
 10
-12.8932
 20
-0.6238
 30
153.9369
 70
192
 0
VERTEX
 8
CILINDRO_1
 10
-12.8932
 20
-2.4239
 30
153.9369
 70
192
 0
VERTEX
 8
CILINDRO_1
 10
-12.812
 20
-0.6238
 30
154.2749
 70
192
 0
VERTEX
 8
CILINDRO_1
 10
-12.812
 20
-2.4239
 30
154.2749
 70
192
 0
VERTEX
 8
CILINDRO_1
 10
-12.7847
 20
-0.6238
 30
154.6215
 70
192
 0
VERTEX
 8
CILINDRO_1
 10
-12.7847
 20
-2.4239
 30
154.6215
 70
192
 0
VERTEX
 8
CILINDRO_1
 10
-12.812
 20
-0.6238
 30
154.9681
 70
192
 0
VERTEX
 8
CILINDRO_1
 10
-12.812
 20
-2.4239
 30
154.9681
 70
192
 0
VERTEX
 8
CILINDRO_1
 10
-12.8932
 20
-0.6238
 30
155.3062
 70
192
 0
VERTEX
 8
CILINDRO_1
 10
-12.8932
 20
-2.4239
 30
155.3062
 70
192
 0
VERTEX
 8
CILINDRO_1
 10
-13.0262
 20
-0.6238
 30
155.6273
 70
192
 0
VERTEX
 8
CILINDRO_1
 10
-13.0262
 20
-2.4239
 30
155.6273
 70
192
 0
VERTEX
 8
CILINDRO_1
 10
-13.2079
 20
-0.6238
 30
155.9238
 70
192
 0
VERTEX
 8
CILINDRO_1
 10
-13.2079
 20
-2.4239
 30
155.9238
 70
192
 0
VERTEX
 8
CILINDRO_1
 10
-13.4336
 20
-0.6238
 30
156.1881
 70
192
 0
VERTEX
 8
CILINDRO_1
 10
-13.4336
 20
-2.4239
 30
156.1881
 70
192
 0
VERTEX
 8
CILINDRO_1
 10
-13.698
 20
-0.6238
 30
156.4139
 70
192
 0
VERTEX
 8
CILINDRO_1
 10
-13.698
 20
-2.4239
 30
156.4139
 70
192
 0
VERTEX
 8
CILINDRO_1
 10
-13.9944
 20
-0.6238
 30
156.5956
 70
192
 0
VERTEX
 8
CILINDRO_1
 10
-13.9944
 20
-2.4239
 30
156.5956
 70
192
 0
VERTEX
 8
CILINDRO_1
 10
-14.3156
 20
-0.6238
 30
156.7286
 70
192
 0
VERTEX
 8
CILINDRO_1
 10
-14.3156
 20
-2.4239
 30
156.7286
 70
192
 0
VERTEX
 8
CILINDRO_1
 10
-14.6536
 20
-0.6238
 30
156.8098
 70
192
 0
VERTEX
 8
CILINDRO_1
 10
-14.6536
 20
-2.4239
 30
156.8098
 70
192
 0
VERTEX
 8
CILINDRO_1
 10
-15.0002
 20
-0.6238
 30
156.837
 70
192
 0
VERTEX
 8
CILINDRO_1
 10
-15.0002
 20
-2.4239
 30
156.837
 70
192
 0
VERTEX
 8
CILINDRO_1
 10
-15.3468
 20
-0.6238
 30
156.8098
 70
192
 0
VERTEX
 8
CILINDRO_1
 10
-15.3468
 20
-2.4239
 30
156.8098
 70
192
 0
VERTEX
 8
CILINDRO_1
 10
-15.6849
 20
-0.6238
 30
156.7286
 70
192
 0
VERTEX
 8
CILINDRO_1
 10
-15.6849
 20
-2.4239
 30
156.7286
 70
192
 0
VERTEX
 8
CILINDRO_1
 10
-16.006
 20
-0.6238
 30
156.5956
 70
192
 0
VERTEX
 8
CILINDRO_1
 10
-16.006
 20
-2.4239
 30
156.5956
 70
192
 0
VERTEX
 8
CILINDRO_1
 10
-16.3025
 20
-0.6238
 30
156.4139
 70
192
 0
VERTEX
 8
CILINDRO_1
 10
-16.3025
 20
-2.4239
 30
156.4139
 70
192
 0
VERTEX
 8
CILINDRO_1
 10
-16.5668
 20
-0.6238
 30
156.1881
 70
192
 0
VERTEX
 8
CILINDRO_1
 10
-16.5668
 20
-2.4239
 30
156.1881
 70
192
 0
VERTEX
 8
CILINDRO_1
 10
-16.7926
 20
-0.6238
 30
155.9238
 70
192
 0
VERTEX
 8
CILINDRO_1
 10
-16.7926
 20
-2.4239
 30
155.9238
 70
192
 0
VERTEX
 8
CILINDRO_1
 10
-16.9743
 20
-0.6238
 30
155.6273
 70
192
 0
VERTEX
 8
CILINDRO_1
 10
-16.9743
 20
-2.4239
 30
155.6273
 70
192
 0
VERTEX
 8
CILINDRO_1
 10
-17.1073
 20
-0.6238
 30
155.3062
 70
192
 0
VERTEX
 8
CILINDRO_1
 10
-17.1073
 20
-2.4239
 30
155.3062
 70
192
 0
VERTEX
 8
CILINDRO_1
 10
-17.1885
 20
-0.6238
 30
154.9681
 70
192
 0
VERTEX
 8
CILINDRO_1
 10
-17.1885
 20
-2.4239
 30
154.9681
 70
192
 0
VERTEX
 8
CILINDRO_1
 10
-17.0051
 20
-0.6238
 30
154.6215
 70
192
 0
VERTEX
 8
CILINDRO_1
 10
-16.9804
 20
-0.6238
 30
154.3079
 70
192
 0
VERTEX
 8
CILINDRO_1
 10
-16.907
 20
-0.6238
 30
154.002
 70
192
 0
VERTEX
 8
CILINDRO_1
 10
-16.7866
 20
-0.6238
 30
153.7113
 70
192
 0
VERTEX
 8
CILINDRO_1
 10
-16.6222
 20
-0.6238
 30
153.4431
 70
192
 0
VERTEX
 8
CILINDRO_1
 10
-16.4179
 20
-0.6238
 30
153.2039
 70
192
 0
VERTEX
 8
CILINDRO_1
 10
-16.1787
 20
-0.6238
 30
152.9996
 70
192
 0
VERTEX
 8
CILINDRO_1
 10
-15.9104
 20
-0.6238
 30
152.8352
 70
192
 0
VERTEX
 8
CILINDRO_1
 10
-15.6198
 20
-0.6238
 30
152.7148
 70
192
 0
VERTEX
 8
CILINDRO_1
 10
-15.3139
 20
-0.6238
 30
152.6414
 70
192
 0
VERTEX
 8
CILINDRO_1
 10
-15.0002
 20
-0.6238
 30
152.6167
 70
192
 0
VERTEX
 8
CILINDRO_1
 10
-14.6866
 20
-0.6238
 30
152.6414
 70
192
 0
VERTEX
 8
CILINDRO_1
 10
-14.3807
 20
-0.6238
 30
152.7148
 70
192
 0
VERTEX
 8
CILINDRO_1
 10
-14.09
 20
-0.6238
 30
152.8352
 70
192
 0
VERTEX
 8
CILINDRO_1
 10
-13.8218
 20
-0.6238
 30
152.9996
 70
192
 0
VERTEX
 8
CILINDRO_1
 10
-13.5826
 20
-0.6238
 30
153.2039
 70
192
 0
VERTEX
 8
CILINDRO_1
 10
-13.3783
 20
-0.6238
 30
153.4431
 70
192
 0
VERTEX
 8
CILINDRO_1
 10
-13.2139
 20
-0.6238
 30
153.7113
 70
192
 0
VERTEX
 8
CILINDRO_1
 10
-13.0935
 20
-0.6238
 30
154.002
 70
192
 0
VERTEX
 8
CILINDRO_1
 10
-13.0201
 20
-0.6238
 30
154.3079
 70
192
 0
VERTEX
 8
CILINDRO_1
 10
-12.9954
 20
-0.6238
 30
154.6215
 70
192
 0
VERTEX
 8
CILINDRO_1
 10
-13.0201
 20
-0.6238
 30
154.9352
 70
192
 0
VERTEX
 8
CILINDRO_1
 10
-13.0935
 20
-0.6238
 30
155.2411
 70
192
 0
VERTEX
 8
CILINDRO_1
 10
-13.2139
 20
-0.6238
 30
155.5317
 70
192
 0
VERTEX
 8
CILINDRO_1
 10
-13.3783
 20
-0.6238
 30
155.8
 70
192
 0
VERTEX
 8
CILINDRO_1
 10
-13.5826
 20
-0.6238
 30
156.0392
 70
192
 0
VERTEX
 8
CILINDRO_1
 10
-13.8218
 20
-0.6238
 30
156.2435
 70
192
 0
VERTEX
 8
CILINDRO_1
 10
-14.09
 20
-0.6238
 30
156.4079
 70
192
 0
VERTEX
 8
CILINDRO_1
 10
-14.3807
 20
-0.6238
 30
156.5283
 70
192
 0
VERTEX
 8
CILINDRO_1
 10
-14.6866
 20
-0.6238
 30
156.6017
 70
192
 0
VERTEX
 8
CILINDRO_1
 10
-15.0002
 20
-0.6238
 30
156.6264
 70
192
 0
VERTEX
 8
CILINDRO_1
 10
-15.3139
 20
-0.6238
 30
156.6017
 70
192
 0
VERTEX
 8
CILINDRO_1
 10
-15.6198
 20
-0.6238
 30
156.5283
 70
192
 0
VERTEX
 8
CILINDRO_1
 10
-15.9104
 20
-0.6238
 30
156.4079
 70
192
 0
VERTEX
 8
CILINDRO_1
 10
-16.1787
 20
-0.6238
 30
156.2435
 70
192
 0
VERTEX
 8
CILINDRO_1
 10
-16.4179
 20
-0.6238
 30
156.0392
 70
192
 0
VERTEX
 8
CILINDRO_1
 10
-16.6222
 20
-0.6238
 30
155.8
 70
192
 0
VERTEX
 8
CILINDRO_1
 10
-16.7866
 20
-0.6238
 30
155.5317
 70
192
 0
VERTEX
 8
CILINDRO_1
 10
-16.907
 20
-0.6238
 30
155.2411
 70
192
 0
VERTEX
 8
CILINDRO_1
 10
-16.9804
 20
-0.6238
 30
154.9352
 70
192
 0
VERTEX
 8
CILINDRO_1
 10
-17.0051
 20
-0.2726
 30
154.6215
 70
192
 0
VERTEX
 8
CILINDRO_1
 10
-16.9804
 20
-0.2726
 30
154.3079
 70
192
 0
VERTEX
 8
CILINDRO_1
 10
-16.907
 20
-0.2726
 30
154.002
 70
192
 0
VERTEX
 8
CILINDRO_1
 10
-16.7866
 20
-0.2726
 30
153.7113
 70
192
 0
VERTEX
 8
CILINDRO_1
 10
-16.6222
 20
-0.2726
 30
153.4431
 70
192
 0
VERTEX
 8
CILINDRO_1
 10
-16.4179
 20
-0.2726
 30
153.2039
 70
192
 0
VERTEX
 8
CILINDRO_1
 10
-16.1787
 20
-0.2726
 30
152.9996
 70
192
 0
VERTEX
 8
CILINDRO_1
 10
-15.9104
 20
-0.2726
 30
152.8352
 70
192
 0
VERTEX
 8
CILINDRO_1
 10
-15.6198
 20
-0.2726
 30
152.7148
 70
192
 0
VERTEX
 8
CILINDRO_1
 10
-15.3139
 20
-0.2726
 30
152.6414
 70
192
 0
VERTEX
 8
CILINDRO_1
 10
-15.0002
 20
-0.2726
 30
152.6167
 70
192
 0
VERTEX
 8
CILINDRO_1
 10
-14.6866
 20
-0.2726
 30
152.6414
 70
192
 0
VERTEX
 8
CILINDRO_1
 10
-14.3807
 20
-0.2726
 30
152.7148
 70
192
 0
VERTEX
 8
CILINDRO_1
 10
-14.09
 20
-0.2726
 30
152.8352
 70
192
 0
VERTEX
 8
CILINDRO_1
 10
-13.8218
 20
-0.2726
 30
152.9996
 70
192
 0
VERTEX
 8
CILINDRO_1
 10
-13.5826
 20
-0.2726
 30
153.2039
 70
192
 0
VERTEX
 8
CILINDRO_1
 10
-13.3783
 20
-0.2726
 30
153.4431
 70
192
 0
VERTEX
 8
CILINDRO_1
 10
-13.2139
 20
-0.2726
 30
153.7113
 70
192
 0
VERTEX
 8
CILINDRO_1
 10
-13.0935
 20
-0.2726
 30
154.002
 70
192
 0
VERTEX
 8
CILINDRO_1
 10
-13.0201
 20
-0.2726
 30
154.3079
 70
192
 0
VERTEX
 8
CILINDRO_1
 10
-12.9954
 20
-0.2726
 30
154.6215
 70
192
 0
VERTEX
 8
CILINDRO_1
 10
-13.0201
 20
-0.2726
 30
154.9352
 70
192
 0
VERTEX
 8
CILINDRO_1
 10
-13.0935
 20
-0.2726
 30
155.2411
 70
192
 0
VERTEX
 8
CILINDRO_1
 10
-13.2139
 20
-0.2726
 30
155.5317
 70
192
 0
VERTEX
 8
CILINDRO_1
 10
-13.3783
 20
-0.2726
 30
155.8
 70
192
 0
VERTEX
 8
CILINDRO_1
 10
-13.5826
 20
-0.2726
 30
156.0392
 70
192
 0
VERTEX
 8
CILINDRO_1
 10
-13.8218
 20
-0.2726
 30
156.2435
 70
192
 0
VERTEX
 8
CILINDRO_1
 10
-14.09
 20
-0.2726
 30
156.4079
 70
192
 0
VERTEX
 8
CILINDRO_1
 10
-14.3807
 20
-0.2726
 30
156.5283
 70
192
 0
VERTEX
 8
CILINDRO_1
 10
-14.6866
 20
-0.2726
 30
156.6017
 70
192
 0
VERTEX
 8
CILINDRO_1
 10
-15.0002
 20
-0.2726
 30
156.6264
 70
192
 0
VERTEX
 8
CILINDRO_1
 10
-15.3139
 20
-0.2726
 30
156.6017
 70
192
 0
VERTEX
 8
CILINDRO_1
 10
-15.6198
 20
-0.2726
 30
156.5283
 70
192
 0
VERTEX
 8
CILINDRO_1
 10
-15.9104
 20
-0.2726
 30
156.4079
 70
192
 0
VERTEX
 8
CILINDRO_1
 10
-16.1787
 20
-0.2726
 30
156.2435
 70
192
 0
VERTEX
 8
CILINDRO_1
 10
-16.4179
 20
-0.2726
 30
156.0392
 70
192
 0
VERTEX
 8
CILINDRO_1
 10
-16.6222
 20
-0.2726
 30
155.8
 70
192
 0
VERTEX
 8
CILINDRO_1
 10
-16.7866
 20
-0.2726
 30
155.5317
 70
192
 0
VERTEX
 8
CILINDRO_1
 10
-16.907
 20
-0.2726
 30
155.2411
 70
192
 0
VERTEX
 8
CILINDRO_1
 10
-16.9804
 20
-0.2726
 30
154.9352
 70
192
 0
VERTEX
 8
CILINDRO_1
 10
-17.2002
 20
-0.5343
 30
154.6215
 70
192
 0
VERTEX
 8
CILINDRO_1
 10
-17.1731
 20
-0.5343
 30
154.2774
 70
192
 0
VERTEX
 8
CILINDRO_1
 10
-17.0925
 20
-0.5343
 30
153.9417
 70
192
 0
VERTEX
 8
CILINDRO_1
 10
-16.9604
 20
-0.5343
 30
153.6228
 70
192
 0
VERTEX
 8
CILINDRO_1
 10
-16.78
 20
-0.5343
 30
153.3284
 70
192
 0
VERTEX
 8
CILINDRO_1
 10
-16.5558
 20
-0.5343
 30
153.0659
 70
192
 0
VERTEX
 8
CILINDRO_1
 10
-16.2933
 20
-0.5343
 30
152.8417
 70
192
 0
VERTEX
 8
CILINDRO_1
 10
-15.999
 20
-0.5343
 30
152.6614
 70
192
 0
VERTEX
 8
CILINDRO_1
 10
-15.6801
 20
-0.5343
 30
152.5293
 70
192
 0
VERTEX
 8
CILINDRO_1
 10
-15.3444
 20
-0.5343
 30
152.4487
 70
192
 0
VERTEX
 8
CILINDRO_1
 10
-15.0002
 20
-0.5343
 30
152.4216
 70
192
 0
VERTEX
 8
CILINDRO_1
 10
-14.6561
 20
-0.5343
 30
152.4487
 70
192
 0
VERTEX
 8
CILINDRO_1
 10
-14.3204
 20
-0.5343
 30
152.5293
 70
192
 0
VERTEX
 8
CILINDRO_1
 10
-14.0015
 20
-0.5343
 30
152.6614
 70
192
 0
VERTEX
 8
CILINDRO_1
 10
-13.7071
 20
-0.5343
 30
152.8417
 70
192
 0
VERTEX
 8
CILINDRO_1
 10
-13.4446
 20
-0.5343
 30
153.0659
 70
192
 0
VERTEX
 8
CILINDRO_1
 10
-13.2204
 20
-0.5343
 30
153.3284
 70
192
 0
VERTEX
 8
CILINDRO_1
 10
-13.0401
 20
-0.5343
 30
153.6228
 70
192
 0
VERTEX
 8
CILINDRO_1
 10
-12.908
 20
-0.5343
 30
153.9417
 70
192
 0
VERTEX
 8
CILINDRO_1
 10
-12.8274
 20
-0.5343
 30
154.2774
 70
192
 0
VERTEX
 8
CILINDRO_1
 10
-12.8003
 20
-0.5343
 30
154.6215
 70
192
 0
VERTEX
 8
CILINDRO_1
 10
-12.8274
 20
-0.5343
 30
154.9657
 70
192
 0
VERTEX
 8
CILINDRO_1
 10
-12.908
 20
-0.5343
 30
155.3014
 70
192
 0
VERTEX
 8
CILINDRO_1
 10
-13.0401
 20
-0.5343
 30
155.6203
 70
192
 0
VERTEX
 8
CILINDRO_1
 10
-13.2204
 20
-0.5343
 30
155.9146
 70
192
 0
VERTEX
 8
CILINDRO_1
 10
-13.4446
 20
-0.5343
 30
156.1771
 70
192
 0
VERTEX
 8
CILINDRO_1
 10
-13.7071
 20
-0.5343
 30
156.4013
 70
192
 0
VERTEX
 8
CILINDRO_1
 10
-14.0015
 20
-0.5343
 30
156.5817
 70
192
 0
VERTEX
 8
CILINDRO_1
 10
-14.3204
 20
-0.5343
 30
156.7138
 70
192
 0
VERTEX
 8
CILINDRO_1
 10
-14.6561
 20
-0.5343
 30
156.7944
 70
192
 0
VERTEX
 8
CILINDRO_1
 10
-15.0002
 20
-0.5343
 30
156.8215
 70
192
 0
VERTEX
 8
CILINDRO_1
 10
-15.3444
 20
-0.5343
 30
156.7944
 70
192
 0
VERTEX
 8
CILINDRO_1
 10
-15.6801
 20
-0.5343
 30
156.7138
 70
192
 0
VERTEX
 8
CILINDRO_1
 10
-15.999
 20
-0.5343
 30
156.5817
 70
192
 0
VERTEX
 8
CILINDRO_1
 10
-16.2933
 20
-0.5343
 30
156.4013
 70
192
 0
VERTEX
 8
CILINDRO_1
 10
-16.5558
 20
-0.5343
 30
156.1771
 70
192
 0
VERTEX
 8
CILINDRO_1
 10
-16.78
 20
-0.5343
 30
155.9146
 70
192
 0
VERTEX
 8
CILINDRO_1
 10
-16.9604
 20
-0.5343
 30
155.6203
 70
192
 0
VERTEX
 8
CILINDRO_1
 10
-17.0925
 20
-0.5343
 30
155.3014
 70
192
 0
VERTEX
 8
CILINDRO_1
 10
-17.1731
 20
-0.5343
 30
154.9657
 70
192
 0
VERTEX
 8
CILINDRO_1
 10
-17.2002
 20
-0.1403
 30
154.6215
 70
192
 0
VERTEX
 8
CILINDRO_1
 10
-17.1731
 20
-0.1403
 30
154.2774
 70
192
 0
VERTEX
 8
CILINDRO_1
 10
-17.0925
 20
-0.1403
 30
153.9417
 70
192
 0
VERTEX
 8
CILINDRO_1
 10
-16.9604
 20
-0.1403
 30
153.6228
 70
192
 0
VERTEX
 8
CILINDRO_1
 10
-16.78
 20
-0.1403
 30
153.3284
 70
192
 0
VERTEX
 8
CILINDRO_1
 10
-16.5558
 20
-0.1403
 30
153.0659
 70
192
 0
VERTEX
 8
CILINDRO_1
 10
-16.2933
 20
-0.1403
 30
152.8417
 70
192
 0
VERTEX
 8
CILINDRO_1
 10
-15.999
 20
-0.1403
 30
152.6614
 70
192
 0
VERTEX
 8
CILINDRO_1
 10
-15.6801
 20
-0.1403
 30
152.5293
 70
192
 0
VERTEX
 8
CILINDRO_1
 10
-15.3444
 20
-0.1403
 30
152.4487
 70
192
 0
VERTEX
 8
CILINDRO_1
 10
-15.0002
 20
-0.1403
 30
152.4216
 70
192
 0
VERTEX
 8
CILINDRO_1
 10
-14.6561
 20
-0.1403
 30
152.4487
 70
192
 0
VERTEX
 8
CILINDRO_1
 10
-14.3204
 20
-0.1403
 30
152.5293
 70
192
 0
VERTEX
 8
CILINDRO_1
 10
-14.0015
 20
-0.1403
 30
152.6614
 70
192
 0
VERTEX
 8
CILINDRO_1
 10
-13.7071
 20
-0.1403
 30
152.8417
 70
192
 0
VERTEX
 8
CILINDRO_1
 10
-13.4446
 20
-0.1403
 30
153.0659
 70
192
 0
VERTEX
 8
CILINDRO_1
 10
-13.2204
 20
-0.1403
 30
153.3284
 70
192
 0
VERTEX
 8
CILINDRO_1
 10
-13.0401
 20
-0.1403
 30
153.6228
 70
192
 0
VERTEX
 8
CILINDRO_1
 10
-12.908
 20
-0.1403
 30
153.9417
 70
192
 0
VERTEX
 8
CILINDRO_1
 10
-12.8274
 20
-0.1403
 30
154.2774
 70
192
 0
VERTEX
 8
CILINDRO_1
 10
-12.8003
 20
-0.1403
 30
154.6215
 70
192
 0
VERTEX
 8
CILINDRO_1
 10
-12.8274
 20
-0.1403
 30
154.9657
 70
192
 0
VERTEX
 8
CILINDRO_1
 10
-12.908
 20
-0.1403
 30
155.3014
 70
192
 0
VERTEX
 8
CILINDRO_1
 10
-13.0401
 20
-0.1403
 30
155.6203
 70
192
 0
VERTEX
 8
CILINDRO_1
 10
-13.2204
 20
-0.1403
 30
155.9146
 70
192
 0
VERTEX
 8
CILINDRO_1
 10
-13.4446
 20
-0.1403
 30
156.1771
 70
192
 0
VERTEX
 8
CILINDRO_1
 10
-13.7071
 20
-0.1403
 30
156.4013
 70
192
 0
VERTEX
 8
CILINDRO_1
 10
-14.0015
 20
-0.1403
 30
156.5817
 70
192
 0
VERTEX
 8
CILINDRO_1
 10
-14.3204
 20
-0.1403
 30
156.7138
 70
192
 0
VERTEX
 8
CILINDRO_1
 10
-14.6561
 20
-0.1403
 30
156.7944
 70
192
 0
VERTEX
 8
CILINDRO_1
 10
-15.0002
 20
-0.1403
 30
156.8215
 70
192
 0
VERTEX
 8
CILINDRO_1
 10
-15.3444
 20
-0.1403
 30
156.7944
 70
192
 0
VERTEX
 8
CILINDRO_1
 10
-15.6801
 20
-0.1403
 30
156.7138
 70
192
 0
VERTEX
 8
CILINDRO_1
 10
-15.999
 20
-0.1403
 30
156.5817
 70
192
 0
VERTEX
 8
CILINDRO_1
 10
-16.2933
 20
-0.1403
 30
156.4013
 70
192
 0
VERTEX
 8
CILINDRO_1
 10
-16.5558
 20
-0.1403
 30
156.1771
 70
192
 0
VERTEX
 8
CILINDRO_1
 10
-16.78
 20
-0.1403
 30
155.9146
 70
192
 0
VERTEX
 8
CILINDRO_1
 10
-16.9604
 20
-0.1403
 30
155.6203
 70
192
 0
VERTEX
 8
CILINDRO_1
 10
-17.0925
 20
-0.1403
 30
155.3014
 70
192
 0
VERTEX
 8
CILINDRO_1
 10
-17.1731
 20
-0.1403
 30
154.9657
 70
192
 0
VERTEX
 8
CILINDRO_1
 10
0
 20
0
 30
0
 70
128
 71
1
 72
203
 73
204
 74
204
 0
VERTEX
 8
CILINDRO_1
 10
0
 20
0
 30
0
 70
128
 71
3
 72
4
 73
6
 74
5
 0
VERTEX
 8
CILINDRO_1
 10
0
 20
0
 30
0
 70
128
 71
4
 72
2
 73
6
 74
6
 0
VERTEX
 8
CILINDRO_1
 10
0
 20
0
 30
0
 70
128
 71
1
 72
204
 73
205
 74
205
 0
VERTEX
 8
CILINDRO_1
 10
0
 20
0
 30
0
 70
128
 71
5
 72
6
 73
8
 74
7
 0
VERTEX
 8
CILINDRO_1
 10
0
 20
0
 30
0
 70
128
 71
6
 72
2
 73
8
 74
8
 0
VERTEX
 8
CILINDRO_1
 10
0
 20
0
 30
0
 70
128
 71
1
 72
205
 73
206
 74
206
 0
VERTEX
 8
CILINDRO_1
 10
0
 20
0
 30
0
 70
128
 71
7
 72
8
 73
10
 74
9
 0
VERTEX
 8
CILINDRO_1
 10
0
 20
0
 30
0
 70
128
 71
8
 72
2
 73
10
 74
10
 0
VERTEX
 8
CILINDRO_1
 10
0
 20
0
 30
0
 70
128
 71
1
 72
206
 73
207
 74
207
 0
VERTEX
 8
CILINDRO_1
 10
0
 20
0
 30
0
 70
128
 71
9
 72
10
 73
12
 74
11
 0
VERTEX
 8
CILINDRO_1
 10
0
 20
0
 30
0
 70
128
 71
10
 72
2
 73
12
 74
12
 0
VERTEX
 8
CILINDRO_1
 10
0
 20
0
 30
0
 70
128
 71
1
 72
207
 73
208
 74
208
 0
VERTEX
 8
CILINDRO_1
 10
0
 20
0
 30
0
 70
128
 71
11
 72
12
 73
14
 74
13
 0
VERTEX
 8
CILINDRO_1
 10
0
 20
0
 30
0
 70
128
 71
12
 72
2
 73
14
 74
14
 0
VERTEX
 8
CILINDRO_1
 10
0
 20
0
 30
0
 70
128
 71
1
 72
208
 73
209
 74
209
 0
VERTEX
 8
CILINDRO_1
 10
0
 20
0
 30
0
 70
128
 71
13
 72
14
 73
16
 74
15
 0
VERTEX
 8
CILINDRO_1
 10
0
 20
0
 30
0
 70
128
 71
14
 72
2
 73
16
 74
16
 0
VERTEX
 8
CILINDRO_1
 10
0
 20
0
 30
0
 70
128
 71
1
 72
209
 73
210
 74
210
 0
VERTEX
 8
CILINDRO_1
 10
0
 20
0
 30
0
 70
128
 71
15
 72
16
 73
18
 74
17
 0
VERTEX
 8
CILINDRO_1
 10
0
 20
0
 30
0
 70
128
 71
16
 72
2
 73
18
 74
18
 0
VERTEX
 8
CILINDRO_1
 10
0
 20
0
 30
0
 70
128
 71
1
 72
210
 73
211
 74
211
 0
VERTEX
 8
CILINDRO_1
 10
0
 20
0
 30
0
 70
128
 71
17
 72
18
 73
20
 74
19
 0
VERTEX
 8
CILINDRO_1
 10
0
 20
0
 30
0
 70
128
 71
18
 72
2
 73
20
 74
20
 0
VERTEX
 8
CILINDRO_1
 10
0
 20
0
 30
0
 70
128
 71
1
 72
211
 73
212
 74
212
 0
VERTEX
 8
CILINDRO_1
 10
0
 20
0
 30
0
 70
128
 71
19
 72
20
 73
22
 74
21
 0
VERTEX
 8
CILINDRO_1
 10
0
 20
0
 30
0
 70
128
 71
20
 72
2
 73
22
 74
22
 0
VERTEX
 8
CILINDRO_1
 10
0
 20
0
 30
0
 70
128
 71
1
 72
212
 73
213
 74
213
 0
VERTEX
 8
CILINDRO_1
 10
0
 20
0
 30
0
 70
128
 71
21
 72
22
 73
24
 74
23
 0
VERTEX
 8
CILINDRO_1
 10
0
 20
0
 30
0
 70
128
 71
22
 72
2
 73
24
 74
24
 0
VERTEX
 8
CILINDRO_1
 10
0
 20
0
 30
0
 70
128
 71
1
 72
213
 73
214
 74
214
 0
VERTEX
 8
CILINDRO_1
 10
0
 20
0
 30
0
 70
128
 71
23
 72
24
 73
26
 74
25
 0
VERTEX
 8
CILINDRO_1
 10
0
 20
0
 30
0
 70
128
 71
24
 72
2
 73
26
 74
26
 0
VERTEX
 8
CILINDRO_1
 10
0
 20
0
 30
0
 70
128
 71
1
 72
214
 73
215
 74
215
 0
VERTEX
 8
CILINDRO_1
 10
0
 20
0
 30
0
 70
128
 71
25
 72
26
 73
28
 74
27
 0
VERTEX
 8
CILINDRO_1
 10
0
 20
0
 30
0
 70
128
 71
26
 72
2
 73
28
 74
28
 0
VERTEX
 8
CILINDRO_1
 10
0
 20
0
 30
0
 70
128
 71
1
 72
215
 73
216
 74
216
 0
VERTEX
 8
CILINDRO_1
 10
0
 20
0
 30
0
 70
128
 71
27
 72
28
 73
30
 74
29
 0
VERTEX
 8
CILINDRO_1
 10
0
 20
0
 30
0
 70
128
 71
28
 72
2
 73
30
 74
30
 0
VERTEX
 8
CILINDRO_1
 10
0
 20
0
 30
0
 70
128
 71
1
 72
216
 73
217
 74
217
 0
VERTEX
 8
CILINDRO_1
 10
0
 20
0
 30
0
 70
128
 71
29
 72
30
 73
32
 74
31
 0
VERTEX
 8
CILINDRO_1
 10
0
 20
0
 30
0
 70
128
 71
30
 72
2
 73
32
 74
32
 0
VERTEX
 8
CILINDRO_1
 10
0
 20
0
 30
0
 70
128
 71
1
 72
217
 73
218
 74
218
 0
VERTEX
 8
CILINDRO_1
 10
0
 20
0
 30
0
 70
128
 71
31
 72
32
 73
34
 74
33
 0
VERTEX
 8
CILINDRO_1
 10
0
 20
0
 30
0
 70
128
 71
32
 72
2
 73
34
 74
34
 0
VERTEX
 8
CILINDRO_1
 10
0
 20
0
 30
0
 70
128
 71
1
 72
218
 73
219
 74
219
 0
VERTEX
 8
CILINDRO_1
 10
0
 20
0
 30
0
 70
128
 71
33
 72
34
 73
36
 74
35
 0
VERTEX
 8
CILINDRO_1
 10
0
 20
0
 30
0
 70
128
 71
34
 72
2
 73
36
 74
36
 0
VERTEX
 8
CILINDRO_1
 10
0
 20
0
 30
0
 70
128
 71
1
 72
219
 73
220
 74
220
 0
VERTEX
 8
CILINDRO_1
 10
0
 20
0
 30
0
 70
128
 71
35
 72
36
 73
38
 74
37
 0
VERTEX
 8
CILINDRO_1
 10
0
 20
0
 30
0
 70
128
 71
36
 72
2
 73
38
 74
38
 0
VERTEX
 8
CILINDRO_1
 10
0
 20
0
 30
0
 70
128
 71
1
 72
220
 73
221
 74
221
 0
VERTEX
 8
CILINDRO_1
 10
0
 20
0
 30
0
 70
128
 71
37
 72
38
 73
40
 74
39
 0
VERTEX
 8
CILINDRO_1
 10
0
 20
0
 30
0
 70
128
 71
38
 72
2
 73
40
 74
40
 0
VERTEX
 8
CILINDRO_1
 10
0
 20
0
 30
0
 70
128
 71
1
 72
221
 73
222
 74
222
 0
VERTEX
 8
CILINDRO_1
 10
0
 20
0
 30
0
 70
128
 71
39
 72
40
 73
42
 74
41
 0
VERTEX
 8
CILINDRO_1
 10
0
 20
0
 30
0
 70
128
 71
40
 72
2
 73
42
 74
42
 0
VERTEX
 8
CILINDRO_1
 10
0
 20
0
 30
0
 70
128
 71
1
 72
222
 73
223
 74
223
 0
VERTEX
 8
CILINDRO_1
 10
0
 20
0
 30
0
 70
128
 71
41
 72
42
 73
44
 74
43
 0
VERTEX
 8
CILINDRO_1
 10
0
 20
0
 30
0
 70
128
 71
42
 72
2
 73
44
 74
44
 0
VERTEX
 8
CILINDRO_1
 10
0
 20
0
 30
0
 70
128
 71
1
 72
223
 73
224
 74
224
 0
VERTEX
 8
CILINDRO_1
 10
0
 20
0
 30
0
 70
128
 71
43
 72
44
 73
46
 74
45
 0
VERTEX
 8
CILINDRO_1
 10
0
 20
0
 30
0
 70
128
 71
44
 72
2
 73
46
 74
46
 0
VERTEX
 8
CILINDRO_1
 10
0
 20
0
 30
0
 70
128
 71
1
 72
224
 73
225
 74
225
 0
VERTEX
 8
CILINDRO_1
 10
0
 20
0
 30
0
 70
128
 71
45
 72
46
 73
48
 74
47
 0
VERTEX
 8
CILINDRO_1
 10
0
 20
0
 30
0
 70
128
 71
46
 72
2
 73
48
 74
48
 0
VERTEX
 8
CILINDRO_1
 10
0
 20
0
 30
0
 70
128
 71
1
 72
225
 73
226
 74
226
 0
VERTEX
 8
CILINDRO_1
 10
0
 20
0
 30
0
 70
128
 71
47
 72
48
 73
50
 74
49
 0
VERTEX
 8
CILINDRO_1
 10
0
 20
0
 30
0
 70
128
 71
48
 72
2
 73
50
 74
50
 0
VERTEX
 8
CILINDRO_1
 10
0
 20
0
 30
0
 70
128
 71
1
 72
226
 73
227
 74
227
 0
VERTEX
 8
CILINDRO_1
 10
0
 20
0
 30
0
 70
128
 71
49
 72
50
 73
52
 74
51
 0
VERTEX
 8
CILINDRO_1
 10
0
 20
0
 30
0
 70
128
 71
50
 72
2
 73
52
 74
52
 0
VERTEX
 8
CILINDRO_1
 10
0
 20
0
 30
0
 70
128
 71
1
 72
227
 73
228
 74
228
 0
VERTEX
 8
CILINDRO_1
 10
0
 20
0
 30
0
 70
128
 71
51
 72
52
 73
54
 74
53
 0
VERTEX
 8
CILINDRO_1
 10
0
 20
0
 30
0
 70
128
 71
52
 72
2
 73
54
 74
54
 0
VERTEX
 8
CILINDRO_1
 10
0
 20
0
 30
0
 70
128
 71
1
 72
228
 73
229
 74
229
 0
VERTEX
 8
CILINDRO_1
 10
0
 20
0
 30
0
 70
128
 71
53
 72
54
 73
56
 74
55
 0
VERTEX
 8
CILINDRO_1
 10
0
 20
0
 30
0
 70
128
 71
54
 72
2
 73
56
 74
56
 0
VERTEX
 8
CILINDRO_1
 10
0
 20
0
 30
0
 70
128
 71
1
 72
229
 73
230
 74
230
 0
VERTEX
 8
CILINDRO_1
 10
0
 20
0
 30
0
 70
128
 71
55
 72
56
 73
58
 74
57
 0
VERTEX
 8
CILINDRO_1
 10
0
 20
0
 30
0
 70
128
 71
56
 72
2
 73
58
 74
58
 0
VERTEX
 8
CILINDRO_1
 10
0
 20
0
 30
0
 70
128
 71
1
 72
230
 73
231
 74
231
 0
VERTEX
 8
CILINDRO_1
 10
0
 20
0
 30
0
 70
128
 71
57
 72
58
 73
60
 74
59
 0
VERTEX
 8
CILINDRO_1
 10
0
 20
0
 30
0
 70
128
 71
58
 72
2
 73
60
 74
60
 0
VERTEX
 8
CILINDRO_1
 10
0
 20
0
 30
0
 70
128
 71
1
 72
231
 73
232
 74
232
 0
VERTEX
 8
CILINDRO_1
 10
0
 20
0
 30
0
 70
128
 71
59
 72
60
 73
62
 74
61
 0
VERTEX
 8
CILINDRO_1
 10
0
 20
0
 30
0
 70
128
 71
60
 72
2
 73
62
 74
62
 0
VERTEX
 8
CILINDRO_1
 10
0
 20
0
 30
0
 70
128
 71
1
 72
232
 73
233
 74
233
 0
VERTEX
 8
CILINDRO_1
 10
0
 20
0
 30
0
 70
128
 71
61
 72
62
 73
64
 74
63
 0
VERTEX
 8
CILINDRO_1
 10
0
 20
0
 30
0
 70
128
 71
62
 72
2
 73
64
 74
64
 0
VERTEX
 8
CILINDRO_1
 10
0
 20
0
 30
0
 70
128
 71
1
 72
233
 73
234
 74
234
 0
VERTEX
 8
CILINDRO_1
 10
0
 20
0
 30
0
 70
128
 71
63
 72
64
 73
66
 74
65
 0
VERTEX
 8
CILINDRO_1
 10
0
 20
0
 30
0
 70
128
 71
64
 72
2
 73
66
 74
66
 0
VERTEX
 8
CILINDRO_1
 10
0
 20
0
 30
0
 70
128
 71
1
 72
234
 73
235
 74
235
 0
VERTEX
 8
CILINDRO_1
 10
0
 20
0
 30
0
 70
128
 71
65
 72
66
 73
68
 74
67
 0
VERTEX
 8
CILINDRO_1
 10
0
 20
0
 30
0
 70
128
 71
66
 72
2
 73
68
 74
68
 0
VERTEX
 8
CILINDRO_1
 10
0
 20
0
 30
0
 70
128
 71
1
 72
235
 73
236
 74
236
 0
VERTEX
 8
CILINDRO_1
 10
0
 20
0
 30
0
 70
128
 71
67
 72
68
 73
70
 74
69
 0
VERTEX
 8
CILINDRO_1
 10
0
 20
0
 30
0
 70
128
 71
68
 72
2
 73
70
 74
70
 0
VERTEX
 8
CILINDRO_1
 10
0
 20
0
 30
0
 70
128
 71
1
 72
236
 73
237
 74
237
 0
VERTEX
 8
CILINDRO_1
 10
0
 20
0
 30
0
 70
128
 71
69
 72
70
 73
72
 74
71
 0
VERTEX
 8
CILINDRO_1
 10
0
 20
0
 30
0
 70
128
 71
70
 72
2
 73
72
 74
72
 0
VERTEX
 8
CILINDRO_1
 10
0
 20
0
 30
0
 70
128
 71
1
 72
237
 73
238
 74
238
 0
VERTEX
 8
CILINDRO_1
 10
0
 20
0
 30
0
 70
128
 71
71
 72
72
 73
74
 74
73
 0
VERTEX
 8
CILINDRO_1
 10
0
 20
0
 30
0
 70
128
 71
72
 72
2
 73
74
 74
74
 0
VERTEX
 8
CILINDRO_1
 10
0
 20
0
 30
0
 70
128
 71
1
 72
238
 73
239
 74
239
 0
VERTEX
 8
CILINDRO_1
 10
0
 20
0
 30
0
 70
128
 71
73
 72
74
 73
76
 74
75
 0
VERTEX
 8
CILINDRO_1
 10
0
 20
0
 30
0
 70
128
 71
74
 72
2
 73
76
 74
76
 0
VERTEX
 8
CILINDRO_1
 10
0
 20
0
 30
0
 70
128
 71
1
 72
239
 73
240
 74
240
 0
VERTEX
 8
CILINDRO_1
 10
0
 20
0
 30
0
 70
128
 71
75
 72
76
 73
78
 74
77
 0
VERTEX
 8
CILINDRO_1
 10
0
 20
0
 30
0
 70
128
 71
76
 72
2
 73
78
 74
78
 0
VERTEX
 8
CILINDRO_1
 10
0
 20
0
 30
0
 70
128
 71
1
 72
240
 73
241
 74
241
 0
VERTEX
 8
CILINDRO_1
 10
0
 20
0
 30
0
 70
128
 71
77
 72
78
 73
80
 74
79
 0
VERTEX
 8
CILINDRO_1
 10
0
 20
0
 30
0
 70
128
 71
78
 72
2
 73
80
 74
80
 0
VERTEX
 8
CILINDRO_1
 10
0
 20
0
 30
0
 70
128
 71
1
 72
241
 73
242
 74
242
 0
VERTEX
 8
CILINDRO_1
 10
0
 20
0
 30
0
 70
128
 71
79
 72
80
 73
82
 74
81
 0
VERTEX
 8
CILINDRO_1
 10
0
 20
0
 30
0
 70
128
 71
80
 72
2
 73
82
 74
82
 0
VERTEX
 8
CILINDRO_1
 10
0
 20
0
 30
0
 70
128
 71
1
 72
242
 73
203
 74
203
 0
VERTEX
 8
CILINDRO_1
 10
0
 20
0
 30
0
 70
128
 71
81
 72
82
 73
4
 74
3
 0
VERTEX
 8
CILINDRO_1
 10
0
 20
0
 30
0
 70
128
 71
82
 72
2
 73
4
 74
4
 0
VERTEX
 8
CILINDRO_1
 10
0
 20
0
 30
0
 70
128
 71
83
 72
3
 73
5
 74
84
 0
VERTEX
 8
CILINDRO_1
 10
0
 20
0
 30
0
 70
128
 71
84
 72
5
 73
7
 74
85
 0
VERTEX
 8
CILINDRO_1
 10
0
 20
0
 30
0
 70
128
 71
85
 72
7
 73
9
 74
86
 0
VERTEX
 8
CILINDRO_1
 10
0
 20
0
 30
0
 70
128
 71
86
 72
9
 73
11
 74
87
 0
VERTEX
 8
CILINDRO_1
 10
0
 20
0
 30
0
 70
128
 71
87
 72
11
 73
13
 74
88
 0
VERTEX
 8
CILINDRO_1
 10
0
 20
0
 30
0
 70
128
 71
88
 72
13
 73
15
 74
89
 0
VERTEX
 8
CILINDRO_1
 10
0
 20
0
 30
0
 70
128
 71
89
 72
15
 73
17
 74
90
 0
VERTEX
 8
CILINDRO_1
 10
0
 20
0
 30
0
 70
128
 71
90
 72
17
 73
19
 74
91
 0
VERTEX
 8
CILINDRO_1
 10
0
 20
0
 30
0
 70
128
 71
91
 72
19
 73
21
 74
92
 0
VERTEX
 8
CILINDRO_1
 10
0
 20
0
 30
0
 70
128
 71
92
 72
21
 73
23
 74
93
 0
VERTEX
 8
CILINDRO_1
 10
0
 20
0
 30
0
 70
128
 71
93
 72
23
 73
25
 74
94
 0
VERTEX
 8
CILINDRO_1
 10
0
 20
0
 30
0
 70
128
 71
94
 72
25
 73
27
 74
95
 0
VERTEX
 8
CILINDRO_1
 10
0
 20
0
 30
0
 70
128
 71
95
 72
27
 73
29
 74
96
 0
VERTEX
 8
CILINDRO_1
 10
0
 20
0
 30
0
 70
128
 71
96
 72
29
 73
31
 74
97
 0
VERTEX
 8
CILINDRO_1
 10
0
 20
0
 30
0
 70
128
 71
97
 72
31
 73
33
 74
98
 0
VERTEX
 8
CILINDRO_1
 10
0
 20
0
 30
0
 70
128
 71
98
 72
33
 73
35
 74
99
 0
VERTEX
 8
CILINDRO_1
 10
0
 20
0
 30
0
 70
128
 71
99
 72
35
 73
37
 74
100
 0
VERTEX
 8
CILINDRO_1
 10
0
 20
0
 30
0
 70
128
 71
100
 72
37
 73
39
 74
101
 0
VERTEX
 8
CILINDRO_1
 10
0
 20
0
 30
0
 70
128
 71
101
 72
39
 73
41
 74
102
 0
VERTEX
 8
CILINDRO_1
 10
0
 20
0
 30
0
 70
128
 71
102
 72
41
 73
43
 74
103
 0
VERTEX
 8
CILINDRO_1
 10
0
 20
0
 30
0
 70
128
 71
103
 72
43
 73
45
 74
104
 0
VERTEX
 8
CILINDRO_1
 10
0
 20
0
 30
0
 70
128
 71
104
 72
45
 73
47
 74
105
 0
VERTEX
 8
CILINDRO_1
 10
0
 20
0
 30
0
 70
128
 71
105
 72
47
 73
49
 74
106
 0
VERTEX
 8
CILINDRO_1
 10
0
 20
0
 30
0
 70
128
 71
106
 72
49
 73
51
 74
107
 0
VERTEX
 8
CILINDRO_1
 10
0
 20
0
 30
0
 70
128
 71
107
 72
51
 73
53
 74
108
 0
VERTEX
 8
CILINDRO_1
 10
0
 20
0
 30
0
 70
128
 71
108
 72
53
 73
55
 74
109
 0
VERTEX
 8
CILINDRO_1
 10
0
 20
0
 30
0
 70
128
 71
109
 72
55
 73
57
 74
110
 0
VERTEX
 8
CILINDRO_1
 10
0
 20
0
 30
0
 70
128
 71
110
 72
57
 73
59
 74
111
 0
VERTEX
 8
CILINDRO_1
 10
0
 20
0
 30
0
 70
128
 71
111
 72
59
 73
61
 74
112
 0
VERTEX
 8
CILINDRO_1
 10
0
 20
0
 30
0
 70
128
 71
112
 72
61
 73
63
 74
113
 0
VERTEX
 8
CILINDRO_1
 10
0
 20
0
 30
0
 70
128
 71
113
 72
63
 73
65
 74
114
 0
VERTEX
 8
CILINDRO_1
 10
0
 20
0
 30
0
 70
128
 71
114
 72
65
 73
67
 74
115
 0
VERTEX
 8
CILINDRO_1
 10
0
 20
0
 30
0
 70
128
 71
115
 72
67
 73
69
 74
116
 0
VERTEX
 8
CILINDRO_1
 10
0
 20
0
 30
0
 70
128
 71
116
 72
69
 73
71
 74
117
 0
VERTEX
 8
CILINDRO_1
 10
0
 20
0
 30
0
 70
128
 71
117
 72
71
 73
73
 74
118
 0
VERTEX
 8
CILINDRO_1
 10
0
 20
0
 30
0
 70
128
 71
118
 72
73
 73
75
 74
119
 0
VERTEX
 8
CILINDRO_1
 10
0
 20
0
 30
0
 70
128
 71
119
 72
75
 73
77
 74
120
 0
VERTEX
 8
CILINDRO_1
 10
0
 20
0
 30
0
 70
128
 71
120
 72
77
 73
79
 74
121
 0
VERTEX
 8
CILINDRO_1
 10
0
 20
0
 30
0
 70
128
 71
121
 72
79
 73
81
 74
122
 0
VERTEX
 8
CILINDRO_1
 10
0
 20
0
 30
0
 70
128
 71
122
 72
81
 73
3
 74
83
 0
VERTEX
 8
CILINDRO_1
 10
0
 20
0
 30
0
 70
128
 71
123
 72
83
 73
84
 74
124
 0
VERTEX
 8
CILINDRO_1
 10
0
 20
0
 30
0
 70
128
 71
124
 72
84
 73
85
 74
125
 0
VERTEX
 8
CILINDRO_1
 10
0
 20
0
 30
0
 70
128
 71
125
 72
85
 73
86
 74
126
 0
VERTEX
 8
CILINDRO_1
 10
0
 20
0
 30
0
 70
128
 71
126
 72
86
 73
87
 74
127
 0
VERTEX
 8
CILINDRO_1
 10
0
 20
0
 30
0
 70
128
 71
127
 72
87
 73
88
 74
128
 0
VERTEX
 8
CILINDRO_1
 10
0
 20
0
 30
0
 70
128
 71
128
 72
88
 73
89
 74
129
 0
VERTEX
 8
CILINDRO_1
 10
0
 20
0
 30
0
 70
128
 71
129
 72
89
 73
90
 74
130
 0
VERTEX
 8
CILINDRO_1
 10
0
 20
0
 30
0
 70
128
 71
130
 72
90
 73
91
 74
131
 0
VERTEX
 8
CILINDRO_1
 10
0
 20
0
 30
0
 70
128
 71
131
 72
91
 73
92
 74
132
 0
VERTEX
 8
CILINDRO_1
 10
0
 20
0
 30
0
 70
128
 71
132
 72
92
 73
93
 74
133
 0
VERTEX
 8
CILINDRO_1
 10
0
 20
0
 30
0
 70
128
 71
133
 72
93
 73
94
 74
134
 0
VERTEX
 8
CILINDRO_1
 10
0
 20
0
 30
0
 70
128
 71
134
 72
94
 73
95
 74
135
 0
VERTEX
 8
CILINDRO_1
 10
0
 20
0
 30
0
 70
128
 71
135
 72
95
 73
96
 74
136
 0
VERTEX
 8
CILINDRO_1
 10
0
 20
0
 30
0
 70
128
 71
136
 72
96
 73
97
 74
137
 0
VERTEX
 8
CILINDRO_1
 10
0
 20
0
 30
0
 70
128
 71
137
 72
97
 73
98
 74
138
 0
VERTEX
 8
CILINDRO_1
 10
0
 20
0
 30
0
 70
128
 71
138
 72
98
 73
99
 74
139
 0
VERTEX
 8
CILINDRO_1
 10
0
 20
0
 30
0
 70
128
 71
139
 72
99
 73
100
 74
140
 0
VERTEX
 8
CILINDRO_1
 10
0
 20
0
 30
0
 70
128
 71
140
 72
100
 73
101
 74
141
 0
VERTEX
 8
CILINDRO_1
 10
0
 20
0
 30
0
 70
128
 71
141
 72
101
 73
102
 74
142
 0
VERTEX
 8
CILINDRO_1
 10
0
 20
0
 30
0
 70
128
 71
142
 72
102
 73
103
 74
143
 0
VERTEX
 8
CILINDRO_1
 10
0
 20
0
 30
0
 70
128
 71
143
 72
103
 73
104
 74
144
 0
VERTEX
 8
CILINDRO_1
 10
0
 20
0
 30
0
 70
128
 71
144
 72
104
 73
105
 74
145
 0
VERTEX
 8
CILINDRO_1
 10
0
 20
0
 30
0
 70
128
 71
145
 72
105
 73
106
 74
146
 0
VERTEX
 8
CILINDRO_1
 10
0
 20
0
 30
0
 70
128
 71
146
 72
106
 73
107
 74
147
 0
VERTEX
 8
CILINDRO_1
 10
0
 20
0
 30
0
 70
128
 71
147
 72
107
 73
108
 74
148
 0
VERTEX
 8
CILINDRO_1
 10
0
 20
0
 30
0
 70
128
 71
148
 72
108
 73
109
 74
149
 0
VERTEX
 8
CILINDRO_1
 10
0
 20
0
 30
0
 70
128
 71
149
 72
109
 73
110
 74
150
 0
VERTEX
 8
CILINDRO_1
 10
0
 20
0
 30
0
 70
128
 71
150
 72
110
 73
111
 74
151
 0
VERTEX
 8
CILINDRO_1
 10
0
 20
0
 30
0
 70
128
 71
151
 72
111
 73
112
 74
152
 0
VERTEX
 8
CILINDRO_1
 10
0
 20
0
 30
0
 70
128
 71
152
 72
112
 73
113
 74
153
 0
VERTEX
 8
CILINDRO_1
 10
0
 20
0
 30
0
 70
128
 71
153
 72
113
 73
114
 74
154
 0
VERTEX
 8
CILINDRO_1
 10
0
 20
0
 30
0
 70
128
 71
154
 72
114
 73
115
 74
155
 0
VERTEX
 8
CILINDRO_1
 10
0
 20
0
 30
0
 70
128
 71
155
 72
115
 73
116
 74
156
 0
VERTEX
 8
CILINDRO_1
 10
0
 20
0
 30
0
 70
128
 71
156
 72
116
 73
117
 74
157
 0
VERTEX
 8
CILINDRO_1
 10
0
 20
0
 30
0
 70
128
 71
157
 72
117
 73
118
 74
158
 0
VERTEX
 8
CILINDRO_1
 10
0
 20
0
 30
0
 70
128
 71
158
 72
118
 73
119
 74
159
 0
VERTEX
 8
CILINDRO_1
 10
0
 20
0
 30
0
 70
128
 71
159
 72
119
 73
120
 74
160
 0
VERTEX
 8
CILINDRO_1
 10
0
 20
0
 30
0
 70
128
 71
160
 72
120
 73
121
 74
161
 0
VERTEX
 8
CILINDRO_1
 10
0
 20
0
 30
0
 70
128
 71
161
 72
121
 73
122
 74
162
 0
VERTEX
 8
CILINDRO_1
 10
0
 20
0
 30
0
 70
128
 71
162
 72
122
 73
83
 74
123
 0
VERTEX
 8
CILINDRO_1
 10
0
 20
0
 30
0
 70
128
 71
163
 72
123
 73
124
 74
164
 0
VERTEX
 8
CILINDRO_1
 10
0
 20
0
 30
0
 70
128
 71
164
 72
124
 73
125
 74
165
 0
VERTEX
 8
CILINDRO_1
 10
0
 20
0
 30
0
 70
128
 71
165
 72
125
 73
126
 74
166
 0
VERTEX
 8
CILINDRO_1
 10
0
 20
0
 30
0
 70
128
 71
166
 72
126
 73
127
 74
167
 0
VERTEX
 8
CILINDRO_1
 10
0
 20
0
 30
0
 70
128
 71
167
 72
127
 73
128
 74
168
 0
VERTEX
 8
CILINDRO_1
 10
0
 20
0
 30
0
 70
128
 71
168
 72
128
 73
129
 74
169
 0
VERTEX
 8
CILINDRO_1
 10
0
 20
0
 30
0
 70
128
 71
169
 72
129
 73
130
 74
170
 0
VERTEX
 8
CILINDRO_1
 10
0
 20
0
 30
0
 70
128
 71
170
 72
130
 73
131
 74
171
 0
VERTEX
 8
CILINDRO_1
 10
0
 20
0
 30
0
 70
128
 71
171
 72
131
 73
132
 74
172
 0
VERTEX
 8
CILINDRO_1
 10
0
 20
0
 30
0
 70
128
 71
172
 72
132
 73
133
 74
173
 0
VERTEX
 8
CILINDRO_1
 10
0
 20
0
 30
0
 70
128
 71
173
 72
133
 73
134
 74
174
 0
VERTEX
 8
CILINDRO_1
 10
0
 20
0
 30
0
 70
128
 71
174
 72
134
 73
135
 74
175
 0
VERTEX
 8
CILINDRO_1
 10
0
 20
0
 30
0
 70
128
 71
175
 72
135
 73
136
 74
176
 0
VERTEX
 8
CILINDRO_1
 10
0
 20
0
 30
0
 70
128
 71
176
 72
136
 73
137
 74
177
 0
VERTEX
 8
CILINDRO_1
 10
0
 20
0
 30
0
 70
128
 71
177
 72
137
 73
138
 74
178
 0
VERTEX
 8
CILINDRO_1
 10
0
 20
0
 30
0
 70
128
 71
178
 72
138
 73
139
 74
179
 0
VERTEX
 8
CILINDRO_1
 10
0
 20
0
 30
0
 70
128
 71
179
 72
139
 73
140
 74
180
 0
VERTEX
 8
CILINDRO_1
 10
0
 20
0
 30
0
 70
128
 71
180
 72
140
 73
141
 74
181
 0
VERTEX
 8
CILINDRO_1
 10
0
 20
0
 30
0
 70
128
 71
181
 72
141
 73
142
 74
182
 0
VERTEX
 8
CILINDRO_1
 10
0
 20
0
 30
0
 70
128
 71
182
 72
142
 73
143
 74
183
 0
VERTEX
 8
CILINDRO_1
 10
0
 20
0
 30
0
 70
128
 71
183
 72
143
 73
144
 74
184
 0
VERTEX
 8
CILINDRO_1
 10
0
 20
0
 30
0
 70
128
 71
184
 72
144
 73
145
 74
185
 0
VERTEX
 8
CILINDRO_1
 10
0
 20
0
 30
0
 70
128
 71
185
 72
145
 73
146
 74
186
 0
VERTEX
 8
CILINDRO_1
 10
0
 20
0
 30
0
 70
128
 71
186
 72
146
 73
147
 74
187
 0
VERTEX
 8
CILINDRO_1
 10
0
 20
0
 30
0
 70
128
 71
187
 72
147
 73
148
 74
188
 0
VERTEX
 8
CILINDRO_1
 10
0
 20
0
 30
0
 70
128
 71
188
 72
148
 73
149
 74
189
 0
VERTEX
 8
CILINDRO_1
 10
0
 20
0
 30
0
 70
128
 71
189
 72
149
 73
150
 74
190
 0
VERTEX
 8
CILINDRO_1
 10
0
 20
0
 30
0
 70
128
 71
190
 72
150
 73
151
 74
191
 0
VERTEX
 8
CILINDRO_1
 10
0
 20
0
 30
0
 70
128
 71
191
 72
151
 73
152
 74
192
 0
VERTEX
 8
CILINDRO_1
 10
0
 20
0
 30
0
 70
128
 71
192
 72
152
 73
153
 74
193
 0
VERTEX
 8
CILINDRO_1
 10
0
 20
0
 30
0
 70
128
 71
193
 72
153
 73
154
 74
194
 0
VERTEX
 8
CILINDRO_1
 10
0
 20
0
 30
0
 70
128
 71
194
 72
154
 73
155
 74
195
 0
VERTEX
 8
CILINDRO_1
 10
0
 20
0
 30
0
 70
128
 71
195
 72
155
 73
156
 74
196
 0
VERTEX
 8
CILINDRO_1
 10
0
 20
0
 30
0
 70
128
 71
196
 72
156
 73
157
 74
197
 0
VERTEX
 8
CILINDRO_1
 10
0
 20
0
 30
0
 70
128
 71
197
 72
157
 73
158
 74
198
 0
VERTEX
 8
CILINDRO_1
 10
0
 20
0
 30
0
 70
128
 71
198
 72
158
 73
159
 74
199
 0
VERTEX
 8
CILINDRO_1
 10
0
 20
0
 30
0
 70
128
 71
199
 72
159
 73
160
 74
200
 0
VERTEX
 8
CILINDRO_1
 10
0
 20
0
 30
0
 70
128
 71
200
 72
160
 73
161
 74
201
 0
VERTEX
 8
CILINDRO_1
 10
0
 20
0
 30
0
 70
128
 71
201
 72
161
 73
162
 74
202
 0
VERTEX
 8
CILINDRO_1
 10
0
 20
0
 30
0
 70
128
 71
202
 72
162
 73
123
 74
163
 0
VERTEX
 8
CILINDRO_1
 10
0
 20
0
 30
0
 70
128
 71
203
 72
163
 73
164
 74
204
 0
VERTEX
 8
CILINDRO_1
 10
0
 20
0
 30
0
 70
128
 71
204
 72
164
 73
165
 74
205
 0
VERTEX
 8
CILINDRO_1
 10
0
 20
0
 30
0
 70
128
 71
205
 72
165
 73
166
 74
206
 0
VERTEX
 8
CILINDRO_1
 10
0
 20
0
 30
0
 70
128
 71
206
 72
166
 73
167
 74
207
 0
VERTEX
 8
CILINDRO_1
 10
0
 20
0
 30
0
 70
128
 71
207
 72
167
 73
168
 74
208
 0
VERTEX
 8
CILINDRO_1
 10
0
 20
0
 30
0
 70
128
 71
208
 72
168
 73
169
 74
209
 0
VERTEX
 8
CILINDRO_1
 10
0
 20
0
 30
0
 70
128
 71
209
 72
169
 73
170
 74
210
 0
VERTEX
 8
CILINDRO_1
 10
0
 20
0
 30
0
 70
128
 71
210
 72
170
 73
171
 74
211
 0
VERTEX
 8
CILINDRO_1
 10
0
 20
0
 30
0
 70
128
 71
211
 72
171
 73
172
 74
212
 0
VERTEX
 8
CILINDRO_1
 10
0
 20
0
 30
0
 70
128
 71
212
 72
172
 73
173
 74
213
 0
VERTEX
 8
CILINDRO_1
 10
0
 20
0
 30
0
 70
128
 71
213
 72
173
 73
174
 74
214
 0
VERTEX
 8
CILINDRO_1
 10
0
 20
0
 30
0
 70
128
 71
214
 72
174
 73
175
 74
215
 0
VERTEX
 8
CILINDRO_1
 10
0
 20
0
 30
0
 70
128
 71
215
 72
175
 73
176
 74
216
 0
VERTEX
 8
CILINDRO_1
 10
0
 20
0
 30
0
 70
128
 71
216
 72
176
 73
177
 74
217
 0
VERTEX
 8
CILINDRO_1
 10
0
 20
0
 30
0
 70
128
 71
217
 72
177
 73
178
 74
218
 0
VERTEX
 8
CILINDRO_1
 10
0
 20
0
 30
0
 70
128
 71
218
 72
178
 73
179
 74
219
 0
VERTEX
 8
CILINDRO_1
 10
0
 20
0
 30
0
 70
128
 71
219
 72
179
 73
180
 74
220
 0
VERTEX
 8
CILINDRO_1
 10
0
 20
0
 30
0
 70
128
 71
220
 72
180
 73
181
 74
221
 0
VERTEX
 8
CILINDRO_1
 10
0
 20
0
 30
0
 70
128
 71
221
 72
181
 73
182
 74
222
 0
VERTEX
 8
CILINDRO_1
 10
0
 20
0
 30
0
 70
128
 71
222
 72
182
 73
183
 74
223
 0
VERTEX
 8
CILINDRO_1
 10
0
 20
0
 30
0
 70
128
 71
223
 72
183
 73
184
 74
224
 0
VERTEX
 8
CILINDRO_1
 10
0
 20
0
 30
0
 70
128
 71
224
 72
184
 73
185
 74
225
 0
VERTEX
 8
CILINDRO_1
 10
0
 20
0
 30
0
 70
128
 71
225
 72
185
 73
186
 74
226
 0
VERTEX
 8
CILINDRO_1
 10
0
 20
0
 30
0
 70
128
 71
226
 72
186
 73
187
 74
227
 0
VERTEX
 8
CILINDRO_1
 10
0
 20
0
 30
0
 70
128
 71
227
 72
187
 73
188
 74
228
 0
VERTEX
 8
CILINDRO_1
 10
0
 20
0
 30
0
 70
128
 71
228
 72
188
 73
189
 74
229
 0
VERTEX
 8
CILINDRO_1
 10
0
 20
0
 30
0
 70
128
 71
229
 72
189
 73
190
 74
230
 0
VERTEX
 8
CILINDRO_1
 10
0
 20
0
 30
0
 70
128
 71
230
 72
190
 73
191
 74
231
 0
VERTEX
 8
CILINDRO_1
 10
0
 20
0
 30
0
 70
128
 71
231
 72
191
 73
192
 74
232
 0
VERTEX
 8
CILINDRO_1
 10
0
 20
0
 30
0
 70
128
 71
232
 72
192
 73
193
 74
233
 0
VERTEX
 8
CILINDRO_1
 10
0
 20
0
 30
0
 70
128
 71
233
 72
193
 73
194
 74
234
 0
VERTEX
 8
CILINDRO_1
 10
0
 20
0
 30
0
 70
128
 71
234
 72
194
 73
195
 74
235
 0
VERTEX
 8
CILINDRO_1
 10
0
 20
0
 30
0
 70
128
 71
235
 72
195
 73
196
 74
236
 0
VERTEX
 8
CILINDRO_1
 10
0
 20
0
 30
0
 70
128
 71
236
 72
196
 73
197
 74
237
 0
VERTEX
 8
CILINDRO_1
 10
0
 20
0
 30
0
 70
128
 71
237
 72
197
 73
198
 74
238
 0
VERTEX
 8
CILINDRO_1
 10
0
 20
0
 30
0
 70
128
 71
238
 72
198
 73
199
 74
239
 0
VERTEX
 8
CILINDRO_1
 10
0
 20
0
 30
0
 70
128
 71
239
 72
199
 73
200
 74
240
 0
VERTEX
 8
CILINDRO_1
 10
0
 20
0
 30
0
 70
128
 71
240
 72
200
 73
201
 74
241
 0
VERTEX
 8
CILINDRO_1
 10
0
 20
0
 30
0
 70
128
 71
241
 72
201
 73
202
 74
242
 0
VERTEX
 8
CILINDRO_1
 10
0
 20
0
 30
0
 70
128
 71
242
 72
202
 73
163
 74
203
 0
SEQEND
 0
POLYLINE
 8
TACCA_1_1
 66
1
 10
0.0
 20
0.0
 30
0.0
 70
64
 71
80
 72
80
 0
VERTEX
 8
TACCA_1_1
 10
14.8725
 20
-0.9934
 30
155.8998
 70
192
 0
VERTEX
 8
TACCA_1_1
 10
14.8725
 20
-0.9934
 30
156.9426
 70
192
 0
VERTEX
 8
TACCA_1_1
 10
14.8725
 20
-0.995
 30
156.9485
 70
192
 0
VERTEX
 8
TACCA_1_1
 10
14.8725
 20
-0.9982
 30
156.9514
 70
192
 0
VERTEX
 8
TACCA_1_1
 10
14.8725
 20
-1.0042
 30
156.9525
 70
192
 0
VERTEX
 8
TACCA_1_1
 10
14.8725
 20
-2.4203
 30
156.94
 70
192
 0
VERTEX
 8
TACCA_1_1
 10
14.8725
 20
-2.4379
 30
156.934
 70
192
 0
VERTEX
 8
TACCA_1_1
 10
14.8725
 20
-2.4498
 30
156.921
 70
192
 0
VERTEX
 8
TACCA_1_1
 10
14.8725
 20
-2.4542
 30
156.9029
 70
192
 0
VERTEX
 8
TACCA_1_1
 10
14.8725
 20
-2.4542
 30
155.8998
 70
192
 0
VERTEX
 8
TACCA_1_1
 10
14.8863
 20
-2.4742
 30
155.8798
 70
192
 0
VERTEX
 8
TACCA_1_1
 10
15.1387
 20
-0.9734
 30
155.8798
 70
192
 0
VERTEX
 8
TACCA_1_1
 10
14.8863
 20
-2.4742
 30
156.9054
 70
192
 0
VERTEX
 8
TACCA_1_1
 10
15.1387
 20
-2.4742
 30
155.8798
 70
192
 0
VERTEX
 8
TACCA_1_1
 10
15.1525
 20
-2.4542
 30
155.8998
 70
192
 0
VERTEX
 8
TACCA_1_1
 10
15.1525
 20
-2.4542
 30
156.9029
 70
192
 0
VERTEX
 8
TACCA_1_1
 10
15.1525
 20
-2.4498
 30
156.921
 70
192
 0
VERTEX
 8
TACCA_1_1
 10
15.1525
 20
-2.4379
 30
156.934
 70
192
 0
VERTEX
 8
TACCA_1_1
 10
15.1525
 20
-2.4203
 30
156.94
 70
192
 0
VERTEX
 8
TACCA_1_1
 10
15.1525
 20
-1.0042
 30
156.9525
 70
192
 0
VERTEX
 8
TACCA_1_1
 10
15.1525
 20
-0.9982
 30
156.9514
 70
192
 0
VERTEX
 8
TACCA_1_1
 10
15.1525
 20
-0.995
 30
156.9485
 70
192
 0
VERTEX
 8
TACCA_1_1
 10
15.1525
 20
-0.9934
 30
156.9426
 70
192
 0
VERTEX
 8
TACCA_1_1
 10
15.1525
 20
-0.9934
 30
155.8998
 70
192
 0
VERTEX
 8
TACCA_1_1
 10
15.1387
 20
-0.9734
 30
156.9453
 70
192
 0
VERTEX
 8
TACCA_1_1
 10
14.8863
 20
-0.9734
 30
155.8798
 70
192
 0
VERTEX
 8
TACCA_1_1
 10
14.8863
 20
-2.4244
 30
156.9597
 70
192
 0
VERTEX
 8
TACCA_1_1
 10
15.1387
 20
-2.4492
 30
156.9513
 70
192
 0
VERTEX
 8
TACCA_1_1
 10
14.8863
 20
-1.0032
 30
156.9727
 70
192
 0
VERTEX
 8
TACCA_1_1
 10
15.1387
 20
-2.4244
 30
156.9597
 70
192
 0
VERTEX
 8
TACCA_1_1
 10
14.8863
 20
-2.468
 30
156.9308
 70
192
 0
VERTEX
 8
TACCA_1_1
 10
15.1387
 20
-2.4742
 30
156.9054
 70
192
 0
VERTEX
 8
TACCA_1_1
 10
14.8863
 20
-2.4492
 30
156.9513
 70
192
 0
VERTEX
 8
TACCA_1_1
 10
15.1387
 20
-2.468
 30
156.9308
 70
192
 0
VERTEX
 8
TACCA_1_1
 10
14.8863
 20
-0.9889
 30
156.97
 70
192
 0
VERTEX
 8
TACCA_1_1
 10
15.1387
 20
-1.0032
 30
156.9727
 70
192
 0
VERTEX
 8
TACCA_1_1
 10
14.8863
 20
-0.9734
 30
156.9453
 70
192
 0
VERTEX
 8
TACCA_1_1
 10
15.1387
 20
-0.9772
 30
156.9594
 70
192
 0
VERTEX
 8
TACCA_1_1
 10
14.8863
 20
-0.9772
 30
156.9594
 70
192
 0
VERTEX
 8
TACCA_1_1
 10
15.1387
 20
-0.9889
 30
156.97
 70
192
 0
VERTEX
 8
TACCA_1_1
 10
14.8743
 20
-0.9836
 30
155.89
 70
192
 0
VERTEX
 8
TACCA_1_1
 10
14.8796
 20
-0.9759
 30
155.8823
 70
192
 0
VERTEX
 8
TACCA_1_1
 10
14.8743
 20
-0.9836
 30
156.9439
 70
192
 0
VERTEX
 8
TACCA_1_1
 10
14.8796
 20
-0.9759
 30
156.9449
 70
192
 0
VERTEX
 8
TACCA_1_1
 10
14.8743
 20
-0.9863
 30
156.9538
 70
192
 0
VERTEX
 8
TACCA_1_1
 10
14.8796
 20
-0.9795
 30
156.958
 70
192
 0
VERTEX
 8
TACCA_1_1
 10
14.8743
 20
-0.9936
 30
156.9605
 70
192
 0
VERTEX
 8
TACCA_1_1
 10
14.8796
 20
-0.9901
 30
156.9676
 70
192
 0
VERTEX
 8
TACCA_1_1
 10
14.8743
 20
-1.0037
 30
156.9624
 70
192
 0
VERTEX
 8
TACCA_1_1
 10
14.8796
 20
-1.0034
 30
156.9701
 70
192
 0
VERTEX
 8
TACCA_1_1
 10
14.8743
 20
-2.4223
 30
156.9496
 70
192
 0
VERTEX
 8
TACCA_1_1
 10
14.8796
 20
-2.4239
 30
156.9572
 70
192
 0
VERTEX
 8
TACCA_1_1
 10
14.8743
 20
-2.4434
 30
156.9424
 70
192
 0
VERTEX
 8
TACCA_1_1
 10
14.8796
 20
-2.4477
 30
156.9491
 70
192
 0
VERTEX
 8
TACCA_1_1
 10
14.8743
 20
-2.4587
 30
156.9258
 70
192
 0
VERTEX
 8
TACCA_1_1
 10
14.8796
 20
-2.4657
 30
156.9295
 70
192
 0
VERTEX
 8
TACCA_1_1
 10
14.8743
 20
-2.464
 30
156.9041
 70
192
 0
VERTEX
 8
TACCA_1_1
 10
14.8796
 20
-2.4717
 30
156.9051
 70
192
 0
VERTEX
 8
TACCA_1_1
 10
14.8743
 20
-2.464
 30
155.89
 70
192
 0
VERTEX
 8
TACCA_1_1
 10
14.8796
 20
-2.4717
 30
155.8823
 70
192
 0
VERTEX
 8
TACCA_1_1
 10
15.1455
 20
-2.4717
 30
155.8823
 70
192
 0
VERTEX
 8
TACCA_1_1
 10
15.1507
 20
-2.464
 30
155.89
 70
192
 0
VERTEX
 8
TACCA_1_1
 10
15.1455
 20
-0.9759
 30
155.8823
 70
192
 0
VERTEX
 8
TACCA_1_1
 10
15.1507
 20
-0.9836
 30
155.89
 70
192
 0
VERTEX
 8
TACCA_1_1
 10
15.1455
 20
-2.4717
 30
156.9051
 70
192
 0
VERTEX
 8
TACCA_1_1
 10
15.1507
 20
-2.464
 30
156.9041
 70
192
 0
VERTEX
 8
TACCA_1_1
 10
15.1507
 20
-2.4587
 30
156.9258
 70
192
 0
VERTEX
 8
TACCA_1_1
 10
15.1455
 20
-2.4657
 30
156.9295
 70
192
 0
VERTEX
 8
TACCA_1_1
 10
15.1507
 20
-2.4434
 30
156.9424
 70
192
 0
VERTEX
 8
TACCA_1_1
 10
15.1455
 20
-2.4477
 30
156.9491
 70
192
 0
VERTEX
 8
TACCA_1_1
 10
15.1507
 20
-2.4223
 30
156.9496
 70
192
 0
VERTEX
 8
TACCA_1_1
 10
15.1455
 20
-2.4239
 30
156.9572
 70
192
 0
VERTEX
 8
TACCA_1_1
 10
15.1507
 20
-1.0037
 30
156.9624
 70
192
 0
VERTEX
 8
TACCA_1_1
 10
15.1455
 20
-1.0034
 30
156.9701
 70
192
 0
VERTEX
 8
TACCA_1_1
 10
15.1507
 20
-0.9936
 30
156.9605
 70
192
 0
VERTEX
 8
TACCA_1_1
 10
15.1455
 20
-0.9901
 30
156.9676
 70
192
 0
VERTEX
 8
TACCA_1_1
 10
15.1507
 20
-0.9863
 30
156.9538
 70
192
 0
VERTEX
 8
TACCA_1_1
 10
15.1455
 20
-0.9795
 30
156.958
 70
192
 0
VERTEX
 8
TACCA_1_1
 10
15.1507
 20
-0.9836
 30
156.9439
 70
192
 0
VERTEX
 8
TACCA_1_1
 10
15.1455
 20
-0.9759
 30
156.9449
 70
192
 0
VERTEX
 8
TACCA_1_1
 10
0
 20
0
 30
0
 70
128
 71
11
 72
13
 73
32
 74
14
 0
VERTEX
 8
TACCA_1_1
 10
0
 20
0
 30
0
 70
128
 71
19
 72
15
 73
16
 74
18
 0
VERTEX
 8
TACCA_1_1
 10
0
 20
0
 30
0
 70
128
 71
12
 72
25
 73
37
 74
26
 0
VERTEX
 8
TACCA_1_1
 10
0
 20
0
 30
0
 70
128
 71
1
 72
2
 73
5
 74
5
 0
VERTEX
 8
TACCA_1_1
 10
0
 20
0
 30
0
 70
128
 71
27
 72
29
 73
36
 74
30
 0
VERTEX
 8
TACCA_1_1
 10
0
 20
0
 30
0
 70
128
 71
26
 72
11
 73
14
 74
12
 0
VERTEX
 8
TACCA_1_1
 10
0
 20
0
 30
0
 70
128
 71
20
 72
21
 73
22
 74
23
 0
VERTEX
 8
TACCA_1_1
 10
0
 20
0
 30
0
 70
128
 71
16
 72
17
 73
18
 74
18
 0
VERTEX
 8
TACCA_1_1
 10
0
 20
0
 30
0
 70
128
 71
5
 72
2
 73
3
 74
4
 0
VERTEX
 8
TACCA_1_1
 10
0
 20
0
 30
0
 70
128
 71
6
 72
7
 73
8
 74
8
 0
VERTEX
 8
TACCA_1_1
 10
0
 20
0
 30
0
 70
128
 71
13
 72
31
 73
34
 74
32
 0
VERTEX
 8
TACCA_1_1
 10
0
 20
0
 30
0
 70
128
 71
31
 72
33
 73
28
 74
34
 0
VERTEX
 8
TACCA_1_1
 10
0
 20
0
 30
0
 70
128
 71
33
 72
27
 73
30
 74
28
 0
VERTEX
 8
TACCA_1_1
 10
0
 20
0
 30
0
 70
128
 71
20
 72
23
 73
24
 74
24
 0
VERTEX
 8
TACCA_1_1
 10
0
 20
0
 30
0
 70
128
 71
24
 72
15
 73
19
 74
20
 0
VERTEX
 8
TACCA_1_1
 10
0
 20
0
 30
0
 70
128
 71
6
 72
8
 73
9
 74
10
 0
VERTEX
 8
TACCA_1_1
 10
0
 20
0
 30
0
 70
128
 71
1
 72
5
 73
6
 74
10
 0
VERTEX
 8
TACCA_1_1
 10
0
 20
0
 30
0
 70
128
 71
29
 72
35
 73
40
 74
36
 0
VERTEX
 8
TACCA_1_1
 10
0
 20
0
 30
0
 70
128
 71
35
 72
39
 73
38
 74
40
 0
VERTEX
 8
TACCA_1_1
 10
0
 20
0
 30
0
 70
128
 71
39
 72
37
 73
25
 74
38
 0
VERTEX
 8
TACCA_1_1
 10
0
 20
0
 30
0
 70
128
 71
9
 72
57
 73
59
 74
10
 0
VERTEX
 8
TACCA_1_1
 10
0
 20
0
 30
0
 70
128
 71
32
 72
65
 73
61
 74
14
 0
VERTEX
 8
TACCA_1_1
 10
0
 20
0
 30
0
 70
128
 71
30
 72
72
 73
70
 74
28
 0
VERTEX
 8
TACCA_1_1
 10
0
 20
0
 30
0
 70
128
 71
12
 72
63
 73
80
 74
25
 0
VERTEX
 8
TACCA_1_1
 10
0
 20
0
 30
0
 70
128
 71
1
 72
41
 73
43
 74
2
 0
VERTEX
 8
TACCA_1_1
 10
0
 20
0
 30
0
 70
128
 71
5
 72
49
 73
51
 74
6
 0
VERTEX
 8
TACCA_1_1
 10
0
 20
0
 30
0
 70
128
 71
36
 72
74
 73
72
 74
30
 0
VERTEX
 8
TACCA_1_1
 10
0
 20
0
 30
0
 70
128
 71
10
 72
59
 73
41
 74
1
 0
VERTEX
 8
TACCA_1_1
 10
0
 20
0
 30
0
 70
128
 71
14
 72
61
 73
63
 74
12
 0
VERTEX
 8
TACCA_1_1
 10
0
 20
0
 30
0
 70
128
 71
34
 72
68
 73
65
 74
32
 0
VERTEX
 8
TACCA_1_1
 10
0
 20
0
 30
0
 70
128
 71
28
 72
70
 73
68
 74
34
 0
VERTEX
 8
TACCA_1_1
 10
0
 20
0
 30
0
 70
128
 71
6
 72
51
 73
53
 74
7
 0
VERTEX
 8
TACCA_1_1
 10
0
 20
0
 30
0
 70
128
 71
8
 72
55
 73
57
 74
9
 0
VERTEX
 8
TACCA_1_1
 10
0
 20
0
 30
0
 70
128
 71
7
 72
53
 73
55
 74
8
 0
VERTEX
 8
TACCA_1_1
 10
0
 20
0
 30
0
 70
128
 71
40
 72
76
 73
74
 74
36
 0
VERTEX
 8
TACCA_1_1
 10
0
 20
0
 30
0
 70
128
 71
38
 72
78
 73
76
 74
40
 0
VERTEX
 8
TACCA_1_1
 10
0
 20
0
 30
0
 70
128
 71
25
 72
80
 73
78
 74
38
 0
VERTEX
 8
TACCA_1_1
 10
0
 20
0
 30
0
 70
128
 71
2
 72
43
 73
45
 74
3
 0
VERTEX
 8
TACCA_1_1
 10
0
 20
0
 30
0
 70
128
 71
3
 72
45
 73
47
 74
4
 0
VERTEX
 8
TACCA_1_1
 10
0
 20
0
 30
0
 70
128
 71
4
 72
47
 73
49
 74
5
 0
VERTEX
 8
TACCA_1_1
 10
0
 20
0
 30
0
 70
128
 71
57
 72
58
 73
60
 74
59
 0
VERTEX
 8
TACCA_1_1
 10
0
 20
0
 30
0
 70
128
 71
58
 72
13
 73
11
 74
60
 0
VERTEX
 8
TACCA_1_1
 10
0
 20
0
 30
0
 70
128
 71
65
 72
66
 73
62
 74
61
 0
VERTEX
 8
TACCA_1_1
 10
0
 20
0
 30
0
 70
128
 71
66
 72
16
 73
15
 74
62
 0
VERTEX
 8
TACCA_1_1
 10
0
 20
0
 30
0
 70
128
 71
72
 72
71
 73
69
 74
70
 0
VERTEX
 8
TACCA_1_1
 10
0
 20
0
 30
0
 70
128
 71
71
 72
19
 73
18
 74
69
 0
VERTEX
 8
TACCA_1_1
 10
0
 20
0
 30
0
 70
128
 71
63
 72
64
 73
79
 74
80
 0
VERTEX
 8
TACCA_1_1
 10
0
 20
0
 30
0
 70
128
 71
64
 72
24
 73
23
 74
79
 0
VERTEX
 8
TACCA_1_1
 10
0
 20
0
 30
0
 70
128
 71
41
 72
42
 73
44
 74
43
 0
VERTEX
 8
TACCA_1_1
 10
0
 20
0
 30
0
 70
128
 71
42
 72
26
 73
37
 74
44
 0
VERTEX
 8
TACCA_1_1
 10
0
 20
0
 30
0
 70
128
 71
49
 72
50
 73
52
 74
51
 0
VERTEX
 8
TACCA_1_1
 10
0
 20
0
 30
0
 70
128
 71
50
 72
29
 73
27
 74
52
 0
VERTEX
 8
TACCA_1_1
 10
0
 20
0
 30
0
 70
128
 71
74
 72
73
 73
71
 74
72
 0
VERTEX
 8
TACCA_1_1
 10
0
 20
0
 30
0
 70
128
 71
73
 72
20
 73
19
 74
71
 0
VERTEX
 8
TACCA_1_1
 10
0
 20
0
 30
0
 70
128
 71
59
 72
60
 73
42
 74
41
 0
VERTEX
 8
TACCA_1_1
 10
0
 20
0
 30
0
 70
128
 71
60
 72
11
 73
26
 74
42
 0
VERTEX
 8
TACCA_1_1
 10
0
 20
0
 30
0
 70
128
 71
61
 72
62
 73
64
 74
63
 0
VERTEX
 8
TACCA_1_1
 10
0
 20
0
 30
0
 70
128
 71
62
 72
15
 73
24
 74
64
 0
VERTEX
 8
TACCA_1_1
 10
0
 20
0
 30
0
 70
128
 71
68
 72
67
 73
66
 74
65
 0
VERTEX
 8
TACCA_1_1
 10
0
 20
0
 30
0
 70
128
 71
67
 72
17
 73
16
 74
66
 0
VERTEX
 8
TACCA_1_1
 10
0
 20
0
 30
0
 70
128
 71
70
 72
69
 73
67
 74
68
 0
VERTEX
 8
TACCA_1_1
 10
0
 20
0
 30
0
 70
128
 71
69
 72
18
 73
17
 74
67
 0
VERTEX
 8
TACCA_1_1
 10
0
 20
0
 30
0
 70
128
 71
51
 72
52
 73
54
 74
53
 0
VERTEX
 8
TACCA_1_1
 10
0
 20
0
 30
0
 70
128
 71
52
 72
27
 73
33
 74
54
 0
VERTEX
 8
TACCA_1_1
 10
0
 20
0
 30
0
 70
128
 71
55
 72
56
 73
58
 74
57
 0
VERTEX
 8
TACCA_1_1
 10
0
 20
0
 30
0
 70
128
 71
56
 72
31
 73
13
 74
58
 0
VERTEX
 8
TACCA_1_1
 10
0
 20
0
 30
0
 70
128
 71
53
 72
54
 73
56
 74
55
 0
VERTEX
 8
TACCA_1_1
 10
0
 20
0
 30
0
 70
128
 71
54
 72
33
 73
31
 74
56
 0
VERTEX
 8
TACCA_1_1
 10
0
 20
0
 30
0
 70
128
 71
76
 72
75
 73
73
 74
74
 0
VERTEX
 8
TACCA_1_1
 10
0
 20
0
 30
0
 70
128
 71
75
 72
21
 73
20
 74
73
 0
VERTEX
 8
TACCA_1_1
 10
0
 20
0
 30
0
 70
128
 71
78
 72
77
 73
75
 74
76
 0
VERTEX
 8
TACCA_1_1
 10
0
 20
0
 30
0
 70
128
 71
77
 72
22
 73
21
 74
75
 0
VERTEX
 8
TACCA_1_1
 10
0
 20
0
 30
0
 70
128
 71
80
 72
79
 73
77
 74
78
 0
VERTEX
 8
TACCA_1_1
 10
0
 20
0
 30
0
 70
128
 71
79
 72
23
 73
22
 74
77
 0
VERTEX
 8
TACCA_1_1
 10
0
 20
0
 30
0
 70
128
 71
43
 72
44
 73
46
 74
45
 0
VERTEX
 8
TACCA_1_1
 10
0
 20
0
 30
0
 70
128
 71
44
 72
37
 73
39
 74
46
 0
VERTEX
 8
TACCA_1_1
 10
0
 20
0
 30
0
 70
128
 71
45
 72
46
 73
48
 74
47
 0
VERTEX
 8
TACCA_1_1
 10
0
 20
0
 30
0
 70
128
 71
46
 72
39
 73
35
 74
48
 0
VERTEX
 8
TACCA_1_1
 10
0
 20
0
 30
0
 70
128
 71
47
 72
48
 73
50
 74
49
 0
VERTEX
 8
TACCA_1_1
 10
0
 20
0
 30
0
 70
128
 71
48
 72
35
 73
29
 74
50
 0
SEQEND
 0
POLYLINE
 8
CILINDRO_2
 66
1
 10
0.0
 20
0.0
 30
0.0
 70
64
 71
242
 72
280
 0
VERTEX
 8
CILINDRO_2
 10
15.0125
 20
-0.1403
 30
154.6215
 70
192
 0
VERTEX
 8
CILINDRO_2
 10
15.0125
 20
-2.4239
 30
154.6215
 70
192
 0
VERTEX
 8
CILINDRO_2
 10
12.797
 20
-0.6238
 30
154.6215
 70
192
 0
VERTEX
 8
CILINDRO_2
 10
12.797
 20
-2.4239
 30
154.6215
 70
192
 0
VERTEX
 8
CILINDRO_2
 10
12.8243
 20
-0.6238
 30
154.2749
 70
192
 0
VERTEX
 8
CILINDRO_2
 10
12.8243
 20
-2.4239
 30
154.2749
 70
192
 0
VERTEX
 8
CILINDRO_2
 10
12.9054
 20
-0.6238
 30
153.9369
 70
192
 0
VERTEX
 8
CILINDRO_2
 10
12.9054
 20
-2.4239
 30
153.9369
 70
192
 0
VERTEX
 8
CILINDRO_2
 10
13.0385
 20
-0.6238
 30
153.6157
 70
192
 0
VERTEX
 8
CILINDRO_2
 10
13.0385
 20
-2.4239
 30
153.6157
 70
192
 0
VERTEX
 8
CILINDRO_2
 10
13.2201
 20
-0.6238
 30
153.3193
 70
192
 0
VERTEX
 8
CILINDRO_2
 10
13.2201
 20
-2.4239
 30
153.3193
 70
192
 0
VERTEX
 8
CILINDRO_2
 10
13.4459
 20
-0.6238
 30
153.0549
 70
192
 0
VERTEX
 8
CILINDRO_2
 10
13.4459
 20
-2.4239
 30
153.0549
 70
192
 0
VERTEX
 8
CILINDRO_2
 10
13.7103
 20
-0.6238
 30
152.8292
 70
192
 0
VERTEX
 8
CILINDRO_2
 10
13.7103
 20
-2.4239
 30
152.8292
 70
192
 0
VERTEX
 8
CILINDRO_2
 10
14.0067
 20
-0.6238
 30
152.6475
 70
192
 0
VERTEX
 8
CILINDRO_2
 10
14.0067
 20
-2.4239
 30
152.6475
 70
192
 0
VERTEX
 8
CILINDRO_2
 10
14.3279
 20
-0.6238
 30
152.5145
 70
192
 0
VERTEX
 8
CILINDRO_2
 10
14.3279
 20
-2.4239
 30
152.5145
 70
192
 0
VERTEX
 8
CILINDRO_2
 10
14.6659
 20
-0.6238
 30
152.4333
 70
192
 0
VERTEX
 8
CILINDRO_2
 10
14.6659
 20
-2.4239
 30
152.4333
 70
192
 0
VERTEX
 8
CILINDRO_2
 10
15.0125
 20
-0.6238
 30
152.406
 70
192
 0
VERTEX
 8
CILINDRO_2
 10
15.0125
 20
-2.4239
 30
152.406
 70
192
 0
VERTEX
 8
CILINDRO_2
 10
15.3591
 20
-0.6238
 30
152.4333
 70
192
 0
VERTEX
 8
CILINDRO_2
 10
15.3591
 20
-2.4239
 30
152.4333
 70
192
 0
VERTEX
 8
CILINDRO_2
 10
15.6971
 20
-0.6238
 30
152.5145
 70
192
 0
VERTEX
 8
CILINDRO_2
 10
15.6971
 20
-2.4239
 30
152.5145
 70
192
 0
VERTEX
 8
CILINDRO_2
 10
16.0183
 20
-0.6238
 30
152.6475
 70
192
 0
VERTEX
 8
CILINDRO_2
 10
16.0183
 20
-2.4239
 30
152.6475
 70
192
 0
VERTEX
 8
CILINDRO_2
 10
16.3148
 20
-0.6238
 30
152.8292
 70
192
 0
VERTEX
 8
CILINDRO_2
 10
16.3148
 20
-2.4239
 30
152.8292
 70
192
 0
VERTEX
 8
CILINDRO_2
 10
16.5791
 20
-0.6238
 30
153.0549
 70
192
 0
VERTEX
 8
CILINDRO_2
 10
16.5791
 20
-2.4239
 30
153.0549
 70
192
 0
VERTEX
 8
CILINDRO_2
 10
16.8049
 20
-0.6238
 30
153.3193
 70
192
 0
VERTEX
 8
CILINDRO_2
 10
16.8049
 20
-2.4239
 30
153.3193
 70
192
 0
VERTEX
 8
CILINDRO_2
 10
16.9865
 20
-0.6238
 30
153.6157
 70
192
 0
VERTEX
 8
CILINDRO_2
 10
16.9865
 20
-2.4239
 30
153.6157
 70
192
 0
VERTEX
 8
CILINDRO_2
 10
17.1196
 20
-0.6238
 30
153.9369
 70
192
 0
VERTEX
 8
CILINDRO_2
 10
17.1196
 20
-2.4239
 30
153.9369
 70
192
 0
VERTEX
 8
CILINDRO_2
 10
17.2007
 20
-0.6238
 30
154.2749
 70
192
 0
VERTEX
 8
CILINDRO_2
 10
17.2007
 20
-2.4239
 30
154.2749
 70
192
 0
VERTEX
 8
CILINDRO_2
 10
17.228
 20
-0.6238
 30
154.6215
 70
192
 0
VERTEX
 8
CILINDRO_2
 10
17.228
 20
-2.4239
 30
154.6215
 70
192
 0
VERTEX
 8
CILINDRO_2
 10
17.2007
 20
-0.6238
 30
154.9681
 70
192
 0
VERTEX
 8
CILINDRO_2
 10
17.2007
 20
-2.4239
 30
154.9681
 70
192
 0
VERTEX
 8
CILINDRO_2
 10
17.1196
 20
-0.6238
 30
155.3062
 70
192
 0
VERTEX
 8
CILINDRO_2
 10
17.1196
 20
-2.4239
 30
155.3062
 70
192
 0
VERTEX
 8
CILINDRO_2
 10
16.9865
 20
-0.6238
 30
155.6273
 70
192
 0
VERTEX
 8
CILINDRO_2
 10
16.9865
 20
-2.4239
 30
155.6273
 70
192
 0
VERTEX
 8
CILINDRO_2
 10
16.8049
 20
-0.6238
 30
155.9238
 70
192
 0
VERTEX
 8
CILINDRO_2
 10
16.8049
 20
-2.4239
 30
155.9238
 70
192
 0
VERTEX
 8
CILINDRO_2
 10
16.5791
 20
-0.6238
 30
156.1881
 70
192
 0
VERTEX
 8
CILINDRO_2
 10
16.5791
 20
-2.4239
 30
156.1881
 70
192
 0
VERTEX
 8
CILINDRO_2
 10
16.3148
 20
-0.6238
 30
156.4139
 70
192
 0
VERTEX
 8
CILINDRO_2
 10
16.3148
 20
-2.4239
 30
156.4139
 70
192
 0
VERTEX
 8
CILINDRO_2
 10
16.0183
 20
-0.6238
 30
156.5956
 70
192
 0
VERTEX
 8
CILINDRO_2
 10
16.0183
 20
-2.4239
 30
156.5956
 70
192
 0
VERTEX
 8
CILINDRO_2
 10
15.6971
 20
-0.6238
 30
156.7286
 70
192
 0
VERTEX
 8
CILINDRO_2
 10
15.6971
 20
-2.4239
 30
156.7286
 70
192
 0
VERTEX
 8
CILINDRO_2
 10
15.3591
 20
-0.6238
 30
156.8098
 70
192
 0
VERTEX
 8
CILINDRO_2
 10
15.3591
 20
-2.4239
 30
156.8098
 70
192
 0
VERTEX
 8
CILINDRO_2
 10
15.0125
 20
-0.6238
 30
156.837
 70
192
 0
VERTEX
 8
CILINDRO_2
 10
15.0125
 20
-2.4239
 30
156.837
 70
192
 0
VERTEX
 8
CILINDRO_2
 10
14.6659
 20
-0.6238
 30
156.8098
 70
192
 0
VERTEX
 8
CILINDRO_2
 10
14.6659
 20
-2.4239
 30
156.8098
 70
192
 0
VERTEX
 8
CILINDRO_2
 10
14.3279
 20
-0.6238
 30
156.7286
 70
192
 0
VERTEX
 8
CILINDRO_2
 10
14.3279
 20
-2.4239
 30
156.7286
 70
192
 0
VERTEX
 8
CILINDRO_2
 10
14.0067
 20
-0.6238
 30
156.5956
 70
192
 0
VERTEX
 8
CILINDRO_2
 10
14.0067
 20
-2.4239
 30
156.5956
 70
192
 0
VERTEX
 8
CILINDRO_2
 10
13.7103
 20
-0.6238
 30
156.4139
 70
192
 0
VERTEX
 8
CILINDRO_2
 10
13.7103
 20
-2.4239
 30
156.4139
 70
192
 0
VERTEX
 8
CILINDRO_2
 10
13.4459
 20
-0.6238
 30
156.1881
 70
192
 0
VERTEX
 8
CILINDRO_2
 10
13.4459
 20
-2.4239
 30
156.1881
 70
192
 0
VERTEX
 8
CILINDRO_2
 10
13.2201
 20
-0.6238
 30
155.9238
 70
192
 0
VERTEX
 8
CILINDRO_2
 10
13.2201
 20
-2.4239
 30
155.9238
 70
192
 0
VERTEX
 8
CILINDRO_2
 10
13.0385
 20
-0.6238
 30
155.6273
 70
192
 0
VERTEX
 8
CILINDRO_2
 10
13.0385
 20
-2.4239
 30
155.6273
 70
192
 0
VERTEX
 8
CILINDRO_2
 10
12.9054
 20
-0.6238
 30
155.3062
 70
192
 0
VERTEX
 8
CILINDRO_2
 10
12.9054
 20
-2.4239
 30
155.3062
 70
192
 0
VERTEX
 8
CILINDRO_2
 10
12.8243
 20
-0.6238
 30
154.9681
 70
192
 0
VERTEX
 8
CILINDRO_2
 10
12.8243
 20
-2.4239
 30
154.9681
 70
192
 0
VERTEX
 8
CILINDRO_2
 10
13.0077
 20
-0.6238
 30
154.6215
 70
192
 0
VERTEX
 8
CILINDRO_2
 10
13.0323
 20
-0.6238
 30
154.3079
 70
192
 0
VERTEX
 8
CILINDRO_2
 10
13.1058
 20
-0.6238
 30
154.002
 70
192
 0
VERTEX
 8
CILINDRO_2
 10
13.2262
 20
-0.6238
 30
153.7113
 70
192
 0
VERTEX
 8
CILINDRO_2
 10
13.3906
 20
-0.6238
 30
153.4431
 70
192
 0
VERTEX
 8
CILINDRO_2
 10
13.5949
 20
-0.6238
 30
153.2039
 70
192
 0
VERTEX
 8
CILINDRO_2
 10
13.8341
 20
-0.6238
 30
152.9996
 70
192
 0
VERTEX
 8
CILINDRO_2
 10
14.1023
 20
-0.6238
 30
152.8352
 70
192
 0
VERTEX
 8
CILINDRO_2
 10
14.393
 20
-0.6238
 30
152.7148
 70
192
 0
VERTEX
 8
CILINDRO_2
 10
14.6989
 20
-0.6238
 30
152.6414
 70
192
 0
VERTEX
 8
CILINDRO_2
 10
15.0125
 20
-0.6238
 30
152.6167
 70
192
 0
VERTEX
 8
CILINDRO_2
 10
15.3261
 20
-0.6238
 30
152.6414
 70
192
 0
VERTEX
 8
CILINDRO_2
 10
15.632
 20
-0.6238
 30
152.7148
 70
192
 0
VERTEX
 8
CILINDRO_2
 10
15.9227
 20
-0.6238
 30
152.8352
 70
192
 0
VERTEX
 8
CILINDRO_2
 10
16.1909
 20
-0.6238
 30
152.9996
 70
192
 0
VERTEX
 8
CILINDRO_2
 10
16.4302
 20
-0.6238
 30
153.2039
 70
192
 0
VERTEX
 8
CILINDRO_2
 10
16.6345
 20
-0.6238
 30
153.4431
 70
192
 0
VERTEX
 8
CILINDRO_2
 10
16.7989
 20
-0.6238
 30
153.7113
 70
192
 0
VERTEX
 8
CILINDRO_2
 10
16.9192
 20
-0.6238
 30
154.002
 70
192
 0
VERTEX
 8
CILINDRO_2
 10
16.9927
 20
-0.6238
 30
154.3079
 70
192
 0
VERTEX
 8
CILINDRO_2
 10
17.0174
 20
-0.6238
 30
154.6215
 70
192
 0
VERTEX
 8
CILINDRO_2
 10
16.9927
 20
-0.6238
 30
154.9352
 70
192
 0
VERTEX
 8
CILINDRO_2
 10
16.9192
 20
-0.6238
 30
155.2411
 70
192
 0
VERTEX
 8
CILINDRO_2
 10
16.7989
 20
-0.6238
 30
155.5317
 70
192
 0
VERTEX
 8
CILINDRO_2
 10
16.6345
 20
-0.6238
 30
155.8
 70
192
 0
VERTEX
 8
CILINDRO_2
 10
16.4302
 20
-0.6238
 30
156.0392
 70
192
 0
VERTEX
 8
CILINDRO_2
 10
16.1909
 20
-0.6238
 30
156.2435
 70
192
 0
VERTEX
 8
CILINDRO_2
 10
15.9227
 20
-0.6238
 30
156.4079
 70
192
 0
VERTEX
 8
CILINDRO_2
 10
15.632
 20
-0.6238
 30
156.5283
 70
192
 0
VERTEX
 8
CILINDRO_2
 10
15.3261
 20
-0.6238
 30
156.6017
 70
192
 0
VERTEX
 8
CILINDRO_2
 10
15.0125
 20
-0.6238
 30
156.6264
 70
192
 0
VERTEX
 8
CILINDRO_2
 10
14.6989
 20
-0.6238
 30
156.6017
 70
192
 0
VERTEX
 8
CILINDRO_2
 10
14.393
 20
-0.6238
 30
156.5283
 70
192
 0
VERTEX
 8
CILINDRO_2
 10
14.1023
 20
-0.6238
 30
156.4079
 70
192
 0
VERTEX
 8
CILINDRO_2
 10
13.8341
 20
-0.6238
 30
156.2435
 70
192
 0
VERTEX
 8
CILINDRO_2
 10
13.5949
 20
-0.6238
 30
156.0392
 70
192
 0
VERTEX
 8
CILINDRO_2
 10
13.3906
 20
-0.6238
 30
155.8
 70
192
 0
VERTEX
 8
CILINDRO_2
 10
13.2262
 20
-0.6238
 30
155.5317
 70
192
 0
VERTEX
 8
CILINDRO_2
 10
13.1058
 20
-0.6238
 30
155.2411
 70
192
 0
VERTEX
 8
CILINDRO_2
 10
13.0323
 20
-0.6238
 30
154.9352
 70
192
 0
VERTEX
 8
CILINDRO_2
 10
13.0077
 20
-0.2726
 30
154.6215
 70
192
 0
VERTEX
 8
CILINDRO_2
 10
13.0323
 20
-0.2726
 30
154.3079
 70
192
 0
VERTEX
 8
CILINDRO_2
 10
13.1058
 20
-0.2726
 30
154.002
 70
192
 0
VERTEX
 8
CILINDRO_2
 10
13.2262
 20
-0.2726
 30
153.7113
 70
192
 0
VERTEX
 8
CILINDRO_2
 10
13.3906
 20
-0.2726
 30
153.4431
 70
192
 0
VERTEX
 8
CILINDRO_2
 10
13.5949
 20
-0.2726
 30
153.2039
 70
192
 0
VERTEX
 8
CILINDRO_2
 10
13.8341
 20
-0.2726
 30
152.9996
 70
192
 0
VERTEX
 8
CILINDRO_2
 10
14.1023
 20
-0.2726
 30
152.8352
 70
192
 0
VERTEX
 8
CILINDRO_2
 10
14.393
 20
-0.2726
 30
152.7148
 70
192
 0
VERTEX
 8
CILINDRO_2
 10
14.6989
 20
-0.2726
 30
152.6414
 70
192
 0
VERTEX
 8
CILINDRO_2
 10
15.0125
 20
-0.2726
 30
152.6167
 70
192
 0
VERTEX
 8
CILINDRO_2
 10
15.3261
 20
-0.2726
 30
152.6414
 70
192
 0
VERTEX
 8
CILINDRO_2
 10
15.632
 20
-0.2726
 30
152.7148
 70
192
 0
VERTEX
 8
CILINDRO_2
 10
15.9227
 20
-0.2726
 30
152.8352
 70
192
 0
VERTEX
 8
CILINDRO_2
 10
16.1909
 20
-0.2726
 30
152.9996
 70
192
 0
VERTEX
 8
CILINDRO_2
 10
16.4302
 20
-0.2726
 30
153.2039
 70
192
 0
VERTEX
 8
CILINDRO_2
 10
16.6345
 20
-0.2726
 30
153.4431
 70
192
 0
VERTEX
 8
CILINDRO_2
 10
16.7989
 20
-0.2726
 30
153.7113
 70
192
 0
VERTEX
 8
CILINDRO_2
 10
16.9192
 20
-0.2726
 30
154.002
 70
192
 0
VERTEX
 8
CILINDRO_2
 10
16.9927
 20
-0.2726
 30
154.3079
 70
192
 0
VERTEX
 8
CILINDRO_2
 10
17.0174
 20
-0.2726
 30
154.6215
 70
192
 0
VERTEX
 8
CILINDRO_2
 10
16.9927
 20
-0.2726
 30
154.9352
 70
192
 0
VERTEX
 8
CILINDRO_2
 10
16.9192
 20
-0.2726
 30
155.2411
 70
192
 0
VERTEX
 8
CILINDRO_2
 10
16.7989
 20
-0.2726
 30
155.5317
 70
192
 0
VERTEX
 8
CILINDRO_2
 10
16.6345
 20
-0.2726
 30
155.8
 70
192
 0
VERTEX
 8
CILINDRO_2
 10
16.4302
 20
-0.2726
 30
156.0392
 70
192
 0
VERTEX
 8
CILINDRO_2
 10
16.1909
 20
-0.2726
 30
156.2435
 70
192
 0
VERTEX
 8
CILINDRO_2
 10
15.9227
 20
-0.2726
 30
156.4079
 70
192
 0
VERTEX
 8
CILINDRO_2
 10
15.632
 20
-0.2726
 30
156.5283
 70
192
 0
VERTEX
 8
CILINDRO_2
 10
15.3261
 20
-0.2726
 30
156.6017
 70
192
 0
VERTEX
 8
CILINDRO_2
 10
15.0125
 20
-0.2726
 30
156.6264
 70
192
 0
VERTEX
 8
CILINDRO_2
 10
14.6989
 20
-0.2726
 30
156.6017
 70
192
 0
VERTEX
 8
CILINDRO_2
 10
14.393
 20
-0.2726
 30
156.5283
 70
192
 0
VERTEX
 8
CILINDRO_2
 10
14.1023
 20
-0.2726
 30
156.4079
 70
192
 0
VERTEX
 8
CILINDRO_2
 10
13.8341
 20
-0.2726
 30
156.2435
 70
192
 0
VERTEX
 8
CILINDRO_2
 10
13.5949
 20
-0.2726
 30
156.0392
 70
192
 0
VERTEX
 8
CILINDRO_2
 10
13.3906
 20
-0.2726
 30
155.8
 70
192
 0
VERTEX
 8
CILINDRO_2
 10
13.2262
 20
-0.2726
 30
155.5317
 70
192
 0
VERTEX
 8
CILINDRO_2
 10
13.1058
 20
-0.2726
 30
155.2411
 70
192
 0
VERTEX
 8
CILINDRO_2
 10
13.0323
 20
-0.2726
 30
154.9352
 70
192
 0
VERTEX
 8
CILINDRO_2
 10
12.8126
 20
-0.5343
 30
154.6215
 70
192
 0
VERTEX
 8
CILINDRO_2
 10
12.8396
 20
-0.5343
 30
154.2774
 70
192
 0
VERTEX
 8
CILINDRO_2
 10
12.9202
 20
-0.5343
 30
153.9417
 70
192
 0
VERTEX
 8
CILINDRO_2
 10
13.0523
 20
-0.5343
 30
153.6228
 70
192
 0
VERTEX
 8
CILINDRO_2
 10
13.2327
 20
-0.5343
 30
153.3284
 70
192
 0
VERTEX
 8
CILINDRO_2
 10
13.4569
 20
-0.5343
 30
153.0659
 70
192
 0
VERTEX
 8
CILINDRO_2
 10
13.7194
 20
-0.5343
 30
152.8417
 70
192
 0
VERTEX
 8
CILINDRO_2
 10
14.0138
 20
-0.5343
 30
152.6614
 70
192
 0
VERTEX
 8
CILINDRO_2
 10
14.3327
 20
-0.5343
 30
152.5293
 70
192
 0
VERTEX
 8
CILINDRO_2
 10
14.6684
 20
-0.5343
 30
152.4487
 70
192
 0
VERTEX
 8
CILINDRO_2
 10
15.0125
 20
-0.5343
 30
152.4216
 70
192
 0
VERTEX
 8
CILINDRO_2
 10
15.3567
 20
-0.5343
 30
152.4487
 70
192
 0
VERTEX
 8
CILINDRO_2
 10
15.6923
 20
-0.5343
 30
152.5293
 70
192
 0
VERTEX
 8
CILINDRO_2
 10
16.0113
 20
-0.5343
 30
152.6614
 70
192
 0
VERTEX
 8
CILINDRO_2
 10
16.3056
 20
-0.5343
 30
152.8417
 70
192
 0
VERTEX
 8
CILINDRO_2
 10
16.5681
 20
-0.5343
 30
153.0659
 70
192
 0
VERTEX
 8
CILINDRO_2
 10
16.7923
 20
-0.5343
 30
153.3284
 70
192
 0
VERTEX
 8
CILINDRO_2
 10
16.9727
 20
-0.5343
 30
153.6228
 70
192
 0
VERTEX
 8
CILINDRO_2
 10
17.1048
 20
-0.5343
 30
153.9417
 70
192
 0
VERTEX
 8
CILINDRO_2
 10
17.1854
 20
-0.5343
 30
154.2774
 70
192
 0
VERTEX
 8
CILINDRO_2
 10
17.2125
 20
-0.5343
 30
154.6215
 70
192
 0
VERTEX
 8
CILINDRO_2
 10
17.1854
 20
-0.5343
 30
154.9657
 70
192
 0
VERTEX
 8
CILINDRO_2
 10
17.1048
 20
-0.5343
 30
155.3014
 70
192
 0
VERTEX
 8
CILINDRO_2
 10
16.9727
 20
-0.5343
 30
155.6203
 70
192
 0
VERTEX
 8
CILINDRO_2
 10
16.7923
 20
-0.5343
 30
155.9146
 70
192
 0
VERTEX
 8
CILINDRO_2
 10
16.5681
 20
-0.5343
 30
156.1771
 70
192
 0
VERTEX
 8
CILINDRO_2
 10
16.3056
 20
-0.5343
 30
156.4013
 70
192
 0
VERTEX
 8
CILINDRO_2
 10
16.0113
 20
-0.5343
 30
156.5817
 70
192
 0
VERTEX
 8
CILINDRO_2
 10
15.6923
 20
-0.5343
 30
156.7138
 70
192
 0
VERTEX
 8
CILINDRO_2
 10
15.3567
 20
-0.5343
 30
156.7944
 70
192
 0
VERTEX
 8
CILINDRO_2
 10
15.0125
 20
-0.5343
 30
156.8215
 70
192
 0
VERTEX
 8
CILINDRO_2
 10
14.6684
 20
-0.5343
 30
156.7944
 70
192
 0
VERTEX
 8
CILINDRO_2
 10
14.3327
 20
-0.5343
 30
156.7138
 70
192
 0
VERTEX
 8
CILINDRO_2
 10
14.0138
 20
-0.5343
 30
156.5817
 70
192
 0
VERTEX
 8
CILINDRO_2
 10
13.7194
 20
-0.5343
 30
156.4013
 70
192
 0
VERTEX
 8
CILINDRO_2
 10
13.4569
 20
-0.5343
 30
156.1771
 70
192
 0
VERTEX
 8
CILINDRO_2
 10
13.2327
 20
-0.5343
 30
155.9146
 70
192
 0
VERTEX
 8
CILINDRO_2
 10
13.0523
 20
-0.5343
 30
155.6203
 70
192
 0
VERTEX
 8
CILINDRO_2
 10
12.9202
 20
-0.5343
 30
155.3014
 70
192
 0
VERTEX
 8
CILINDRO_2
 10
12.8396
 20
-0.5343
 30
154.9657
 70
192
 0
VERTEX
 8
CILINDRO_2
 10
12.8126
 20
-0.1403
 30
154.6215
 70
192
 0
VERTEX
 8
CILINDRO_2
 10
12.8396
 20
-0.1403
 30
154.2774
 70
192
 0
VERTEX
 8
CILINDRO_2
 10
12.9202
 20
-0.1403
 30
153.9417
 70
192
 0
VERTEX
 8
CILINDRO_2
 10
13.0523
 20
-0.1403
 30
153.6228
 70
192
 0
VERTEX
 8
CILINDRO_2
 10
13.2327
 20
-0.1403
 30
153.3284
 70
192
 0
VERTEX
 8
CILINDRO_2
 10
13.4569
 20
-0.1403
 30
153.0659
 70
192
 0
VERTEX
 8
CILINDRO_2
 10
13.7194
 20
-0.1403
 30
152.8417
 70
192
 0
VERTEX
 8
CILINDRO_2
 10
14.0138
 20
-0.1403
 30
152.6614
 70
192
 0
VERTEX
 8
CILINDRO_2
 10
14.3327
 20
-0.1403
 30
152.5293
 70
192
 0
VERTEX
 8
CILINDRO_2
 10
14.6684
 20
-0.1403
 30
152.4487
 70
192
 0
VERTEX
 8
CILINDRO_2
 10
15.0125
 20
-0.1403
 30
152.4216
 70
192
 0
VERTEX
 8
CILINDRO_2
 10
15.3567
 20
-0.1403
 30
152.4487
 70
192
 0
VERTEX
 8
CILINDRO_2
 10
15.6923
 20
-0.1403
 30
152.5293
 70
192
 0
VERTEX
 8
CILINDRO_2
 10
16.0113
 20
-0.1403
 30
152.6614
 70
192
 0
VERTEX
 8
CILINDRO_2
 10
16.3056
 20
-0.1403
 30
152.8417
 70
192
 0
VERTEX
 8
CILINDRO_2
 10
16.5681
 20
-0.1403
 30
153.0659
 70
192
 0
VERTEX
 8
CILINDRO_2
 10
16.7923
 20
-0.1403
 30
153.3284
 70
192
 0
VERTEX
 8
CILINDRO_2
 10
16.9727
 20
-0.1403
 30
153.6228
 70
192
 0
VERTEX
 8
CILINDRO_2
 10
17.1048
 20
-0.1403
 30
153.9417
 70
192
 0
VERTEX
 8
CILINDRO_2
 10
17.1854
 20
-0.1403
 30
154.2774
 70
192
 0
VERTEX
 8
CILINDRO_2
 10
17.2125
 20
-0.1403
 30
154.6215
 70
192
 0
VERTEX
 8
CILINDRO_2
 10
17.1854
 20
-0.1403
 30
154.9657
 70
192
 0
VERTEX
 8
CILINDRO_2
 10
17.1048
 20
-0.1403
 30
155.3014
 70
192
 0
VERTEX
 8
CILINDRO_2
 10
16.9727
 20
-0.1403
 30
155.6203
 70
192
 0
VERTEX
 8
CILINDRO_2
 10
16.7923
 20
-0.1403
 30
155.9146
 70
192
 0
VERTEX
 8
CILINDRO_2
 10
16.5681
 20
-0.1403
 30
156.1771
 70
192
 0
VERTEX
 8
CILINDRO_2
 10
16.3056
 20
-0.1403
 30
156.4013
 70
192
 0
VERTEX
 8
CILINDRO_2
 10
16.0113
 20
-0.1403
 30
156.5817
 70
192
 0
VERTEX
 8
CILINDRO_2
 10
15.6923
 20
-0.1403
 30
156.7138
 70
192
 0
VERTEX
 8
CILINDRO_2
 10
15.3567
 20
-0.1403
 30
156.7944
 70
192
 0
VERTEX
 8
CILINDRO_2
 10
15.0125
 20
-0.1403
 30
156.8215
 70
192
 0
VERTEX
 8
CILINDRO_2
 10
14.6684
 20
-0.1403
 30
156.7944
 70
192
 0
VERTEX
 8
CILINDRO_2
 10
14.3327
 20
-0.1403
 30
156.7138
 70
192
 0
VERTEX
 8
CILINDRO_2
 10
14.0138
 20
-0.1403
 30
156.5817
 70
192
 0
VERTEX
 8
CILINDRO_2
 10
13.7194
 20
-0.1403
 30
156.4013
 70
192
 0
VERTEX
 8
CILINDRO_2
 10
13.4569
 20
-0.1403
 30
156.1771
 70
192
 0
VERTEX
 8
CILINDRO_2
 10
13.2327
 20
-0.1403
 30
155.9146
 70
192
 0
VERTEX
 8
CILINDRO_2
 10
13.0523
 20
-0.1403
 30
155.6203
 70
192
 0
VERTEX
 8
CILINDRO_2
 10
12.9202
 20
-0.1403
 30
155.3014
 70
192
 0
VERTEX
 8
CILINDRO_2
 10
12.8396
 20
-0.1403
 30
154.9657
 70
192
 0
VERTEX
 8
CILINDRO_2
 10
0
 20
0
 30
0
 70
128
 71
1
 72
203
 73
204
 74
204
 0
VERTEX
 8
CILINDRO_2
 10
0
 20
0
 30
0
 70
128
 71
3
 72
4
 73
6
 74
5
 0
VERTEX
 8
CILINDRO_2
 10
0
 20
0
 30
0
 70
128
 71
4
 72
2
 73
6
 74
6
 0
VERTEX
 8
CILINDRO_2
 10
0
 20
0
 30
0
 70
128
 71
1
 72
204
 73
205
 74
205
 0
VERTEX
 8
CILINDRO_2
 10
0
 20
0
 30
0
 70
128
 71
5
 72
6
 73
8
 74
7
 0
VERTEX
 8
CILINDRO_2
 10
0
 20
0
 30
0
 70
128
 71
6
 72
2
 73
8
 74
8
 0
VERTEX
 8
CILINDRO_2
 10
0
 20
0
 30
0
 70
128
 71
1
 72
205
 73
206
 74
206
 0
VERTEX
 8
CILINDRO_2
 10
0
 20
0
 30
0
 70
128
 71
7
 72
8
 73
10
 74
9
 0
VERTEX
 8
CILINDRO_2
 10
0
 20
0
 30
0
 70
128
 71
8
 72
2
 73
10
 74
10
 0
VERTEX
 8
CILINDRO_2
 10
0
 20
0
 30
0
 70
128
 71
1
 72
206
 73
207
 74
207
 0
VERTEX
 8
CILINDRO_2
 10
0
 20
0
 30
0
 70
128
 71
9
 72
10
 73
12
 74
11
 0
VERTEX
 8
CILINDRO_2
 10
0
 20
0
 30
0
 70
128
 71
10
 72
2
 73
12
 74
12
 0
VERTEX
 8
CILINDRO_2
 10
0
 20
0
 30
0
 70
128
 71
1
 72
207
 73
208
 74
208
 0
VERTEX
 8
CILINDRO_2
 10
0
 20
0
 30
0
 70
128
 71
11
 72
12
 73
14
 74
13
 0
VERTEX
 8
CILINDRO_2
 10
0
 20
0
 30
0
 70
128
 71
12
 72
2
 73
14
 74
14
 0
VERTEX
 8
CILINDRO_2
 10
0
 20
0
 30
0
 70
128
 71
1
 72
208
 73
209
 74
209
 0
VERTEX
 8
CILINDRO_2
 10
0
 20
0
 30
0
 70
128
 71
13
 72
14
 73
16
 74
15
 0
VERTEX
 8
CILINDRO_2
 10
0
 20
0
 30
0
 70
128
 71
14
 72
2
 73
16
 74
16
 0
VERTEX
 8
CILINDRO_2
 10
0
 20
0
 30
0
 70
128
 71
1
 72
209
 73
210
 74
210
 0
VERTEX
 8
CILINDRO_2
 10
0
 20
0
 30
0
 70
128
 71
15
 72
16
 73
18
 74
17
 0
VERTEX
 8
CILINDRO_2
 10
0
 20
0
 30
0
 70
128
 71
16
 72
2
 73
18
 74
18
 0
VERTEX
 8
CILINDRO_2
 10
0
 20
0
 30
0
 70
128
 71
1
 72
210
 73
211
 74
211
 0
VERTEX
 8
CILINDRO_2
 10
0
 20
0
 30
0
 70
128
 71
17
 72
18
 73
20
 74
19
 0
VERTEX
 8
CILINDRO_2
 10
0
 20
0
 30
0
 70
128
 71
18
 72
2
 73
20
 74
20
 0
VERTEX
 8
CILINDRO_2
 10
0
 20
0
 30
0
 70
128
 71
1
 72
211
 73
212
 74
212
 0
VERTEX
 8
CILINDRO_2
 10
0
 20
0
 30
0
 70
128
 71
19
 72
20
 73
22
 74
21
 0
VERTEX
 8
CILINDRO_2
 10
0
 20
0
 30
0
 70
128
 71
20
 72
2
 73
22
 74
22
 0
VERTEX
 8
CILINDRO_2
 10
0
 20
0
 30
0
 70
128
 71
1
 72
212
 73
213
 74
213
 0
VERTEX
 8
CILINDRO_2
 10
0
 20
0
 30
0
 70
128
 71
21
 72
22
 73
24
 74
23
 0
VERTEX
 8
CILINDRO_2
 10
0
 20
0
 30
0
 70
128
 71
22
 72
2
 73
24
 74
24
 0
VERTEX
 8
CILINDRO_2
 10
0
 20
0
 30
0
 70
128
 71
1
 72
213
 73
214
 74
214
 0
VERTEX
 8
CILINDRO_2
 10
0
 20
0
 30
0
 70
128
 71
23
 72
24
 73
26
 74
25
 0
VERTEX
 8
CILINDRO_2
 10
0
 20
0
 30
0
 70
128
 71
24
 72
2
 73
26
 74
26
 0
VERTEX
 8
CILINDRO_2
 10
0
 20
0
 30
0
 70
128
 71
1
 72
214
 73
215
 74
215
 0
VERTEX
 8
CILINDRO_2
 10
0
 20
0
 30
0
 70
128
 71
25
 72
26
 73
28
 74
27
 0
VERTEX
 8
CILINDRO_2
 10
0
 20
0
 30
0
 70
128
 71
26
 72
2
 73
28
 74
28
 0
VERTEX
 8
CILINDRO_2
 10
0
 20
0
 30
0
 70
128
 71
1
 72
215
 73
216
 74
216
 0
VERTEX
 8
CILINDRO_2
 10
0
 20
0
 30
0
 70
128
 71
27
 72
28
 73
30
 74
29
 0
VERTEX
 8
CILINDRO_2
 10
0
 20
0
 30
0
 70
128
 71
28
 72
2
 73
30
 74
30
 0
VERTEX
 8
CILINDRO_2
 10
0
 20
0
 30
0
 70
128
 71
1
 72
216
 73
217
 74
217
 0
VERTEX
 8
CILINDRO_2
 10
0
 20
0
 30
0
 70
128
 71
29
 72
30
 73
32
 74
31
 0
VERTEX
 8
CILINDRO_2
 10
0
 20
0
 30
0
 70
128
 71
30
 72
2
 73
32
 74
32
 0
VERTEX
 8
CILINDRO_2
 10
0
 20
0
 30
0
 70
128
 71
1
 72
217
 73
218
 74
218
 0
VERTEX
 8
CILINDRO_2
 10
0
 20
0
 30
0
 70
128
 71
31
 72
32
 73
34
 74
33
 0
VERTEX
 8
CILINDRO_2
 10
0
 20
0
 30
0
 70
128
 71
32
 72
2
 73
34
 74
34
 0
VERTEX
 8
CILINDRO_2
 10
0
 20
0
 30
0
 70
128
 71
1
 72
218
 73
219
 74
219
 0
VERTEX
 8
CILINDRO_2
 10
0
 20
0
 30
0
 70
128
 71
33
 72
34
 73
36
 74
35
 0
VERTEX
 8
CILINDRO_2
 10
0
 20
0
 30
0
 70
128
 71
34
 72
2
 73
36
 74
36
 0
VERTEX
 8
CILINDRO_2
 10
0
 20
0
 30
0
 70
128
 71
1
 72
219
 73
220
 74
220
 0
VERTEX
 8
CILINDRO_2
 10
0
 20
0
 30
0
 70
128
 71
35
 72
36
 73
38
 74
37
 0
VERTEX
 8
CILINDRO_2
 10
0
 20
0
 30
0
 70
128
 71
36
 72
2
 73
38
 74
38
 0
VERTEX
 8
CILINDRO_2
 10
0
 20
0
 30
0
 70
128
 71
1
 72
220
 73
221
 74
221
 0
VERTEX
 8
CILINDRO_2
 10
0
 20
0
 30
0
 70
128
 71
37
 72
38
 73
40
 74
39
 0
VERTEX
 8
CILINDRO_2
 10
0
 20
0
 30
0
 70
128
 71
38
 72
2
 73
40
 74
40
 0
VERTEX
 8
CILINDRO_2
 10
0
 20
0
 30
0
 70
128
 71
1
 72
221
 73
222
 74
222
 0
VERTEX
 8
CILINDRO_2
 10
0
 20
0
 30
0
 70
128
 71
39
 72
40
 73
42
 74
41
 0
VERTEX
 8
CILINDRO_2
 10
0
 20
0
 30
0
 70
128
 71
40
 72
2
 73
42
 74
42
 0
VERTEX
 8
CILINDRO_2
 10
0
 20
0
 30
0
 70
128
 71
1
 72
222
 73
223
 74
223
 0
VERTEX
 8
CILINDRO_2
 10
0
 20
0
 30
0
 70
128
 71
41
 72
42
 73
44
 74
43
 0
VERTEX
 8
CILINDRO_2
 10
0
 20
0
 30
0
 70
128
 71
42
 72
2
 73
44
 74
44
 0
VERTEX
 8
CILINDRO_2
 10
0
 20
0
 30
0
 70
128
 71
1
 72
223
 73
224
 74
224
 0
VERTEX
 8
CILINDRO_2
 10
0
 20
0
 30
0
 70
128
 71
43
 72
44
 73
46
 74
45
 0
VERTEX
 8
CILINDRO_2
 10
0
 20
0
 30
0
 70
128
 71
44
 72
2
 73
46
 74
46
 0
VERTEX
 8
CILINDRO_2
 10
0
 20
0
 30
0
 70
128
 71
1
 72
224
 73
225
 74
225
 0
VERTEX
 8
CILINDRO_2
 10
0
 20
0
 30
0
 70
128
 71
45
 72
46
 73
48
 74
47
 0
VERTEX
 8
CILINDRO_2
 10
0
 20
0
 30
0
 70
128
 71
46
 72
2
 73
48
 74
48
 0
VERTEX
 8
CILINDRO_2
 10
0
 20
0
 30
0
 70
128
 71
1
 72
225
 73
226
 74
226
 0
VERTEX
 8
CILINDRO_2
 10
0
 20
0
 30
0
 70
128
 71
47
 72
48
 73
50
 74
49
 0
VERTEX
 8
CILINDRO_2
 10
0
 20
0
 30
0
 70
128
 71
48
 72
2
 73
50
 74
50
 0
VERTEX
 8
CILINDRO_2
 10
0
 20
0
 30
0
 70
128
 71
1
 72
226
 73
227
 74
227
 0
VERTEX
 8
CILINDRO_2
 10
0
 20
0
 30
0
 70
128
 71
49
 72
50
 73
52
 74
51
 0
VERTEX
 8
CILINDRO_2
 10
0
 20
0
 30
0
 70
128
 71
50
 72
2
 73
52
 74
52
 0
VERTEX
 8
CILINDRO_2
 10
0
 20
0
 30
0
 70
128
 71
1
 72
227
 73
228
 74
228
 0
VERTEX
 8
CILINDRO_2
 10
0
 20
0
 30
0
 70
128
 71
51
 72
52
 73
54
 74
53
 0
VERTEX
 8
CILINDRO_2
 10
0
 20
0
 30
0
 70
128
 71
52
 72
2
 73
54
 74
54
 0
VERTEX
 8
CILINDRO_2
 10
0
 20
0
 30
0
 70
128
 71
1
 72
228
 73
229
 74
229
 0
VERTEX
 8
CILINDRO_2
 10
0
 20
0
 30
0
 70
128
 71
53
 72
54
 73
56
 74
55
 0
VERTEX
 8
CILINDRO_2
 10
0
 20
0
 30
0
 70
128
 71
54
 72
2
 73
56
 74
56
 0
VERTEX
 8
CILINDRO_2
 10
0
 20
0
 30
0
 70
128
 71
1
 72
229
 73
230
 74
230
 0
VERTEX
 8
CILINDRO_2
 10
0
 20
0
 30
0
 70
128
 71
55
 72
56
 73
58
 74
57
 0
VERTEX
 8
CILINDRO_2
 10
0
 20
0
 30
0
 70
128
 71
56
 72
2
 73
58
 74
58
 0
VERTEX
 8
CILINDRO_2
 10
0
 20
0
 30
0
 70
128
 71
1
 72
230
 73
231
 74
231
 0
VERTEX
 8
CILINDRO_2
 10
0
 20
0
 30
0
 70
128
 71
57
 72
58
 73
60
 74
59
 0
VERTEX
 8
CILINDRO_2
 10
0
 20
0
 30
0
 70
128
 71
58
 72
2
 73
60
 74
60
 0
VERTEX
 8
CILINDRO_2
 10
0
 20
0
 30
0
 70
128
 71
1
 72
231
 73
232
 74
232
 0
VERTEX
 8
CILINDRO_2
 10
0
 20
0
 30
0
 70
128
 71
59
 72
60
 73
62
 74
61
 0
VERTEX
 8
CILINDRO_2
 10
0
 20
0
 30
0
 70
128
 71
60
 72
2
 73
62
 74
62
 0
VERTEX
 8
CILINDRO_2
 10
0
 20
0
 30
0
 70
128
 71
1
 72
232
 73
233
 74
233
 0
VERTEX
 8
CILINDRO_2
 10
0
 20
0
 30
0
 70
128
 71
61
 72
62
 73
64
 74
63
 0
VERTEX
 8
CILINDRO_2
 10
0
 20
0
 30
0
 70
128
 71
62
 72
2
 73
64
 74
64
 0
VERTEX
 8
CILINDRO_2
 10
0
 20
0
 30
0
 70
128
 71
1
 72
233
 73
234
 74
234
 0
VERTEX
 8
CILINDRO_2
 10
0
 20
0
 30
0
 70
128
 71
63
 72
64
 73
66
 74
65
 0
VERTEX
 8
CILINDRO_2
 10
0
 20
0
 30
0
 70
128
 71
64
 72
2
 73
66
 74
66
 0
VERTEX
 8
CILINDRO_2
 10
0
 20
0
 30
0
 70
128
 71
1
 72
234
 73
235
 74
235
 0
VERTEX
 8
CILINDRO_2
 10
0
 20
0
 30
0
 70
128
 71
65
 72
66
 73
68
 74
67
 0
VERTEX
 8
CILINDRO_2
 10
0
 20
0
 30
0
 70
128
 71
66
 72
2
 73
68
 74
68
 0
VERTEX
 8
CILINDRO_2
 10
0
 20
0
 30
0
 70
128
 71
1
 72
235
 73
236
 74
236
 0
VERTEX
 8
CILINDRO_2
 10
0
 20
0
 30
0
 70
128
 71
67
 72
68
 73
70
 74
69
 0
VERTEX
 8
CILINDRO_2
 10
0
 20
0
 30
0
 70
128
 71
68
 72
2
 73
70
 74
70
 0
VERTEX
 8
CILINDRO_2
 10
0
 20
0
 30
0
 70
128
 71
1
 72
236
 73
237
 74
237
 0
VERTEX
 8
CILINDRO_2
 10
0
 20
0
 30
0
 70
128
 71
69
 72
70
 73
72
 74
71
 0
VERTEX
 8
CILINDRO_2
 10
0
 20
0
 30
0
 70
128
 71
70
 72
2
 73
72
 74
72
 0
VERTEX
 8
CILINDRO_2
 10
0
 20
0
 30
0
 70
128
 71
1
 72
237
 73
238
 74
238
 0
VERTEX
 8
CILINDRO_2
 10
0
 20
0
 30
0
 70
128
 71
71
 72
72
 73
74
 74
73
 0
VERTEX
 8
CILINDRO_2
 10
0
 20
0
 30
0
 70
128
 71
72
 72
2
 73
74
 74
74
 0
VERTEX
 8
CILINDRO_2
 10
0
 20
0
 30
0
 70
128
 71
1
 72
238
 73
239
 74
239
 0
VERTEX
 8
CILINDRO_2
 10
0
 20
0
 30
0
 70
128
 71
73
 72
74
 73
76
 74
75
 0
VERTEX
 8
CILINDRO_2
 10
0
 20
0
 30
0
 70
128
 71
74
 72
2
 73
76
 74
76
 0
VERTEX
 8
CILINDRO_2
 10
0
 20
0
 30
0
 70
128
 71
1
 72
239
 73
240
 74
240
 0
VERTEX
 8
CILINDRO_2
 10
0
 20
0
 30
0
 70
128
 71
75
 72
76
 73
78
 74
77
 0
VERTEX
 8
CILINDRO_2
 10
0
 20
0
 30
0
 70
128
 71
76
 72
2
 73
78
 74
78
 0
VERTEX
 8
CILINDRO_2
 10
0
 20
0
 30
0
 70
128
 71
1
 72
240
 73
241
 74
241
 0
VERTEX
 8
CILINDRO_2
 10
0
 20
0
 30
0
 70
128
 71
77
 72
78
 73
80
 74
79
 0
VERTEX
 8
CILINDRO_2
 10
0
 20
0
 30
0
 70
128
 71
78
 72
2
 73
80
 74
80
 0
VERTEX
 8
CILINDRO_2
 10
0
 20
0
 30
0
 70
128
 71
1
 72
241
 73
242
 74
242
 0
VERTEX
 8
CILINDRO_2
 10
0
 20
0
 30
0
 70
128
 71
79
 72
80
 73
82
 74
81
 0
VERTEX
 8
CILINDRO_2
 10
0
 20
0
 30
0
 70
128
 71
80
 72
2
 73
82
 74
82
 0
VERTEX
 8
CILINDRO_2
 10
0
 20
0
 30
0
 70
128
 71
1
 72
242
 73
203
 74
203
 0
VERTEX
 8
CILINDRO_2
 10
0
 20
0
 30
0
 70
128
 71
81
 72
82
 73
4
 74
3
 0
VERTEX
 8
CILINDRO_2
 10
0
 20
0
 30
0
 70
128
 71
82
 72
2
 73
4
 74
4
 0
VERTEX
 8
CILINDRO_2
 10
0
 20
0
 30
0
 70
128
 71
83
 72
3
 73
5
 74
84
 0
VERTEX
 8
CILINDRO_2
 10
0
 20
0
 30
0
 70
128
 71
84
 72
5
 73
7
 74
85
 0
VERTEX
 8
CILINDRO_2
 10
0
 20
0
 30
0
 70
128
 71
85
 72
7
 73
9
 74
86
 0
VERTEX
 8
CILINDRO_2
 10
0
 20
0
 30
0
 70
128
 71
86
 72
9
 73
11
 74
87
 0
VERTEX
 8
CILINDRO_2
 10
0
 20
0
 30
0
 70
128
 71
87
 72
11
 73
13
 74
88
 0
VERTEX
 8
CILINDRO_2
 10
0
 20
0
 30
0
 70
128
 71
88
 72
13
 73
15
 74
89
 0
VERTEX
 8
CILINDRO_2
 10
0
 20
0
 30
0
 70
128
 71
89
 72
15
 73
17
 74
90
 0
VERTEX
 8
CILINDRO_2
 10
0
 20
0
 30
0
 70
128
 71
90
 72
17
 73
19
 74
91
 0
VERTEX
 8
CILINDRO_2
 10
0
 20
0
 30
0
 70
128
 71
91
 72
19
 73
21
 74
92
 0
VERTEX
 8
CILINDRO_2
 10
0
 20
0
 30
0
 70
128
 71
92
 72
21
 73
23
 74
93
 0
VERTEX
 8
CILINDRO_2
 10
0
 20
0
 30
0
 70
128
 71
93
 72
23
 73
25
 74
94
 0
VERTEX
 8
CILINDRO_2
 10
0
 20
0
 30
0
 70
128
 71
94
 72
25
 73
27
 74
95
 0
VERTEX
 8
CILINDRO_2
 10
0
 20
0
 30
0
 70
128
 71
95
 72
27
 73
29
 74
96
 0
VERTEX
 8
CILINDRO_2
 10
0
 20
0
 30
0
 70
128
 71
96
 72
29
 73
31
 74
97
 0
VERTEX
 8
CILINDRO_2
 10
0
 20
0
 30
0
 70
128
 71
97
 72
31
 73
33
 74
98
 0
VERTEX
 8
CILINDRO_2
 10
0
 20
0
 30
0
 70
128
 71
98
 72
33
 73
35
 74
99
 0
VERTEX
 8
CILINDRO_2
 10
0
 20
0
 30
0
 70
128
 71
99
 72
35
 73
37
 74
100
 0
VERTEX
 8
CILINDRO_2
 10
0
 20
0
 30
0
 70
128
 71
100
 72
37
 73
39
 74
101
 0
VERTEX
 8
CILINDRO_2
 10
0
 20
0
 30
0
 70
128
 71
101
 72
39
 73
41
 74
102
 0
VERTEX
 8
CILINDRO_2
 10
0
 20
0
 30
0
 70
128
 71
102
 72
41
 73
43
 74
103
 0
VERTEX
 8
CILINDRO_2
 10
0
 20
0
 30
0
 70
128
 71
103
 72
43
 73
45
 74
104
 0
VERTEX
 8
CILINDRO_2
 10
0
 20
0
 30
0
 70
128
 71
104
 72
45
 73
47
 74
105
 0
VERTEX
 8
CILINDRO_2
 10
0
 20
0
 30
0
 70
128
 71
105
 72
47
 73
49
 74
106
 0
VERTEX
 8
CILINDRO_2
 10
0
 20
0
 30
0
 70
128
 71
106
 72
49
 73
51
 74
107
 0
VERTEX
 8
CILINDRO_2
 10
0
 20
0
 30
0
 70
128
 71
107
 72
51
 73
53
 74
108
 0
VERTEX
 8
CILINDRO_2
 10
0
 20
0
 30
0
 70
128
 71
108
 72
53
 73
55
 74
109
 0
VERTEX
 8
CILINDRO_2
 10
0
 20
0
 30
0
 70
128
 71
109
 72
55
 73
57
 74
110
 0
VERTEX
 8
CILINDRO_2
 10
0
 20
0
 30
0
 70
128
 71
110
 72
57
 73
59
 74
111
 0
VERTEX
 8
CILINDRO_2
 10
0
 20
0
 30
0
 70
128
 71
111
 72
59
 73
61
 74
112
 0
VERTEX
 8
CILINDRO_2
 10
0
 20
0
 30
0
 70
128
 71
112
 72
61
 73
63
 74
113
 0
VERTEX
 8
CILINDRO_2
 10
0
 20
0
 30
0
 70
128
 71
113
 72
63
 73
65
 74
114
 0
VERTEX
 8
CILINDRO_2
 10
0
 20
0
 30
0
 70
128
 71
114
 72
65
 73
67
 74
115
 0
VERTEX
 8
CILINDRO_2
 10
0
 20
0
 30
0
 70
128
 71
115
 72
67
 73
69
 74
116
 0
VERTEX
 8
CILINDRO_2
 10
0
 20
0
 30
0
 70
128
 71
116
 72
69
 73
71
 74
117
 0
VERTEX
 8
CILINDRO_2
 10
0
 20
0
 30
0
 70
128
 71
117
 72
71
 73
73
 74
118
 0
VERTEX
 8
CILINDRO_2
 10
0
 20
0
 30
0
 70
128
 71
118
 72
73
 73
75
 74
119
 0
VERTEX
 8
CILINDRO_2
 10
0
 20
0
 30
0
 70
128
 71
119
 72
75
 73
77
 74
120
 0
VERTEX
 8
CILINDRO_2
 10
0
 20
0
 30
0
 70
128
 71
120
 72
77
 73
79
 74
121
 0
VERTEX
 8
CILINDRO_2
 10
0
 20
0
 30
0
 70
128
 71
121
 72
79
 73
81
 74
122
 0
VERTEX
 8
CILINDRO_2
 10
0
 20
0
 30
0
 70
128
 71
122
 72
81
 73
3
 74
83
 0
VERTEX
 8
CILINDRO_2
 10
0
 20
0
 30
0
 70
128
 71
123
 72
83
 73
84
 74
124
 0
VERTEX
 8
CILINDRO_2
 10
0
 20
0
 30
0
 70
128
 71
124
 72
84
 73
85
 74
125
 0
VERTEX
 8
CILINDRO_2
 10
0
 20
0
 30
0
 70
128
 71
125
 72
85
 73
86
 74
126
 0
VERTEX
 8
CILINDRO_2
 10
0
 20
0
 30
0
 70
128
 71
126
 72
86
 73
87
 74
127
 0
VERTEX
 8
CILINDRO_2
 10
0
 20
0
 30
0
 70
128
 71
127
 72
87
 73
88
 74
128
 0
VERTEX
 8
CILINDRO_2
 10
0
 20
0
 30
0
 70
128
 71
128
 72
88
 73
89
 74
129
 0
VERTEX
 8
CILINDRO_2
 10
0
 20
0
 30
0
 70
128
 71
129
 72
89
 73
90
 74
130
 0
VERTEX
 8
CILINDRO_2
 10
0
 20
0
 30
0
 70
128
 71
130
 72
90
 73
91
 74
131
 0
VERTEX
 8
CILINDRO_2
 10
0
 20
0
 30
0
 70
128
 71
131
 72
91
 73
92
 74
132
 0
VERTEX
 8
CILINDRO_2
 10
0
 20
0
 30
0
 70
128
 71
132
 72
92
 73
93
 74
133
 0
VERTEX
 8
CILINDRO_2
 10
0
 20
0
 30
0
 70
128
 71
133
 72
93
 73
94
 74
134
 0
VERTEX
 8
CILINDRO_2
 10
0
 20
0
 30
0
 70
128
 71
134
 72
94
 73
95
 74
135
 0
VERTEX
 8
CILINDRO_2
 10
0
 20
0
 30
0
 70
128
 71
135
 72
95
 73
96
 74
136
 0
VERTEX
 8
CILINDRO_2
 10
0
 20
0
 30
0
 70
128
 71
136
 72
96
 73
97
 74
137
 0
VERTEX
 8
CILINDRO_2
 10
0
 20
0
 30
0
 70
128
 71
137
 72
97
 73
98
 74
138
 0
VERTEX
 8
CILINDRO_2
 10
0
 20
0
 30
0
 70
128
 71
138
 72
98
 73
99
 74
139
 0
VERTEX
 8
CILINDRO_2
 10
0
 20
0
 30
0
 70
128
 71
139
 72
99
 73
100
 74
140
 0
VERTEX
 8
CILINDRO_2
 10
0
 20
0
 30
0
 70
128
 71
140
 72
100
 73
101
 74
141
 0
VERTEX
 8
CILINDRO_2
 10
0
 20
0
 30
0
 70
128
 71
141
 72
101
 73
102
 74
142
 0
VERTEX
 8
CILINDRO_2
 10
0
 20
0
 30
0
 70
128
 71
142
 72
102
 73
103
 74
143
 0
VERTEX
 8
CILINDRO_2
 10
0
 20
0
 30
0
 70
128
 71
143
 72
103
 73
104
 74
144
 0
VERTEX
 8
CILINDRO_2
 10
0
 20
0
 30
0
 70
128
 71
144
 72
104
 73
105
 74
145
 0
VERTEX
 8
CILINDRO_2
 10
0
 20
0
 30
0
 70
128
 71
145
 72
105
 73
106
 74
146
 0
VERTEX
 8
CILINDRO_2
 10
0
 20
0
 30
0
 70
128
 71
146
 72
106
 73
107
 74
147
 0
VERTEX
 8
CILINDRO_2
 10
0
 20
0
 30
0
 70
128
 71
147
 72
107
 73
108
 74
148
 0
VERTEX
 8
CILINDRO_2
 10
0
 20
0
 30
0
 70
128
 71
148
 72
108
 73
109
 74
149
 0
VERTEX
 8
CILINDRO_2
 10
0
 20
0
 30
0
 70
128
 71
149
 72
109
 73
110
 74
150
 0
VERTEX
 8
CILINDRO_2
 10
0
 20
0
 30
0
 70
128
 71
150
 72
110
 73
111
 74
151
 0
VERTEX
 8
CILINDRO_2
 10
0
 20
0
 30
0
 70
128
 71
151
 72
111
 73
112
 74
152
 0
VERTEX
 8
CILINDRO_2
 10
0
 20
0
 30
0
 70
128
 71
152
 72
112
 73
113
 74
153
 0
VERTEX
 8
CILINDRO_2
 10
0
 20
0
 30
0
 70
128
 71
153
 72
113
 73
114
 74
154
 0
VERTEX
 8
CILINDRO_2
 10
0
 20
0
 30
0
 70
128
 71
154
 72
114
 73
115
 74
155
 0
VERTEX
 8
CILINDRO_2
 10
0
 20
0
 30
0
 70
128
 71
155
 72
115
 73
116
 74
156
 0
VERTEX
 8
CILINDRO_2
 10
0
 20
0
 30
0
 70
128
 71
156
 72
116
 73
117
 74
157
 0
VERTEX
 8
CILINDRO_2
 10
0
 20
0
 30
0
 70
128
 71
157
 72
117
 73
118
 74
158
 0
VERTEX
 8
CILINDRO_2
 10
0
 20
0
 30
0
 70
128
 71
158
 72
118
 73
119
 74
159
 0
VERTEX
 8
CILINDRO_2
 10
0
 20
0
 30
0
 70
128
 71
159
 72
119
 73
120
 74
160
 0
VERTEX
 8
CILINDRO_2
 10
0
 20
0
 30
0
 70
128
 71
160
 72
120
 73
121
 74
161
 0
VERTEX
 8
CILINDRO_2
 10
0
 20
0
 30
0
 70
128
 71
161
 72
121
 73
122
 74
162
 0
VERTEX
 8
CILINDRO_2
 10
0
 20
0
 30
0
 70
128
 71
162
 72
122
 73
83
 74
123
 0
VERTEX
 8
CILINDRO_2
 10
0
 20
0
 30
0
 70
128
 71
163
 72
123
 73
124
 74
164
 0
VERTEX
 8
CILINDRO_2
 10
0
 20
0
 30
0
 70
128
 71
164
 72
124
 73
125
 74
165
 0
VERTEX
 8
CILINDRO_2
 10
0
 20
0
 30
0
 70
128
 71
165
 72
125
 73
126
 74
166
 0
VERTEX
 8
CILINDRO_2
 10
0
 20
0
 30
0
 70
128
 71
166
 72
126
 73
127
 74
167
 0
VERTEX
 8
CILINDRO_2
 10
0
 20
0
 30
0
 70
128
 71
167
 72
127
 73
128
 74
168
 0
VERTEX
 8
CILINDRO_2
 10
0
 20
0
 30
0
 70
128
 71
168
 72
128
 73
129
 74
169
 0
VERTEX
 8
CILINDRO_2
 10
0
 20
0
 30
0
 70
128
 71
169
 72
129
 73
130
 74
170
 0
VERTEX
 8
CILINDRO_2
 10
0
 20
0
 30
0
 70
128
 71
170
 72
130
 73
131
 74
171
 0
VERTEX
 8
CILINDRO_2
 10
0
 20
0
 30
0
 70
128
 71
171
 72
131
 73
132
 74
172
 0
VERTEX
 8
CILINDRO_2
 10
0
 20
0
 30
0
 70
128
 71
172
 72
132
 73
133
 74
173
 0
VERTEX
 8
CILINDRO_2
 10
0
 20
0
 30
0
 70
128
 71
173
 72
133
 73
134
 74
174
 0
VERTEX
 8
CILINDRO_2
 10
0
 20
0
 30
0
 70
128
 71
174
 72
134
 73
135
 74
175
 0
VERTEX
 8
CILINDRO_2
 10
0
 20
0
 30
0
 70
128
 71
175
 72
135
 73
136
 74
176
 0
VERTEX
 8
CILINDRO_2
 10
0
 20
0
 30
0
 70
128
 71
176
 72
136
 73
137
 74
177
 0
VERTEX
 8
CILINDRO_2
 10
0
 20
0
 30
0
 70
128
 71
177
 72
137
 73
138
 74
178
 0
VERTEX
 8
CILINDRO_2
 10
0
 20
0
 30
0
 70
128
 71
178
 72
138
 73
139
 74
179
 0
VERTEX
 8
CILINDRO_2
 10
0
 20
0
 30
0
 70
128
 71
179
 72
139
 73
140
 74
180
 0
VERTEX
 8
CILINDRO_2
 10
0
 20
0
 30
0
 70
128
 71
180
 72
140
 73
141
 74
181
 0
VERTEX
 8
CILINDRO_2
 10
0
 20
0
 30
0
 70
128
 71
181
 72
141
 73
142
 74
182
 0
VERTEX
 8
CILINDRO_2
 10
0
 20
0
 30
0
 70
128
 71
182
 72
142
 73
143
 74
183
 0
VERTEX
 8
CILINDRO_2
 10
0
 20
0
 30
0
 70
128
 71
183
 72
143
 73
144
 74
184
 0
VERTEX
 8
CILINDRO_2
 10
0
 20
0
 30
0
 70
128
 71
184
 72
144
 73
145
 74
185
 0
VERTEX
 8
CILINDRO_2
 10
0
 20
0
 30
0
 70
128
 71
185
 72
145
 73
146
 74
186
 0
VERTEX
 8
CILINDRO_2
 10
0
 20
0
 30
0
 70
128
 71
186
 72
146
 73
147
 74
187
 0
VERTEX
 8
CILINDRO_2
 10
0
 20
0
 30
0
 70
128
 71
187
 72
147
 73
148
 74
188
 0
VERTEX
 8
CILINDRO_2
 10
0
 20
0
 30
0
 70
128
 71
188
 72
148
 73
149
 74
189
 0
VERTEX
 8
CILINDRO_2
 10
0
 20
0
 30
0
 70
128
 71
189
 72
149
 73
150
 74
190
 0
VERTEX
 8
CILINDRO_2
 10
0
 20
0
 30
0
 70
128
 71
190
 72
150
 73
151
 74
191
 0
VERTEX
 8
CILINDRO_2
 10
0
 20
0
 30
0
 70
128
 71
191
 72
151
 73
152
 74
192
 0
VERTEX
 8
CILINDRO_2
 10
0
 20
0
 30
0
 70
128
 71
192
 72
152
 73
153
 74
193
 0
VERTEX
 8
CILINDRO_2
 10
0
 20
0
 30
0
 70
128
 71
193
 72
153
 73
154
 74
194
 0
VERTEX
 8
CILINDRO_2
 10
0
 20
0
 30
0
 70
128
 71
194
 72
154
 73
155
 74
195
 0
VERTEX
 8
CILINDRO_2
 10
0
 20
0
 30
0
 70
128
 71
195
 72
155
 73
156
 74
196
 0
VERTEX
 8
CILINDRO_2
 10
0
 20
0
 30
0
 70
128
 71
196
 72
156
 73
157
 74
197
 0
VERTEX
 8
CILINDRO_2
 10
0
 20
0
 30
0
 70
128
 71
197
 72
157
 73
158
 74
198
 0
VERTEX
 8
CILINDRO_2
 10
0
 20
0
 30
0
 70
128
 71
198
 72
158
 73
159
 74
199
 0
VERTEX
 8
CILINDRO_2
 10
0
 20
0
 30
0
 70
128
 71
199
 72
159
 73
160
 74
200
 0
VERTEX
 8
CILINDRO_2
 10
0
 20
0
 30
0
 70
128
 71
200
 72
160
 73
161
 74
201
 0
VERTEX
 8
CILINDRO_2
 10
0
 20
0
 30
0
 70
128
 71
201
 72
161
 73
162
 74
202
 0
VERTEX
 8
CILINDRO_2
 10
0
 20
0
 30
0
 70
128
 71
202
 72
162
 73
123
 74
163
 0
VERTEX
 8
CILINDRO_2
 10
0
 20
0
 30
0
 70
128
 71
203
 72
163
 73
164
 74
204
 0
VERTEX
 8
CILINDRO_2
 10
0
 20
0
 30
0
 70
128
 71
204
 72
164
 73
165
 74
205
 0
VERTEX
 8
CILINDRO_2
 10
0
 20
0
 30
0
 70
128
 71
205
 72
165
 73
166
 74
206
 0
VERTEX
 8
CILINDRO_2
 10
0
 20
0
 30
0
 70
128
 71
206
 72
166
 73
167
 74
207
 0
VERTEX
 8
CILINDRO_2
 10
0
 20
0
 30
0
 70
128
 71
207
 72
167
 73
168
 74
208
 0
VERTEX
 8
CILINDRO_2
 10
0
 20
0
 30
0
 70
128
 71
208
 72
168
 73
169
 74
209
 0
VERTEX
 8
CILINDRO_2
 10
0
 20
0
 30
0
 70
128
 71
209
 72
169
 73
170
 74
210
 0
VERTEX
 8
CILINDRO_2
 10
0
 20
0
 30
0
 70
128
 71
210
 72
170
 73
171
 74
211
 0
VERTEX
 8
CILINDRO_2
 10
0
 20
0
 30
0
 70
128
 71
211
 72
171
 73
172
 74
212
 0
VERTEX
 8
CILINDRO_2
 10
0
 20
0
 30
0
 70
128
 71
212
 72
172
 73
173
 74
213
 0
VERTEX
 8
CILINDRO_2
 10
0
 20
0
 30
0
 70
128
 71
213
 72
173
 73
174
 74
214
 0
VERTEX
 8
CILINDRO_2
 10
0
 20
0
 30
0
 70
128
 71
214
 72
174
 73
175
 74
215
 0
VERTEX
 8
CILINDRO_2
 10
0
 20
0
 30
0
 70
128
 71
215
 72
175
 73
176
 74
216
 0
VERTEX
 8
CILINDRO_2
 10
0
 20
0
 30
0
 70
128
 71
216
 72
176
 73
177
 74
217
 0
VERTEX
 8
CILINDRO_2
 10
0
 20
0
 30
0
 70
128
 71
217
 72
177
 73
178
 74
218
 0
VERTEX
 8
CILINDRO_2
 10
0
 20
0
 30
0
 70
128
 71
218
 72
178
 73
179
 74
219
 0
VERTEX
 8
CILINDRO_2
 10
0
 20
0
 30
0
 70
128
 71
219
 72
179
 73
180
 74
220
 0
VERTEX
 8
CILINDRO_2
 10
0
 20
0
 30
0
 70
128
 71
220
 72
180
 73
181
 74
221
 0
VERTEX
 8
CILINDRO_2
 10
0
 20
0
 30
0
 70
128
 71
221
 72
181
 73
182
 74
222
 0
VERTEX
 8
CILINDRO_2
 10
0
 20
0
 30
0
 70
128
 71
222
 72
182
 73
183
 74
223
 0
VERTEX
 8
CILINDRO_2
 10
0
 20
0
 30
0
 70
128
 71
223
 72
183
 73
184
 74
224
 0
VERTEX
 8
CILINDRO_2
 10
0
 20
0
 30
0
 70
128
 71
224
 72
184
 73
185
 74
225
 0
VERTEX
 8
CILINDRO_2
 10
0
 20
0
 30
0
 70
128
 71
225
 72
185
 73
186
 74
226
 0
VERTEX
 8
CILINDRO_2
 10
0
 20
0
 30
0
 70
128
 71
226
 72
186
 73
187
 74
227
 0
VERTEX
 8
CILINDRO_2
 10
0
 20
0
 30
0
 70
128
 71
227
 72
187
 73
188
 74
228
 0
VERTEX
 8
CILINDRO_2
 10
0
 20
0
 30
0
 70
128
 71
228
 72
188
 73
189
 74
229
 0
VERTEX
 8
CILINDRO_2
 10
0
 20
0
 30
0
 70
128
 71
229
 72
189
 73
190
 74
230
 0
VERTEX
 8
CILINDRO_2
 10
0
 20
0
 30
0
 70
128
 71
230
 72
190
 73
191
 74
231
 0
VERTEX
 8
CILINDRO_2
 10
0
 20
0
 30
0
 70
128
 71
231
 72
191
 73
192
 74
232
 0
VERTEX
 8
CILINDRO_2
 10
0
 20
0
 30
0
 70
128
 71
232
 72
192
 73
193
 74
233
 0
VERTEX
 8
CILINDRO_2
 10
0
 20
0
 30
0
 70
128
 71
233
 72
193
 73
194
 74
234
 0
VERTEX
 8
CILINDRO_2
 10
0
 20
0
 30
0
 70
128
 71
234
 72
194
 73
195
 74
235
 0
VERTEX
 8
CILINDRO_2
 10
0
 20
0
 30
0
 70
128
 71
235
 72
195
 73
196
 74
236
 0
VERTEX
 8
CILINDRO_2
 10
0
 20
0
 30
0
 70
128
 71
236
 72
196
 73
197
 74
237
 0
VERTEX
 8
CILINDRO_2
 10
0
 20
0
 30
0
 70
128
 71
237
 72
197
 73
198
 74
238
 0
VERTEX
 8
CILINDRO_2
 10
0
 20
0
 30
0
 70
128
 71
238
 72
198
 73
199
 74
239
 0
VERTEX
 8
CILINDRO_2
 10
0
 20
0
 30
0
 70
128
 71
239
 72
199
 73
200
 74
240
 0
VERTEX
 8
CILINDRO_2
 10
0
 20
0
 30
0
 70
128
 71
240
 72
200
 73
201
 74
241
 0
VERTEX
 8
CILINDRO_2
 10
0
 20
0
 30
0
 70
128
 71
241
 72
201
 73
202
 74
242
 0
VERTEX
 8
CILINDRO_2
 10
0
 20
0
 30
0
 70
128
 71
242
 72
202
 73
163
 74
203
 0
SEQEND
 0
ENDSEC
 0
EOF
