 0
SECTION
 2
HEADER
 9
$ACADVER
 1
AC1009
 0
ENDSEC
 0
SECTION
 2
TABLES
 0
TABLE
 2
LTYPE
 70
1
 0
LTYPE
 2
CONTINUOUS
 70
64
 3
solid line
 72
65
 73
0
 40
0.0
 0
ENDTAB
 0
TABLE
 2
LAYER
 70
6
 0
LAYER
 2
0
 70
0
 62
7
 6
CONTINUOUS
 0
LAYER
 2
FCLSO_4510_TEM_BK
 70
64
 62
7
 6
CONTINUOUS
 0
LAYER
 2
LOGO_FULGOR_MILANO
 70
64
 62
7
 6
CONTINUOUS
 0
LAYER
 2
FULGOR
 70
64
 62
7
 6
CONTINUOUS
 0
LAYER
 2
MILANO
 70
64
 62
7
 6
CONTINUOUS
 0
LAYER
 2
ANTA
 70
64
 62
7
 6
CONTINUOUS
 0
LAYER
 2
VETRO_ANTA
 70
64
 62
39
 6
CONTINUOUS
 0
LAYER
 2
VETRO_ANTA_1
 70
64
 62
37
 6
CONTINUOUS
 0
LAYER
 2
MANIGLIA
 70
64
 62
7
 6
CONTINUOUS
 0
LAYER
 2
CUBO
 70
64
 62
253
 6
CONTINUOUS
 0
LAYER
 2
SUPPORTO_MANIGLIA_DUPLICATORE
 70
64
 62
253
 6
CONTINUOUS
 0
LAYER
 2
SUPPORTO_MANIGLIA
 70
64
 62
253
 6
CONTINUOUS
 0
LAYER
 2
CILINDRO_DUPLICATORE
 70
64
 62
39
 6
CONTINUOUS
 0
LAYER
 2
CILINDRO
 70
64
 62
39
 6
CONTINUOUS
 0
LAYER
 2
CILINDRO_1
 70
64
 62
253
 6
CONTINUOUS
 0
LAYER
 2
CORNICE_DISPLAY
 70
64
 62
253
 6
CONTINUOUS
 0
LAYER
 2
VETRO_DISPLAY
 70
64
 62
39
 6
CONTINUOUS
 0
LAYER
 2
CUBO_1
 70
64
 62
39
 6
CONTINUOUS
 0
LAYER
 2
FORNO
 70
64
 62
253
 6
CONTINUOUS
 0
ENDTAB
 0
ENDSEC
 0
SECTION
 2
BLOCKS
 0
ENDSEC
 0
SECTION
 2
ENTITIES
 0
POLYLINE
 8
FULGOR
 66
1
 10
0.0
 20
0.0
 30
0.0
 70
64
 71
363
 72
183
 0
VERTEX
 8
FULGOR
 10
0.219
 20
-0.0046
 30
120.3389
 70
192
 0
VERTEX
 8
FULGOR
 10
-2.5005
 20
-0.0046
 30
120.2361
 70
192
 0
VERTEX
 8
FULGOR
 10
1.3399
 20
-0.0046
 30
120.2622
 70
192
 0
VERTEX
 8
FULGOR
 10
-2.3458
 20
-0.0046
 30
120.533
 70
192
 0
VERTEX
 8
FULGOR
 10
-2.3458
 20
-0.0046
 30
120.6265
 70
192
 0
VERTEX
 8
FULGOR
 10
-1.966
 20
-0.0046
 30
120.6265
 70
192
 0
VERTEX
 8
FULGOR
 10
-1.966
 20
-0.0046
 30
120.7373
 70
192
 0
VERTEX
 8
FULGOR
 10
-2.5005
 20
-0.0046
 30
120.7373
 70
192
 0
VERTEX
 8
FULGOR
 10
-1.8089
 20
-0.0046
 30
120.454
 70
192
 0
VERTEX
 8
FULGOR
 10
-1.8076
 20
-0.0046
 30
120.4306
 70
192
 0
VERTEX
 8
FULGOR
 10
-1.8041
 20
-0.0046
 30
120.4089
 70
192
 0
VERTEX
 8
FULGOR
 10
-2.3458
 20
-0.0046
 30
120.2361
 70
192
 0
VERTEX
 8
FULGOR
 10
-2.3458
 20
-0.0046
 30
120.4438
 70
192
 0
VERTEX
 8
FULGOR
 10
-1.966
 20
-0.0046
 30
120.4438
 70
192
 0
VERTEX
 8
FULGOR
 10
-1.966
 20
-0.0046
 30
120.533
 70
192
 0
VERTEX
 8
FULGOR
 10
-1.8089
 20
-0.0046
 30
120.7373
 70
192
 0
VERTEX
 8
FULGOR
 10
-1.7983
 20
-0.0046
 30
120.389
 70
192
 0
VERTEX
 8
FULGOR
 10
-1.7906
 20
-0.0046
 30
120.3707
 70
192
 0
VERTEX
 8
FULGOR
 10
-1.781
 20
-0.0046
 30
120.354
 70
192
 0
VERTEX
 8
FULGOR
 10
-1.7696
 20
-0.0046
 30
120.3388
 70
192
 0
VERTEX
 8
FULGOR
 10
-1.6322
 20
-0.0046
 30
120.2622
 70
192
 0
VERTEX
 8
FULGOR
 10
-1.5791
 20
-0.0046
 30
120.2513
 70
192
 0
VERTEX
 8
FULGOR
 10
-1.4929
 20
-0.0046
 30
120.2421
 70
192
 0
VERTEX
 8
FULGOR
 10
-1.4035
 20
-0.0046
 30
120.2393
 70
192
 0
VERTEX
 8
FULGOR
 10
-1.3036
 20
-0.0046
 30
120.2429
 70
192
 0
VERTEX
 8
FULGOR
 10
-1.2281
 20
-0.0046
 30
120.2529
 70
192
 0
VERTEX
 8
FULGOR
 10
-1.7566
 20
-0.0046
 30
120.325
 70
192
 0
VERTEX
 8
FULGOR
 10
-1.1352
 20
-0.0046
 30
120.2782
 70
192
 0
VERTEX
 8
FULGOR
 10
-1.7422
 20
-0.0046
 30
120.3125
 70
192
 0
VERTEX
 8
FULGOR
 10
-1.7264
 20
-0.0046
 30
120.3013
 70
192
 0
VERTEX
 8
FULGOR
 10
-1.7005
 20
-0.0046
 30
120.2868
 70
192
 0
VERTEX
 8
FULGOR
 10
-1.6724
 20
-0.0046
 30
120.2748
 70
192
 0
VERTEX
 8
FULGOR
 10
-1.0325
 20
-0.0046
 30
120.3475
 70
192
 0
VERTEX
 8
FULGOR
 10
-1.1753
 20
-0.0046
 30
120.265
 70
192
 0
VERTEX
 8
FULGOR
 10
-1.1072
 20
-0.0046
 30
120.2905
 70
192
 0
VERTEX
 8
FULGOR
 10
-1.0814
 20
-0.0046
 30
120.3048
 70
192
 0
VERTEX
 8
FULGOR
 10
-1.0583
 20
-0.0046
 30
120.3215
 70
192
 0
VERTEX
 8
FULGOR
 10
-1.0006
 20
-0.0046
 30
120.4238
 70
192
 0
VERTEX
 8
FULGOR
 10
-0.9994
 20
-0.0046
 30
120.4444
 70
192
 0
VERTEX
 8
FULGOR
 10
-0.9992
 20
-0.0046
 30
120.7373
 70
192
 0
VERTEX
 8
FULGOR
 10
-1.0446
 20
-0.0046
 30
120.3339
 70
192
 0
VERTEX
 8
FULGOR
 10
-1.022
 20
-0.0046
 30
120.3623
 70
192
 0
VERTEX
 8
FULGOR
 10
-1.154
 20
-0.0046
 30
120.4459
 70
192
 0
VERTEX
 8
FULGOR
 10
-1.1548
 20
-0.0046
 30
120.4389
 70
192
 0
VERTEX
 8
FULGOR
 10
-1.1564
 20
-0.0046
 30
120.4319
 70
192
 0
VERTEX
 8
FULGOR
 10
-1.1587
 20
-0.0046
 30
120.4249
 70
192
 0
VERTEX
 8
FULGOR
 10
-1.1618
 20
-0.0046
 30
120.4181
 70
192
 0
VERTEX
 8
FULGOR
 10
-1.1656
 20
-0.0046
 30
120.4114
 70
192
 0
VERTEX
 8
FULGOR
 10
-1.1702
 20
-0.0046
 30
120.4048
 70
192
 0
VERTEX
 8
FULGOR
 10
-1.1786
 20
-0.0046
 30
120.3952
 70
192
 0
VERTEX
 8
FULGOR
 10
-1.1888
 20
-0.0046
 30
120.3861
 70
192
 0
VERTEX
 8
FULGOR
 10
-1.2009
 20
-0.0046
 30
120.3775
 70
192
 0
VERTEX
 8
FULGOR
 10
-1.2149
 20
-0.0046
 30
120.3694
 70
192
 0
VERTEX
 8
FULGOR
 10
-1.0134
 20
-0.0046
 30
120.3782
 70
192
 0
VERTEX
 8
FULGOR
 10
-1.0067
 20
-0.0046
 30
120.3955
 70
192
 0
VERTEX
 8
FULGOR
 10
-1.0021
 20
-0.0046
 30
120.414
 70
192
 0
VERTEX
 8
FULGOR
 10
-1.1538
 20
-0.0046
 30
120.7373
 70
192
 0
VERTEX
 8
FULGOR
 10
-1.1538
 20
-0.0046
 30
120.453
 70
192
 0
VERTEX
 8
FULGOR
 10
-1.4916
 20
-0.0046
 30
120.34
 70
192
 0
VERTEX
 8
FULGOR
 10
-1.2368
 20
-0.0046
 30
120.3598
 70
192
 0
VERTEX
 8
FULGOR
 10
-1.5649
 20
-0.0046
 30
120.3537
 70
192
 0
VERTEX
 8
FULGOR
 10
-1.5875
 20
-0.0046
 30
120.3618
 70
192
 0
VERTEX
 8
FULGOR
 10
-1.2624
 20
-0.0046
 30
120.3515
 70
192
 0
VERTEX
 8
FULGOR
 10
-1.2997
 20
-0.0046
 30
120.3434
 70
192
 0
VERTEX
 8
FULGOR
 10
-1.3432
 20
-0.0046
 30
120.338
 70
192
 0
VERTEX
 8
FULGOR
 10
-1.6319
 20
-0.0046
 30
120.3921
 70
192
 0
VERTEX
 8
FULGOR
 10
-1.6373
 20
-0.0046
 30
120.3989
 70
192
 0
VERTEX
 8
FULGOR
 10
-1.6419
 20
-0.0046
 30
120.406
 70
192
 0
VERTEX
 8
FULGOR
 10
-1.6457
 20
-0.0046
 30
120.4135
 70
192
 0
VERTEX
 8
FULGOR
 10
-1.6489
 20
-0.0046
 30
120.4214
 70
192
 0
VERTEX
 8
FULGOR
 10
-1.404
 20
-0.0046
 30
120.3358
 70
192
 0
VERTEX
 8
FULGOR
 10
-1.6535
 20
-0.0046
 30
120.4428
 70
192
 0
VERTEX
 8
FULGOR
 10
-1.6543
 20
-0.0046
 30
120.4568
 70
192
 0
VERTEX
 8
FULGOR
 10
-1.6543
 20
-0.0046
 30
120.7373
 70
192
 0
VERTEX
 8
FULGOR
 10
-1.5385
 20
-0.0046
 30
120.3471
 70
192
 0
VERTEX
 8
FULGOR
 10
-1.6022
 20
-0.0046
 30
120.3689
 70
192
 0
VERTEX
 8
FULGOR
 10
-1.6149
 20
-0.0046
 30
120.3769
 70
192
 0
VERTEX
 8
FULGOR
 10
-1.6257
 20
-0.0046
 30
120.3857
 70
192
 0
VERTEX
 8
FULGOR
 10
-0.6878
 20
-0.0046
 30
120.3469
 70
192
 0
VERTEX
 8
FULGOR
 10
-0.6878
 20
-0.0046
 30
120.7373
 70
192
 0
VERTEX
 8
FULGOR
 10
0.5411
 20
-0.0046
 30
120.6911
 70
192
 0
VERTEX
 8
FULGOR
 10
-1.6513
 20
-0.0046
 30
120.4297
 70
192
 0
VERTEX
 8
FULGOR
 10
-0.8426
 20
-0.0046
 30
120.7373
 70
192
 0
VERTEX
 8
FULGOR
 10
0.2351
 20
-0.0046
 30
120.7368
 70
192
 0
VERTEX
 8
FULGOR
 10
-0.8426
 20
-0.0046
 30
120.2361
 70
192
 0
VERTEX
 8
FULGOR
 10
-0.3081
 20
-0.0046
 30
120.2361
 70
192
 0
VERTEX
 8
FULGOR
 10
-0.3081
 20
-0.0046
 30
120.3469
 70
192
 0
VERTEX
 8
FULGOR
 10
0.4538
 20
-0.0046
 30
120.7109
 70
192
 0
VERTEX
 8
FULGOR
 10
0.3612
 20
-0.0046
 30
120.7256
 70
192
 0
VERTEX
 8
FULGOR
 10
0.1647
 20
-0.0046
 30
120.7367
 70
192
 0
VERTEX
 8
FULGOR
 10
-0.1068
 20
-0.0046
 30
120.6609
 70
192
 0
VERTEX
 8
FULGOR
 10
-0.1331
 20
-0.0046
 30
120.6437
 70
192
 0
VERTEX
 8
FULGOR
 10
-0.1553
 20
-0.0046
 30
120.6259
 70
192
 0
VERTEX
 8
FULGOR
 10
-0.1742
 20
-0.0046
 30
120.6075
 70
192
 0
VERTEX
 8
FULGOR
 10
0.101
 20
-0.0046
 30
120.7303
 70
192
 0
VERTEX
 8
FULGOR
 10
0.0442
 20
-0.0046
 30
120.7194
 70
192
 0
VERTEX
 8
FULGOR
 10
-0.0115
 20
-0.0046
 30
120.7033
 70
192
 0
VERTEX
 8
FULGOR
 10
-0.2167
 20
-0.0046
 30
120.5396
 70
192
 0
VERTEX
 8
FULGOR
 10
-0.2211
 20
-0.0046
 30
120.5252
 70
192
 0
VERTEX
 8
FULGOR
 10
-0.0617
 20
-0.0046
 30
120.6838
 70
192
 0
VERTEX
 8
FULGOR
 10
-0.0875
 20
-0.0046
 30
120.6714
 70
192
 0
VERTEX
 8
FULGOR
 10
-0.189
 20
-0.0046
 30
120.59
 70
192
 0
VERTEX
 8
FULGOR
 10
-0.2255
 20
-0.0046
 30
120.4665
 70
192
 0
VERTEX
 8
FULGOR
 10
-0.1996
 20
-0.0046
 30
120.5745
 70
192
 0
VERTEX
 8
FULGOR
 10
-0.209
 20
-0.0046
 30
120.5577
 70
192
 0
VERTEX
 8
FULGOR
 10
-0.2243
 20
-0.0046
 30
120.51
 70
192
 0
VERTEX
 8
FULGOR
 10
-0.2257
 20
-0.0046
 30
120.4995
 70
192
 0
VERTEX
 8
FULGOR
 10
-0.2265
 20
-0.0046
 30
120.4831
 70
192
 0
VERTEX
 8
FULGOR
 10
-0.2226
 20
-0.0046
 30
120.4503
 70
192
 0
VERTEX
 8
FULGOR
 10
-0.1575
 20
-0.0046
 30
120.3501
 70
192
 0
VERTEX
 8
FULGOR
 10
-0.133
 20
-0.0046
 30
120.3303
 70
192
 0
VERTEX
 8
FULGOR
 10
-0.2178
 20
-0.0046
 30
120.4345
 70
192
 0
VERTEX
 8
FULGOR
 10
-0.065
 20
-0.0046
 30
120.2903
 70
192
 0
VERTEX
 8
FULGOR
 10
-0.0278
 20
-0.0046
 30
120.2748
 70
192
 0
VERTEX
 8
FULGOR
 10
-0.2114
 20
-0.0046
 30
120.4192
 70
192
 0
VERTEX
 8
FULGOR
 10
-0.2034
 20
-0.0046
 30
120.4043
 70
192
 0
VERTEX
 8
FULGOR
 10
0.1472
 20
-0.0046
 30
120.2387
 70
192
 0
VERTEX
 8
FULGOR
 10
0.1955
 20
-0.0046
 30
120.2364
 70
192
 0
VERTEX
 8
FULGOR
 10
0.2351
 20
-0.0046
 30
120.2366
 70
192
 0
VERTEX
 8
FULGOR
 10
0.2979
 20
-0.0046
 30
120.2402
 70
192
 0
VERTEX
 8
FULGOR
 10
-0.1904
 20
-0.0046
 30
120.3853
 70
192
 0
VERTEX
 8
FULGOR
 10
-0.175
 20
-0.0046
 30
120.3672
 70
192
 0
VERTEX
 8
FULGOR
 10
-0.1003
 20
-0.0046
 30
120.3089
 70
192
 0
VERTEX
 8
FULGOR
 10
0.3634
 20
-0.0046
 30
120.4963
 70
192
 0
VERTEX
 8
FULGOR
 10
0.0227
 20
-0.0046
 30
120.2591
 70
192
 0
VERTEX
 8
FULGOR
 10
0.0786
 20
-0.0046
 30
120.2471
 70
192
 0
VERTEX
 8
FULGOR
 10
0.3758
 20
-0.0046
 30
120.2505
 70
192
 0
VERTEX
 8
FULGOR
 10
0.5411
 20
-0.0046
 30
120.2823
 70
192
 0
VERTEX
 8
FULGOR
 10
0.1899
 20
-0.0046
 30
120.3392
 70
192
 0
VERTEX
 8
FULGOR
 10
0.1559
 20
-0.0046
 30
120.3419
 70
192
 0
VERTEX
 8
FULGOR
 10
0.5411
 20
-0.0046
 30
120.4963
 70
192
 0
VERTEX
 8
FULGOR
 10
0.0923
 20
-0.0046
 30
120.3561
 70
192
 0
VERTEX
 8
FULGOR
 10
0.0692
 20
-0.0046
 30
120.3651
 70
192
 0
VERTEX
 8
FULGOR
 10
0.3633
 20
-0.0046
 30
120.3496
 70
192
 0
VERTEX
 8
FULGOR
 10
0.3431
 20
-0.0046
 30
120.3459
 70
192
 0
VERTEX
 8
FULGOR
 10
0.0158
 20
-0.0046
 30
120.399
 70
192
 0
VERTEX
 8
FULGOR
 10
0.2874
 20
-0.0046
 30
120.3402
 70
192
 0
VERTEX
 8
FULGOR
 10
0.2464
 20
-0.0046
 30
120.3386
 70
192
 0
VERTEX
 8
FULGOR
 10
0.1232
 20
-0.0046
 30
120.3475
 70
192
 0
VERTEX
 8
FULGOR
 10
0.0479
 20
-0.0046
 30
120.3759
 70
192
 0
VERTEX
 8
FULGOR
 10
-0.0234
 20
-0.0046
 30
120.4613
 70
192
 0
VERTEX
 8
FULGOR
 10
-0.0258
 20
-0.0046
 30
120.4718
 70
192
 0
VERTEX
 8
FULGOR
 10
-0.0272
 20
-0.0046
 30
120.4828
 70
192
 0
VERTEX
 8
FULGOR
 10
-0.0277
 20
-0.0046
 30
120.4942
 70
192
 0
VERTEX
 8
FULGOR
 10
-0.0271
 20
-0.0046
 30
120.5056
 70
192
 0
VERTEX
 8
FULGOR
 10
0.0287
 20
-0.0046
 30
120.3884
 70
192
 0
VERTEX
 8
FULGOR
 10
0.0044
 20
-0.0046
 30
120.4106
 70
192
 0
VERTEX
 8
FULGOR
 10
-0.0055
 20
-0.0046
 30
120.4231
 70
192
 0
VERTEX
 8
FULGOR
 10
-0.013
 20
-0.0046
 30
120.5459
 70
192
 0
VERTEX
 8
FULGOR
 10
-0.007
 20
-0.0046
 30
120.5547
 70
192
 0
VERTEX
 8
FULGOR
 10
-0.0001
 20
-0.0046
 30
120.563
 70
192
 0
VERTEX
 8
FULGOR
 10
-0.0138
 20
-0.0046
 30
120.4366
 70
192
 0
VERTEX
 8
FULGOR
 10
0.0251
 20
-0.0046
 30
120.5851
 70
192
 0
VERTEX
 8
FULGOR
 10
0.0398
 20
-0.0046
 30
120.5945
 70
192
 0
VERTEX
 8
FULGOR
 10
-0.0202
 20
-0.0046
 30
120.4511
 70
192
 0
VERTEX
 8
FULGOR
 10
0.0891
 20
-0.0046
 30
120.6165
 70
192
 0
VERTEX
 8
FULGOR
 10
0.1181
 20
-0.0046
 30
120.6248
 70
192
 0
VERTEX
 8
FULGOR
 10
-0.0252
 20
-0.0046
 30
120.5164
 70
192
 0
VERTEX
 8
FULGOR
 10
0.1691
 20
-0.0046
 30
120.6328
 70
192
 0
VERTEX
 8
FULGOR
 10
-0.0222
 20
-0.0046
 30
120.5268
 70
192
 0
VERTEX
 8
FULGOR
 10
0.2937
 20
-0.0046
 30
120.6287
 70
192
 0
VERTEX
 8
FULGOR
 10
-0.0181
 20
-0.0046
 30
120.5366
 70
192
 0
VERTEX
 8
FULGOR
 10
0.5411
 20
-0.0046
 30
120.5842
 70
192
 0
VERTEX
 8
FULGOR
 10
0.6982
 20
-0.0046
 30
120.4867
 70
192
 0
VERTEX
 8
FULGOR
 10
0.6996
 20
-0.0046
 30
120.4644
 70
192
 0
VERTEX
 8
FULGOR
 10
0.0117
 20
-0.0046
 30
120.5746
 70
192
 0
VERTEX
 8
FULGOR
 10
0.0609
 20
-0.0046
 30
120.6055
 70
192
 0
VERTEX
 8
FULGOR
 10
0.7179
 20
-0.0046
 30
120.4049
 70
192
 0
VERTEX
 8
FULGOR
 10
0.7284
 20
-0.0046
 30
120.3874
 70
192
 0
VERTEX
 8
FULGOR
 10
0.7407
 20
-0.0046
 30
120.3711
 70
192
 0
VERTEX
 8
FULGOR
 10
0.7549
 20
-0.0046
 30
120.3558
 70
192
 0
VERTEX
 8
FULGOR
 10
0.779
 20
-0.0046
 30
120.335
 70
192
 0
VERTEX
 8
FULGOR
 10
0.1526
 20
-0.0046
 30
120.6311
 70
192
 0
VERTEX
 8
FULGOR
 10
0.1899
 20
-0.0046
 30
120.6337
 70
192
 0
VERTEX
 8
FULGOR
 10
0.3901
 20
-0.0046
 30
120.6149
 70
192
 0
VERTEX
 8
FULGOR
 10
0.7034
 20
-0.0046
 30
120.4434
 70
192
 0
VERTEX
 8
FULGOR
 10
0.7096
 20
-0.0046
 30
120.4235
 70
192
 0
VERTEX
 8
FULGOR
 10
1.0786
 20
-0.0046
 30
120.2402
 70
192
 0
VERTEX
 8
FULGOR
 10
1.1433
 20
-0.0046
 30
120.2376
 70
192
 0
VERTEX
 8
FULGOR
 10
0.8064
 20
-0.0046
 30
120.3165
 70
192
 0
VERTEX
 8
FULGOR
 10
1.3019
 20
-0.0046
 30
120.2529
 70
192
 0
VERTEX
 8
FULGOR
 10
0.8363
 20
-0.0046
 30
120.3002
 70
192
 0
VERTEX
 8
FULGOR
 10
0.8795
 20
-0.0046
 30
120.2817
 70
192
 0
VERTEX
 8
FULGOR
 10
0.9371
 20
-0.0046
 30
120.2637
 70
192
 0
VERTEX
 8
FULGOR
 10
1.0085
 20
-0.0046
 30
120.2487
 70
192
 0
VERTEX
 8
FULGOR
 10
1.2195
 20
-0.0046
 30
120.2412
 70
192
 0
VERTEX
 8
FULGOR
 10
1.5389
 20
-0.0046
 30
120.3633
 70
192
 0
VERTEX
 8
FULGOR
 10
1.3728
 20
-0.0046
 30
120.2703
 70
192
 0
VERTEX
 8
FULGOR
 10
1.429
 20
-0.0046
 30
120.2905
 70
192
 0
VERTEX
 8
FULGOR
 10
1.4704
 20
-0.0046
 30
120.3108
 70
192
 0
VERTEX
 8
FULGOR
 10
1.4987
 20
-0.0046
 30
120.3286
 70
192
 0
VERTEX
 8
FULGOR
 10
1.5239
 20
-0.0046
 30
120.3487
 70
192
 0
VERTEX
 8
FULGOR
 10
1.5869
 20
-0.0046
 30
120.4643
 70
192
 0
VERTEX
 8
FULGOR
 10
1.5883
 20
-0.0046
 30
120.4865
 70
192
 0
VERTEX
 8
FULGOR
 10
1.587
 20
-0.0046
 30
120.5088
 70
192
 0
VERTEX
 8
FULGOR
 10
1.5832
 20
-0.0046
 30
120.5298
 70
192
 0
VERTEX
 8
FULGOR
 10
1.5521
 20
-0.0046
 30
120.3791
 70
192
 0
VERTEX
 8
FULGOR
 10
1.5636
 20
-0.0046
 30
120.396
 70
192
 0
VERTEX
 8
FULGOR
 10
1.573
 20
-0.0046
 30
120.414
 70
192
 0
VERTEX
 8
FULGOR
 10
1.546
 20
-0.0046
 30
120.602
 70
192
 0
VERTEX
 8
FULGOR
 10
1.5319
 20
-0.0046
 30
120.6173
 70
192
 0
VERTEX
 8
FULGOR
 10
1.5077
 20
-0.0046
 30
120.6381
 70
192
 0
VERTEX
 8
FULGOR
 10
1.4804
 20
-0.0046
 30
120.6567
 70
192
 0
VERTEX
 8
FULGOR
 10
1.4504
 20
-0.0046
 30
120.673
 70
192
 0
VERTEX
 8
FULGOR
 10
1.4072
 20
-0.0046
 30
120.6915
 70
192
 0
VERTEX
 8
FULGOR
 10
1.5803
 20
-0.0046
 30
120.4332
 70
192
 0
VERTEX
 8
FULGOR
 10
1.5853
 20
-0.0046
 30
120.4536
 70
192
 0
VERTEX
 8
FULGOR
 10
1.5771
 20
-0.0046
 30
120.5496
 70
192
 0
VERTEX
 8
FULGOR
 10
1.5687
 20
-0.0046
 30
120.5682
 70
192
 0
VERTEX
 8
FULGOR
 10
1.0671
 20
-0.0046
 30
120.7322
 70
192
 0
VERTEX
 8
FULGOR
 10
1.5583
 20
-0.0046
 30
120.5857
 70
192
 0
VERTEX
 8
FULGOR
 10
1.3495
 20
-0.0046
 30
120.7096
 70
192
 0
VERTEX
 8
FULGOR
 10
1.2781
 20
-0.0046
 30
120.7247
 70
192
 0
VERTEX
 8
FULGOR
 10
1.2081
 20
-0.0046
 30
120.7331
 70
192
 0
VERTEX
 8
FULGOR
 10
0.7877
 20
-0.0046
 30
120.6448
 70
192
 0
VERTEX
 8
FULGOR
 10
0.7624
 20
-0.0046
 30
120.6248
 70
192
 0
VERTEX
 8
FULGOR
 10
0.7474
 20
-0.0046
 30
120.6101
 70
192
 0
VERTEX
 8
FULGOR
 10
0.7342
 20
-0.0046
 30
120.5943
 70
192
 0
VERTEX
 8
FULGOR
 10
0.7228
 20
-0.0046
 30
120.5774
 70
192
 0
VERTEX
 8
FULGOR
 10
0.7134
 20
-0.0046
 30
120.5593
 70
192
 0
VERTEX
 8
FULGOR
 10
0.7061
 20
-0.0046
 30
120.5401
 70
192
 0
VERTEX
 8
FULGOR
 10
1.1433
 20
-0.0046
 30
120.7358
 70
192
 0
VERTEX
 8
FULGOR
 10
0.6995
 20
-0.0046
 30
120.509
 70
192
 0
VERTEX
 8
FULGOR
 10
0.8982
 20
-0.0046
 30
120.4865
 70
192
 0
VERTEX
 8
FULGOR
 10
0.8987
 20
-0.0046
 30
120.4745
 70
192
 0
VERTEX
 8
FULGOR
 10
0.9846
 20
-0.0046
 30
120.7205
 70
192
 0
VERTEX
 8
FULGOR
 10
0.9137
 20
-0.0046
 30
120.7031
 70
192
 0
VERTEX
 8
FULGOR
 10
0.8574
 20
-0.0046
 30
120.6829
 70
192
 0
VERTEX
 8
FULGOR
 10
0.8159
 20
-0.0046
 30
120.6626
 70
192
 0
VERTEX
 8
FULGOR
 10
0.7011
 20
-0.0046
 30
120.5197
 70
192
 0
VERTEX
 8
FULGOR
 10
0.9227
 20
-0.0046
 30
120.4135
 70
192
 0
VERTEX
 8
FULGOR
 10
0.9298
 20
-0.0046
 30
120.4053
 70
192
 0
VERTEX
 8
FULGOR
 10
0.9003
 20
-0.0046
 30
120.4629
 70
192
 0
VERTEX
 8
FULGOR
 10
0.9029
 20
-0.0046
 30
120.452
 70
192
 0
VERTEX
 8
FULGOR
 10
0.9065
 20
-0.0046
 30
120.4416
 70
192
 0
VERTEX
 8
FULGOR
 10
0.911
 20
-0.0046
 30
120.4317
 70
192
 0
VERTEX
 8
FULGOR
 10
1.0189
 20
-0.0046
 30
120.3552
 70
192
 0
VERTEX
 8
FULGOR
 10
1.0528
 20
-0.0046
 30
120.3472
 70
192
 0
VERTEX
 8
FULGOR
 10
0.9164
 20
-0.0046
 30
120.4224
 70
192
 0
VERTEX
 8
FULGOR
 10
1.1433
 20
-0.0046
 30
120.3393
 70
192
 0
VERTEX
 8
FULGOR
 10
1.1974
 20
-0.0046
 30
120.342
 70
192
 0
VERTEX
 8
FULGOR
 10
0.942
 20
-0.0046
 30
120.3938
 70
192
 0
VERTEX
 8
FULGOR
 10
1.2742
 20
-0.0046
 30
120.3573
 70
192
 0
VERTEX
 8
FULGOR
 10
1.2986
 20
-0.0046
 30
120.3663
 70
192
 0
VERTEX
 8
FULGOR
 10
1.3207
 20
-0.0046
 30
120.3773
 70
192
 0
VERTEX
 8
FULGOR
 10
0.9558
 20
-0.0046
 30
120.3835
 70
192
 0
VERTEX
 8
FULGOR
 10
1.3489
 20
-0.0046
 30
120.3976
 70
192
 0
VERTEX
 8
FULGOR
 10
0.9712
 20
-0.0046
 30
120.3743
 70
192
 0
VERTEX
 8
FULGOR
 10
0.9939
 20
-0.0046
 30
120.3638
 70
192
 0
VERTEX
 8
FULGOR
 10
1.3731
 20
-0.0046
 30
120.427
 70
192
 0
VERTEX
 8
FULGOR
 10
1.0967
 20
-0.0046
 30
120.3413
 70
192
 0
VERTEX
 8
FULGOR
 10
1.2408
 20
-0.0046
 30
120.3486
 70
192
 0
VERTEX
 8
FULGOR
 10
1.3356
 20
-0.0046
 30
120.3869
 70
192
 0
VERTEX
 8
FULGOR
 10
1.3873
 20
-0.0046
 30
120.4687
 70
192
 0
VERTEX
 8
FULGOR
 10
1.388
 20
-0.0046
 30
120.4745
 70
192
 0
VERTEX
 8
FULGOR
 10
1.3885
 20
-0.0046
 30
120.4865
 70
192
 0
VERTEX
 8
FULGOR
 10
1.388
 20
-0.0046
 30
120.4986
 70
192
 0
VERTEX
 8
FULGOR
 10
1.3605
 20
-0.0046
 30
120.4094
 70
192
 0
VERTEX
 8
FULGOR
 10
1.3672
 20
-0.0046
 30
120.418
 70
192
 0
VERTEX
 8
FULGOR
 10
1.3802
 20
-0.0046
 30
120.5314
 70
192
 0
VERTEX
 8
FULGOR
 10
1.3757
 20
-0.0046
 30
120.5413
 70
192
 0
VERTEX
 8
FULGOR
 10
1.3781
 20
-0.0046
 30
120.4366
 70
192
 0
VERTEX
 8
FULGOR
 10
1.3821
 20
-0.0046
 30
120.4468
 70
192
 0
VERTEX
 8
FULGOR
 10
1.3568
 20
-0.0046
 30
120.5676
 70
192
 0
VERTEX
 8
FULGOR
 10
1.3852
 20
-0.0046
 30
120.4574
 70
192
 0
VERTEX
 8
FULGOR
 10
1.3864
 20
-0.0046
 30
120.5101
 70
192
 0
VERTEX
 8
FULGOR
 10
1.3154
 20
-0.0046
 30
120.5985
 70
192
 0
VERTEX
 8
FULGOR
 10
1.2926
 20
-0.0046
 30
120.6089
 70
192
 0
VERTEX
 8
FULGOR
 10
1.3838
 20
-0.0046
 30
120.521
 70
192
 0
VERTEX
 8
FULGOR
 10
1.3703
 20
-0.0046
 30
120.5506
 70
192
 0
VERTEX
 8
FULGOR
 10
1.364
 20
-0.0046
 30
120.5594
 70
192
 0
VERTEX
 8
FULGOR
 10
1.3446
 20
-0.0046
 30
120.579
 70
192
 0
VERTEX
 8
FULGOR
 10
1.0893
 20
-0.0046
 30
120.6307
 70
192
 0
VERTEX
 8
FULGOR
 10
1.0459
 20
-0.0046
 30
120.6242
 70
192
 0
VERTEX
 8
FULGOR
 10
1.0125
 20
-0.0046
 30
120.6156
 70
192
 0
VERTEX
 8
FULGOR
 10
1.3308
 20
-0.0046
 30
120.5893
 70
192
 0
VERTEX
 8
FULGOR
 10
1.2677
 20
-0.0046
 30
120.6175
 70
192
 0
VERTEX
 8
FULGOR
 10
1.2337
 20
-0.0046
 30
120.6255
 70
192
 0
VERTEX
 8
FULGOR
 10
1.1898
 20
-0.0046
 30
120.6314
 70
192
 0
VERTEX
 8
FULGOR
 10
1.1433
 20
-0.0046
 30
120.6333
 70
192
 0
VERTEX
 8
FULGOR
 10
0.9881
 20
-0.0046
 30
120.6066
 70
192
 0
VERTEX
 8
FULGOR
 10
0.966
 20
-0.0046
 30
120.5956
 70
192
 0
VERTEX
 8
FULGOR
 10
0.9511
 20
-0.0046
 30
120.5861
 70
192
 0
VERTEX
 8
FULGOR
 10
0.9378
 20
-0.0046
 30
120.5755
 70
192
 0
VERTEX
 8
FULGOR
 10
0.9262
 20
-0.0046
 30
120.5636
 70
192
 0
VERTEX
 8
FULGOR
 10
0.9195
 20
-0.0046
 30
120.5551
 70
192
 0
VERTEX
 8
FULGOR
 10
0.9136
 20
-0.0046
 30
120.5461
 70
192
 0
VERTEX
 8
FULGOR
 10
0.9086
 20
-0.0046
 30
120.5365
 70
192
 0
VERTEX
 8
FULGOR
 10
0.9046
 20
-0.0046
 30
120.5263
 70
192
 0
VERTEX
 8
FULGOR
 10
0.9015
 20
-0.0046
 30
120.5157
 70
192
 0
VERTEX
 8
FULGOR
 10
1.9943
 20
-0.0046
 30
120.448
 70
192
 0
VERTEX
 8
FULGOR
 10
0.8994
 20
-0.0046
 30
120.5044
 70
192
 0
VERTEX
 8
FULGOR
 10
0.8987
 20
-0.0046
 30
120.4986
 70
192
 0
VERTEX
 8
FULGOR
 10
1.7453
 20
-0.0046
 30
120.2361
 70
192
 0
VERTEX
 8
FULGOR
 10
1.9001
 20
-0.0046
 30
120.2361
 70
192
 0
VERTEX
 8
FULGOR
 10
1.9001
 20
-0.0046
 30
120.448
 70
192
 0
VERTEX
 8
FULGOR
 10
2.1035
 20
-0.0046
 30
120.3978
 70
192
 0
VERTEX
 8
FULGOR
 10
2.1155
 20
-0.0046
 30
120.385
 70
192
 0
VERTEX
 8
FULGOR
 10
2.2241
 20
-0.0046
 30
120.2361
 70
192
 0
VERTEX
 8
FULGOR
 10
2.5002
 20
-0.0046
 30
120.2361
 70
192
 0
VERTEX
 8
FULGOR
 10
2.4632
 20
-0.0046
 30
120.2555
 70
192
 0
VERTEX
 8
FULGOR
 10
2.0454
 20
-0.0046
 30
120.4376
 70
192
 0
VERTEX
 8
FULGOR
 10
2.0581
 20
-0.0046
 30
120.4317
 70
192
 0
VERTEX
 8
FULGOR
 10
2.4094
 20
-0.0046
 30
120.2926
 70
192
 0
VERTEX
 8
FULGOR
 10
2.3691
 20
-0.0046
 30
120.3302
 70
192
 0
VERTEX
 8
FULGOR
 10
1.7453
 20
-0.0046
 30
120.537
 70
192
 0
VERTEX
 8
FULGOR
 10
2.3178
 20
-0.0046
 30
120.3993
 70
192
 0
VERTEX
 8
FULGOR
 10
2.2929
 20
-0.0046
 30
120.4274
 70
192
 0
VERTEX
 8
FULGOR
 10
2.2693
 20
-0.0046
 30
120.4476
 70
192
 0
VERTEX
 8
FULGOR
 10
2.0882
 20
-0.0046
 30
120.4115
 70
192
 0
VERTEX
 8
FULGOR
 10
1.2618
 20
-0.0046
 30
120.2472
 70
192
 0
VERTEX
 8
FULGOR
 10
2.2126
 20
-0.0046
 30
120.4781
 70
192
 0
VERTEX
 8
FULGOR
 10
2.432
 20
-0.0046
 30
120.275
 70
192
 0
VERTEX
 8
FULGOR
 10
2.2875
 20
-0.0046
 30
120.5096
 70
192
 0
VERTEX
 8
FULGOR
 10
2.2465
 20
-0.0046
 30
120.4625
 70
192
 0
VERTEX
 8
FULGOR
 10
2.3139
 20
-0.0046
 30
120.5313
 70
192
 0
VERTEX
 8
FULGOR
 10
2.229
 20
-0.0046
 30
120.4717
 70
192
 0
VERTEX
 8
FULGOR
 10
2.3388
 20
-0.0046
 30
120.5698
 70
192
 0
VERTEX
 8
FULGOR
 10
2.3443
 20
-0.0046
 30
120.5911
 70
192
 0
VERTEX
 8
FULGOR
 10
2.2485
 20
-0.0046
 30
120.4895
 70
192
 0
VERTEX
 8
FULGOR
 10
2.342
 20
-0.0046
 30
120.6324
 70
192
 0
VERTEX
 8
FULGOR
 10
2.3328
 20
-0.0046
 30
120.6529
 70
192
 0
VERTEX
 8
FULGOR
 10
2.3186
 20
-0.0046
 30
120.6707
 70
192
 0
VERTEX
 8
FULGOR
 10
2.2952
 20
-0.0046
 30
120.6894
 70
192
 0
VERTEX
 8
FULGOR
 10
2.3295
 20
-0.0046
 30
120.5511
 70
192
 0
VERTEX
 8
FULGOR
 10
2.1818
 20
-0.0046
 30
120.729
 70
192
 0
VERTEX
 8
FULGOR
 10
2.1364
 20
-0.0046
 30
120.735
 70
192
 0
VERTEX
 8
FULGOR
 10
2.3455
 20
-0.0046
 30
120.609
 70
192
 0
VERTEX
 8
FULGOR
 10
1.9001
 20
-0.0046
 30
120.6481
 70
192
 0
VERTEX
 8
FULGOR
 10
2.2546
 20
-0.0046
 30
120.7096
 70
192
 0
VERTEX
 8
FULGOR
 10
2.092
 20
-0.0046
 30
120.7372
 70
192
 0
VERTEX
 8
FULGOR
 10
1.7453
 20
-0.0046
 30
120.7373
 70
192
 0
VERTEX
 8
FULGOR
 10
1.9001
 20
-0.0046
 30
120.5372
 70
192
 0
VERTEX
 8
FULGOR
 10
2.0412
 20
-0.0046
 30
120.537
 70
192
 0
VERTEX
 8
FULGOR
 10
2.0814
 20
-0.0046
 30
120.5403
 70
192
 0
VERTEX
 8
FULGOR
 10
2.1267
 20
-0.0046
 30
120.5566
 70
192
 0
VERTEX
 8
FULGOR
 10
2.1367
 20
-0.0046
 30
120.5647
 70
192
 0
VERTEX
 8
FULGOR
 10
2.1428
 20
-0.0046
 30
120.5725
 70
192
 0
VERTEX
 8
FULGOR
 10
2.1484
 20
-0.0046
 30
120.5998
 70
192
 0
VERTEX
 8
FULGOR
 10
2.1458
 20
-0.0046
 30
120.6096
 70
192
 0
VERTEX
 8
FULGOR
 10
2.0731
 20
-0.0046
 30
120.6463
 70
192
 0
VERTEX
 8
FULGOR
 10
2.1235
 20
-0.0046
 30
120.6324
 70
192
 0
VERTEX
 8
FULGOR
 10
2.0555
 20
-0.0046
 30
120.6478
 70
192
 0
VERTEX
 8
FULGOR
 10
2.1054
 20
-0.0046
 30
120.6399
 70
192
 0
VERTEX
 8
FULGOR
 10
2.091
 20
-0.0046
 30
120.6435
 70
192
 0
VERTEX
 8
FULGOR
 10
0.9723
 20
-0.0046
 30
120.2563
 70
192
 0
VERTEX
 8
FULGOR
 10
0.9113
 20
-0.0046
 30
120.2718
 70
192
 0
VERTEX
 8
FULGOR
 10
2.0365
 20
-0.0046
 30
120.6481
 70
192
 0
VERTEX
 8
FULGOR
 10
2.0334
 20
-0.0046
 30
120.7372
 70
192
 0
VERTEX
 8
FULGOR
 10
2.1406
 20
-0.0046
 30
120.618
 70
192
 0
VERTEX
 8
FULGOR
 10
2.1338
 20
-0.0046
 30
120.6251
 70
192
 0
VERTEX
 8
FULGOR
 10
2.1487
 20
-0.0046
 30
120.5903
 70
192
 0
VERTEX
 8
FULGOR
 10
2.1469
 20
-0.0046
 30
120.5813
 70
192
 0
VERTEX
 8
FULGOR
 10
1.9941
 20
-0.0046
 30
120.5371
 70
192
 0
VERTEX
 8
FULGOR
 10
2.2185
 20
-0.0046
 30
120.2439
 70
192
 0
VERTEX
 8
FULGOR
 10
2.2106
 20
-0.0046
 30
120.2549
 70
192
 0
VERTEX
 8
FULGOR
 10
0.1391
 20
-0.0046
 30
120.3448
 70
192
 0
VERTEX
 8
FULGOR
 10
2.1964
 20
-0.0046
 30
120.2745
 70
192
 0
VERTEX
 8
FULGOR
 10
2.1831
 20
-0.0046
 30
120.2928
 70
192
 0
VERTEX
 8
FULGOR
 10
0.1723
 20
-0.0046
 30
120.3406
 70
192
 0
VERTEX
 8
FULGOR
 10
1.7453
 20
-0.0046
 30
120.4478
 70
192
 0
VERTEX
 8
FULGOR
 10
2.1477
 20
-0.0046
 30
120.3418
 70
192
 0
VERTEX
 8
FULGOR
 10
2.1344
 20
-0.0046
 30
120.3602
 70
192
 0
VERTEX
 8
FULGOR
 10
0
 20
0
 30
0
 70
128
 71
5
 72
8
 73
7
 74
6
 0
VERTEX
 8
FULGOR
 10
0
 20
0
 30
0
 70
128
 71
8
 72
5
 73
4
 74
4
 0
VERTEX
 8
FULGOR
 10
0
 20
0
 30
0
 70
128
 71
13
 72
4
 73
15
 74
14
 0
VERTEX
 8
FULGOR
 10
0
 20
0
 30
0
 70
128
 71
13
 72
12
 73
2
 74
2
 0
VERTEX
 8
FULGOR
 10
0
 20
0
 30
0
 70
128
 71
8
 72
4
 73
13
 74
2
 0
VERTEX
 8
FULGOR
 10
0
 20
0
 30
0
 70
128
 71
16
 72
74
 73
73
 74
9
 0
VERTEX
 8
FULGOR
 10
0
 20
0
 30
0
 70
128
 71
73
 72
72
 73
10
 74
9
 0
VERTEX
 8
FULGOR
 10
0
 20
0
 30
0
 70
128
 71
72
 72
82
 73
11
 74
10
 0
VERTEX
 8
FULGOR
 10
0
 20
0
 30
0
 70
128
 71
82
 72
70
 73
18
 74
17
 0
VERTEX
 8
FULGOR
 10
0
 20
0
 30
0
 70
128
 71
70
 72
69
 73
20
 74
19
 0
VERTEX
 8
FULGOR
 10
0
 20
0
 30
0
 70
128
 71
69
 72
68
 73
27
 74
20
 0
VERTEX
 8
FULGOR
 10
0
 20
0
 30
0
 70
128
 71
68
 72
67
 73
29
 74
27
 0
VERTEX
 8
FULGOR
 10
0
 20
0
 30
0
 70
128
 71
67
 72
66
 73
30
 74
29
 0
VERTEX
 8
FULGOR
 10
0
 20
0
 30
0
 70
128
 71
66
 72
78
 73
31
 74
30
 0
VERTEX
 8
FULGOR
 10
0
 20
0
 30
0
 70
128
 71
78
 72
77
 73
32
 74
31
 0
VERTEX
 8
FULGOR
 10
0
 20
0
 30
0
 70
128
 71
32
 72
77
 73
76
 74
21
 0
VERTEX
 8
FULGOR
 10
0
 20
0
 30
0
 70
128
 71
76
 72
62
 73
21
 74
21
 0
VERTEX
 8
FULGOR
 10
0
 20
0
 30
0
 70
128
 71
62
 72
61
 73
22
 74
21
 0
VERTEX
 8
FULGOR
 10
0
 20
0
 30
0
 70
128
 71
61
 72
75
 73
22
 74
22
 0
VERTEX
 8
FULGOR
 10
0
 20
0
 30
0
 70
128
 71
75
 72
59
 73
23
 74
22
 0
VERTEX
 8
FULGOR
 10
0
 20
0
 30
0
 70
128
 71
23
 72
59
 73
71
 74
24
 0
VERTEX
 8
FULGOR
 10
0
 20
0
 30
0
 70
128
 71
24
 72
71
 73
65
 74
25
 0
VERTEX
 8
FULGOR
 10
0
 20
0
 30
0
 70
128
 71
65
 72
64
 73
25
 74
25
 0
VERTEX
 8
FULGOR
 10
0
 20
0
 30
0
 70
128
 71
64
 72
63
 73
26
 74
25
 0
VERTEX
 8
FULGOR
 10
0
 20
0
 30
0
 70
128
 71
63
 72
60
 73
26
 74
26
 0
VERTEX
 8
FULGOR
 10
0
 20
0
 30
0
 70
128
 71
60
 72
53
 73
34
 74
26
 0
VERTEX
 8
FULGOR
 10
0
 20
0
 30
0
 70
128
 71
53
 72
52
 73
34
 74
34
 0
VERTEX
 8
FULGOR
 10
0
 20
0
 30
0
 70
128
 71
52
 72
51
 73
28
 74
34
 0
VERTEX
 8
FULGOR
 10
0
 20
0
 30
0
 70
128
 71
51
 72
50
 73
35
 74
28
 0
VERTEX
 8
FULGOR
 10
0
 20
0
 30
0
 70
128
 71
50
 72
49
 73
36
 74
35
 0
VERTEX
 8
FULGOR
 10
0
 20
0
 30
0
 70
128
 71
36
 72
49
 73
48
 74
37
 0
VERTEX
 8
FULGOR
 10
0
 20
0
 30
0
 70
128
 71
37
 72
48
 73
47
 74
41
 0
VERTEX
 8
FULGOR
 10
0
 20
0
 30
0
 70
128
 71
33
 72
47
 73
46
 74
42
 0
VERTEX
 8
FULGOR
 10
0
 20
0
 30
0
 70
128
 71
42
 72
46
 73
45
 74
54
 0
VERTEX
 8
FULGOR
 10
0
 20
0
 30
0
 70
128
 71
55
 72
45
 73
44
 74
56
 0
VERTEX
 8
FULGOR
 10
0
 20
0
 30
0
 70
128
 71
44
 72
43
 73
38
 74
56
 0
VERTEX
 8
FULGOR
 10
0
 20
0
 30
0
 70
128
 71
43
 72
58
 73
39
 74
38
 0
VERTEX
 8
FULGOR
 10
0
 20
0
 30
0
 70
128
 71
58
 72
57
 73
40
 74
39
 0
VERTEX
 8
FULGOR
 10
0
 20
0
 30
0
 70
128
 71
45
 72
55
 73
54
 74
54
 0
VERTEX
 8
FULGOR
 10
0
 20
0
 30
0
 70
128
 71
47
 72
33
 73
41
 74
41
 0
VERTEX
 8
FULGOR
 10
0
 20
0
 30
0
 70
128
 71
70
 72
19
 73
18
 74
18
 0
VERTEX
 8
FULGOR
 10
0
 20
0
 30
0
 70
128
 71
82
 72
17
 73
11
 74
11
 0
VERTEX
 8
FULGOR
 10
0
 20
0
 30
0
 70
128
 71
83
 72
80
 73
79
 74
85
 0
VERTEX
 8
FULGOR
 10
0
 20
0
 30
0
 70
128
 71
79
 72
87
 73
86
 74
85
 0
VERTEX
 8
FULGOR
 10
0
 20
0
 30
0
 70
128
 71
244
 72
245
 73
188
 74
3
 0
VERTEX
 8
FULGOR
 10
0
 20
0
 30
0
 70
128
 71
137
 72
135
 73
127
 74
120
 0
VERTEX
 8
FULGOR
 10
0
 20
0
 30
0
 70
128
 71
287
 72
288
 73
220
 74
219
 0
VERTEX
 8
FULGOR
 10
0
 20
0
 30
0
 70
128
 71
135
 72
134
 73
128
 74
127
 0
VERTEX
 8
FULGOR
 10
0
 20
0
 30
0
 70
128
 71
145
 72
144
 73
106
 74
99
 0
VERTEX
 8
FULGOR
 10
0
 20
0
 30
0
 70
128
 71
152
 72
148
 73
115
 74
112
 0
VERTEX
 8
FULGOR
 10
0
 20
0
 30
0
 70
128
 71
288
 72
289
 73
221
 74
220
 0
VERTEX
 8
FULGOR
 10
0
 20
0
 30
0
 70
128
 71
155
 72
152
 73
112
 74
109
 0
VERTEX
 8
FULGOR
 10
0
 20
0
 30
0
 70
128
 71
141
 72
155
 73
109
 74
103
 0
VERTEX
 8
FULGOR
 10
0
 20
0
 30
0
 70
128
 71
289
 72
290
 73
230
 74
221
 0
VERTEX
 8
FULGOR
 10
0
 20
0
 30
0
 70
128
 71
290
 72
292
 73
223
 74
230
 0
VERTEX
 8
FULGOR
 10
0
 20
0
 30
0
 70
128
 71
142
 72
141
 73
103
 74
108
 0
VERTEX
 8
FULGOR
 10
0
 20
0
 30
0
 70
128
 71
143
 72
142
 73
108
 74
107
 0
VERTEX
 8
FULGOR
 10
0
 20
0
 30
0
 70
128
 71
144
 72
143
 73
107
 74
106
 0
VERTEX
 8
FULGOR
 10
0
 20
0
 30
0
 70
128
 71
254
 72
255
 73
207
 74
206
 0
VERTEX
 8
FULGOR
 10
0
 20
0
 30
0
 70
128
 71
265
 72
254
 73
206
 74
199
 0
VERTEX
 8
FULGOR
 10
0
 20
0
 30
0
 70
128
 71
263
 72
265
 73
199
 74
198
 0
VERTEX
 8
FULGOR
 10
0
 20
0
 30
0
 70
128
 71
251
 72
240
 73
179
 74
178
 0
VERTEX
 8
FULGOR
 10
0
 20
0
 30
0
 70
128
 71
237
 72
238
 73
185
 74
346
 0
VERTEX
 8
FULGOR
 10
0
 20
0
 30
0
 70
128
 71
339
 72
340
 73
321
 74
328
 0
VERTEX
 8
FULGOR
 10
0
 20
0
 30
0
 70
128
 71
161
 72
174
 73
84
 74
89
 0
VERTEX
 8
FULGOR
 10
0
 20
0
 30
0
 70
128
 71
174
 72
159
 73
90
 74
84
 0
VERTEX
 8
FULGOR
 10
0
 20
0
 30
0
 70
128
 71
249
 72
237
 73
346
 74
184
 0
VERTEX
 8
FULGOR
 10
0
 20
0
 30
0
 70
128
 71
248
 72
249
 73
184
 74
347
 0
VERTEX
 8
FULGOR
 10
0
 20
0
 30
0
 70
128
 71
159
 72
173
 73
95
 74
90
 0
VERTEX
 8
FULGOR
 10
0
 20
0
 30
0
 70
128
 71
173
 72
157
 73
96
 74
95
 0
VERTEX
 8
FULGOR
 10
0
 20
0
 30
0
 70
128
 71
246
 72
248
 73
347
 74
183
 0
VERTEX
 8
FULGOR
 10
0
 20
0
 30
0
 70
128
 71
362
 72
307
 73
305
 74
359
 0
VERTEX
 8
FULGOR
 10
0
 20
0
 30
0
 70
128
 71
151
 72
150
 73
94
 74
93
 0
VERTEX
 8
FULGOR
 10
0
 20
0
 30
0
 70
128
 71
353
 72
352
 73
319
 74
318
 0
VERTEX
 8
FULGOR
 10
0
 20
0
 30
0
 70
128
 71
175
 72
161
 73
89
 74
88
 0
VERTEX
 8
FULGOR
 10
0
 20
0
 30
0
 70
128
 71
253
 72
247
 73
190
 74
189
 0
VERTEX
 8
FULGOR
 10
0
 20
0
 30
0
 70
128
 71
153
 72
166
 73
92
 74
91
 0
VERTEX
 8
FULGOR
 10
0
 20
0
 30
0
 70
128
 71
166
 72
151
 73
93
 74
92
 0
VERTEX
 8
FULGOR
 10
0
 20
0
 30
0
 70
128
 71
273
 72
274
 73
226
 74
210
 0
VERTEX
 8
FULGOR
 10
0
 20
0
 30
0
 70
128
 71
163
 72
175
 73
88
 74
81
 0
VERTEX
 8
FULGOR
 10
0
 20
0
 30
0
 70
128
 71
167
 72
154
 73
101
 74
100
 0
VERTEX
 8
FULGOR
 10
0
 20
0
 30
0
 70
128
 71
154
 72
153
 73
91
 74
101
 0
VERTEX
 8
FULGOR
 10
0
 20
0
 30
0
 70
128
 71
274
 72
275
 73
227
 74
226
 0
VERTEX
 8
FULGOR
 10
0
 20
0
 30
0
 70
128
 71
275
 72
281
 73
228
 74
227
 0
VERTEX
 8
FULGOR
 10
0
 20
0
 30
0
 70
128
 71
157
 72
156
 73
97
 74
96
 0
VERTEX
 8
FULGOR
 10
0
 20
0
 30
0
 70
128
 71
291
 72
296
 73
333
 74
354
 0
VERTEX
 8
FULGOR
 10
0
 20
0
 30
0
 70
128
 71
281
 72
282
 73
229
 74
228
 0
VERTEX
 8
FULGOR
 10
0
 20
0
 30
0
 70
128
 71
282
 72
283
 73
215
 74
229
 0
VERTEX
 8
FULGOR
 10
0
 20
0
 30
0
 70
128
 71
283
 72
284
 73
216
 74
215
 0
VERTEX
 8
FULGOR
 10
0
 20
0
 30
0
 70
128
 71
129
 72
1
 73
118
 74
117
 0
VERTEX
 8
FULGOR
 10
0
 20
0
 30
0
 70
128
 71
238
 72
251
 73
178
 74
185
 0
VERTEX
 8
FULGOR
 10
0
 20
0
 30
0
 70
128
 71
245
 72
253
 73
189
 74
188
 0
VERTEX
 8
FULGOR
 10
0
 20
0
 30
0
 70
128
 71
337
 72
338
 73
325
 74
316
 0
VERTEX
 8
FULGOR
 10
0
 20
0
 30
0
 70
128
 71
336
 72
337
 73
316
 74
314
 0
VERTEX
 8
FULGOR
 10
0
 20
0
 30
0
 70
128
 71
241
 72
252
 73
311
 74
186
 0
VERTEX
 8
FULGOR
 10
0
 20
0
 30
0
 70
128
 71
156
 72
167
 73
100
 74
97
 0
VERTEX
 8
FULGOR
 10
0
 20
0
 30
0
 70
128
 71
149
 72
162
 73
104
 74
102
 0
VERTEX
 8
FULGOR
 10
0
 20
0
 30
0
 70
128
 71
162
 72
160
 73
105
 74
104
 0
VERTEX
 8
FULGOR
 10
0
 20
0
 30
0
 70
128
 71
266
 72
269
 73
196
 74
195
 0
VERTEX
 8
FULGOR
 10
0
 20
0
 30
0
 70
128
 71
360
 72
129
 73
117
 74
126
 0
VERTEX
 8
FULGOR
 10
0
 20
0
 30
0
 70
128
 71
134
 72
124
 73
131
 74
128
 0
VERTEX
 8
FULGOR
 10
0
 20
0
 30
0
 70
128
 71
334
 72
335
 73
320
 74
312
 0
VERTEX
 8
FULGOR
 10
0
 20
0
 30
0
 70
128
 71
308
 72
307
 73
362
 74
363
 0
VERTEX
 8
FULGOR
 10
0
 20
0
 30
0
 70
128
 71
139
 72
357
 73
114
 74
113
 0
VERTEX
 8
FULGOR
 10
0
 20
0
 30
0
 70
128
 71
305
 72
304
 73
358
 74
359
 0
VERTEX
 8
FULGOR
 10
0
 20
0
 30
0
 70
128
 71
335
 72
336
 73
314
 74
320
 0
VERTEX
 8
FULGOR
 10
0
 20
0
 30
0
 70
128
 71
355
 72
356
 73
313
 74
301
 0
VERTEX
 8
FULGOR
 10
0
 20
0
 30
0
 70
128
 71
301
 72
300
 73
299
 74
355
 0
VERTEX
 8
FULGOR
 10
0
 20
0
 30
0
 70
128
 71
352
 72
339
 73
328
 74
319
 0
VERTEX
 8
FULGOR
 10
0
 20
0
 30
0
 70
128
 71
343
 72
348
 73
349
 74
331
 0
VERTEX
 8
FULGOR
 10
0
 20
0
 30
0
 70
128
 71
342
 72
344
 73
330
 74
324
 0
VERTEX
 8
FULGOR
 10
0
 20
0
 30
0
 70
128
 71
262
 72
263
 73
198
 74
197
 0
VERTEX
 8
FULGOR
 10
0
 20
0
 30
0
 70
128
 71
303
 72
312
 73
317
 74
310
 0
VERTEX
 8
FULGOR
 10
0
 20
0
 30
0
 70
128
 71
250
 72
262
 73
197
 74
187
 0
VERTEX
 8
FULGOR
 10
0
 20
0
 30
0
 70
128
 71
291
 72
354
 73
334
 74
302
 0
VERTEX
 8
FULGOR
 10
0
 20
0
 30
0
 70
128
 71
341
 72
343
 73
331
 74
327
 0
VERTEX
 8
FULGOR
 10
0
 20
0
 30
0
 70
128
 71
150
 72
149
 73
102
 74
94
 0
VERTEX
 8
FULGOR
 10
0
 20
0
 30
0
 70
128
 71
1
 72
138
 73
119
 74
118
 0
VERTEX
 8
FULGOR
 10
0
 20
0
 30
0
 70
128
 71
338
 72
353
 73
318
 74
325
 0
VERTEX
 8
FULGOR
 10
0
 20
0
 30
0
 70
128
 71
280
 72
273
 73
210
 74
222
 0
VERTEX
 8
FULGOR
 10
0
 20
0
 30
0
 70
128
 71
285
 72
286
 73
218
 74
217
 0
VERTEX
 8
FULGOR
 10
0
 20
0
 30
0
 70
128
 71
160
 72
158
 73
98
 74
105
 0
VERTEX
 8
FULGOR
 10
0
 20
0
 30
0
 70
128
 71
138
 72
137
 73
120
 74
119
 0
VERTEX
 8
FULGOR
 10
0
 20
0
 30
0
 70
128
 71
286
 72
287
 73
219
 74
218
 0
VERTEX
 8
FULGOR
 10
0
 20
0
 30
0
 70
128
 71
261
 72
270
 73
211
 74
209
 0
VERTEX
 8
FULGOR
 10
0
 20
0
 30
0
 70
128
 71
348
 72
329
 73
332
 74
349
 0
VERTEX
 8
FULGOR
 10
0
 20
0
 30
0
 70
128
 71
329
 72
333
 73
306
 74
332
 0
VERTEX
 8
FULGOR
 10
0
 20
0
 30
0
 70
128
 71
333
 72
296
 73
361
 74
306
 0
VERTEX
 8
FULGOR
 10
0
 20
0
 30
0
 70
128
 71
296
 72
295
 73
294
 74
361
 0
VERTEX
 8
FULGOR
 10
0
 20
0
 30
0
 70
128
 71
358
 72
304
 73
313
 74
356
 0
VERTEX
 8
FULGOR
 10
0
 20
0
 30
0
 70
128
 71
148
 72
147
 73
116
 74
115
 0
VERTEX
 8
FULGOR
 10
0
 20
0
 30
0
 70
128
 71
158
 72
145
 73
99
 74
98
 0
VERTEX
 8
FULGOR
 10
0
 20
0
 30
0
 70
128
 71
260
 72
261
 73
209
 74
208
 0
VERTEX
 8
FULGOR
 10
0
 20
0
 30
0
 70
128
 71
269
 72
260
 73
208
 74
196
 0
VERTEX
 8
FULGOR
 10
0
 20
0
 30
0
 70
128
 71
276
 72
267
 73
204
 74
203
 0
VERTEX
 8
FULGOR
 10
0
 20
0
 30
0
 70
128
 71
232
 72
242
 73
182
 74
180
 0
VERTEX
 8
FULGOR
 10
0
 20
0
 30
0
 70
128
 71
242
 72
246
 73
183
 74
182
 0
VERTEX
 8
FULGOR
 10
0
 20
0
 30
0
 70
128
 71
272
 72
276
 73
203
 74
202
 0
VERTEX
 8
FULGOR
 10
0
 20
0
 30
0
 70
128
 71
264
 72
272
 73
202
 74
201
 0
VERTEX
 8
FULGOR
 10
0
 20
0
 30
0
 70
128
 71
240
 72
241
 73
186
 74
179
 0
VERTEX
 8
FULGOR
 10
0
 20
0
 30
0
 70
128
 71
147
 72
136
 73
121
 74
116
 0
VERTEX
 8
FULGOR
 10
0
 20
0
 30
0
 70
128
 71
340
 72
350
 73
322
 74
321
 0
VERTEX
 8
FULGOR
 10
0
 20
0
 30
0
 70
128
 71
303
 72
302
 73
334
 74
312
 0
VERTEX
 8
FULGOR
 10
0
 20
0
 30
0
 70
128
 71
345
 72
341
 73
327
 74
326
 0
VERTEX
 8
FULGOR
 10
0
 20
0
 30
0
 70
128
 71
252
 72
243
 73
181
 74
311
 0
VERTEX
 8
FULGOR
 10
0
 20
0
 30
0
 70
128
 71
344
 72
345
 73
326
 74
330
 0
VERTEX
 8
FULGOR
 10
0
 20
0
 30
0
 70
128
 71
231
 72
232
 73
180
 74
172
 0
VERTEX
 8
FULGOR
 10
0
 20
0
 30
0
 70
128
 71
257
 72
266
 73
195
 74
194
 0
VERTEX
 8
FULGOR
 10
0
 20
0
 30
0
 70
128
 71
256
 72
257
 73
194
 74
193
 0
VERTEX
 8
FULGOR
 10
0
 20
0
 30
0
 70
128
 71
297
 72
310
 73
317
 74
315
 0
VERTEX
 8
FULGOR
 10
0
 20
0
 30
0
 70
128
 71
357
 72
130
 73
125
 74
114
 0
VERTEX
 8
FULGOR
 10
0
 20
0
 30
0
 70
128
 71
255
 72
256
 73
193
 74
207
 0
VERTEX
 8
FULGOR
 10
0
 20
0
 30
0
 70
128
 71
298
 72
297
 73
315
 74
309
 0
VERTEX
 8
FULGOR
 10
0
 20
0
 30
0
 70
128
 71
298
 72
309
 73
308
 74
363
 0
VERTEX
 8
FULGOR
 10
0
 20
0
 30
0
 70
128
 71
243
 72
244
 73
3
 74
181
 0
VERTEX
 8
FULGOR
 10
0
 20
0
 30
0
 70
128
 71
259
 72
250
 73
187
 74
192
 0
VERTEX
 8
FULGOR
 10
0
 20
0
 30
0
 70
128
 71
279
 72
280
 73
222
 74
214
 0
VERTEX
 8
FULGOR
 10
0
 20
0
 30
0
 70
128
 71
278
 72
279
 73
214
 74
213
 0
VERTEX
 8
FULGOR
 10
0
 20
0
 30
0
 70
128
 71
258
 72
259
 73
192
 74
191
 0
VERTEX
 8
FULGOR
 10
0
 20
0
 30
0
 70
128
 71
247
 72
258
 73
191
 74
190
 0
VERTEX
 8
FULGOR
 10
0
 20
0
 30
0
 70
128
 71
351
 72
342
 73
324
 74
323
 0
VERTEX
 8
FULGOR
 10
0
 20
0
 30
0
 70
128
 71
350
 72
351
 73
323
 74
322
 0
VERTEX
 8
FULGOR
 10
0
 20
0
 30
0
 70
128
 71
284
 72
285
 73
217
 74
216
 0
VERTEX
 8
FULGOR
 10
0
 20
0
 30
0
 70
128
 71
136
 72
146
 73
122
 74
121
 0
VERTEX
 8
FULGOR
 10
0
 20
0
 30
0
 70
128
 71
146
 72
140
 73
110
 74
122
 0
VERTEX
 8
FULGOR
 10
0
 20
0
 30
0
 70
128
 71
130
 72
360
 73
126
 74
125
 0
VERTEX
 8
FULGOR
 10
0
 20
0
 30
0
 70
128
 71
140
 72
133
 73
111
 74
110
 0
VERTEX
 8
FULGOR
 10
0
 20
0
 30
0
 70
128
 71
133
 72
132
 73
123
 74
111
 0
VERTEX
 8
FULGOR
 10
0
 20
0
 30
0
 70
128
 71
132
 72
139
 73
113
 74
123
 0
VERTEX
 8
FULGOR
 10
0
 20
0
 30
0
 70
128
 71
292
 72
293
 73
164
 74
223
 0
VERTEX
 8
FULGOR
 10
0
 20
0
 30
0
 70
128
 71
293
 72
224
 73
165
 74
164
 0
VERTEX
 8
FULGOR
 10
0
 20
0
 30
0
 70
128
 71
224
 72
225
 73
176
 74
165
 0
VERTEX
 8
FULGOR
 10
0
 20
0
 30
0
 70
128
 71
225
 72
233
 73
177
 74
176
 0
VERTEX
 8
FULGOR
 10
0
 20
0
 30
0
 70
128
 71
233
 72
234
 73
168
 74
177
 0
VERTEX
 8
FULGOR
 10
0
 20
0
 30
0
 70
128
 71
234
 72
235
 73
169
 74
168
 0
VERTEX
 8
FULGOR
 10
0
 20
0
 30
0
 70
128
 71
235
 72
236
 73
170
 74
169
 0
VERTEX
 8
FULGOR
 10
0
 20
0
 30
0
 70
128
 71
236
 72
239
 73
171
 74
170
 0
VERTEX
 8
FULGOR
 10
0
 20
0
 30
0
 70
128
 71
239
 72
231
 73
172
 74
171
 0
VERTEX
 8
FULGOR
 10
0
 20
0
 30
0
 70
128
 71
213
 72
212
 73
277
 74
278
 0
VERTEX
 8
FULGOR
 10
0
 20
0
 30
0
 70
128
 71
212
 72
205
 73
268
 74
277
 0
VERTEX
 8
FULGOR
 10
0
 20
0
 30
0
 70
128
 71
267
 72
268
 73
205
 74
204
 0
VERTEX
 8
FULGOR
 10
0
 20
0
 30
0
 70
128
 71
270
 72
271
 73
200
 74
211
 0
VERTEX
 8
FULGOR
 10
0
 20
0
 30
0
 70
128
 71
271
 72
264
 73
201
 74
200
 0
SEQEND
 0
POLYLINE
 8
MILANO
 66
1
 10
0.0
 20
0.0
 30
0.0
 70
64
 71
93
 72
47
 0
VERTEX
 8
MILANO
 10
0.2468
 20
-0.0047
 30
119.901
 70
192
 0
VERTEX
 8
MILANO
 10
0.6788
 20
-0.0047
 30
119.7315
 70
192
 0
VERTEX
 8
MILANO
 10
0.6833
 20
-0.0047
 30
119.6925
 70
192
 0
VERTEX
 8
MILANO
 10
0.6997
 20
-0.0047
 30
119.6571
 70
192
 0
VERTEX
 8
MILANO
 10
0.7272
 20
-0.0047
 30
119.6294
 70
192
 0
VERTEX
 8
MILANO
 10
0.7614
 20
-0.0047
 30
119.6105
 70
192
 0
VERTEX
 8
MILANO
 10
0.7989
 20
-0.0047
 30
119.5995
 70
192
 0
VERTEX
 8
MILANO
 10
0.8377
 20
-0.0047
 30
119.5953
 70
192
 0
VERTEX
 8
MILANO
 10
0.5157
 20
-0.0047
 30
119.6472
 70
192
 0
VERTEX
 8
MILANO
 10
0.8767
 20
-0.0047
 30
119.5983
 70
192
 0
VERTEX
 8
MILANO
 10
0.9143
 20
-0.0047
 30
119.6087
 70
192
 0
VERTEX
 8
MILANO
 10
0.9483
 20
-0.0047
 30
119.6278
 70
192
 0
VERTEX
 8
MILANO
 10
0.0833
 20
-0.0047
 30
119.6696
 70
192
 0
VERTEX
 8
MILANO
 10
0.1447
 20
-0.0047
 30
119.5591
 70
192
 0
VERTEX
 8
MILANO
 10
0.1951
 20
-0.0047
 30
119.5591
 70
192
 0
VERTEX
 8
MILANO
 10
0.9749
 20
-0.0047
 30
119.6564
 70
192
 0
VERTEX
 8
MILANO
 10
0.9921
 20
-0.0047
 30
119.6915
 70
192
 0
VERTEX
 8
MILANO
 10
-0.195
 20
-0.0047
 30
119.5591
 70
192
 0
VERTEX
 8
MILANO
 10
-0.06
 20
-0.0047
 30
119.7076
 70
192
 0
VERTEX
 8
MILANO
 10
0.0627
 20
-0.0047
 30
119.7076
 70
192
 0
VERTEX
 8
MILANO
 10
0.9977
 20
-0.0047
 30
119.7302
 70
192
 0
VERTEX
 8
MILANO
 10
0.9927
 20
-0.0047
 30
119.7691
 70
192
 0
VERTEX
 8
MILANO
 10
0.9761
 20
-0.0047
 30
119.8045
 70
192
 0
VERTEX
 8
MILANO
 10
-0.3634
 20
-0.0047
 30
119.901
 70
192
 0
VERTEX
 8
MILANO
 10
-0.3634
 20
-0.0047
 30
119.5963
 70
192
 0
VERTEX
 8
MILANO
 10
0.9494
 20
-0.0047
 30
119.8329
 70
192
 0
VERTEX
 8
MILANO
 10
0.9153
 20
-0.0047
 30
119.852
 70
192
 0
VERTEX
 8
MILANO
 10
0.8777
 20
-0.0047
 30
119.8624
 70
192
 0
VERTEX
 8
MILANO
 10
-0.5348
 20
-0.0047
 30
119.901
 70
192
 0
VERTEX
 8
MILANO
 10
-0.4922
 20
-0.0047
 30
119.901
 70
192
 0
VERTEX
 8
MILANO
 10
-0.4922
 20
-0.0047
 30
119.5591
 70
192
 0
VERTEX
 8
MILANO
 10
-0.5348
 20
-0.0047
 30
119.5591
 70
192
 0
VERTEX
 8
MILANO
 10
-1.0466
 20
-0.0047
 30
119.5591
 70
192
 0
VERTEX
 8
MILANO
 10
-0.9936
 20
-0.0047
 30
119.9031
 70
192
 0
VERTEX
 8
MILANO
 10
-0.6709
 20
-0.0047
 30
119.9031
 70
192
 0
VERTEX
 8
MILANO
 10
-0.6551
 20
-0.0047
 30
119.9031
 70
192
 0
VERTEX
 8
MILANO
 10
-0.5992
 20
-0.0047
 30
119.5591
 70
192
 0
VERTEX
 8
MILANO
 10
-0.6454
 20
-0.0047
 30
119.5591
 70
192
 0
VERTEX
 8
MILANO
 10
-0.8326
 20
-0.0047
 30
119.5591
 70
192
 0
VERTEX
 8
MILANO
 10
-0.9675
 20
-0.0047
 30
119.7899
 70
192
 0
VERTEX
 8
MILANO
 10
-0.212
 20
-0.0047
 30
119.5963
 70
192
 0
VERTEX
 8
MILANO
 10
-0.212
 20
-0.0047
 30
119.5591
 70
192
 0
VERTEX
 8
MILANO
 10
-0.4053
 20
-0.0047
 30
119.5591
 70
192
 0
VERTEX
 8
MILANO
 10
-0.9833
 20
-0.0047
 30
119.9031
 70
192
 0
VERTEX
 8
MILANO
 10
-0.8241
 20
-0.0047
 30
119.6293
 70
192
 0
VERTEX
 8
MILANO
 10
-0.6824
 20
-0.0047
 30
119.7899
 70
192
 0
VERTEX
 8
MILANO
 10
-0.8119
 20
-0.0047
 30
119.5591
 70
192
 0
VERTEX
 8
MILANO
 10
-1.0009
 20
-0.0047
 30
119.5591
 70
192
 0
VERTEX
 8
MILANO
 10
0.8389
 20
-0.0047
 30
119.9068
 70
192
 0
VERTEX
 8
MILANO
 10
0.7879
 20
-0.0047
 30
119.904
 70
192
 0
VERTEX
 8
MILANO
 10
0.7384
 20
-0.0047
 30
119.8916
 70
192
 0
VERTEX
 8
MILANO
 10
0.6947
 20
-0.0047
 30
119.8655
 70
192
 0
VERTEX
 8
MILANO
 10
0.6596
 20
-0.0047
 30
119.8282
 70
192
 0
VERTEX
 8
MILANO
 10
0.6368
 20
-0.0047
 30
119.7825
 70
192
 0
VERTEX
 8
MILANO
 10
0.6297
 20
-0.0047
 30
119.7318
 70
192
 0
VERTEX
 8
MILANO
 10
0.6357
 20
-0.0047
 30
119.6809
 70
192
 0
VERTEX
 8
MILANO
 10
0.6571
 20
-0.0047
 30
119.6346
 70
192
 0
VERTEX
 8
MILANO
 10
0.6931
 20
-0.0047
 30
119.5983
 70
192
 0
VERTEX
 8
MILANO
 10
0.7378
 20
-0.0047
 30
119.5737
 70
192
 0
VERTEX
 8
MILANO
 10
0.7868
 20
-0.0047
 30
119.5593
 70
192
 0
VERTEX
 8
MILANO
 10
0.8376
 20
-0.0047
 30
119.5537
 70
192
 0
VERTEX
 8
MILANO
 10
0.8885
 20
-0.0047
 30
119.5576
 70
192
 0
VERTEX
 8
MILANO
 10
0.9377
 20
-0.0047
 30
119.5713
 70
192
 0
VERTEX
 8
MILANO
 10
0.9822
 20
-0.0047
 30
119.5963
 70
192
 0
VERTEX
 8
MILANO
 10
1.017
 20
-0.0047
 30
119.6336
 70
192
 0
VERTEX
 8
MILANO
 10
1.0395
 20
-0.0047
 30
119.6795
 70
192
 0
VERTEX
 8
MILANO
 10
1.0468
 20
-0.0047
 30
119.7302
 70
192
 0
VERTEX
 8
MILANO
 10
1.0402
 20
-0.0047
 30
119.781
 70
192
 0
VERTEX
 8
MILANO
 10
1.0186
 20
-0.0047
 30
119.8273
 70
192
 0
VERTEX
 8
MILANO
 10
0.9836
 20
-0.0047
 30
119.8645
 70
192
 0
VERTEX
 8
MILANO
 10
0.2468
 20
-0.0047
 30
119.5591
 70
192
 0
VERTEX
 8
MILANO
 10
0.2915
 20
-0.0047
 30
119.5591
 70
192
 0
VERTEX
 8
MILANO
 10
0.2915
 20
-0.0047
 30
119.8083
 70
192
 0
VERTEX
 8
MILANO
 10
0.5454
 20
-0.0047
 30
119.5591
 70
192
 0
VERTEX
 8
MILANO
 10
0.5599
 20
-0.0047
 30
119.5591
 70
192
 0
VERTEX
 8
MILANO
 10
0.5599
 20
-0.0047
 30
119.901
 70
192
 0
VERTEX
 8
MILANO
 10
0.5152
 20
-0.0047
 30
119.901
 70
192
 0
VERTEX
 8
MILANO
 10
0.9391
 20
-0.0047
 30
119.8894
 70
192
 0
VERTEX
 8
MILANO
 10
0.2634
 20
-0.0047
 30
119.901
 70
192
 0
VERTEX
 8
MILANO
 10
-0.1389
 20
-0.0047
 30
119.5591
 70
192
 0
VERTEX
 8
MILANO
 10
-0.082
 20
-0.0047
 30
119.6696
 70
192
 0
VERTEX
 8
MILANO
 10
0.8898
 20
-0.0047
 30
119.903
 70
192
 0
VERTEX
 8
MILANO
 10
0.8387
 20
-0.0047
 30
119.8652
 70
192
 0
VERTEX
 8
MILANO
 10
0.7997
 20
-0.0047
 30
119.8631
 70
192
 0
VERTEX
 8
MILANO
 10
0.0082
 20
-0.0047
 30
119.901
 70
192
 0
VERTEX
 8
MILANO
 10
-0.0062
 20
-0.0047
 30
119.901
 70
192
 0
VERTEX
 8
MILANO
 10
0.7619
 20
-0.0047
 30
119.8536
 70
192
 0
VERTEX
 8
MILANO
 10
0.7285
 20
-0.0047
 30
119.8337
 70
192
 0
VERTEX
 8
MILANO
 10
0.7016
 20
-0.0047
 30
119.8052
 70
192
 0
VERTEX
 8
MILANO
 10
0.0057
 20
-0.0047
 30
119.817
 70
192
 0
VERTEX
 8
MILANO
 10
-0.0043
 20
-0.0047
 30
119.817
 70
192
 0
VERTEX
 8
MILANO
 10
-0.409
 20
-0.0047
 30
119.901
 70
192
 0
VERTEX
 8
MILANO
 10
0.6842
 20
-0.0047
 30
119.7702
 70
192
 0
VERTEX
 8
MILANO
 10
0
 20
0
 30
0
 70
128
 71
1
 72
79
 73
73
 74
73
 0
VERTEX
 8
MILANO
 10
0
 20
0
 30
0
 70
128
 71
73
 72
79
 73
9
 74
74
 0
VERTEX
 8
MILANO
 10
0
 20
0
 30
0
 70
128
 71
76
 72
75
 73
9
 74
77
 0
VERTEX
 8
MILANO
 10
0
 20
0
 30
0
 70
128
 71
9
 72
75
 73
74
 74
74
 0
VERTEX
 8
MILANO
 10
0
 20
0
 30
0
 70
128
 71
71
 72
1
 73
73
 74
72
 0
VERTEX
 8
MILANO
 10
0
 20
0
 30
0
 70
128
 71
80
 72
18
 73
81
 74
81
 0
VERTEX
 8
MILANO
 10
0
 20
0
 30
0
 70
128
 71
18
 72
86
 73
19
 74
81
 0
VERTEX
 8
MILANO
 10
0
 20
0
 30
0
 70
128
 71
86
 72
85
 73
90
 74
91
 0
VERTEX
 8
MILANO
 10
0
 20
0
 30
0
 70
128
 71
85
 72
15
 73
20
 74
90
 0
VERTEX
 8
MILANO
 10
0
 20
0
 30
0
 70
128
 71
15
 72
14
 73
13
 74
13
 0
VERTEX
 8
MILANO
 10
0
 20
0
 30
0
 70
128
 71
13
 72
81
 73
19
 74
20
 0
VERTEX
 8
MILANO
 10
0
 20
0
 30
0
 70
128
 71
86
 72
91
 73
19
 74
19
 0
VERTEX
 8
MILANO
 10
0
 20
0
 30
0
 70
128
 71
15
 72
13
 73
20
 74
20
 0
VERTEX
 8
MILANO
 10
0
 20
0
 30
0
 70
128
 71
92
 72
24
 73
25
 74
43
 0
VERTEX
 8
MILANO
 10
0
 20
0
 30
0
 70
128
 71
25
 72
41
 73
42
 74
43
 0
VERTEX
 8
MILANO
 10
0
 20
0
 30
0
 70
128
 71
33
 72
34
 73
40
 74
48
 0
VERTEX
 8
MILANO
 10
0
 20
0
 30
0
 70
128
 71
34
 72
44
 73
40
 74
40
 0
VERTEX
 8
MILANO
 10
0
 20
0
 30
0
 70
128
 71
40
 72
44
 73
45
 74
39
 0
VERTEX
 8
MILANO
 10
0
 20
0
 30
0
 70
128
 71
45
 72
35
 73
46
 74
47
 0
VERTEX
 8
MILANO
 10
0
 20
0
 30
0
 70
128
 71
35
 72
36
 73
46
 74
46
 0
VERTEX
 8
MILANO
 10
0
 20
0
 30
0
 70
128
 71
46
 72
36
 73
37
 74
38
 0
VERTEX
 8
MILANO
 10
0
 20
0
 30
0
 70
128
 71
45
 72
47
 73
39
 74
39
 0
VERTEX
 8
MILANO
 10
0
 20
0
 30
0
 70
128
 71
29
 72
30
 73
31
 74
32
 0
VERTEX
 8
MILANO
 10
0
 20
0
 30
0
 70
128
 71
50
 72
49
 73
83
 74
84
 0
VERTEX
 8
MILANO
 10
0
 20
0
 30
0
 70
128
 71
51
 72
50
 73
84
 74
87
 0
VERTEX
 8
MILANO
 10
0
 20
0
 30
0
 70
128
 71
5
 72
6
 73
59
 74
58
 0
VERTEX
 8
MILANO
 10
0
 20
0
 30
0
 70
128
 71
28
 72
83
 73
49
 74
82
 0
VERTEX
 8
MILANO
 10
0
 20
0
 30
0
 70
128
 71
27
 72
28
 73
82
 74
78
 0
VERTEX
 8
MILANO
 10
0
 20
0
 30
0
 70
128
 71
26
 72
27
 73
78
 74
70
 0
VERTEX
 8
MILANO
 10
0
 20
0
 30
0
 70
128
 71
23
 72
26
 73
70
 74
69
 0
VERTEX
 8
MILANO
 10
0
 20
0
 30
0
 70
128
 71
6
 72
7
 73
60
 74
59
 0
VERTEX
 8
MILANO
 10
0
 20
0
 30
0
 70
128
 71
7
 72
8
 73
61
 74
60
 0
VERTEX
 8
MILANO
 10
0
 20
0
 30
0
 70
128
 71
22
 72
23
 73
69
 74
68
 0
VERTEX
 8
MILANO
 10
0
 20
0
 30
0
 70
128
 71
21
 72
22
 73
68
 74
67
 0
VERTEX
 8
MILANO
 10
0
 20
0
 30
0
 70
128
 71
17
 72
21
 73
67
 74
66
 0
VERTEX
 8
MILANO
 10
0
 20
0
 30
0
 70
128
 71
16
 72
17
 73
66
 74
65
 0
VERTEX
 8
MILANO
 10
0
 20
0
 30
0
 70
128
 71
12
 72
16
 73
65
 74
64
 0
VERTEX
 8
MILANO
 10
0
 20
0
 30
0
 70
128
 71
11
 72
12
 73
64
 74
63
 0
VERTEX
 8
MILANO
 10
0
 20
0
 30
0
 70
128
 71
10
 72
11
 73
63
 74
62
 0
VERTEX
 8
MILANO
 10
0
 20
0
 30
0
 70
128
 71
4
 72
5
 73
58
 74
57
 0
VERTEX
 8
MILANO
 10
0
 20
0
 30
0
 70
128
 71
57
 72
56
 73
3
 74
4
 0
VERTEX
 8
MILANO
 10
0
 20
0
 30
0
 70
128
 71
56
 72
55
 73
2
 74
3
 0
VERTEX
 8
MILANO
 10
0
 20
0
 30
0
 70
128
 71
55
 72
54
 73
93
 74
2
 0
VERTEX
 8
MILANO
 10
0
 20
0
 30
0
 70
128
 71
54
 72
53
 73
89
 74
93
 0
VERTEX
 8
MILANO
 10
0
 20
0
 30
0
 70
128
 71
53
 72
52
 73
88
 74
89
 0
VERTEX
 8
MILANO
 10
0
 20
0
 30
0
 70
128
 71
52
 72
51
 73
87
 74
88
 0
VERTEX
 8
MILANO
 10
0
 20
0
 30
0
 70
128
 71
8
 72
10
 73
62
 74
61
 0
SEQEND
 0
POLYLINE
 8
VETRO_ANTA
 66
1
 10
0.0
 20
0.0
 30
0.0
 70
64
 71
32
 72
32
 0
VERTEX
 8
VETRO_ANTA
 10
29.6
 20
0.4002
 30
116.0041
 70
192
 0
VERTEX
 8
VETRO_ANTA
 10
29.6
 20
0.4002
 30
148.0842
 70
192
 0
VERTEX
 8
VETRO_ANTA
 10
-29.6
 20
0.4002
 30
116.0041
 70
192
 0
VERTEX
 8
VETRO_ANTA
 10
-29.6
 20
0.4002
 30
148.0842
 70
192
 0
VERTEX
 8
VETRO_ANTA
 10
-29.6
 20
0.0002
 30
116.0041
 70
192
 0
VERTEX
 8
VETRO_ANTA
 10
-29.6
 20
0.0002
 30
148.0842
 70
192
 0
VERTEX
 8
VETRO_ANTA
 10
29.6
 20
0.0002
 30
116.0041
 70
192
 0
VERTEX
 8
VETRO_ANTA
 10
29.6
 20
0.0002
 30
148.0842
 70
192
 0
VERTEX
 8
VETRO_ANTA
 10
18.5001
 20
0.4002
 30
148.0842
 70
192
 0
VERTEX
 8
VETRO_ANTA
 10
18.5001
 20
0.4002
 30
116.0041
 70
192
 0
VERTEX
 8
VETRO_ANTA
 10
18.5001
 20
0.0002
 30
148.0842
 70
192
 0
VERTEX
 8
VETRO_ANTA
 10
18.5001
 20
0.0002
 30
116.0041
 70
192
 0
VERTEX
 8
VETRO_ANTA
 10
29.6
 20
0.4002
 30
138.5042
 70
192
 0
VERTEX
 8
VETRO_ANTA
 10
18.5001
 20
0.4002
 30
138.5042
 70
192
 0
VERTEX
 8
VETRO_ANTA
 10
-29.6
 20
0.4002
 30
138.5042
 70
192
 0
VERTEX
 8
VETRO_ANTA
 10
-29.6
 20
0.0002
 30
138.5042
 70
192
 0
VERTEX
 8
VETRO_ANTA
 10
18.5001
 20
0.0002
 30
138.5042
 70
192
 0
VERTEX
 8
VETRO_ANTA
 10
29.6
 20
0.0002
 30
138.5042
 70
192
 0
VERTEX
 8
VETRO_ANTA
 10
-18.5
 20
0.0002
 30
138.5042
 70
192
 0
VERTEX
 8
VETRO_ANTA
 10
-18.5
 20
0.0002
 30
116.0041
 70
192
 0
VERTEX
 8
VETRO_ANTA
 10
-18.5
 20
0.4002
 30
148.0842
 70
192
 0
VERTEX
 8
VETRO_ANTA
 10
-18.5
 20
0.4002
 30
138.5042
 70
192
 0
VERTEX
 8
VETRO_ANTA
 10
-18.5
 20
0.0002
 30
148.0842
 70
192
 0
VERTEX
 8
VETRO_ANTA
 10
-18.5
 20
0.4002
 30
116.0041
 70
192
 0
VERTEX
 8
VETRO_ANTA
 10
29.6
 20
0.4002
 30
124.3041
 70
192
 0
VERTEX
 8
VETRO_ANTA
 10
18.5001
 20
0.4002
 30
124.3041
 70
192
 0
VERTEX
 8
VETRO_ANTA
 10
-29.6
 20
0.4002
 30
124.3041
 70
192
 0
VERTEX
 8
VETRO_ANTA
 10
-29.6
 20
0.0002
 30
124.3041
 70
192
 0
VERTEX
 8
VETRO_ANTA
 10
-18.5
 20
0.0002
 30
124.3041
 70
192
 0
VERTEX
 8
VETRO_ANTA
 10
29.6
 20
0.0002
 30
124.3041
 70
192
 0
VERTEX
 8
VETRO_ANTA
 10
-18.5
 20
0.4002
 30
124.3041
 70
192
 0
VERTEX
 8
VETRO_ANTA
 10
18.5001
 20
0.0002
 30
124.3041
 70
192
 0
VERTEX
 8
VETRO_ANTA
 10
0
 20
0
 30
0
 70
128
 71
1
 72
25
 73
26
 74
10
 0
VERTEX
 8
VETRO_ANTA
 10
0
 20
0
 30
0
 70
128
 71
3
 72
27
 73
28
 74
5
 0
VERTEX
 8
VETRO_ANTA
 10
0
 20
0
 30
0
 70
128
 71
5
 72
28
 73
29
 74
20
 0
VERTEX
 8
VETRO_ANTA
 10
0
 20
0
 30
0
 70
128
 71
7
 72
30
 73
25
 74
1
 0
VERTEX
 8
VETRO_ANTA
 10
0
 20
0
 30
0
 70
128
 71
2
 72
8
 73
11
 74
9
 0
VERTEX
 8
VETRO_ANTA
 10
0
 20
0
 30
0
 70
128
 71
7
 72
1
 73
10
 74
12
 0
VERTEX
 8
VETRO_ANTA
 10
0
 20
0
 30
0
 70
128
 71
9
 72
21
 73
22
 74
14
 0
VERTEX
 8
VETRO_ANTA
 10
0
 20
0
 30
0
 70
128
 71
11
 72
8
 73
18
 74
17
 0
VERTEX
 8
VETRO_ANTA
 10
0
 20
0
 30
0
 70
128
 71
11
 72
23
 73
21
 74
9
 0
VERTEX
 8
VETRO_ANTA
 10
0
 20
0
 30
0
 70
128
 71
10
 72
24
 73
20
 74
12
 0
VERTEX
 8
VETRO_ANTA
 10
0
 20
0
 30
0
 70
128
 71
13
 72
2
 73
9
 74
14
 0
VERTEX
 8
VETRO_ANTA
 10
0
 20
0
 30
0
 70
128
 71
15
 72
4
 73
6
 74
16
 0
VERTEX
 8
VETRO_ANTA
 10
0
 20
0
 30
0
 70
128
 71
16
 72
6
 73
23
 74
19
 0
VERTEX
 8
VETRO_ANTA
 10
0
 20
0
 30
0
 70
128
 71
18
 72
8
 73
2
 74
13
 0
VERTEX
 8
VETRO_ANTA
 10
0
 20
0
 30
0
 70
128
 71
15
 72
27
 73
31
 74
22
 0
VERTEX
 8
VETRO_ANTA
 10
0
 20
0
 30
0
 70
128
 71
18
 72
30
 73
32
 74
17
 0
VERTEX
 8
VETRO_ANTA
 10
0
 20
0
 30
0
 70
128
 71
32
 72
12
 73
20
 74
29
 0
VERTEX
 8
VETRO_ANTA
 10
0
 20
0
 30
0
 70
128
 71
21
 72
4
 73
15
 74
22
 0
VERTEX
 8
VETRO_ANTA
 10
0
 20
0
 30
0
 70
128
 71
23
 72
6
 73
4
 74
21
 0
VERTEX
 8
VETRO_ANTA
 10
0
 20
0
 30
0
 70
128
 71
24
 72
3
 73
5
 74
20
 0
VERTEX
 8
VETRO_ANTA
 10
0
 20
0
 30
0
 70
128
 71
23
 72
11
 73
17
 74
19
 0
VERTEX
 8
VETRO_ANTA
 10
0
 20
0
 30
0
 70
128
 71
24
 72
10
 73
26
 74
31
 0
VERTEX
 8
VETRO_ANTA
 10
0
 20
0
 30
0
 70
128
 71
25
 72
13
 73
14
 74
26
 0
VERTEX
 8
VETRO_ANTA
 10
0
 20
0
 30
0
 70
128
 71
27
 72
15
 73
16
 74
28
 0
VERTEX
 8
VETRO_ANTA
 10
0
 20
0
 30
0
 70
128
 71
28
 72
16
 73
19
 74
29
 0
VERTEX
 8
VETRO_ANTA
 10
0
 20
0
 30
0
 70
128
 71
30
 72
18
 73
13
 74
25
 0
VERTEX
 8
VETRO_ANTA
 10
0
 20
0
 30
0
 70
128
 71
27
 72
3
 73
24
 74
31
 0
VERTEX
 8
VETRO_ANTA
 10
0
 20
0
 30
0
 70
128
 71
30
 72
7
 73
12
 74
32
 0
VERTEX
 8
VETRO_ANTA
 10
0
 20
0
 30
0
 70
128
 71
29
 72
19
 73
22
 74
31
 0
VERTEX
 8
VETRO_ANTA
 10
0
 20
0
 30
0
 70
128
 71
32
 72
29
 73
31
 74
26
 0
VERTEX
 8
VETRO_ANTA
 10
0
 20
0
 30
0
 70
128
 71
19
 72
17
 73
14
 74
22
 0
VERTEX
 8
VETRO_ANTA
 10
0
 20
0
 30
0
 70
128
 71
17
 72
32
 73
26
 74
14
 0
SEQEND
 0
POLYLINE
 8
VETRO_ANTA_1
 66
1
 10
0.0
 20
0.0
 30
0.0
 70
64
 71
8
 72
6
 0
VERTEX
 8
VETRO_ANTA_1
 10
18.5001
 20
0.4002
 30
138.5042
 70
192
 0
VERTEX
 8
VETRO_ANTA_1
 10
18.5001
 20
0.0002
 30
138.5042
 70
192
 0
VERTEX
 8
VETRO_ANTA_1
 10
-18.5
 20
0.0002
 30
138.5042
 70
192
 0
VERTEX
 8
VETRO_ANTA_1
 10
-18.5
 20
0.4002
 30
138.5042
 70
192
 0
VERTEX
 8
VETRO_ANTA_1
 10
18.5001
 20
0.4002
 30
124.3041
 70
192
 0
VERTEX
 8
VETRO_ANTA_1
 10
-18.5
 20
0.0002
 30
124.3041
 70
192
 0
VERTEX
 8
VETRO_ANTA_1
 10
-18.5
 20
0.4002
 30
124.3041
 70
192
 0
VERTEX
 8
VETRO_ANTA_1
 10
18.5001
 20
0.0002
 30
124.3041
 70
192
 0
VERTEX
 8
VETRO_ANTA_1
 10
0
 20
0
 30
0
 70
128
 71
3
 72
2
 73
8
 74
6
 0
VERTEX
 8
VETRO_ANTA_1
 10
0
 20
0
 30
0
 70
128
 71
5
 72
1
 73
4
 74
7
 0
VERTEX
 8
VETRO_ANTA_1
 10
0
 20
0
 30
0
 70
128
 71
1
 72
5
 73
8
 74
2
 0
VERTEX
 8
VETRO_ANTA_1
 10
0
 20
0
 30
0
 70
128
 71
5
 72
7
 73
6
 74
8
 0
VERTEX
 8
VETRO_ANTA_1
 10
0
 20
0
 30
0
 70
128
 71
3
 72
6
 73
7
 74
4
 0
VERTEX
 8
VETRO_ANTA_1
 10
0
 20
0
 30
0
 70
128
 71
4
 72
1
 73
2
 74
3
 0
SEQEND
 0
POLYLINE
 8
CUBO
 66
1
 10
0.0
 20
0.0
 30
0.0
 70
64
 71
8
 72
6
 0
VERTEX
 8
CUBO
 10
14.9999
 20
0.0002
 30
148.0841
 70
192
 0
VERTEX
 8
CUBO
 10
14.9999
 20
-0.3998
 30
148.0841
 70
192
 0
VERTEX
 8
CUBO
 10
-15.0001
 20
0.0002
 30
148.0841
 70
192
 0
VERTEX
 8
CUBO
 10
-15.0001
 20
-0.3998
 30
148.0841
 70
192
 0
VERTEX
 8
CUBO
 10
-15.0001
 20
0.0002
 30
144.0841
 70
192
 0
VERTEX
 8
CUBO
 10
-15.0001
 20
-0.3998
 30
144.0841
 70
192
 0
VERTEX
 8
CUBO
 10
14.9999
 20
0.0002
 30
144.0841
 70
192
 0
VERTEX
 8
CUBO
 10
14.9999
 20
-0.3998
 30
144.0841
 70
192
 0
VERTEX
 8
CUBO
 10
0
 20
0
 30
0
 70
128
 71
1
 72
2
 73
4
 74
3
 0
VERTEX
 8
CUBO
 10
0
 20
0
 30
0
 70
128
 71
3
 72
4
 73
6
 74
5
 0
VERTEX
 8
CUBO
 10
0
 20
0
 30
0
 70
128
 71
5
 72
6
 73
8
 74
7
 0
VERTEX
 8
CUBO
 10
0
 20
0
 30
0
 70
128
 71
7
 72
8
 73
2
 74
1
 0
VERTEX
 8
CUBO
 10
0
 20
0
 30
0
 70
128
 71
2
 72
8
 73
6
 74
4
 0
VERTEX
 8
CUBO
 10
0
 20
0
 30
0
 70
128
 71
7
 72
1
 73
3
 74
5
 0
SEQEND
 0
POLYLINE
 8
SUPPORTO_MANIGLIA_DUPLICATORE
 66
1
 10
0.0
 20
0.0
 30
0.0
 70
64
 71
174
 72
126
 0
VERTEX
 8
SUPPORTO_MANIGLIA_DUPLICATORE
 10
11.2001
 20
-3.9997
 30
145.084
 70
192
 0
VERTEX
 8
SUPPORTO_MANIGLIA_DUPLICATORE
 10
15
 20
-3.9997
 30
145.084
 70
192
 0
VERTEX
 8
SUPPORTO_MANIGLIA_DUPLICATORE
 10
11.2001
 20
-3.9997
 30
146.0845
 70
192
 0
VERTEX
 8
SUPPORTO_MANIGLIA_DUPLICATORE
 10
11.2001
 20
-3.9997
 30
146.0845
 70
192
 0
VERTEX
 8
SUPPORTO_MANIGLIA_DUPLICATORE
 10
15
 20
-3.9997
 30
146.0845
 70
192
 0
VERTEX
 8
SUPPORTO_MANIGLIA_DUPLICATORE
 10
15
 20
-3.9997
 30
146.0845
 70
192
 0
VERTEX
 8
SUPPORTO_MANIGLIA_DUPLICATORE
 10
11.2001
 20
-4.0869
 30
146.0807
 70
192
 0
VERTEX
 8
SUPPORTO_MANIGLIA_DUPLICATORE
 10
11.2001
 20
-4.0869
 30
146.0807
 70
192
 0
VERTEX
 8
SUPPORTO_MANIGLIA_DUPLICATORE
 10
15
 20
-4.0869
 30
146.0807
 70
192
 0
VERTEX
 8
SUPPORTO_MANIGLIA_DUPLICATORE
 10
15
 20
-4.0869
 30
146.0807
 70
192
 0
VERTEX
 8
SUPPORTO_MANIGLIA_DUPLICATORE
 10
11.2001
 20
-4.1735
 30
146.0693
 70
192
 0
VERTEX
 8
SUPPORTO_MANIGLIA_DUPLICATORE
 10
11.2001
 20
-4.1735
 30
146.0693
 70
192
 0
VERTEX
 8
SUPPORTO_MANIGLIA_DUPLICATORE
 10
15
 20
-4.1735
 30
146.0693
 70
192
 0
VERTEX
 8
SUPPORTO_MANIGLIA_DUPLICATORE
 10
15
 20
-4.1735
 30
146.0693
 70
192
 0
VERTEX
 8
SUPPORTO_MANIGLIA_DUPLICATORE
 10
11.2001
 20
-4.2587
 30
146.0504
 70
192
 0
VERTEX
 8
SUPPORTO_MANIGLIA_DUPLICATORE
 10
11.2001
 20
-4.2587
 30
146.0504
 70
192
 0
VERTEX
 8
SUPPORTO_MANIGLIA_DUPLICATORE
 10
15
 20
-4.2587
 30
146.0504
 70
192
 0
VERTEX
 8
SUPPORTO_MANIGLIA_DUPLICATORE
 10
15
 20
-4.2587
 30
146.0504
 70
192
 0
VERTEX
 8
SUPPORTO_MANIGLIA_DUPLICATORE
 10
11.2001
 20
-4.3419
 30
146.0241
 70
192
 0
VERTEX
 8
SUPPORTO_MANIGLIA_DUPLICATORE
 10
11.2001
 20
-4.3419
 30
146.0241
 70
192
 0
VERTEX
 8
SUPPORTO_MANIGLIA_DUPLICATORE
 10
15
 20
-4.3419
 30
146.0241
 70
192
 0
VERTEX
 8
SUPPORTO_MANIGLIA_DUPLICATORE
 10
15
 20
-4.3419
 30
146.0241
 70
192
 0
VERTEX
 8
SUPPORTO_MANIGLIA_DUPLICATORE
 10
11.2001
 20
-4.4226
 30
145.9907
 70
192
 0
VERTEX
 8
SUPPORTO_MANIGLIA_DUPLICATORE
 10
11.2001
 20
-4.4226
 30
145.9907
 70
192
 0
VERTEX
 8
SUPPORTO_MANIGLIA_DUPLICATORE
 10
15
 20
-4.4226
 30
145.9907
 70
192
 0
VERTEX
 8
SUPPORTO_MANIGLIA_DUPLICATORE
 10
15
 20
-4.4226
 30
145.9907
 70
192
 0
VERTEX
 8
SUPPORTO_MANIGLIA_DUPLICATORE
 10
11.2001
 20
-4.5
 30
145.9504
 70
192
 0
VERTEX
 8
SUPPORTO_MANIGLIA_DUPLICATORE
 10
11.2001
 20
-4.5
 30
145.9504
 70
192
 0
VERTEX
 8
SUPPORTO_MANIGLIA_DUPLICATORE
 10
15
 20
-4.5
 30
145.9504
 70
192
 0
VERTEX
 8
SUPPORTO_MANIGLIA_DUPLICATORE
 10
15
 20
-4.5
 30
145.9504
 70
192
 0
VERTEX
 8
SUPPORTO_MANIGLIA_DUPLICATORE
 10
11.2001
 20
-4.5736
 30
145.9035
 70
192
 0
VERTEX
 8
SUPPORTO_MANIGLIA_DUPLICATORE
 10
11.2001
 20
-4.5736
 30
145.9035
 70
192
 0
VERTEX
 8
SUPPORTO_MANIGLIA_DUPLICATORE
 10
15
 20
-4.5736
 30
145.9035
 70
192
 0
VERTEX
 8
SUPPORTO_MANIGLIA_DUPLICATORE
 10
15
 20
-4.5736
 30
145.9035
 70
192
 0
VERTEX
 8
SUPPORTO_MANIGLIA_DUPLICATORE
 10
11.2001
 20
-4.6429
 30
145.8504
 70
192
 0
VERTEX
 8
SUPPORTO_MANIGLIA_DUPLICATORE
 10
11.2001
 20
-4.6429
 30
145.8504
 70
192
 0
VERTEX
 8
SUPPORTO_MANIGLIA_DUPLICATORE
 10
15
 20
-4.6429
 30
145.8504
 70
192
 0
VERTEX
 8
SUPPORTO_MANIGLIA_DUPLICATORE
 10
15
 20
-4.6429
 30
145.8504
 70
192
 0
VERTEX
 8
SUPPORTO_MANIGLIA_DUPLICATORE
 10
11.2001
 20
-4.7072
 30
145.7914
 70
192
 0
VERTEX
 8
SUPPORTO_MANIGLIA_DUPLICATORE
 10
11.2001
 20
-4.7072
 30
145.7914
 70
192
 0
VERTEX
 8
SUPPORTO_MANIGLIA_DUPLICATORE
 10
15
 20
-4.7072
 30
145.7914
 70
192
 0
VERTEX
 8
SUPPORTO_MANIGLIA_DUPLICATORE
 10
15
 20
-4.7072
 30
145.7914
 70
192
 0
VERTEX
 8
SUPPORTO_MANIGLIA_DUPLICATORE
 10
11.2001
 20
-4.7662
 30
145.7271
 70
192
 0
VERTEX
 8
SUPPORTO_MANIGLIA_DUPLICATORE
 10
11.2001
 20
-4.7662
 30
145.7271
 70
192
 0
VERTEX
 8
SUPPORTO_MANIGLIA_DUPLICATORE
 10
15
 20
-4.7662
 30
145.7271
 70
192
 0
VERTEX
 8
SUPPORTO_MANIGLIA_DUPLICATORE
 10
15
 20
-4.7662
 30
145.7271
 70
192
 0
VERTEX
 8
SUPPORTO_MANIGLIA_DUPLICATORE
 10
11.2001
 20
-4.8193
 30
145.6578
 70
192
 0
VERTEX
 8
SUPPORTO_MANIGLIA_DUPLICATORE
 10
11.2001
 20
-4.8193
 30
145.6578
 70
192
 0
VERTEX
 8
SUPPORTO_MANIGLIA_DUPLICATORE
 10
15
 20
-4.8193
 30
145.6578
 70
192
 0
VERTEX
 8
SUPPORTO_MANIGLIA_DUPLICATORE
 10
15
 20
-4.8193
 30
145.6578
 70
192
 0
VERTEX
 8
SUPPORTO_MANIGLIA_DUPLICATORE
 10
11.2001
 20
-4.8662
 30
145.5842
 70
192
 0
VERTEX
 8
SUPPORTO_MANIGLIA_DUPLICATORE
 10
11.2001
 20
-4.8662
 30
145.5842
 70
192
 0
VERTEX
 8
SUPPORTO_MANIGLIA_DUPLICATORE
 10
15
 20
-4.8662
 30
145.5842
 70
192
 0
VERTEX
 8
SUPPORTO_MANIGLIA_DUPLICATORE
 10
15
 20
-4.8662
 30
145.5842
 70
192
 0
VERTEX
 8
SUPPORTO_MANIGLIA_DUPLICATORE
 10
11.2001
 20
-4.9065
 30
145.5068
 70
192
 0
VERTEX
 8
SUPPORTO_MANIGLIA_DUPLICATORE
 10
11.2001
 20
-4.9065
 30
145.5068
 70
192
 0
VERTEX
 8
SUPPORTO_MANIGLIA_DUPLICATORE
 10
15
 20
-4.9065
 30
145.5068
 70
192
 0
VERTEX
 8
SUPPORTO_MANIGLIA_DUPLICATORE
 10
15
 20
-4.9065
 30
145.5068
 70
192
 0
VERTEX
 8
SUPPORTO_MANIGLIA_DUPLICATORE
 10
11.2001
 20
-4.9399
 30
145.4262
 70
192
 0
VERTEX
 8
SUPPORTO_MANIGLIA_DUPLICATORE
 10
11.2001
 20
-4.9399
 30
145.4262
 70
192
 0
VERTEX
 8
SUPPORTO_MANIGLIA_DUPLICATORE
 10
15
 20
-4.9399
 30
145.4262
 70
192
 0
VERTEX
 8
SUPPORTO_MANIGLIA_DUPLICATORE
 10
15
 20
-4.9399
 30
145.4262
 70
192
 0
VERTEX
 8
SUPPORTO_MANIGLIA_DUPLICATORE
 10
11.2001
 20
-4.9662
 30
145.3429
 70
192
 0
VERTEX
 8
SUPPORTO_MANIGLIA_DUPLICATORE
 10
11.2001
 20
-4.9662
 30
145.3429
 70
192
 0
VERTEX
 8
SUPPORTO_MANIGLIA_DUPLICATORE
 10
15
 20
-4.9662
 30
145.3429
 70
192
 0
VERTEX
 8
SUPPORTO_MANIGLIA_DUPLICATORE
 10
15
 20
-4.9662
 30
145.3429
 70
192
 0
VERTEX
 8
SUPPORTO_MANIGLIA_DUPLICATORE
 10
11.2001
 20
-4.985
 30
145.2577
 70
192
 0
VERTEX
 8
SUPPORTO_MANIGLIA_DUPLICATORE
 10
11.2001
 20
-4.985
 30
145.2577
 70
192
 0
VERTEX
 8
SUPPORTO_MANIGLIA_DUPLICATORE
 10
15
 20
-4.985
 30
145.2577
 70
192
 0
VERTEX
 8
SUPPORTO_MANIGLIA_DUPLICATORE
 10
15
 20
-4.985
 30
145.2577
 70
192
 0
VERTEX
 8
SUPPORTO_MANIGLIA_DUPLICATORE
 10
11.2001
 20
-4.9964
 30
145.1712
 70
192
 0
VERTEX
 8
SUPPORTO_MANIGLIA_DUPLICATORE
 10
11.2001
 20
-4.9964
 30
145.1712
 70
192
 0
VERTEX
 8
SUPPORTO_MANIGLIA_DUPLICATORE
 10
15
 20
-4.9964
 30
145.1712
 70
192
 0
VERTEX
 8
SUPPORTO_MANIGLIA_DUPLICATORE
 10
15
 20
-4.9964
 30
145.1712
 70
192
 0
VERTEX
 8
SUPPORTO_MANIGLIA_DUPLICATORE
 10
11.2001
 20
-5.0002
 30
145.084
 70
192
 0
VERTEX
 8
SUPPORTO_MANIGLIA_DUPLICATORE
 10
11.2001
 20
-5.0002
 30
145.084
 70
192
 0
VERTEX
 8
SUPPORTO_MANIGLIA_DUPLICATORE
 10
15
 20
-5.0002
 30
145.084
 70
192
 0
VERTEX
 8
SUPPORTO_MANIGLIA_DUPLICATORE
 10
15
 20
-5.0002
 30
145.084
 70
192
 0
VERTEX
 8
SUPPORTO_MANIGLIA_DUPLICATORE
 10
11.2001
 20
-4.9964
 30
144.9968
 70
192
 0
VERTEX
 8
SUPPORTO_MANIGLIA_DUPLICATORE
 10
11.2001
 20
-4.9964
 30
144.9968
 70
192
 0
VERTEX
 8
SUPPORTO_MANIGLIA_DUPLICATORE
 10
15
 20
-4.9964
 30
144.9968
 70
192
 0
VERTEX
 8
SUPPORTO_MANIGLIA_DUPLICATORE
 10
15
 20
-4.9964
 30
144.9968
 70
192
 0
VERTEX
 8
SUPPORTO_MANIGLIA_DUPLICATORE
 10
11.2001
 20
-4.985
 30
144.9102
 70
192
 0
VERTEX
 8
SUPPORTO_MANIGLIA_DUPLICATORE
 10
11.2001
 20
-4.985
 30
144.9102
 70
192
 0
VERTEX
 8
SUPPORTO_MANIGLIA_DUPLICATORE
 10
15
 20
-4.985
 30
144.9102
 70
192
 0
VERTEX
 8
SUPPORTO_MANIGLIA_DUPLICATORE
 10
15
 20
-4.985
 30
144.9102
 70
192
 0
VERTEX
 8
SUPPORTO_MANIGLIA_DUPLICATORE
 10
11.2001
 20
-4.9662
 30
144.825
 70
192
 0
VERTEX
 8
SUPPORTO_MANIGLIA_DUPLICATORE
 10
11.2001
 20
-4.9662
 30
144.825
 70
192
 0
VERTEX
 8
SUPPORTO_MANIGLIA_DUPLICATORE
 10
15
 20
-4.9662
 30
144.825
 70
192
 0
VERTEX
 8
SUPPORTO_MANIGLIA_DUPLICATORE
 10
15
 20
-4.9662
 30
144.825
 70
192
 0
VERTEX
 8
SUPPORTO_MANIGLIA_DUPLICATORE
 10
11.2001
 20
-4.9399
 30
144.7418
 70
192
 0
VERTEX
 8
SUPPORTO_MANIGLIA_DUPLICATORE
 10
11.2001
 20
-4.9399
 30
144.7418
 70
192
 0
VERTEX
 8
SUPPORTO_MANIGLIA_DUPLICATORE
 10
15
 20
-4.9399
 30
144.7418
 70
192
 0
VERTEX
 8
SUPPORTO_MANIGLIA_DUPLICATORE
 10
15
 20
-4.9399
 30
144.7418
 70
192
 0
VERTEX
 8
SUPPORTO_MANIGLIA_DUPLICATORE
 10
11.2001
 20
-4.9065
 30
144.6611
 70
192
 0
VERTEX
 8
SUPPORTO_MANIGLIA_DUPLICATORE
 10
11.2001
 20
-4.9065
 30
144.6611
 70
192
 0
VERTEX
 8
SUPPORTO_MANIGLIA_DUPLICATORE
 10
15
 20
-4.9065
 30
144.6611
 70
192
 0
VERTEX
 8
SUPPORTO_MANIGLIA_DUPLICATORE
 10
15
 20
-4.9065
 30
144.6611
 70
192
 0
VERTEX
 8
SUPPORTO_MANIGLIA_DUPLICATORE
 10
11.2001
 20
-4.8662
 30
144.5837
 70
192
 0
VERTEX
 8
SUPPORTO_MANIGLIA_DUPLICATORE
 10
11.2001
 20
-4.8662
 30
144.5837
 70
192
 0
VERTEX
 8
SUPPORTO_MANIGLIA_DUPLICATORE
 10
15
 20
-4.8662
 30
144.5837
 70
192
 0
VERTEX
 8
SUPPORTO_MANIGLIA_DUPLICATORE
 10
15
 20
-4.8662
 30
144.5837
 70
192
 0
VERTEX
 8
SUPPORTO_MANIGLIA_DUPLICATORE
 10
11.2001
 20
-4.8193
 30
144.5101
 70
192
 0
VERTEX
 8
SUPPORTO_MANIGLIA_DUPLICATORE
 10
11.2001
 20
-4.8193
 30
144.5101
 70
192
 0
VERTEX
 8
SUPPORTO_MANIGLIA_DUPLICATORE
 10
15
 20
-4.8193
 30
144.5101
 70
192
 0
VERTEX
 8
SUPPORTO_MANIGLIA_DUPLICATORE
 10
15
 20
-4.8193
 30
144.5101
 70
192
 0
VERTEX
 8
SUPPORTO_MANIGLIA_DUPLICATORE
 10
11.2001
 20
-4.7662
 30
144.4409
 70
192
 0
VERTEX
 8
SUPPORTO_MANIGLIA_DUPLICATORE
 10
11.2001
 20
-4.7662
 30
144.4409
 70
192
 0
VERTEX
 8
SUPPORTO_MANIGLIA_DUPLICATORE
 10
15
 20
-4.7662
 30
144.4409
 70
192
 0
VERTEX
 8
SUPPORTO_MANIGLIA_DUPLICATORE
 10
15
 20
-4.7662
 30
144.4409
 70
192
 0
VERTEX
 8
SUPPORTO_MANIGLIA_DUPLICATORE
 10
11.2001
 20
-4.7072
 30
144.3765
 70
192
 0
VERTEX
 8
SUPPORTO_MANIGLIA_DUPLICATORE
 10
11.2001
 20
-4.7072
 30
144.3765
 70
192
 0
VERTEX
 8
SUPPORTO_MANIGLIA_DUPLICATORE
 10
15
 20
-4.7072
 30
144.3765
 70
192
 0
VERTEX
 8
SUPPORTO_MANIGLIA_DUPLICATORE
 10
15
 20
-4.7072
 30
144.3765
 70
192
 0
VERTEX
 8
SUPPORTO_MANIGLIA_DUPLICATORE
 10
11.2001
 20
-4.6429
 30
144.3175
 70
192
 0
VERTEX
 8
SUPPORTO_MANIGLIA_DUPLICATORE
 10
11.2001
 20
-4.6429
 30
144.3175
 70
192
 0
VERTEX
 8
SUPPORTO_MANIGLIA_DUPLICATORE
 10
15
 20
-4.6429
 30
144.3175
 70
192
 0
VERTEX
 8
SUPPORTO_MANIGLIA_DUPLICATORE
 10
15
 20
-4.6429
 30
144.3175
 70
192
 0
VERTEX
 8
SUPPORTO_MANIGLIA_DUPLICATORE
 10
11.2001
 20
-4.5736
 30
144.2644
 70
192
 0
VERTEX
 8
SUPPORTO_MANIGLIA_DUPLICATORE
 10
11.2001
 20
-4.5736
 30
144.2644
 70
192
 0
VERTEX
 8
SUPPORTO_MANIGLIA_DUPLICATORE
 10
15
 20
-4.5736
 30
144.2644
 70
192
 0
VERTEX
 8
SUPPORTO_MANIGLIA_DUPLICATORE
 10
15
 20
-4.5736
 30
144.2644
 70
192
 0
VERTEX
 8
SUPPORTO_MANIGLIA_DUPLICATORE
 10
11.2001
 20
-4.5
 30
144.2175
 70
192
 0
VERTEX
 8
SUPPORTO_MANIGLIA_DUPLICATORE
 10
11.2001
 20
-4.5
 30
144.2175
 70
192
 0
VERTEX
 8
SUPPORTO_MANIGLIA_DUPLICATORE
 10
15
 20
-4.5
 30
144.2175
 70
192
 0
VERTEX
 8
SUPPORTO_MANIGLIA_DUPLICATORE
 10
15
 20
-4.5
 30
144.2175
 70
192
 0
VERTEX
 8
SUPPORTO_MANIGLIA_DUPLICATORE
 10
11.2001
 20
-4.4226
 30
144.1772
 70
192
 0
VERTEX
 8
SUPPORTO_MANIGLIA_DUPLICATORE
 10
11.2001
 20
-4.4226
 30
144.1772
 70
192
 0
VERTEX
 8
SUPPORTO_MANIGLIA_DUPLICATORE
 10
15
 20
-4.4226
 30
144.1772
 70
192
 0
VERTEX
 8
SUPPORTO_MANIGLIA_DUPLICATORE
 10
15
 20
-4.4226
 30
144.1772
 70
192
 0
VERTEX
 8
SUPPORTO_MANIGLIA_DUPLICATORE
 10
11.2001
 20
-4.3419
 30
144.1438
 70
192
 0
VERTEX
 8
SUPPORTO_MANIGLIA_DUPLICATORE
 10
11.2001
 20
-4.3419
 30
144.1438
 70
192
 0
VERTEX
 8
SUPPORTO_MANIGLIA_DUPLICATORE
 10
15
 20
-4.3419
 30
144.1438
 70
192
 0
VERTEX
 8
SUPPORTO_MANIGLIA_DUPLICATORE
 10
15
 20
-4.3419
 30
144.1438
 70
192
 0
VERTEX
 8
SUPPORTO_MANIGLIA_DUPLICATORE
 10
11.2001
 20
-4.2587
 30
144.1176
 70
192
 0
VERTEX
 8
SUPPORTO_MANIGLIA_DUPLICATORE
 10
11.2001
 20
-4.2587
 30
144.1176
 70
192
 0
VERTEX
 8
SUPPORTO_MANIGLIA_DUPLICATORE
 10
15
 20
-4.2587
 30
144.1176
 70
192
 0
VERTEX
 8
SUPPORTO_MANIGLIA_DUPLICATORE
 10
15
 20
-4.2587
 30
144.1176
 70
192
 0
VERTEX
 8
SUPPORTO_MANIGLIA_DUPLICATORE
 10
11.2001
 20
-4.1735
 30
144.0987
 70
192
 0
VERTEX
 8
SUPPORTO_MANIGLIA_DUPLICATORE
 10
11.2001
 20
-4.1735
 30
144.0987
 70
192
 0
VERTEX
 8
SUPPORTO_MANIGLIA_DUPLICATORE
 10
15
 20
-4.1735
 30
144.0987
 70
192
 0
VERTEX
 8
SUPPORTO_MANIGLIA_DUPLICATORE
 10
15
 20
-4.1735
 30
144.0987
 70
192
 0
VERTEX
 8
SUPPORTO_MANIGLIA_DUPLICATORE
 10
11.2001
 20
-4.0869
 30
144.0873
 70
192
 0
VERTEX
 8
SUPPORTO_MANIGLIA_DUPLICATORE
 10
11.2001
 20
-4.0869
 30
144.0873
 70
192
 0
VERTEX
 8
SUPPORTO_MANIGLIA_DUPLICATORE
 10
15
 20
-4.0869
 30
144.0873
 70
192
 0
VERTEX
 8
SUPPORTO_MANIGLIA_DUPLICATORE
 10
15
 20
-4.0869
 30
144.0873
 70
192
 0
VERTEX
 8
SUPPORTO_MANIGLIA_DUPLICATORE
 10
11.2001
 20
-3.9997
 30
144.0835
 70
192
 0
VERTEX
 8
SUPPORTO_MANIGLIA_DUPLICATORE
 10
11.2001
 20
-3.9997
 30
144.0835
 70
192
 0
VERTEX
 8
SUPPORTO_MANIGLIA_DUPLICATORE
 10
15
 20
-3.9997
 30
144.0835
 70
192
 0
VERTEX
 8
SUPPORTO_MANIGLIA_DUPLICATORE
 10
15
 20
-3.9997
 30
144.0835
 70
192
 0
VERTEX
 8
SUPPORTO_MANIGLIA_DUPLICATORE
 10
11.2001
 20
-3.9997
 30
145.084
 70
192
 0
VERTEX
 8
SUPPORTO_MANIGLIA_DUPLICATORE
 10
11.2001
 20
-3.9997
 30
146.0845
 70
192
 0
VERTEX
 8
SUPPORTO_MANIGLIA_DUPLICATORE
 10
15
 20
-3.9997
 30
146.0845
 70
192
 0
VERTEX
 8
SUPPORTO_MANIGLIA_DUPLICATORE
 10
15
 20
-3.9997
 30
145.084
 70
192
 0
VERTEX
 8
SUPPORTO_MANIGLIA_DUPLICATORE
 10
11.2001
 20
-3.9997
 30
145.084
 70
192
 0
VERTEX
 8
SUPPORTO_MANIGLIA_DUPLICATORE
 10
11.2001
 20
-3.9997
 30
144.0835
 70
192
 0
VERTEX
 8
SUPPORTO_MANIGLIA_DUPLICATORE
 10
15
 20
-3.9997
 30
144.0835
 70
192
 0
VERTEX
 8
SUPPORTO_MANIGLIA_DUPLICATORE
 10
15
 20
-3.9997
 30
145.084
 70
192
 0
VERTEX
 8
SUPPORTO_MANIGLIA_DUPLICATORE
 10
11.2001
 20
-0.9334
 30
145.0843
 70
192
 0
VERTEX
 8
SUPPORTO_MANIGLIA_DUPLICATORE
 10
11.2001
 20
-0.9334
 30
146.0848
 70
192
 0
VERTEX
 8
SUPPORTO_MANIGLIA_DUPLICATORE
 10
15
 20
-0.9334
 30
146.0848
 70
192
 0
VERTEX
 8
SUPPORTO_MANIGLIA_DUPLICATORE
 10
15
 20
-0.9334
 30
145.0843
 70
192
 0
VERTEX
 8
SUPPORTO_MANIGLIA_DUPLICATORE
 10
11.2001
 20
-0.9334
 30
145.0843
 70
192
 0
VERTEX
 8
SUPPORTO_MANIGLIA_DUPLICATORE
 10
11.2001
 20
-0.9334
 30
144.0838
 70
192
 0
VERTEX
 8
SUPPORTO_MANIGLIA_DUPLICATORE
 10
15
 20
-0.9334
 30
144.0838
 70
192
 0
VERTEX
 8
SUPPORTO_MANIGLIA_DUPLICATORE
 10
15
 20
-0.9334
 30
145.0843
 70
192
 0
VERTEX
 8
SUPPORTO_MANIGLIA_DUPLICATORE
 10
11.2001
 20
-0.3998
 30
145.0843
 70
192
 0
VERTEX
 8
SUPPORTO_MANIGLIA_DUPLICATORE
 10
11.2001
 20
-0.3998
 30
146.0848
 70
192
 0
VERTEX
 8
SUPPORTO_MANIGLIA_DUPLICATORE
 10
15
 20
-0.3998
 30
146.0848
 70
192
 0
VERTEX
 8
SUPPORTO_MANIGLIA_DUPLICATORE
 10
15
 20
-0.3998
 30
145.0843
 70
192
 0
VERTEX
 8
SUPPORTO_MANIGLIA_DUPLICATORE
 10
11.2001
 20
-0.3998
 30
145.0843
 70
192
 0
VERTEX
 8
SUPPORTO_MANIGLIA_DUPLICATORE
 10
11.2001
 20
-0.3998
 30
144.0838
 70
192
 0
VERTEX
 8
SUPPORTO_MANIGLIA_DUPLICATORE
 10
15
 20
-0.3998
 30
144.0838
 70
192
 0
VERTEX
 8
SUPPORTO_MANIGLIA_DUPLICATORE
 10
15
 20
-0.3998
 30
145.0843
 70
192
 0
VERTEX
 8
SUPPORTO_MANIGLIA_DUPLICATORE
 10
0
 20
0
 30
0
 70
128
 71
164
 72
172
 73
171
 74
163
 0
VERTEX
 8
SUPPORTO_MANIGLIA_DUPLICATORE
 10
0
 20
0
 30
0
 70
128
 71
166
 72
174
 73
173
 74
165
 0
VERTEX
 8
SUPPORTO_MANIGLIA_DUPLICATORE
 10
0
 20
0
 30
0
 70
128
 71
1
 72
3
 73
7
 74
7
 0
VERTEX
 8
SUPPORTO_MANIGLIA_DUPLICATORE
 10
0
 20
0
 30
0
 70
128
 71
4
 72
5
 73
9
 74
8
 0
VERTEX
 8
SUPPORTO_MANIGLIA_DUPLICATORE
 10
0
 20
0
 30
0
 70
128
 71
6
 72
2
 73
10
 74
10
 0
VERTEX
 8
SUPPORTO_MANIGLIA_DUPLICATORE
 10
0
 20
0
 30
0
 70
128
 71
1
 72
7
 73
11
 74
11
 0
VERTEX
 8
SUPPORTO_MANIGLIA_DUPLICATORE
 10
0
 20
0
 30
0
 70
128
 71
8
 72
9
 73
13
 74
12
 0
VERTEX
 8
SUPPORTO_MANIGLIA_DUPLICATORE
 10
0
 20
0
 30
0
 70
128
 71
10
 72
2
 73
14
 74
14
 0
VERTEX
 8
SUPPORTO_MANIGLIA_DUPLICATORE
 10
0
 20
0
 30
0
 70
128
 71
1
 72
11
 73
15
 74
15
 0
VERTEX
 8
SUPPORTO_MANIGLIA_DUPLICATORE
 10
0
 20
0
 30
0
 70
128
 71
12
 72
13
 73
17
 74
16
 0
VERTEX
 8
SUPPORTO_MANIGLIA_DUPLICATORE
 10
0
 20
0
 30
0
 70
128
 71
14
 72
2
 73
18
 74
18
 0
VERTEX
 8
SUPPORTO_MANIGLIA_DUPLICATORE
 10
0
 20
0
 30
0
 70
128
 71
1
 72
15
 73
19
 74
19
 0
VERTEX
 8
SUPPORTO_MANIGLIA_DUPLICATORE
 10
0
 20
0
 30
0
 70
128
 71
16
 72
17
 73
21
 74
20
 0
VERTEX
 8
SUPPORTO_MANIGLIA_DUPLICATORE
 10
0
 20
0
 30
0
 70
128
 71
18
 72
2
 73
22
 74
22
 0
VERTEX
 8
SUPPORTO_MANIGLIA_DUPLICATORE
 10
0
 20
0
 30
0
 70
128
 71
1
 72
19
 73
23
 74
23
 0
VERTEX
 8
SUPPORTO_MANIGLIA_DUPLICATORE
 10
0
 20
0
 30
0
 70
128
 71
20
 72
21
 73
25
 74
24
 0
VERTEX
 8
SUPPORTO_MANIGLIA_DUPLICATORE
 10
0
 20
0
 30
0
 70
128
 71
22
 72
2
 73
26
 74
26
 0
VERTEX
 8
SUPPORTO_MANIGLIA_DUPLICATORE
 10
0
 20
0
 30
0
 70
128
 71
1
 72
23
 73
27
 74
27
 0
VERTEX
 8
SUPPORTO_MANIGLIA_DUPLICATORE
 10
0
 20
0
 30
0
 70
128
 71
24
 72
25
 73
29
 74
28
 0
VERTEX
 8
SUPPORTO_MANIGLIA_DUPLICATORE
 10
0
 20
0
 30
0
 70
128
 71
26
 72
2
 73
30
 74
30
 0
VERTEX
 8
SUPPORTO_MANIGLIA_DUPLICATORE
 10
0
 20
0
 30
0
 70
128
 71
1
 72
27
 73
31
 74
31
 0
VERTEX
 8
SUPPORTO_MANIGLIA_DUPLICATORE
 10
0
 20
0
 30
0
 70
128
 71
28
 72
29
 73
33
 74
32
 0
VERTEX
 8
SUPPORTO_MANIGLIA_DUPLICATORE
 10
0
 20
0
 30
0
 70
128
 71
30
 72
2
 73
34
 74
34
 0
VERTEX
 8
SUPPORTO_MANIGLIA_DUPLICATORE
 10
0
 20
0
 30
0
 70
128
 71
1
 72
31
 73
35
 74
35
 0
VERTEX
 8
SUPPORTO_MANIGLIA_DUPLICATORE
 10
0
 20
0
 30
0
 70
128
 71
32
 72
33
 73
37
 74
36
 0
VERTEX
 8
SUPPORTO_MANIGLIA_DUPLICATORE
 10
0
 20
0
 30
0
 70
128
 71
34
 72
2
 73
38
 74
38
 0
VERTEX
 8
SUPPORTO_MANIGLIA_DUPLICATORE
 10
0
 20
0
 30
0
 70
128
 71
1
 72
35
 73
39
 74
39
 0
VERTEX
 8
SUPPORTO_MANIGLIA_DUPLICATORE
 10
0
 20
0
 30
0
 70
128
 71
36
 72
37
 73
41
 74
40
 0
VERTEX
 8
SUPPORTO_MANIGLIA_DUPLICATORE
 10
0
 20
0
 30
0
 70
128
 71
38
 72
2
 73
42
 74
42
 0
VERTEX
 8
SUPPORTO_MANIGLIA_DUPLICATORE
 10
0
 20
0
 30
0
 70
128
 71
1
 72
39
 73
43
 74
43
 0
VERTEX
 8
SUPPORTO_MANIGLIA_DUPLICATORE
 10
0
 20
0
 30
0
 70
128
 71
40
 72
41
 73
45
 74
44
 0
VERTEX
 8
SUPPORTO_MANIGLIA_DUPLICATORE
 10
0
 20
0
 30
0
 70
128
 71
42
 72
2
 73
46
 74
46
 0
VERTEX
 8
SUPPORTO_MANIGLIA_DUPLICATORE
 10
0
 20
0
 30
0
 70
128
 71
1
 72
43
 73
47
 74
47
 0
VERTEX
 8
SUPPORTO_MANIGLIA_DUPLICATORE
 10
0
 20
0
 30
0
 70
128
 71
44
 72
45
 73
49
 74
48
 0
VERTEX
 8
SUPPORTO_MANIGLIA_DUPLICATORE
 10
0
 20
0
 30
0
 70
128
 71
46
 72
2
 73
50
 74
50
 0
VERTEX
 8
SUPPORTO_MANIGLIA_DUPLICATORE
 10
0
 20
0
 30
0
 70
128
 71
1
 72
47
 73
51
 74
51
 0
VERTEX
 8
SUPPORTO_MANIGLIA_DUPLICATORE
 10
0
 20
0
 30
0
 70
128
 71
48
 72
49
 73
53
 74
52
 0
VERTEX
 8
SUPPORTO_MANIGLIA_DUPLICATORE
 10
0
 20
0
 30
0
 70
128
 71
50
 72
2
 73
54
 74
54
 0
VERTEX
 8
SUPPORTO_MANIGLIA_DUPLICATORE
 10
0
 20
0
 30
0
 70
128
 71
1
 72
51
 73
55
 74
55
 0
VERTEX
 8
SUPPORTO_MANIGLIA_DUPLICATORE
 10
0
 20
0
 30
0
 70
128
 71
52
 72
53
 73
57
 74
56
 0
VERTEX
 8
SUPPORTO_MANIGLIA_DUPLICATORE
 10
0
 20
0
 30
0
 70
128
 71
54
 72
2
 73
58
 74
58
 0
VERTEX
 8
SUPPORTO_MANIGLIA_DUPLICATORE
 10
0
 20
0
 30
0
 70
128
 71
1
 72
55
 73
59
 74
59
 0
VERTEX
 8
SUPPORTO_MANIGLIA_DUPLICATORE
 10
0
 20
0
 30
0
 70
128
 71
56
 72
57
 73
61
 74
60
 0
VERTEX
 8
SUPPORTO_MANIGLIA_DUPLICATORE
 10
0
 20
0
 30
0
 70
128
 71
58
 72
2
 73
62
 74
62
 0
VERTEX
 8
SUPPORTO_MANIGLIA_DUPLICATORE
 10
0
 20
0
 30
0
 70
128
 71
1
 72
59
 73
63
 74
63
 0
VERTEX
 8
SUPPORTO_MANIGLIA_DUPLICATORE
 10
0
 20
0
 30
0
 70
128
 71
60
 72
61
 73
65
 74
64
 0
VERTEX
 8
SUPPORTO_MANIGLIA_DUPLICATORE
 10
0
 20
0
 30
0
 70
128
 71
62
 72
2
 73
66
 74
66
 0
VERTEX
 8
SUPPORTO_MANIGLIA_DUPLICATORE
 10
0
 20
0
 30
0
 70
128
 71
1
 72
63
 73
67
 74
67
 0
VERTEX
 8
SUPPORTO_MANIGLIA_DUPLICATORE
 10
0
 20
0
 30
0
 70
128
 71
64
 72
65
 73
69
 74
68
 0
VERTEX
 8
SUPPORTO_MANIGLIA_DUPLICATORE
 10
0
 20
0
 30
0
 70
128
 71
66
 72
2
 73
70
 74
70
 0
VERTEX
 8
SUPPORTO_MANIGLIA_DUPLICATORE
 10
0
 20
0
 30
0
 70
128
 71
1
 72
67
 73
71
 74
71
 0
VERTEX
 8
SUPPORTO_MANIGLIA_DUPLICATORE
 10
0
 20
0
 30
0
 70
128
 71
68
 72
69
 73
73
 74
72
 0
VERTEX
 8
SUPPORTO_MANIGLIA_DUPLICATORE
 10
0
 20
0
 30
0
 70
128
 71
70
 72
2
 73
74
 74
74
 0
VERTEX
 8
SUPPORTO_MANIGLIA_DUPLICATORE
 10
0
 20
0
 30
0
 70
128
 71
1
 72
71
 73
75
 74
75
 0
VERTEX
 8
SUPPORTO_MANIGLIA_DUPLICATORE
 10
0
 20
0
 30
0
 70
128
 71
72
 72
73
 73
77
 74
76
 0
VERTEX
 8
SUPPORTO_MANIGLIA_DUPLICATORE
 10
0
 20
0
 30
0
 70
128
 71
74
 72
2
 73
78
 74
78
 0
VERTEX
 8
SUPPORTO_MANIGLIA_DUPLICATORE
 10
0
 20
0
 30
0
 70
128
 71
1
 72
75
 73
79
 74
79
 0
VERTEX
 8
SUPPORTO_MANIGLIA_DUPLICATORE
 10
0
 20
0
 30
0
 70
128
 71
76
 72
77
 73
81
 74
80
 0
VERTEX
 8
SUPPORTO_MANIGLIA_DUPLICATORE
 10
0
 20
0
 30
0
 70
128
 71
78
 72
2
 73
82
 74
82
 0
VERTEX
 8
SUPPORTO_MANIGLIA_DUPLICATORE
 10
0
 20
0
 30
0
 70
128
 71
1
 72
79
 73
83
 74
83
 0
VERTEX
 8
SUPPORTO_MANIGLIA_DUPLICATORE
 10
0
 20
0
 30
0
 70
128
 71
80
 72
81
 73
85
 74
84
 0
VERTEX
 8
SUPPORTO_MANIGLIA_DUPLICATORE
 10
0
 20
0
 30
0
 70
128
 71
82
 72
2
 73
86
 74
86
 0
VERTEX
 8
SUPPORTO_MANIGLIA_DUPLICATORE
 10
0
 20
0
 30
0
 70
128
 71
1
 72
83
 73
87
 74
87
 0
VERTEX
 8
SUPPORTO_MANIGLIA_DUPLICATORE
 10
0
 20
0
 30
0
 70
128
 71
84
 72
85
 73
89
 74
88
 0
VERTEX
 8
SUPPORTO_MANIGLIA_DUPLICATORE
 10
0
 20
0
 30
0
 70
128
 71
86
 72
2
 73
90
 74
90
 0
VERTEX
 8
SUPPORTO_MANIGLIA_DUPLICATORE
 10
0
 20
0
 30
0
 70
128
 71
1
 72
87
 73
91
 74
91
 0
VERTEX
 8
SUPPORTO_MANIGLIA_DUPLICATORE
 10
0
 20
0
 30
0
 70
128
 71
88
 72
89
 73
93
 74
92
 0
VERTEX
 8
SUPPORTO_MANIGLIA_DUPLICATORE
 10
0
 20
0
 30
0
 70
128
 71
90
 72
2
 73
94
 74
94
 0
VERTEX
 8
SUPPORTO_MANIGLIA_DUPLICATORE
 10
0
 20
0
 30
0
 70
128
 71
1
 72
91
 73
95
 74
95
 0
VERTEX
 8
SUPPORTO_MANIGLIA_DUPLICATORE
 10
0
 20
0
 30
0
 70
128
 71
92
 72
93
 73
97
 74
96
 0
VERTEX
 8
SUPPORTO_MANIGLIA_DUPLICATORE
 10
0
 20
0
 30
0
 70
128
 71
94
 72
2
 73
98
 74
98
 0
VERTEX
 8
SUPPORTO_MANIGLIA_DUPLICATORE
 10
0
 20
0
 30
0
 70
128
 71
1
 72
95
 73
99
 74
99
 0
VERTEX
 8
SUPPORTO_MANIGLIA_DUPLICATORE
 10
0
 20
0
 30
0
 70
128
 71
96
 72
97
 73
101
 74
100
 0
VERTEX
 8
SUPPORTO_MANIGLIA_DUPLICATORE
 10
0
 20
0
 30
0
 70
128
 71
98
 72
2
 73
102
 74
102
 0
VERTEX
 8
SUPPORTO_MANIGLIA_DUPLICATORE
 10
0
 20
0
 30
0
 70
128
 71
1
 72
99
 73
103
 74
103
 0
VERTEX
 8
SUPPORTO_MANIGLIA_DUPLICATORE
 10
0
 20
0
 30
0
 70
128
 71
100
 72
101
 73
105
 74
104
 0
VERTEX
 8
SUPPORTO_MANIGLIA_DUPLICATORE
 10
0
 20
0
 30
0
 70
128
 71
102
 72
2
 73
106
 74
106
 0
VERTEX
 8
SUPPORTO_MANIGLIA_DUPLICATORE
 10
0
 20
0
 30
0
 70
128
 71
1
 72
103
 73
107
 74
107
 0
VERTEX
 8
SUPPORTO_MANIGLIA_DUPLICATORE
 10
0
 20
0
 30
0
 70
128
 71
104
 72
105
 73
109
 74
108
 0
VERTEX
 8
SUPPORTO_MANIGLIA_DUPLICATORE
 10
0
 20
0
 30
0
 70
128
 71
106
 72
2
 73
110
 74
110
 0
VERTEX
 8
SUPPORTO_MANIGLIA_DUPLICATORE
 10
0
 20
0
 30
0
 70
128
 71
1
 72
107
 73
111
 74
111
 0
VERTEX
 8
SUPPORTO_MANIGLIA_DUPLICATORE
 10
0
 20
0
 30
0
 70
128
 71
108
 72
109
 73
113
 74
112
 0
VERTEX
 8
SUPPORTO_MANIGLIA_DUPLICATORE
 10
0
 20
0
 30
0
 70
128
 71
110
 72
2
 73
114
 74
114
 0
VERTEX
 8
SUPPORTO_MANIGLIA_DUPLICATORE
 10
0
 20
0
 30
0
 70
128
 71
1
 72
111
 73
115
 74
115
 0
VERTEX
 8
SUPPORTO_MANIGLIA_DUPLICATORE
 10
0
 20
0
 30
0
 70
128
 71
112
 72
113
 73
117
 74
116
 0
VERTEX
 8
SUPPORTO_MANIGLIA_DUPLICATORE
 10
0
 20
0
 30
0
 70
128
 71
114
 72
2
 73
118
 74
118
 0
VERTEX
 8
SUPPORTO_MANIGLIA_DUPLICATORE
 10
0
 20
0
 30
0
 70
128
 71
1
 72
115
 73
119
 74
119
 0
VERTEX
 8
SUPPORTO_MANIGLIA_DUPLICATORE
 10
0
 20
0
 30
0
 70
128
 71
116
 72
117
 73
121
 74
120
 0
VERTEX
 8
SUPPORTO_MANIGLIA_DUPLICATORE
 10
0
 20
0
 30
0
 70
128
 71
118
 72
2
 73
122
 74
122
 0
VERTEX
 8
SUPPORTO_MANIGLIA_DUPLICATORE
 10
0
 20
0
 30
0
 70
128
 71
1
 72
119
 73
123
 74
123
 0
VERTEX
 8
SUPPORTO_MANIGLIA_DUPLICATORE
 10
0
 20
0
 30
0
 70
128
 71
120
 72
121
 73
125
 74
124
 0
VERTEX
 8
SUPPORTO_MANIGLIA_DUPLICATORE
 10
0
 20
0
 30
0
 70
128
 71
122
 72
2
 73
126
 74
126
 0
VERTEX
 8
SUPPORTO_MANIGLIA_DUPLICATORE
 10
0
 20
0
 30
0
 70
128
 71
1
 72
123
 73
127
 74
127
 0
VERTEX
 8
SUPPORTO_MANIGLIA_DUPLICATORE
 10
0
 20
0
 30
0
 70
128
 71
124
 72
125
 73
129
 74
128
 0
VERTEX
 8
SUPPORTO_MANIGLIA_DUPLICATORE
 10
0
 20
0
 30
0
 70
128
 71
126
 72
2
 73
130
 74
130
 0
VERTEX
 8
SUPPORTO_MANIGLIA_DUPLICATORE
 10
0
 20
0
 30
0
 70
128
 71
1
 72
127
 73
131
 74
131
 0
VERTEX
 8
SUPPORTO_MANIGLIA_DUPLICATORE
 10
0
 20
0
 30
0
 70
128
 71
128
 72
129
 73
133
 74
132
 0
VERTEX
 8
SUPPORTO_MANIGLIA_DUPLICATORE
 10
0
 20
0
 30
0
 70
128
 71
130
 72
2
 73
134
 74
134
 0
VERTEX
 8
SUPPORTO_MANIGLIA_DUPLICATORE
 10
0
 20
0
 30
0
 70
128
 71
1
 72
131
 73
135
 74
135
 0
VERTEX
 8
SUPPORTO_MANIGLIA_DUPLICATORE
 10
0
 20
0
 30
0
 70
128
 71
132
 72
133
 73
137
 74
136
 0
VERTEX
 8
SUPPORTO_MANIGLIA_DUPLICATORE
 10
0
 20
0
 30
0
 70
128
 71
134
 72
2
 73
138
 74
138
 0
VERTEX
 8
SUPPORTO_MANIGLIA_DUPLICATORE
 10
0
 20
0
 30
0
 70
128
 71
1
 72
135
 73
139
 74
139
 0
VERTEX
 8
SUPPORTO_MANIGLIA_DUPLICATORE
 10
0
 20
0
 30
0
 70
128
 71
136
 72
137
 73
141
 74
140
 0
VERTEX
 8
SUPPORTO_MANIGLIA_DUPLICATORE
 10
0
 20
0
 30
0
 70
128
 71
138
 72
2
 73
142
 74
142
 0
VERTEX
 8
SUPPORTO_MANIGLIA_DUPLICATORE
 10
0
 20
0
 30
0
 70
128
 71
1
 72
139
 73
143
 74
143
 0
VERTEX
 8
SUPPORTO_MANIGLIA_DUPLICATORE
 10
0
 20
0
 30
0
 70
128
 71
140
 72
141
 73
145
 74
144
 0
VERTEX
 8
SUPPORTO_MANIGLIA_DUPLICATORE
 10
0
 20
0
 30
0
 70
128
 71
142
 72
2
 73
146
 74
146
 0
VERTEX
 8
SUPPORTO_MANIGLIA_DUPLICATORE
 10
0
 20
0
 30
0
 70
128
 71
1
 72
143
 73
147
 74
147
 0
VERTEX
 8
SUPPORTO_MANIGLIA_DUPLICATORE
 10
0
 20
0
 30
0
 70
128
 71
144
 72
145
 73
149
 74
148
 0
VERTEX
 8
SUPPORTO_MANIGLIA_DUPLICATORE
 10
0
 20
0
 30
0
 70
128
 71
146
 72
2
 73
150
 74
150
 0
VERTEX
 8
SUPPORTO_MANIGLIA_DUPLICATORE
 10
0
 20
0
 30
0
 70
128
 71
167
 72
170
 73
169
 74
168
 0
VERTEX
 8
SUPPORTO_MANIGLIA_DUPLICATORE
 10
0
 20
0
 30
0
 70
128
 71
171
 72
172
 73
173
 74
174
 0
VERTEX
 8
SUPPORTO_MANIGLIA_DUPLICATORE
 10
0
 20
0
 30
0
 70
128
 71
151
 72
159
 73
160
 74
152
 0
VERTEX
 8
SUPPORTO_MANIGLIA_DUPLICATORE
 10
0
 20
0
 30
0
 70
128
 71
152
 72
160
 73
161
 74
153
 0
VERTEX
 8
SUPPORTO_MANIGLIA_DUPLICATORE
 10
0
 20
0
 30
0
 70
128
 71
153
 72
161
 73
162
 74
154
 0
VERTEX
 8
SUPPORTO_MANIGLIA_DUPLICATORE
 10
0
 20
0
 30
0
 70
128
 71
154
 72
162
 73
159
 74
151
 0
VERTEX
 8
SUPPORTO_MANIGLIA_DUPLICATORE
 10
0
 20
0
 30
0
 70
128
 71
155
 72
163
 73
166
 74
158
 0
VERTEX
 8
SUPPORTO_MANIGLIA_DUPLICATORE
 10
0
 20
0
 30
0
 70
128
 71
158
 72
166
 73
165
 74
157
 0
VERTEX
 8
SUPPORTO_MANIGLIA_DUPLICATORE
 10
0
 20
0
 30
0
 70
128
 71
157
 72
165
 73
164
 74
156
 0
VERTEX
 8
SUPPORTO_MANIGLIA_DUPLICATORE
 10
0
 20
0
 30
0
 70
128
 71
156
 72
164
 73
163
 74
155
 0
VERTEX
 8
SUPPORTO_MANIGLIA_DUPLICATORE
 10
0
 20
0
 30
0
 70
128
 71
159
 72
167
 73
168
 74
160
 0
VERTEX
 8
SUPPORTO_MANIGLIA_DUPLICATORE
 10
0
 20
0
 30
0
 70
128
 71
160
 72
168
 73
169
 74
161
 0
VERTEX
 8
SUPPORTO_MANIGLIA_DUPLICATORE
 10
0
 20
0
 30
0
 70
128
 71
161
 72
169
 73
170
 74
162
 0
VERTEX
 8
SUPPORTO_MANIGLIA_DUPLICATORE
 10
0
 20
0
 30
0
 70
128
 71
162
 72
170
 73
167
 74
159
 0
VERTEX
 8
SUPPORTO_MANIGLIA_DUPLICATORE
 10
0
 20
0
 30
0
 70
128
 71
163
 72
171
 73
174
 74
166
 0
VERTEX
 8
SUPPORTO_MANIGLIA_DUPLICATORE
 10
0
 20
0
 30
0
 70
128
 71
164
 72
165
 73
173
 74
172
 0
SEQEND
 0
POLYLINE
 8
SUPPORTO_MANIGLIA
 66
1
 10
0.0
 20
0.0
 30
0.0
 70
64
 71
174
 72
126
 0
VERTEX
 8
SUPPORTO_MANIGLIA
 10
-15
 20
-3.9997
 30
145.084
 70
192
 0
VERTEX
 8
SUPPORTO_MANIGLIA
 10
-11.2003
 20
-3.9997
 30
145.084
 70
192
 0
VERTEX
 8
SUPPORTO_MANIGLIA
 10
-15
 20
-3.9997
 30
146.0845
 70
192
 0
VERTEX
 8
SUPPORTO_MANIGLIA
 10
-15
 20
-3.9997
 30
146.0845
 70
192
 0
VERTEX
 8
SUPPORTO_MANIGLIA
 10
-11.2003
 20
-3.9997
 30
146.0845
 70
192
 0
VERTEX
 8
SUPPORTO_MANIGLIA
 10
-11.2003
 20
-3.9997
 30
146.0845
 70
192
 0
VERTEX
 8
SUPPORTO_MANIGLIA
 10
-15
 20
-4.0869
 30
146.0807
 70
192
 0
VERTEX
 8
SUPPORTO_MANIGLIA
 10
-15
 20
-4.0869
 30
146.0807
 70
192
 0
VERTEX
 8
SUPPORTO_MANIGLIA
 10
-11.2003
 20
-4.0869
 30
146.0807
 70
192
 0
VERTEX
 8
SUPPORTO_MANIGLIA
 10
-11.2003
 20
-4.0869
 30
146.0807
 70
192
 0
VERTEX
 8
SUPPORTO_MANIGLIA
 10
-15
 20
-4.1735
 30
146.0693
 70
192
 0
VERTEX
 8
SUPPORTO_MANIGLIA
 10
-15
 20
-4.1735
 30
146.0693
 70
192
 0
VERTEX
 8
SUPPORTO_MANIGLIA
 10
-11.2003
 20
-4.1735
 30
146.0693
 70
192
 0
VERTEX
 8
SUPPORTO_MANIGLIA
 10
-11.2003
 20
-4.1735
 30
146.0693
 70
192
 0
VERTEX
 8
SUPPORTO_MANIGLIA
 10
-15
 20
-4.2587
 30
146.0504
 70
192
 0
VERTEX
 8
SUPPORTO_MANIGLIA
 10
-15
 20
-4.2587
 30
146.0504
 70
192
 0
VERTEX
 8
SUPPORTO_MANIGLIA
 10
-11.2003
 20
-4.2587
 30
146.0504
 70
192
 0
VERTEX
 8
SUPPORTO_MANIGLIA
 10
-11.2003
 20
-4.2587
 30
146.0504
 70
192
 0
VERTEX
 8
SUPPORTO_MANIGLIA
 10
-15
 20
-4.3419
 30
146.0241
 70
192
 0
VERTEX
 8
SUPPORTO_MANIGLIA
 10
-15
 20
-4.3419
 30
146.0241
 70
192
 0
VERTEX
 8
SUPPORTO_MANIGLIA
 10
-11.2003
 20
-4.3419
 30
146.0241
 70
192
 0
VERTEX
 8
SUPPORTO_MANIGLIA
 10
-11.2003
 20
-4.3419
 30
146.0241
 70
192
 0
VERTEX
 8
SUPPORTO_MANIGLIA
 10
-15
 20
-4.4226
 30
145.9907
 70
192
 0
VERTEX
 8
SUPPORTO_MANIGLIA
 10
-15
 20
-4.4226
 30
145.9907
 70
192
 0
VERTEX
 8
SUPPORTO_MANIGLIA
 10
-11.2003
 20
-4.4226
 30
145.9907
 70
192
 0
VERTEX
 8
SUPPORTO_MANIGLIA
 10
-11.2003
 20
-4.4226
 30
145.9907
 70
192
 0
VERTEX
 8
SUPPORTO_MANIGLIA
 10
-15
 20
-4.5
 30
145.9504
 70
192
 0
VERTEX
 8
SUPPORTO_MANIGLIA
 10
-15
 20
-4.5
 30
145.9504
 70
192
 0
VERTEX
 8
SUPPORTO_MANIGLIA
 10
-11.2003
 20
-4.5
 30
145.9504
 70
192
 0
VERTEX
 8
SUPPORTO_MANIGLIA
 10
-11.2003
 20
-4.5
 30
145.9504
 70
192
 0
VERTEX
 8
SUPPORTO_MANIGLIA
 10
-15
 20
-4.5736
 30
145.9035
 70
192
 0
VERTEX
 8
SUPPORTO_MANIGLIA
 10
-15
 20
-4.5736
 30
145.9035
 70
192
 0
VERTEX
 8
SUPPORTO_MANIGLIA
 10
-11.2003
 20
-4.5736
 30
145.9035
 70
192
 0
VERTEX
 8
SUPPORTO_MANIGLIA
 10
-11.2003
 20
-4.5736
 30
145.9035
 70
192
 0
VERTEX
 8
SUPPORTO_MANIGLIA
 10
-15
 20
-4.6429
 30
145.8504
 70
192
 0
VERTEX
 8
SUPPORTO_MANIGLIA
 10
-15
 20
-4.6429
 30
145.8504
 70
192
 0
VERTEX
 8
SUPPORTO_MANIGLIA
 10
-11.2003
 20
-4.6429
 30
145.8504
 70
192
 0
VERTEX
 8
SUPPORTO_MANIGLIA
 10
-11.2003
 20
-4.6429
 30
145.8504
 70
192
 0
VERTEX
 8
SUPPORTO_MANIGLIA
 10
-15
 20
-4.7072
 30
145.7914
 70
192
 0
VERTEX
 8
SUPPORTO_MANIGLIA
 10
-15
 20
-4.7072
 30
145.7914
 70
192
 0
VERTEX
 8
SUPPORTO_MANIGLIA
 10
-11.2003
 20
-4.7072
 30
145.7914
 70
192
 0
VERTEX
 8
SUPPORTO_MANIGLIA
 10
-11.2003
 20
-4.7072
 30
145.7914
 70
192
 0
VERTEX
 8
SUPPORTO_MANIGLIA
 10
-15
 20
-4.7662
 30
145.7271
 70
192
 0
VERTEX
 8
SUPPORTO_MANIGLIA
 10
-15
 20
-4.7662
 30
145.7271
 70
192
 0
VERTEX
 8
SUPPORTO_MANIGLIA
 10
-11.2003
 20
-4.7662
 30
145.7271
 70
192
 0
VERTEX
 8
SUPPORTO_MANIGLIA
 10
-11.2003
 20
-4.7662
 30
145.7271
 70
192
 0
VERTEX
 8
SUPPORTO_MANIGLIA
 10
-15
 20
-4.8193
 30
145.6578
 70
192
 0
VERTEX
 8
SUPPORTO_MANIGLIA
 10
-15
 20
-4.8193
 30
145.6578
 70
192
 0
VERTEX
 8
SUPPORTO_MANIGLIA
 10
-11.2003
 20
-4.8193
 30
145.6578
 70
192
 0
VERTEX
 8
SUPPORTO_MANIGLIA
 10
-11.2003
 20
-4.8193
 30
145.6578
 70
192
 0
VERTEX
 8
SUPPORTO_MANIGLIA
 10
-15
 20
-4.8662
 30
145.5842
 70
192
 0
VERTEX
 8
SUPPORTO_MANIGLIA
 10
-15
 20
-4.8662
 30
145.5842
 70
192
 0
VERTEX
 8
SUPPORTO_MANIGLIA
 10
-11.2003
 20
-4.8662
 30
145.5842
 70
192
 0
VERTEX
 8
SUPPORTO_MANIGLIA
 10
-11.2003
 20
-4.8662
 30
145.5842
 70
192
 0
VERTEX
 8
SUPPORTO_MANIGLIA
 10
-15
 20
-4.9065
 30
145.5068
 70
192
 0
VERTEX
 8
SUPPORTO_MANIGLIA
 10
-15
 20
-4.9065
 30
145.5068
 70
192
 0
VERTEX
 8
SUPPORTO_MANIGLIA
 10
-11.2003
 20
-4.9065
 30
145.5068
 70
192
 0
VERTEX
 8
SUPPORTO_MANIGLIA
 10
-11.2003
 20
-4.9065
 30
145.5068
 70
192
 0
VERTEX
 8
SUPPORTO_MANIGLIA
 10
-15
 20
-4.9399
 30
145.4262
 70
192
 0
VERTEX
 8
SUPPORTO_MANIGLIA
 10
-15
 20
-4.9399
 30
145.4262
 70
192
 0
VERTEX
 8
SUPPORTO_MANIGLIA
 10
-11.2003
 20
-4.9399
 30
145.4262
 70
192
 0
VERTEX
 8
SUPPORTO_MANIGLIA
 10
-11.2003
 20
-4.9399
 30
145.4262
 70
192
 0
VERTEX
 8
SUPPORTO_MANIGLIA
 10
-15
 20
-4.9662
 30
145.3429
 70
192
 0
VERTEX
 8
SUPPORTO_MANIGLIA
 10
-15
 20
-4.9662
 30
145.3429
 70
192
 0
VERTEX
 8
SUPPORTO_MANIGLIA
 10
-11.2003
 20
-4.9662
 30
145.3429
 70
192
 0
VERTEX
 8
SUPPORTO_MANIGLIA
 10
-11.2003
 20
-4.9662
 30
145.3429
 70
192
 0
VERTEX
 8
SUPPORTO_MANIGLIA
 10
-15
 20
-4.985
 30
145.2577
 70
192
 0
VERTEX
 8
SUPPORTO_MANIGLIA
 10
-15
 20
-4.985
 30
145.2577
 70
192
 0
VERTEX
 8
SUPPORTO_MANIGLIA
 10
-11.2003
 20
-4.985
 30
145.2577
 70
192
 0
VERTEX
 8
SUPPORTO_MANIGLIA
 10
-11.2003
 20
-4.985
 30
145.2577
 70
192
 0
VERTEX
 8
SUPPORTO_MANIGLIA
 10
-15
 20
-4.9964
 30
145.1712
 70
192
 0
VERTEX
 8
SUPPORTO_MANIGLIA
 10
-15
 20
-4.9964
 30
145.1712
 70
192
 0
VERTEX
 8
SUPPORTO_MANIGLIA
 10
-11.2003
 20
-4.9964
 30
145.1712
 70
192
 0
VERTEX
 8
SUPPORTO_MANIGLIA
 10
-11.2003
 20
-4.9964
 30
145.1712
 70
192
 0
VERTEX
 8
SUPPORTO_MANIGLIA
 10
-15
 20
-5.0002
 30
145.084
 70
192
 0
VERTEX
 8
SUPPORTO_MANIGLIA
 10
-15
 20
-5.0002
 30
145.084
 70
192
 0
VERTEX
 8
SUPPORTO_MANIGLIA
 10
-11.2003
 20
-5.0002
 30
145.084
 70
192
 0
VERTEX
 8
SUPPORTO_MANIGLIA
 10
-11.2003
 20
-5.0002
 30
145.084
 70
192
 0
VERTEX
 8
SUPPORTO_MANIGLIA
 10
-15
 20
-4.9964
 30
144.9968
 70
192
 0
VERTEX
 8
SUPPORTO_MANIGLIA
 10
-15
 20
-4.9964
 30
144.9968
 70
192
 0
VERTEX
 8
SUPPORTO_MANIGLIA
 10
-11.2003
 20
-4.9964
 30
144.9968
 70
192
 0
VERTEX
 8
SUPPORTO_MANIGLIA
 10
-11.2003
 20
-4.9964
 30
144.9968
 70
192
 0
VERTEX
 8
SUPPORTO_MANIGLIA
 10
-15
 20
-4.985
 30
144.9102
 70
192
 0
VERTEX
 8
SUPPORTO_MANIGLIA
 10
-15
 20
-4.985
 30
144.9102
 70
192
 0
VERTEX
 8
SUPPORTO_MANIGLIA
 10
-11.2003
 20
-4.985
 30
144.9102
 70
192
 0
VERTEX
 8
SUPPORTO_MANIGLIA
 10
-11.2003
 20
-4.985
 30
144.9102
 70
192
 0
VERTEX
 8
SUPPORTO_MANIGLIA
 10
-15
 20
-4.9662
 30
144.825
 70
192
 0
VERTEX
 8
SUPPORTO_MANIGLIA
 10
-15
 20
-4.9662
 30
144.825
 70
192
 0
VERTEX
 8
SUPPORTO_MANIGLIA
 10
-11.2003
 20
-4.9662
 30
144.825
 70
192
 0
VERTEX
 8
SUPPORTO_MANIGLIA
 10
-11.2003
 20
-4.9662
 30
144.825
 70
192
 0
VERTEX
 8
SUPPORTO_MANIGLIA
 10
-15
 20
-4.9399
 30
144.7418
 70
192
 0
VERTEX
 8
SUPPORTO_MANIGLIA
 10
-15
 20
-4.9399
 30
144.7418
 70
192
 0
VERTEX
 8
SUPPORTO_MANIGLIA
 10
-11.2003
 20
-4.9399
 30
144.7418
 70
192
 0
VERTEX
 8
SUPPORTO_MANIGLIA
 10
-11.2003
 20
-4.9399
 30
144.7418
 70
192
 0
VERTEX
 8
SUPPORTO_MANIGLIA
 10
-15
 20
-4.9065
 30
144.6611
 70
192
 0
VERTEX
 8
SUPPORTO_MANIGLIA
 10
-15
 20
-4.9065
 30
144.6611
 70
192
 0
VERTEX
 8
SUPPORTO_MANIGLIA
 10
-11.2003
 20
-4.9065
 30
144.6611
 70
192
 0
VERTEX
 8
SUPPORTO_MANIGLIA
 10
-11.2003
 20
-4.9065
 30
144.6611
 70
192
 0
VERTEX
 8
SUPPORTO_MANIGLIA
 10
-15
 20
-4.8662
 30
144.5837
 70
192
 0
VERTEX
 8
SUPPORTO_MANIGLIA
 10
-15
 20
-4.8662
 30
144.5837
 70
192
 0
VERTEX
 8
SUPPORTO_MANIGLIA
 10
-11.2003
 20
-4.8662
 30
144.5837
 70
192
 0
VERTEX
 8
SUPPORTO_MANIGLIA
 10
-11.2003
 20
-4.8662
 30
144.5837
 70
192
 0
VERTEX
 8
SUPPORTO_MANIGLIA
 10
-15
 20
-4.8193
 30
144.5101
 70
192
 0
VERTEX
 8
SUPPORTO_MANIGLIA
 10
-15
 20
-4.8193
 30
144.5101
 70
192
 0
VERTEX
 8
SUPPORTO_MANIGLIA
 10
-11.2003
 20
-4.8193
 30
144.5101
 70
192
 0
VERTEX
 8
SUPPORTO_MANIGLIA
 10
-11.2003
 20
-4.8193
 30
144.5101
 70
192
 0
VERTEX
 8
SUPPORTO_MANIGLIA
 10
-15
 20
-4.7662
 30
144.4409
 70
192
 0
VERTEX
 8
SUPPORTO_MANIGLIA
 10
-15
 20
-4.7662
 30
144.4409
 70
192
 0
VERTEX
 8
SUPPORTO_MANIGLIA
 10
-11.2003
 20
-4.7662
 30
144.4409
 70
192
 0
VERTEX
 8
SUPPORTO_MANIGLIA
 10
-11.2003
 20
-4.7662
 30
144.4409
 70
192
 0
VERTEX
 8
SUPPORTO_MANIGLIA
 10
-15
 20
-4.7072
 30
144.3765
 70
192
 0
VERTEX
 8
SUPPORTO_MANIGLIA
 10
-15
 20
-4.7072
 30
144.3765
 70
192
 0
VERTEX
 8
SUPPORTO_MANIGLIA
 10
-11.2003
 20
-4.7072
 30
144.3765
 70
192
 0
VERTEX
 8
SUPPORTO_MANIGLIA
 10
-11.2003
 20
-4.7072
 30
144.3765
 70
192
 0
VERTEX
 8
SUPPORTO_MANIGLIA
 10
-15
 20
-4.6429
 30
144.3175
 70
192
 0
VERTEX
 8
SUPPORTO_MANIGLIA
 10
-15
 20
-4.6429
 30
144.3175
 70
192
 0
VERTEX
 8
SUPPORTO_MANIGLIA
 10
-11.2003
 20
-4.6429
 30
144.3175
 70
192
 0
VERTEX
 8
SUPPORTO_MANIGLIA
 10
-11.2003
 20
-4.6429
 30
144.3175
 70
192
 0
VERTEX
 8
SUPPORTO_MANIGLIA
 10
-15
 20
-4.5736
 30
144.2644
 70
192
 0
VERTEX
 8
SUPPORTO_MANIGLIA
 10
-15
 20
-4.5736
 30
144.2644
 70
192
 0
VERTEX
 8
SUPPORTO_MANIGLIA
 10
-11.2003
 20
-4.5736
 30
144.2644
 70
192
 0
VERTEX
 8
SUPPORTO_MANIGLIA
 10
-11.2003
 20
-4.5736
 30
144.2644
 70
192
 0
VERTEX
 8
SUPPORTO_MANIGLIA
 10
-15
 20
-4.5
 30
144.2175
 70
192
 0
VERTEX
 8
SUPPORTO_MANIGLIA
 10
-15
 20
-4.5
 30
144.2175
 70
192
 0
VERTEX
 8
SUPPORTO_MANIGLIA
 10
-11.2003
 20
-4.5
 30
144.2175
 70
192
 0
VERTEX
 8
SUPPORTO_MANIGLIA
 10
-11.2003
 20
-4.5
 30
144.2175
 70
192
 0
VERTEX
 8
SUPPORTO_MANIGLIA
 10
-15
 20
-4.4226
 30
144.1772
 70
192
 0
VERTEX
 8
SUPPORTO_MANIGLIA
 10
-15
 20
-4.4226
 30
144.1772
 70
192
 0
VERTEX
 8
SUPPORTO_MANIGLIA
 10
-11.2003
 20
-4.4226
 30
144.1772
 70
192
 0
VERTEX
 8
SUPPORTO_MANIGLIA
 10
-11.2003
 20
-4.4226
 30
144.1772
 70
192
 0
VERTEX
 8
SUPPORTO_MANIGLIA
 10
-15
 20
-4.3419
 30
144.1438
 70
192
 0
VERTEX
 8
SUPPORTO_MANIGLIA
 10
-15
 20
-4.3419
 30
144.1438
 70
192
 0
VERTEX
 8
SUPPORTO_MANIGLIA
 10
-11.2003
 20
-4.3419
 30
144.1438
 70
192
 0
VERTEX
 8
SUPPORTO_MANIGLIA
 10
-11.2003
 20
-4.3419
 30
144.1438
 70
192
 0
VERTEX
 8
SUPPORTO_MANIGLIA
 10
-15
 20
-4.2587
 30
144.1176
 70
192
 0
VERTEX
 8
SUPPORTO_MANIGLIA
 10
-15
 20
-4.2587
 30
144.1176
 70
192
 0
VERTEX
 8
SUPPORTO_MANIGLIA
 10
-11.2003
 20
-4.2587
 30
144.1176
 70
192
 0
VERTEX
 8
SUPPORTO_MANIGLIA
 10
-11.2003
 20
-4.2587
 30
144.1176
 70
192
 0
VERTEX
 8
SUPPORTO_MANIGLIA
 10
-15
 20
-4.1735
 30
144.0987
 70
192
 0
VERTEX
 8
SUPPORTO_MANIGLIA
 10
-15
 20
-4.1735
 30
144.0987
 70
192
 0
VERTEX
 8
SUPPORTO_MANIGLIA
 10
-11.2003
 20
-4.1735
 30
144.0987
 70
192
 0
VERTEX
 8
SUPPORTO_MANIGLIA
 10
-11.2003
 20
-4.1735
 30
144.0987
 70
192
 0
VERTEX
 8
SUPPORTO_MANIGLIA
 10
-15
 20
-4.0869
 30
144.0873
 70
192
 0
VERTEX
 8
SUPPORTO_MANIGLIA
 10
-15
 20
-4.0869
 30
144.0873
 70
192
 0
VERTEX
 8
SUPPORTO_MANIGLIA
 10
-11.2003
 20
-4.0869
 30
144.0873
 70
192
 0
VERTEX
 8
SUPPORTO_MANIGLIA
 10
-11.2003
 20
-4.0869
 30
144.0873
 70
192
 0
VERTEX
 8
SUPPORTO_MANIGLIA
 10
-15
 20
-3.9997
 30
144.0835
 70
192
 0
VERTEX
 8
SUPPORTO_MANIGLIA
 10
-15
 20
-3.9997
 30
144.0835
 70
192
 0
VERTEX
 8
SUPPORTO_MANIGLIA
 10
-11.2003
 20
-3.9997
 30
144.0835
 70
192
 0
VERTEX
 8
SUPPORTO_MANIGLIA
 10
-11.2003
 20
-3.9997
 30
144.0835
 70
192
 0
VERTEX
 8
SUPPORTO_MANIGLIA
 10
-15
 20
-3.9997
 30
145.084
 70
192
 0
VERTEX
 8
SUPPORTO_MANIGLIA
 10
-15
 20
-3.9997
 30
146.0845
 70
192
 0
VERTEX
 8
SUPPORTO_MANIGLIA
 10
-11.2003
 20
-3.9997
 30
146.0845
 70
192
 0
VERTEX
 8
SUPPORTO_MANIGLIA
 10
-11.2003
 20
-3.9997
 30
145.084
 70
192
 0
VERTEX
 8
SUPPORTO_MANIGLIA
 10
-15
 20
-3.9997
 30
145.084
 70
192
 0
VERTEX
 8
SUPPORTO_MANIGLIA
 10
-15
 20
-3.9997
 30
144.0835
 70
192
 0
VERTEX
 8
SUPPORTO_MANIGLIA
 10
-11.2003
 20
-3.9997
 30
144.0835
 70
192
 0
VERTEX
 8
SUPPORTO_MANIGLIA
 10
-11.2003
 20
-3.9997
 30
145.084
 70
192
 0
VERTEX
 8
SUPPORTO_MANIGLIA
 10
-15
 20
-0.9334
 30
145.0843
 70
192
 0
VERTEX
 8
SUPPORTO_MANIGLIA
 10
-15
 20
-0.9334
 30
146.0848
 70
192
 0
VERTEX
 8
SUPPORTO_MANIGLIA
 10
-11.2003
 20
-0.9334
 30
146.0848
 70
192
 0
VERTEX
 8
SUPPORTO_MANIGLIA
 10
-11.2003
 20
-0.9334
 30
145.0843
 70
192
 0
VERTEX
 8
SUPPORTO_MANIGLIA
 10
-15
 20
-0.9334
 30
145.0843
 70
192
 0
VERTEX
 8
SUPPORTO_MANIGLIA
 10
-15
 20
-0.9334
 30
144.0838
 70
192
 0
VERTEX
 8
SUPPORTO_MANIGLIA
 10
-11.2003
 20
-0.9334
 30
144.0838
 70
192
 0
VERTEX
 8
SUPPORTO_MANIGLIA
 10
-11.2003
 20
-0.9334
 30
145.0843
 70
192
 0
VERTEX
 8
SUPPORTO_MANIGLIA
 10
-15
 20
-0.3998
 30
145.0843
 70
192
 0
VERTEX
 8
SUPPORTO_MANIGLIA
 10
-15
 20
-0.3998
 30
146.0848
 70
192
 0
VERTEX
 8
SUPPORTO_MANIGLIA
 10
-11.2003
 20
-0.3998
 30
146.0848
 70
192
 0
VERTEX
 8
SUPPORTO_MANIGLIA
 10
-11.2003
 20
-0.3998
 30
145.0843
 70
192
 0
VERTEX
 8
SUPPORTO_MANIGLIA
 10
-15
 20
-0.3998
 30
145.0843
 70
192
 0
VERTEX
 8
SUPPORTO_MANIGLIA
 10
-15
 20
-0.3998
 30
144.0838
 70
192
 0
VERTEX
 8
SUPPORTO_MANIGLIA
 10
-11.2003
 20
-0.3998
 30
144.0838
 70
192
 0
VERTEX
 8
SUPPORTO_MANIGLIA
 10
-11.2003
 20
-0.3998
 30
145.0843
 70
192
 0
VERTEX
 8
SUPPORTO_MANIGLIA
 10
0
 20
0
 30
0
 70
128
 71
164
 72
172
 73
171
 74
163
 0
VERTEX
 8
SUPPORTO_MANIGLIA
 10
0
 20
0
 30
0
 70
128
 71
166
 72
174
 73
173
 74
165
 0
VERTEX
 8
SUPPORTO_MANIGLIA
 10
0
 20
0
 30
0
 70
128
 71
1
 72
3
 73
7
 74
7
 0
VERTEX
 8
SUPPORTO_MANIGLIA
 10
0
 20
0
 30
0
 70
128
 71
4
 72
5
 73
9
 74
8
 0
VERTEX
 8
SUPPORTO_MANIGLIA
 10
0
 20
0
 30
0
 70
128
 71
6
 72
2
 73
10
 74
10
 0
VERTEX
 8
SUPPORTO_MANIGLIA
 10
0
 20
0
 30
0
 70
128
 71
1
 72
7
 73
11
 74
11
 0
VERTEX
 8
SUPPORTO_MANIGLIA
 10
0
 20
0
 30
0
 70
128
 71
8
 72
9
 73
13
 74
12
 0
VERTEX
 8
SUPPORTO_MANIGLIA
 10
0
 20
0
 30
0
 70
128
 71
10
 72
2
 73
14
 74
14
 0
VERTEX
 8
SUPPORTO_MANIGLIA
 10
0
 20
0
 30
0
 70
128
 71
1
 72
11
 73
15
 74
15
 0
VERTEX
 8
SUPPORTO_MANIGLIA
 10
0
 20
0
 30
0
 70
128
 71
12
 72
13
 73
17
 74
16
 0
VERTEX
 8
SUPPORTO_MANIGLIA
 10
0
 20
0
 30
0
 70
128
 71
14
 72
2
 73
18
 74
18
 0
VERTEX
 8
SUPPORTO_MANIGLIA
 10
0
 20
0
 30
0
 70
128
 71
1
 72
15
 73
19
 74
19
 0
VERTEX
 8
SUPPORTO_MANIGLIA
 10
0
 20
0
 30
0
 70
128
 71
16
 72
17
 73
21
 74
20
 0
VERTEX
 8
SUPPORTO_MANIGLIA
 10
0
 20
0
 30
0
 70
128
 71
18
 72
2
 73
22
 74
22
 0
VERTEX
 8
SUPPORTO_MANIGLIA
 10
0
 20
0
 30
0
 70
128
 71
1
 72
19
 73
23
 74
23
 0
VERTEX
 8
SUPPORTO_MANIGLIA
 10
0
 20
0
 30
0
 70
128
 71
20
 72
21
 73
25
 74
24
 0
VERTEX
 8
SUPPORTO_MANIGLIA
 10
0
 20
0
 30
0
 70
128
 71
22
 72
2
 73
26
 74
26
 0
VERTEX
 8
SUPPORTO_MANIGLIA
 10
0
 20
0
 30
0
 70
128
 71
1
 72
23
 73
27
 74
27
 0
VERTEX
 8
SUPPORTO_MANIGLIA
 10
0
 20
0
 30
0
 70
128
 71
24
 72
25
 73
29
 74
28
 0
VERTEX
 8
SUPPORTO_MANIGLIA
 10
0
 20
0
 30
0
 70
128
 71
26
 72
2
 73
30
 74
30
 0
VERTEX
 8
SUPPORTO_MANIGLIA
 10
0
 20
0
 30
0
 70
128
 71
1
 72
27
 73
31
 74
31
 0
VERTEX
 8
SUPPORTO_MANIGLIA
 10
0
 20
0
 30
0
 70
128
 71
28
 72
29
 73
33
 74
32
 0
VERTEX
 8
SUPPORTO_MANIGLIA
 10
0
 20
0
 30
0
 70
128
 71
30
 72
2
 73
34
 74
34
 0
VERTEX
 8
SUPPORTO_MANIGLIA
 10
0
 20
0
 30
0
 70
128
 71
1
 72
31
 73
35
 74
35
 0
VERTEX
 8
SUPPORTO_MANIGLIA
 10
0
 20
0
 30
0
 70
128
 71
32
 72
33
 73
37
 74
36
 0
VERTEX
 8
SUPPORTO_MANIGLIA
 10
0
 20
0
 30
0
 70
128
 71
34
 72
2
 73
38
 74
38
 0
VERTEX
 8
SUPPORTO_MANIGLIA
 10
0
 20
0
 30
0
 70
128
 71
1
 72
35
 73
39
 74
39
 0
VERTEX
 8
SUPPORTO_MANIGLIA
 10
0
 20
0
 30
0
 70
128
 71
36
 72
37
 73
41
 74
40
 0
VERTEX
 8
SUPPORTO_MANIGLIA
 10
0
 20
0
 30
0
 70
128
 71
38
 72
2
 73
42
 74
42
 0
VERTEX
 8
SUPPORTO_MANIGLIA
 10
0
 20
0
 30
0
 70
128
 71
1
 72
39
 73
43
 74
43
 0
VERTEX
 8
SUPPORTO_MANIGLIA
 10
0
 20
0
 30
0
 70
128
 71
40
 72
41
 73
45
 74
44
 0
VERTEX
 8
SUPPORTO_MANIGLIA
 10
0
 20
0
 30
0
 70
128
 71
42
 72
2
 73
46
 74
46
 0
VERTEX
 8
SUPPORTO_MANIGLIA
 10
0
 20
0
 30
0
 70
128
 71
1
 72
43
 73
47
 74
47
 0
VERTEX
 8
SUPPORTO_MANIGLIA
 10
0
 20
0
 30
0
 70
128
 71
44
 72
45
 73
49
 74
48
 0
VERTEX
 8
SUPPORTO_MANIGLIA
 10
0
 20
0
 30
0
 70
128
 71
46
 72
2
 73
50
 74
50
 0
VERTEX
 8
SUPPORTO_MANIGLIA
 10
0
 20
0
 30
0
 70
128
 71
1
 72
47
 73
51
 74
51
 0
VERTEX
 8
SUPPORTO_MANIGLIA
 10
0
 20
0
 30
0
 70
128
 71
48
 72
49
 73
53
 74
52
 0
VERTEX
 8
SUPPORTO_MANIGLIA
 10
0
 20
0
 30
0
 70
128
 71
50
 72
2
 73
54
 74
54
 0
VERTEX
 8
SUPPORTO_MANIGLIA
 10
0
 20
0
 30
0
 70
128
 71
1
 72
51
 73
55
 74
55
 0
VERTEX
 8
SUPPORTO_MANIGLIA
 10
0
 20
0
 30
0
 70
128
 71
52
 72
53
 73
57
 74
56
 0
VERTEX
 8
SUPPORTO_MANIGLIA
 10
0
 20
0
 30
0
 70
128
 71
54
 72
2
 73
58
 74
58
 0
VERTEX
 8
SUPPORTO_MANIGLIA
 10
0
 20
0
 30
0
 70
128
 71
1
 72
55
 73
59
 74
59
 0
VERTEX
 8
SUPPORTO_MANIGLIA
 10
0
 20
0
 30
0
 70
128
 71
56
 72
57
 73
61
 74
60
 0
VERTEX
 8
SUPPORTO_MANIGLIA
 10
0
 20
0
 30
0
 70
128
 71
58
 72
2
 73
62
 74
62
 0
VERTEX
 8
SUPPORTO_MANIGLIA
 10
0
 20
0
 30
0
 70
128
 71
1
 72
59
 73
63
 74
63
 0
VERTEX
 8
SUPPORTO_MANIGLIA
 10
0
 20
0
 30
0
 70
128
 71
60
 72
61
 73
65
 74
64
 0
VERTEX
 8
SUPPORTO_MANIGLIA
 10
0
 20
0
 30
0
 70
128
 71
62
 72
2
 73
66
 74
66
 0
VERTEX
 8
SUPPORTO_MANIGLIA
 10
0
 20
0
 30
0
 70
128
 71
1
 72
63
 73
67
 74
67
 0
VERTEX
 8
SUPPORTO_MANIGLIA
 10
0
 20
0
 30
0
 70
128
 71
64
 72
65
 73
69
 74
68
 0
VERTEX
 8
SUPPORTO_MANIGLIA
 10
0
 20
0
 30
0
 70
128
 71
66
 72
2
 73
70
 74
70
 0
VERTEX
 8
SUPPORTO_MANIGLIA
 10
0
 20
0
 30
0
 70
128
 71
1
 72
67
 73
71
 74
71
 0
VERTEX
 8
SUPPORTO_MANIGLIA
 10
0
 20
0
 30
0
 70
128
 71
68
 72
69
 73
73
 74
72
 0
VERTEX
 8
SUPPORTO_MANIGLIA
 10
0
 20
0
 30
0
 70
128
 71
70
 72
2
 73
74
 74
74
 0
VERTEX
 8
SUPPORTO_MANIGLIA
 10
0
 20
0
 30
0
 70
128
 71
1
 72
71
 73
75
 74
75
 0
VERTEX
 8
SUPPORTO_MANIGLIA
 10
0
 20
0
 30
0
 70
128
 71
72
 72
73
 73
77
 74
76
 0
VERTEX
 8
SUPPORTO_MANIGLIA
 10
0
 20
0
 30
0
 70
128
 71
74
 72
2
 73
78
 74
78
 0
VERTEX
 8
SUPPORTO_MANIGLIA
 10
0
 20
0
 30
0
 70
128
 71
1
 72
75
 73
79
 74
79
 0
VERTEX
 8
SUPPORTO_MANIGLIA
 10
0
 20
0
 30
0
 70
128
 71
76
 72
77
 73
81
 74
80
 0
VERTEX
 8
SUPPORTO_MANIGLIA
 10
0
 20
0
 30
0
 70
128
 71
78
 72
2
 73
82
 74
82
 0
VERTEX
 8
SUPPORTO_MANIGLIA
 10
0
 20
0
 30
0
 70
128
 71
1
 72
79
 73
83
 74
83
 0
VERTEX
 8
SUPPORTO_MANIGLIA
 10
0
 20
0
 30
0
 70
128
 71
80
 72
81
 73
85
 74
84
 0
VERTEX
 8
SUPPORTO_MANIGLIA
 10
0
 20
0
 30
0
 70
128
 71
82
 72
2
 73
86
 74
86
 0
VERTEX
 8
SUPPORTO_MANIGLIA
 10
0
 20
0
 30
0
 70
128
 71
1
 72
83
 73
87
 74
87
 0
VERTEX
 8
SUPPORTO_MANIGLIA
 10
0
 20
0
 30
0
 70
128
 71
84
 72
85
 73
89
 74
88
 0
VERTEX
 8
SUPPORTO_MANIGLIA
 10
0
 20
0
 30
0
 70
128
 71
86
 72
2
 73
90
 74
90
 0
VERTEX
 8
SUPPORTO_MANIGLIA
 10
0
 20
0
 30
0
 70
128
 71
1
 72
87
 73
91
 74
91
 0
VERTEX
 8
SUPPORTO_MANIGLIA
 10
0
 20
0
 30
0
 70
128
 71
88
 72
89
 73
93
 74
92
 0
VERTEX
 8
SUPPORTO_MANIGLIA
 10
0
 20
0
 30
0
 70
128
 71
90
 72
2
 73
94
 74
94
 0
VERTEX
 8
SUPPORTO_MANIGLIA
 10
0
 20
0
 30
0
 70
128
 71
1
 72
91
 73
95
 74
95
 0
VERTEX
 8
SUPPORTO_MANIGLIA
 10
0
 20
0
 30
0
 70
128
 71
92
 72
93
 73
97
 74
96
 0
VERTEX
 8
SUPPORTO_MANIGLIA
 10
0
 20
0
 30
0
 70
128
 71
94
 72
2
 73
98
 74
98
 0
VERTEX
 8
SUPPORTO_MANIGLIA
 10
0
 20
0
 30
0
 70
128
 71
1
 72
95
 73
99
 74
99
 0
VERTEX
 8
SUPPORTO_MANIGLIA
 10
0
 20
0
 30
0
 70
128
 71
96
 72
97
 73
101
 74
100
 0
VERTEX
 8
SUPPORTO_MANIGLIA
 10
0
 20
0
 30
0
 70
128
 71
98
 72
2
 73
102
 74
102
 0
VERTEX
 8
SUPPORTO_MANIGLIA
 10
0
 20
0
 30
0
 70
128
 71
1
 72
99
 73
103
 74
103
 0
VERTEX
 8
SUPPORTO_MANIGLIA
 10
0
 20
0
 30
0
 70
128
 71
100
 72
101
 73
105
 74
104
 0
VERTEX
 8
SUPPORTO_MANIGLIA
 10
0
 20
0
 30
0
 70
128
 71
102
 72
2
 73
106
 74
106
 0
VERTEX
 8
SUPPORTO_MANIGLIA
 10
0
 20
0
 30
0
 70
128
 71
1
 72
103
 73
107
 74
107
 0
VERTEX
 8
SUPPORTO_MANIGLIA
 10
0
 20
0
 30
0
 70
128
 71
104
 72
105
 73
109
 74
108
 0
VERTEX
 8
SUPPORTO_MANIGLIA
 10
0
 20
0
 30
0
 70
128
 71
106
 72
2
 73
110
 74
110
 0
VERTEX
 8
SUPPORTO_MANIGLIA
 10
0
 20
0
 30
0
 70
128
 71
1
 72
107
 73
111
 74
111
 0
VERTEX
 8
SUPPORTO_MANIGLIA
 10
0
 20
0
 30
0
 70
128
 71
108
 72
109
 73
113
 74
112
 0
VERTEX
 8
SUPPORTO_MANIGLIA
 10
0
 20
0
 30
0
 70
128
 71
110
 72
2
 73
114
 74
114
 0
VERTEX
 8
SUPPORTO_MANIGLIA
 10
0
 20
0
 30
0
 70
128
 71
1
 72
111
 73
115
 74
115
 0
VERTEX
 8
SUPPORTO_MANIGLIA
 10
0
 20
0
 30
0
 70
128
 71
112
 72
113
 73
117
 74
116
 0
VERTEX
 8
SUPPORTO_MANIGLIA
 10
0
 20
0
 30
0
 70
128
 71
114
 72
2
 73
118
 74
118
 0
VERTEX
 8
SUPPORTO_MANIGLIA
 10
0
 20
0
 30
0
 70
128
 71
1
 72
115
 73
119
 74
119
 0
VERTEX
 8
SUPPORTO_MANIGLIA
 10
0
 20
0
 30
0
 70
128
 71
116
 72
117
 73
121
 74
120
 0
VERTEX
 8
SUPPORTO_MANIGLIA
 10
0
 20
0
 30
0
 70
128
 71
118
 72
2
 73
122
 74
122
 0
VERTEX
 8
SUPPORTO_MANIGLIA
 10
0
 20
0
 30
0
 70
128
 71
1
 72
119
 73
123
 74
123
 0
VERTEX
 8
SUPPORTO_MANIGLIA
 10
0
 20
0
 30
0
 70
128
 71
120
 72
121
 73
125
 74
124
 0
VERTEX
 8
SUPPORTO_MANIGLIA
 10
0
 20
0
 30
0
 70
128
 71
122
 72
2
 73
126
 74
126
 0
VERTEX
 8
SUPPORTO_MANIGLIA
 10
0
 20
0
 30
0
 70
128
 71
1
 72
123
 73
127
 74
127
 0
VERTEX
 8
SUPPORTO_MANIGLIA
 10
0
 20
0
 30
0
 70
128
 71
124
 72
125
 73
129
 74
128
 0
VERTEX
 8
SUPPORTO_MANIGLIA
 10
0
 20
0
 30
0
 70
128
 71
126
 72
2
 73
130
 74
130
 0
VERTEX
 8
SUPPORTO_MANIGLIA
 10
0
 20
0
 30
0
 70
128
 71
1
 72
127
 73
131
 74
131
 0
VERTEX
 8
SUPPORTO_MANIGLIA
 10
0
 20
0
 30
0
 70
128
 71
128
 72
129
 73
133
 74
132
 0
VERTEX
 8
SUPPORTO_MANIGLIA
 10
0
 20
0
 30
0
 70
128
 71
130
 72
2
 73
134
 74
134
 0
VERTEX
 8
SUPPORTO_MANIGLIA
 10
0
 20
0
 30
0
 70
128
 71
1
 72
131
 73
135
 74
135
 0
VERTEX
 8
SUPPORTO_MANIGLIA
 10
0
 20
0
 30
0
 70
128
 71
132
 72
133
 73
137
 74
136
 0
VERTEX
 8
SUPPORTO_MANIGLIA
 10
0
 20
0
 30
0
 70
128
 71
134
 72
2
 73
138
 74
138
 0
VERTEX
 8
SUPPORTO_MANIGLIA
 10
0
 20
0
 30
0
 70
128
 71
1
 72
135
 73
139
 74
139
 0
VERTEX
 8
SUPPORTO_MANIGLIA
 10
0
 20
0
 30
0
 70
128
 71
136
 72
137
 73
141
 74
140
 0
VERTEX
 8
SUPPORTO_MANIGLIA
 10
0
 20
0
 30
0
 70
128
 71
138
 72
2
 73
142
 74
142
 0
VERTEX
 8
SUPPORTO_MANIGLIA
 10
0
 20
0
 30
0
 70
128
 71
1
 72
139
 73
143
 74
143
 0
VERTEX
 8
SUPPORTO_MANIGLIA
 10
0
 20
0
 30
0
 70
128
 71
140
 72
141
 73
145
 74
144
 0
VERTEX
 8
SUPPORTO_MANIGLIA
 10
0
 20
0
 30
0
 70
128
 71
142
 72
2
 73
146
 74
146
 0
VERTEX
 8
SUPPORTO_MANIGLIA
 10
0
 20
0
 30
0
 70
128
 71
1
 72
143
 73
147
 74
147
 0
VERTEX
 8
SUPPORTO_MANIGLIA
 10
0
 20
0
 30
0
 70
128
 71
144
 72
145
 73
149
 74
148
 0
VERTEX
 8
SUPPORTO_MANIGLIA
 10
0
 20
0
 30
0
 70
128
 71
146
 72
2
 73
150
 74
150
 0
VERTEX
 8
SUPPORTO_MANIGLIA
 10
0
 20
0
 30
0
 70
128
 71
167
 72
170
 73
169
 74
168
 0
VERTEX
 8
SUPPORTO_MANIGLIA
 10
0
 20
0
 30
0
 70
128
 71
171
 72
172
 73
173
 74
174
 0
VERTEX
 8
SUPPORTO_MANIGLIA
 10
0
 20
0
 30
0
 70
128
 71
151
 72
159
 73
160
 74
152
 0
VERTEX
 8
SUPPORTO_MANIGLIA
 10
0
 20
0
 30
0
 70
128
 71
152
 72
160
 73
161
 74
153
 0
VERTEX
 8
SUPPORTO_MANIGLIA
 10
0
 20
0
 30
0
 70
128
 71
153
 72
161
 73
162
 74
154
 0
VERTEX
 8
SUPPORTO_MANIGLIA
 10
0
 20
0
 30
0
 70
128
 71
154
 72
162
 73
159
 74
151
 0
VERTEX
 8
SUPPORTO_MANIGLIA
 10
0
 20
0
 30
0
 70
128
 71
155
 72
163
 73
166
 74
158
 0
VERTEX
 8
SUPPORTO_MANIGLIA
 10
0
 20
0
 30
0
 70
128
 71
158
 72
166
 73
165
 74
157
 0
VERTEX
 8
SUPPORTO_MANIGLIA
 10
0
 20
0
 30
0
 70
128
 71
157
 72
165
 73
164
 74
156
 0
VERTEX
 8
SUPPORTO_MANIGLIA
 10
0
 20
0
 30
0
 70
128
 71
156
 72
164
 73
163
 74
155
 0
VERTEX
 8
SUPPORTO_MANIGLIA
 10
0
 20
0
 30
0
 70
128
 71
159
 72
167
 73
168
 74
160
 0
VERTEX
 8
SUPPORTO_MANIGLIA
 10
0
 20
0
 30
0
 70
128
 71
160
 72
168
 73
169
 74
161
 0
VERTEX
 8
SUPPORTO_MANIGLIA
 10
0
 20
0
 30
0
 70
128
 71
161
 72
169
 73
170
 74
162
 0
VERTEX
 8
SUPPORTO_MANIGLIA
 10
0
 20
0
 30
0
 70
128
 71
162
 72
170
 73
167
 74
159
 0
VERTEX
 8
SUPPORTO_MANIGLIA
 10
0
 20
0
 30
0
 70
128
 71
163
 72
171
 73
174
 74
166
 0
VERTEX
 8
SUPPORTO_MANIGLIA
 10
0
 20
0
 30
0
 70
128
 71
164
 72
165
 73
173
 74
172
 0
SEQEND
 0
POLYLINE
 8
CILINDRO_DUPLICATORE
 66
1
 10
0.0
 20
0.0
 30
0.0
 70
64
 71
146
 72
108
 0
VERTEX
 8
CILINDRO_DUPLICATORE
 10
11.0383
 20
-3.9997
 30
145.084
 70
192
 0
VERTEX
 8
CILINDRO_DUPLICATORE
 10
11.1984
 20
-3.9997
 30
145.084
 70
192
 0
VERTEX
 8
CILINDRO_DUPLICATORE
 10
11.0383
 20
-3.9997
 30
144.0835
 70
192
 0
VERTEX
 8
CILINDRO_DUPLICATORE
 10
11.0383
 20
-3.9997
 30
144.0835
 70
192
 0
VERTEX
 8
CILINDRO_DUPLICATORE
 10
11.1984
 20
-3.9997
 30
144.0835
 70
192
 0
VERTEX
 8
CILINDRO_DUPLICATORE
 10
11.1984
 20
-3.9997
 30
144.0835
 70
192
 0
VERTEX
 8
CILINDRO_DUPLICATORE
 10
11.0383
 20
-3.826
 30
144.0987
 70
192
 0
VERTEX
 8
CILINDRO_DUPLICATORE
 10
11.0383
 20
-3.826
 30
144.0987
 70
192
 0
VERTEX
 8
CILINDRO_DUPLICATORE
 10
11.1984
 20
-3.826
 30
144.0987
 70
192
 0
VERTEX
 8
CILINDRO_DUPLICATORE
 10
11.1984
 20
-3.826
 30
144.0987
 70
192
 0
VERTEX
 8
CILINDRO_DUPLICATORE
 10
11.0383
 20
-3.6576
 30
144.1438
 70
192
 0
VERTEX
 8
CILINDRO_DUPLICATORE
 10
11.0383
 20
-3.6576
 30
144.1438
 70
192
 0
VERTEX
 8
CILINDRO_DUPLICATORE
 10
11.1984
 20
-3.6576
 30
144.1438
 70
192
 0
VERTEX
 8
CILINDRO_DUPLICATORE
 10
11.1984
 20
-3.6576
 30
144.1438
 70
192
 0
VERTEX
 8
CILINDRO_DUPLICATORE
 10
11.0383
 20
-3.4995
 30
144.2175
 70
192
 0
VERTEX
 8
CILINDRO_DUPLICATORE
 10
11.0383
 20
-3.4995
 30
144.2175
 70
192
 0
VERTEX
 8
CILINDRO_DUPLICATORE
 10
11.1984
 20
-3.4995
 30
144.2175
 70
192
 0
VERTEX
 8
CILINDRO_DUPLICATORE
 10
11.1984
 20
-3.4995
 30
144.2175
 70
192
 0
VERTEX
 8
CILINDRO_DUPLICATORE
 10
11.0383
 20
-3.3566
 30
144.3175
 70
192
 0
VERTEX
 8
CILINDRO_DUPLICATORE
 10
11.0383
 20
-3.3566
 30
144.3175
 70
192
 0
VERTEX
 8
CILINDRO_DUPLICATORE
 10
11.1984
 20
-3.3566
 30
144.3175
 70
192
 0
VERTEX
 8
CILINDRO_DUPLICATORE
 10
11.1984
 20
-3.3566
 30
144.3175
 70
192
 0
VERTEX
 8
CILINDRO_DUPLICATORE
 10
11.0383
 20
-3.2333
 30
144.4409
 70
192
 0
VERTEX
 8
CILINDRO_DUPLICATORE
 10
11.0383
 20
-3.2333
 30
144.4409
 70
192
 0
VERTEX
 8
CILINDRO_DUPLICATORE
 10
11.1984
 20
-3.2333
 30
144.4409
 70
192
 0
VERTEX
 8
CILINDRO_DUPLICATORE
 10
11.1984
 20
-3.2333
 30
144.4409
 70
192
 0
VERTEX
 8
CILINDRO_DUPLICATORE
 10
11.0383
 20
-3.1333
 30
144.5837
 70
192
 0
VERTEX
 8
CILINDRO_DUPLICATORE
 10
11.0383
 20
-3.1333
 30
144.5837
 70
192
 0
VERTEX
 8
CILINDRO_DUPLICATORE
 10
11.1984
 20
-3.1333
 30
144.5837
 70
192
 0
VERTEX
 8
CILINDRO_DUPLICATORE
 10
11.1984
 20
-3.1333
 30
144.5837
 70
192
 0
VERTEX
 8
CILINDRO_DUPLICATORE
 10
11.0383
 20
-3.0596
 30
144.7418
 70
192
 0
VERTEX
 8
CILINDRO_DUPLICATORE
 10
11.0383
 20
-3.0596
 30
144.7418
 70
192
 0
VERTEX
 8
CILINDRO_DUPLICATORE
 10
11.1984
 20
-3.0596
 30
144.7418
 70
192
 0
VERTEX
 8
CILINDRO_DUPLICATORE
 10
11.1984
 20
-3.0596
 30
144.7418
 70
192
 0
VERTEX
 8
CILINDRO_DUPLICATORE
 10
11.0383
 20
-3.0144
 30
144.9102
 70
192
 0
VERTEX
 8
CILINDRO_DUPLICATORE
 10
11.0383
 20
-3.0144
 30
144.9102
 70
192
 0
VERTEX
 8
CILINDRO_DUPLICATORE
 10
11.1984
 20
-3.0144
 30
144.9102
 70
192
 0
VERTEX
 8
CILINDRO_DUPLICATORE
 10
11.1984
 20
-3.0144
 30
144.9102
 70
192
 0
VERTEX
 8
CILINDRO_DUPLICATORE
 10
11.0383
 20
-2.9992
 30
145.084
 70
192
 0
VERTEX
 8
CILINDRO_DUPLICATORE
 10
11.0383
 20
-2.9992
 30
145.084
 70
192
 0
VERTEX
 8
CILINDRO_DUPLICATORE
 10
11.1984
 20
-2.9992
 30
145.084
 70
192
 0
VERTEX
 8
CILINDRO_DUPLICATORE
 10
11.1984
 20
-2.9992
 30
145.084
 70
192
 0
VERTEX
 8
CILINDRO_DUPLICATORE
 10
11.0383
 20
-3.0144
 30
145.2577
 70
192
 0
VERTEX
 8
CILINDRO_DUPLICATORE
 10
11.0383
 20
-3.0144
 30
145.2577
 70
192
 0
VERTEX
 8
CILINDRO_DUPLICATORE
 10
11.1984
 20
-3.0144
 30
145.2577
 70
192
 0
VERTEX
 8
CILINDRO_DUPLICATORE
 10
11.1984
 20
-3.0144
 30
145.2577
 70
192
 0
VERTEX
 8
CILINDRO_DUPLICATORE
 10
11.0383
 20
-3.0596
 30
145.4262
 70
192
 0
VERTEX
 8
CILINDRO_DUPLICATORE
 10
11.0383
 20
-3.0596
 30
145.4262
 70
192
 0
VERTEX
 8
CILINDRO_DUPLICATORE
 10
11.1984
 20
-3.0596
 30
145.4262
 70
192
 0
VERTEX
 8
CILINDRO_DUPLICATORE
 10
11.1984
 20
-3.0596
 30
145.4262
 70
192
 0
VERTEX
 8
CILINDRO_DUPLICATORE
 10
11.0383
 20
-3.1333
 30
145.5842
 70
192
 0
VERTEX
 8
CILINDRO_DUPLICATORE
 10
11.0383
 20
-3.1333
 30
145.5842
 70
192
 0
VERTEX
 8
CILINDRO_DUPLICATORE
 10
11.1984
 20
-3.1333
 30
145.5842
 70
192
 0
VERTEX
 8
CILINDRO_DUPLICATORE
 10
11.1984
 20
-3.1333
 30
145.5842
 70
192
 0
VERTEX
 8
CILINDRO_DUPLICATORE
 10
11.0383
 20
-3.2333
 30
145.7271
 70
192
 0
VERTEX
 8
CILINDRO_DUPLICATORE
 10
11.0383
 20
-3.2333
 30
145.7271
 70
192
 0
VERTEX
 8
CILINDRO_DUPLICATORE
 10
11.1984
 20
-3.2333
 30
145.7271
 70
192
 0
VERTEX
 8
CILINDRO_DUPLICATORE
 10
11.1984
 20
-3.2333
 30
145.7271
 70
192
 0
VERTEX
 8
CILINDRO_DUPLICATORE
 10
11.0383
 20
-3.3566
 30
145.8504
 70
192
 0
VERTEX
 8
CILINDRO_DUPLICATORE
 10
11.0383
 20
-3.3566
 30
145.8504
 70
192
 0
VERTEX
 8
CILINDRO_DUPLICATORE
 10
11.1984
 20
-3.3566
 30
145.8504
 70
192
 0
VERTEX
 8
CILINDRO_DUPLICATORE
 10
11.1984
 20
-3.3566
 30
145.8504
 70
192
 0
VERTEX
 8
CILINDRO_DUPLICATORE
 10
11.0383
 20
-3.4995
 30
145.9504
 70
192
 0
VERTEX
 8
CILINDRO_DUPLICATORE
 10
11.0383
 20
-3.4995
 30
145.9504
 70
192
 0
VERTEX
 8
CILINDRO_DUPLICATORE
 10
11.1984
 20
-3.4995
 30
145.9504
 70
192
 0
VERTEX
 8
CILINDRO_DUPLICATORE
 10
11.1984
 20
-3.4995
 30
145.9504
 70
192
 0
VERTEX
 8
CILINDRO_DUPLICATORE
 10
11.0383
 20
-3.6576
 30
146.0241
 70
192
 0
VERTEX
 8
CILINDRO_DUPLICATORE
 10
11.0383
 20
-3.6576
 30
146.0241
 70
192
 0
VERTEX
 8
CILINDRO_DUPLICATORE
 10
11.1984
 20
-3.6576
 30
146.0241
 70
192
 0
VERTEX
 8
CILINDRO_DUPLICATORE
 10
11.1984
 20
-3.6576
 30
146.0241
 70
192
 0
VERTEX
 8
CILINDRO_DUPLICATORE
 10
11.0383
 20
-3.826
 30
146.0693
 70
192
 0
VERTEX
 8
CILINDRO_DUPLICATORE
 10
11.0383
 20
-3.826
 30
146.0693
 70
192
 0
VERTEX
 8
CILINDRO_DUPLICATORE
 10
11.1984
 20
-3.826
 30
146.0693
 70
192
 0
VERTEX
 8
CILINDRO_DUPLICATORE
 10
11.1984
 20
-3.826
 30
146.0693
 70
192
 0
VERTEX
 8
CILINDRO_DUPLICATORE
 10
11.0383
 20
-3.9997
 30
146.0845
 70
192
 0
VERTEX
 8
CILINDRO_DUPLICATORE
 10
11.0383
 20
-3.9997
 30
146.0845
 70
192
 0
VERTEX
 8
CILINDRO_DUPLICATORE
 10
11.1984
 20
-3.9997
 30
146.0845
 70
192
 0
VERTEX
 8
CILINDRO_DUPLICATORE
 10
11.1984
 20
-3.9997
 30
146.0845
 70
192
 0
VERTEX
 8
CILINDRO_DUPLICATORE
 10
11.0383
 20
-4.1735
 30
146.0693
 70
192
 0
VERTEX
 8
CILINDRO_DUPLICATORE
 10
11.0383
 20
-4.1735
 30
146.0693
 70
192
 0
VERTEX
 8
CILINDRO_DUPLICATORE
 10
11.1984
 20
-4.1735
 30
146.0693
 70
192
 0
VERTEX
 8
CILINDRO_DUPLICATORE
 10
11.1984
 20
-4.1735
 30
146.0693
 70
192
 0
VERTEX
 8
CILINDRO_DUPLICATORE
 10
11.0383
 20
-4.3419
 30
146.0241
 70
192
 0
VERTEX
 8
CILINDRO_DUPLICATORE
 10
11.0383
 20
-4.3419
 30
146.0241
 70
192
 0
VERTEX
 8
CILINDRO_DUPLICATORE
 10
11.1984
 20
-4.3419
 30
146.0241
 70
192
 0
VERTEX
 8
CILINDRO_DUPLICATORE
 10
11.1984
 20
-4.3419
 30
146.0241
 70
192
 0
VERTEX
 8
CILINDRO_DUPLICATORE
 10
11.0383
 20
-4.5
 30
145.9504
 70
192
 0
VERTEX
 8
CILINDRO_DUPLICATORE
 10
11.0383
 20
-4.5
 30
145.9504
 70
192
 0
VERTEX
 8
CILINDRO_DUPLICATORE
 10
11.1984
 20
-4.5
 30
145.9504
 70
192
 0
VERTEX
 8
CILINDRO_DUPLICATORE
 10
11.1984
 20
-4.5
 30
145.9504
 70
192
 0
VERTEX
 8
CILINDRO_DUPLICATORE
 10
11.0383
 20
-4.6429
 30
145.8504
 70
192
 0
VERTEX
 8
CILINDRO_DUPLICATORE
 10
11.0383
 20
-4.6429
 30
145.8504
 70
192
 0
VERTEX
 8
CILINDRO_DUPLICATORE
 10
11.1984
 20
-4.6429
 30
145.8504
 70
192
 0
VERTEX
 8
CILINDRO_DUPLICATORE
 10
11.1984
 20
-4.6429
 30
145.8504
 70
192
 0
VERTEX
 8
CILINDRO_DUPLICATORE
 10
11.0383
 20
-4.7662
 30
145.7271
 70
192
 0
VERTEX
 8
CILINDRO_DUPLICATORE
 10
11.0383
 20
-4.7662
 30
145.7271
 70
192
 0
VERTEX
 8
CILINDRO_DUPLICATORE
 10
11.1984
 20
-4.7662
 30
145.7271
 70
192
 0
VERTEX
 8
CILINDRO_DUPLICATORE
 10
11.1984
 20
-4.7662
 30
145.7271
 70
192
 0
VERTEX
 8
CILINDRO_DUPLICATORE
 10
11.0383
 20
-4.8662
 30
145.5842
 70
192
 0
VERTEX
 8
CILINDRO_DUPLICATORE
 10
11.0383
 20
-4.8662
 30
145.5842
 70
192
 0
VERTEX
 8
CILINDRO_DUPLICATORE
 10
11.1984
 20
-4.8662
 30
145.5842
 70
192
 0
VERTEX
 8
CILINDRO_DUPLICATORE
 10
11.1984
 20
-4.8662
 30
145.5842
 70
192
 0
VERTEX
 8
CILINDRO_DUPLICATORE
 10
11.0383
 20
-4.9399
 30
145.4262
 70
192
 0
VERTEX
 8
CILINDRO_DUPLICATORE
 10
11.0383
 20
-4.9399
 30
145.4262
 70
192
 0
VERTEX
 8
CILINDRO_DUPLICATORE
 10
11.1984
 20
-4.9399
 30
145.4262
 70
192
 0
VERTEX
 8
CILINDRO_DUPLICATORE
 10
11.1984
 20
-4.9399
 30
145.4262
 70
192
 0
VERTEX
 8
CILINDRO_DUPLICATORE
 10
11.0383
 20
-4.985
 30
145.2577
 70
192
 0
VERTEX
 8
CILINDRO_DUPLICATORE
 10
11.0383
 20
-4.985
 30
145.2577
 70
192
 0
VERTEX
 8
CILINDRO_DUPLICATORE
 10
11.1984
 20
-4.985
 30
145.2577
 70
192
 0
VERTEX
 8
CILINDRO_DUPLICATORE
 10
11.1984
 20
-4.985
 30
145.2577
 70
192
 0
VERTEX
 8
CILINDRO_DUPLICATORE
 10
11.0383
 20
-5.0002
 30
145.084
 70
192
 0
VERTEX
 8
CILINDRO_DUPLICATORE
 10
11.0383
 20
-5.0002
 30
145.084
 70
192
 0
VERTEX
 8
CILINDRO_DUPLICATORE
 10
11.1984
 20
-5.0002
 30
145.084
 70
192
 0
VERTEX
 8
CILINDRO_DUPLICATORE
 10
11.1984
 20
-5.0002
 30
145.084
 70
192
 0
VERTEX
 8
CILINDRO_DUPLICATORE
 10
11.0383
 20
-4.985
 30
144.9102
 70
192
 0
VERTEX
 8
CILINDRO_DUPLICATORE
 10
11.0383
 20
-4.985
 30
144.9102
 70
192
 0
VERTEX
 8
CILINDRO_DUPLICATORE
 10
11.1984
 20
-4.985
 30
144.9102
 70
192
 0
VERTEX
 8
CILINDRO_DUPLICATORE
 10
11.1984
 20
-4.985
 30
144.9102
 70
192
 0
VERTEX
 8
CILINDRO_DUPLICATORE
 10
11.0383
 20
-4.9399
 30
144.7418
 70
192
 0
VERTEX
 8
CILINDRO_DUPLICATORE
 10
11.0383
 20
-4.9399
 30
144.7418
 70
192
 0
VERTEX
 8
CILINDRO_DUPLICATORE
 10
11.1984
 20
-4.9399
 30
144.7418
 70
192
 0
VERTEX
 8
CILINDRO_DUPLICATORE
 10
11.1984
 20
-4.9399
 30
144.7418
 70
192
 0
VERTEX
 8
CILINDRO_DUPLICATORE
 10
11.0383
 20
-4.8662
 30
144.5837
 70
192
 0
VERTEX
 8
CILINDRO_DUPLICATORE
 10
11.0383
 20
-4.8662
 30
144.5837
 70
192
 0
VERTEX
 8
CILINDRO_DUPLICATORE
 10
11.1984
 20
-4.8662
 30
144.5837
 70
192
 0
VERTEX
 8
CILINDRO_DUPLICATORE
 10
11.1984
 20
-4.8662
 30
144.5837
 70
192
 0
VERTEX
 8
CILINDRO_DUPLICATORE
 10
11.0383
 20
-4.7662
 30
144.4409
 70
192
 0
VERTEX
 8
CILINDRO_DUPLICATORE
 10
11.0383
 20
-4.7662
 30
144.4409
 70
192
 0
VERTEX
 8
CILINDRO_DUPLICATORE
 10
11.1984
 20
-4.7662
 30
144.4409
 70
192
 0
VERTEX
 8
CILINDRO_DUPLICATORE
 10
11.1984
 20
-4.7662
 30
144.4409
 70
192
 0
VERTEX
 8
CILINDRO_DUPLICATORE
 10
11.0383
 20
-4.6429
 30
144.3175
 70
192
 0
VERTEX
 8
CILINDRO_DUPLICATORE
 10
11.0383
 20
-4.6429
 30
144.3175
 70
192
 0
VERTEX
 8
CILINDRO_DUPLICATORE
 10
11.1984
 20
-4.6429
 30
144.3175
 70
192
 0
VERTEX
 8
CILINDRO_DUPLICATORE
 10
11.1984
 20
-4.6429
 30
144.3175
 70
192
 0
VERTEX
 8
CILINDRO_DUPLICATORE
 10
11.0383
 20
-4.5
 30
144.2175
 70
192
 0
VERTEX
 8
CILINDRO_DUPLICATORE
 10
11.0383
 20
-4.5
 30
144.2175
 70
192
 0
VERTEX
 8
CILINDRO_DUPLICATORE
 10
11.1984
 20
-4.5
 30
144.2175
 70
192
 0
VERTEX
 8
CILINDRO_DUPLICATORE
 10
11.1984
 20
-4.5
 30
144.2175
 70
192
 0
VERTEX
 8
CILINDRO_DUPLICATORE
 10
11.0383
 20
-4.3419
 30
144.1438
 70
192
 0
VERTEX
 8
CILINDRO_DUPLICATORE
 10
11.0383
 20
-4.3419
 30
144.1438
 70
192
 0
VERTEX
 8
CILINDRO_DUPLICATORE
 10
11.1984
 20
-4.3419
 30
144.1438
 70
192
 0
VERTEX
 8
CILINDRO_DUPLICATORE
 10
11.1984
 20
-4.3419
 30
144.1438
 70
192
 0
VERTEX
 8
CILINDRO_DUPLICATORE
 10
11.0383
 20
-4.1735
 30
144.0987
 70
192
 0
VERTEX
 8
CILINDRO_DUPLICATORE
 10
11.0383
 20
-4.1735
 30
144.0987
 70
192
 0
VERTEX
 8
CILINDRO_DUPLICATORE
 10
11.1984
 20
-4.1735
 30
144.0987
 70
192
 0
VERTEX
 8
CILINDRO_DUPLICATORE
 10
11.1984
 20
-4.1735
 30
144.0987
 70
192
 0
VERTEX
 8
CILINDRO_DUPLICATORE
 10
0
 20
0
 30
0
 70
128
 71
1
 72
3
 73
7
 74
7
 0
VERTEX
 8
CILINDRO_DUPLICATORE
 10
0
 20
0
 30
0
 70
128
 71
4
 72
5
 73
9
 74
8
 0
VERTEX
 8
CILINDRO_DUPLICATORE
 10
0
 20
0
 30
0
 70
128
 71
6
 72
2
 73
10
 74
10
 0
VERTEX
 8
CILINDRO_DUPLICATORE
 10
0
 20
0
 30
0
 70
128
 71
1
 72
7
 73
11
 74
11
 0
VERTEX
 8
CILINDRO_DUPLICATORE
 10
0
 20
0
 30
0
 70
128
 71
8
 72
9
 73
13
 74
12
 0
VERTEX
 8
CILINDRO_DUPLICATORE
 10
0
 20
0
 30
0
 70
128
 71
10
 72
2
 73
14
 74
14
 0
VERTEX
 8
CILINDRO_DUPLICATORE
 10
0
 20
0
 30
0
 70
128
 71
1
 72
11
 73
15
 74
15
 0
VERTEX
 8
CILINDRO_DUPLICATORE
 10
0
 20
0
 30
0
 70
128
 71
12
 72
13
 73
17
 74
16
 0
VERTEX
 8
CILINDRO_DUPLICATORE
 10
0
 20
0
 30
0
 70
128
 71
14
 72
2
 73
18
 74
18
 0
VERTEX
 8
CILINDRO_DUPLICATORE
 10
0
 20
0
 30
0
 70
128
 71
1
 72
15
 73
19
 74
19
 0
VERTEX
 8
CILINDRO_DUPLICATORE
 10
0
 20
0
 30
0
 70
128
 71
16
 72
17
 73
21
 74
20
 0
VERTEX
 8
CILINDRO_DUPLICATORE
 10
0
 20
0
 30
0
 70
128
 71
18
 72
2
 73
22
 74
22
 0
VERTEX
 8
CILINDRO_DUPLICATORE
 10
0
 20
0
 30
0
 70
128
 71
1
 72
19
 73
23
 74
23
 0
VERTEX
 8
CILINDRO_DUPLICATORE
 10
0
 20
0
 30
0
 70
128
 71
20
 72
21
 73
25
 74
24
 0
VERTEX
 8
CILINDRO_DUPLICATORE
 10
0
 20
0
 30
0
 70
128
 71
22
 72
2
 73
26
 74
26
 0
VERTEX
 8
CILINDRO_DUPLICATORE
 10
0
 20
0
 30
0
 70
128
 71
1
 72
23
 73
27
 74
27
 0
VERTEX
 8
CILINDRO_DUPLICATORE
 10
0
 20
0
 30
0
 70
128
 71
24
 72
25
 73
29
 74
28
 0
VERTEX
 8
CILINDRO_DUPLICATORE
 10
0
 20
0
 30
0
 70
128
 71
26
 72
2
 73
30
 74
30
 0
VERTEX
 8
CILINDRO_DUPLICATORE
 10
0
 20
0
 30
0
 70
128
 71
1
 72
27
 73
31
 74
31
 0
VERTEX
 8
CILINDRO_DUPLICATORE
 10
0
 20
0
 30
0
 70
128
 71
28
 72
29
 73
33
 74
32
 0
VERTEX
 8
CILINDRO_DUPLICATORE
 10
0
 20
0
 30
0
 70
128
 71
30
 72
2
 73
34
 74
34
 0
VERTEX
 8
CILINDRO_DUPLICATORE
 10
0
 20
0
 30
0
 70
128
 71
1
 72
31
 73
35
 74
35
 0
VERTEX
 8
CILINDRO_DUPLICATORE
 10
0
 20
0
 30
0
 70
128
 71
32
 72
33
 73
37
 74
36
 0
VERTEX
 8
CILINDRO_DUPLICATORE
 10
0
 20
0
 30
0
 70
128
 71
34
 72
2
 73
38
 74
38
 0
VERTEX
 8
CILINDRO_DUPLICATORE
 10
0
 20
0
 30
0
 70
128
 71
1
 72
35
 73
39
 74
39
 0
VERTEX
 8
CILINDRO_DUPLICATORE
 10
0
 20
0
 30
0
 70
128
 71
36
 72
37
 73
41
 74
40
 0
VERTEX
 8
CILINDRO_DUPLICATORE
 10
0
 20
0
 30
0
 70
128
 71
38
 72
2
 73
42
 74
42
 0
VERTEX
 8
CILINDRO_DUPLICATORE
 10
0
 20
0
 30
0
 70
128
 71
1
 72
39
 73
43
 74
43
 0
VERTEX
 8
CILINDRO_DUPLICATORE
 10
0
 20
0
 30
0
 70
128
 71
40
 72
41
 73
45
 74
44
 0
VERTEX
 8
CILINDRO_DUPLICATORE
 10
0
 20
0
 30
0
 70
128
 71
42
 72
2
 73
46
 74
46
 0
VERTEX
 8
CILINDRO_DUPLICATORE
 10
0
 20
0
 30
0
 70
128
 71
1
 72
43
 73
47
 74
47
 0
VERTEX
 8
CILINDRO_DUPLICATORE
 10
0
 20
0
 30
0
 70
128
 71
44
 72
45
 73
49
 74
48
 0
VERTEX
 8
CILINDRO_DUPLICATORE
 10
0
 20
0
 30
0
 70
128
 71
46
 72
2
 73
50
 74
50
 0
VERTEX
 8
CILINDRO_DUPLICATORE
 10
0
 20
0
 30
0
 70
128
 71
1
 72
47
 73
51
 74
51
 0
VERTEX
 8
CILINDRO_DUPLICATORE
 10
0
 20
0
 30
0
 70
128
 71
48
 72
49
 73
53
 74
52
 0
VERTEX
 8
CILINDRO_DUPLICATORE
 10
0
 20
0
 30
0
 70
128
 71
50
 72
2
 73
54
 74
54
 0
VERTEX
 8
CILINDRO_DUPLICATORE
 10
0
 20
0
 30
0
 70
128
 71
1
 72
51
 73
55
 74
55
 0
VERTEX
 8
CILINDRO_DUPLICATORE
 10
0
 20
0
 30
0
 70
128
 71
52
 72
53
 73
57
 74
56
 0
VERTEX
 8
CILINDRO_DUPLICATORE
 10
0
 20
0
 30
0
 70
128
 71
54
 72
2
 73
58
 74
58
 0
VERTEX
 8
CILINDRO_DUPLICATORE
 10
0
 20
0
 30
0
 70
128
 71
1
 72
55
 73
59
 74
59
 0
VERTEX
 8
CILINDRO_DUPLICATORE
 10
0
 20
0
 30
0
 70
128
 71
56
 72
57
 73
61
 74
60
 0
VERTEX
 8
CILINDRO_DUPLICATORE
 10
0
 20
0
 30
0
 70
128
 71
58
 72
2
 73
62
 74
62
 0
VERTEX
 8
CILINDRO_DUPLICATORE
 10
0
 20
0
 30
0
 70
128
 71
1
 72
59
 73
63
 74
63
 0
VERTEX
 8
CILINDRO_DUPLICATORE
 10
0
 20
0
 30
0
 70
128
 71
60
 72
61
 73
65
 74
64
 0
VERTEX
 8
CILINDRO_DUPLICATORE
 10
0
 20
0
 30
0
 70
128
 71
62
 72
2
 73
66
 74
66
 0
VERTEX
 8
CILINDRO_DUPLICATORE
 10
0
 20
0
 30
0
 70
128
 71
1
 72
63
 73
67
 74
67
 0
VERTEX
 8
CILINDRO_DUPLICATORE
 10
0
 20
0
 30
0
 70
128
 71
64
 72
65
 73
69
 74
68
 0
VERTEX
 8
CILINDRO_DUPLICATORE
 10
0
 20
0
 30
0
 70
128
 71
66
 72
2
 73
70
 74
70
 0
VERTEX
 8
CILINDRO_DUPLICATORE
 10
0
 20
0
 30
0
 70
128
 71
1
 72
67
 73
71
 74
71
 0
VERTEX
 8
CILINDRO_DUPLICATORE
 10
0
 20
0
 30
0
 70
128
 71
68
 72
69
 73
73
 74
72
 0
VERTEX
 8
CILINDRO_DUPLICATORE
 10
0
 20
0
 30
0
 70
128
 71
70
 72
2
 73
74
 74
74
 0
VERTEX
 8
CILINDRO_DUPLICATORE
 10
0
 20
0
 30
0
 70
128
 71
1
 72
71
 73
75
 74
75
 0
VERTEX
 8
CILINDRO_DUPLICATORE
 10
0
 20
0
 30
0
 70
128
 71
72
 72
73
 73
77
 74
76
 0
VERTEX
 8
CILINDRO_DUPLICATORE
 10
0
 20
0
 30
0
 70
128
 71
74
 72
2
 73
78
 74
78
 0
VERTEX
 8
CILINDRO_DUPLICATORE
 10
0
 20
0
 30
0
 70
128
 71
1
 72
75
 73
79
 74
79
 0
VERTEX
 8
CILINDRO_DUPLICATORE
 10
0
 20
0
 30
0
 70
128
 71
76
 72
77
 73
81
 74
80
 0
VERTEX
 8
CILINDRO_DUPLICATORE
 10
0
 20
0
 30
0
 70
128
 71
78
 72
2
 73
82
 74
82
 0
VERTEX
 8
CILINDRO_DUPLICATORE
 10
0
 20
0
 30
0
 70
128
 71
1
 72
79
 73
83
 74
83
 0
VERTEX
 8
CILINDRO_DUPLICATORE
 10
0
 20
0
 30
0
 70
128
 71
80
 72
81
 73
85
 74
84
 0
VERTEX
 8
CILINDRO_DUPLICATORE
 10
0
 20
0
 30
0
 70
128
 71
82
 72
2
 73
86
 74
86
 0
VERTEX
 8
CILINDRO_DUPLICATORE
 10
0
 20
0
 30
0
 70
128
 71
1
 72
83
 73
87
 74
87
 0
VERTEX
 8
CILINDRO_DUPLICATORE
 10
0
 20
0
 30
0
 70
128
 71
84
 72
85
 73
89
 74
88
 0
VERTEX
 8
CILINDRO_DUPLICATORE
 10
0
 20
0
 30
0
 70
128
 71
86
 72
2
 73
90
 74
90
 0
VERTEX
 8
CILINDRO_DUPLICATORE
 10
0
 20
0
 30
0
 70
128
 71
1
 72
87
 73
91
 74
91
 0
VERTEX
 8
CILINDRO_DUPLICATORE
 10
0
 20
0
 30
0
 70
128
 71
88
 72
89
 73
93
 74
92
 0
VERTEX
 8
CILINDRO_DUPLICATORE
 10
0
 20
0
 30
0
 70
128
 71
90
 72
2
 73
94
 74
94
 0
VERTEX
 8
CILINDRO_DUPLICATORE
 10
0
 20
0
 30
0
 70
128
 71
1
 72
91
 73
95
 74
95
 0
VERTEX
 8
CILINDRO_DUPLICATORE
 10
0
 20
0
 30
0
 70
128
 71
92
 72
93
 73
97
 74
96
 0
VERTEX
 8
CILINDRO_DUPLICATORE
 10
0
 20
0
 30
0
 70
128
 71
94
 72
2
 73
98
 74
98
 0
VERTEX
 8
CILINDRO_DUPLICATORE
 10
0
 20
0
 30
0
 70
128
 71
1
 72
95
 73
99
 74
99
 0
VERTEX
 8
CILINDRO_DUPLICATORE
 10
0
 20
0
 30
0
 70
128
 71
96
 72
97
 73
101
 74
100
 0
VERTEX
 8
CILINDRO_DUPLICATORE
 10
0
 20
0
 30
0
 70
128
 71
98
 72
2
 73
102
 74
102
 0
VERTEX
 8
CILINDRO_DUPLICATORE
 10
0
 20
0
 30
0
 70
128
 71
1
 72
99
 73
103
 74
103
 0
VERTEX
 8
CILINDRO_DUPLICATORE
 10
0
 20
0
 30
0
 70
128
 71
100
 72
101
 73
105
 74
104
 0
VERTEX
 8
CILINDRO_DUPLICATORE
 10
0
 20
0
 30
0
 70
128
 71
102
 72
2
 73
106
 74
106
 0
VERTEX
 8
CILINDRO_DUPLICATORE
 10
0
 20
0
 30
0
 70
128
 71
1
 72
103
 73
107
 74
107
 0
VERTEX
 8
CILINDRO_DUPLICATORE
 10
0
 20
0
 30
0
 70
128
 71
104
 72
105
 73
109
 74
108
 0
VERTEX
 8
CILINDRO_DUPLICATORE
 10
0
 20
0
 30
0
 70
128
 71
106
 72
2
 73
110
 74
110
 0
VERTEX
 8
CILINDRO_DUPLICATORE
 10
0
 20
0
 30
0
 70
128
 71
1
 72
107
 73
111
 74
111
 0
VERTEX
 8
CILINDRO_DUPLICATORE
 10
0
 20
0
 30
0
 70
128
 71
108
 72
109
 73
113
 74
112
 0
VERTEX
 8
CILINDRO_DUPLICATORE
 10
0
 20
0
 30
0
 70
128
 71
110
 72
2
 73
114
 74
114
 0
VERTEX
 8
CILINDRO_DUPLICATORE
 10
0
 20
0
 30
0
 70
128
 71
1
 72
111
 73
115
 74
115
 0
VERTEX
 8
CILINDRO_DUPLICATORE
 10
0
 20
0
 30
0
 70
128
 71
112
 72
113
 73
117
 74
116
 0
VERTEX
 8
CILINDRO_DUPLICATORE
 10
0
 20
0
 30
0
 70
128
 71
114
 72
2
 73
118
 74
118
 0
VERTEX
 8
CILINDRO_DUPLICATORE
 10
0
 20
0
 30
0
 70
128
 71
1
 72
115
 73
119
 74
119
 0
VERTEX
 8
CILINDRO_DUPLICATORE
 10
0
 20
0
 30
0
 70
128
 71
116
 72
117
 73
121
 74
120
 0
VERTEX
 8
CILINDRO_DUPLICATORE
 10
0
 20
0
 30
0
 70
128
 71
118
 72
2
 73
122
 74
122
 0
VERTEX
 8
CILINDRO_DUPLICATORE
 10
0
 20
0
 30
0
 70
128
 71
1
 72
119
 73
123
 74
123
 0
VERTEX
 8
CILINDRO_DUPLICATORE
 10
0
 20
0
 30
0
 70
128
 71
120
 72
121
 73
125
 74
124
 0
VERTEX
 8
CILINDRO_DUPLICATORE
 10
0
 20
0
 30
0
 70
128
 71
122
 72
2
 73
126
 74
126
 0
VERTEX
 8
CILINDRO_DUPLICATORE
 10
0
 20
0
 30
0
 70
128
 71
1
 72
123
 73
127
 74
127
 0
VERTEX
 8
CILINDRO_DUPLICATORE
 10
0
 20
0
 30
0
 70
128
 71
124
 72
125
 73
129
 74
128
 0
VERTEX
 8
CILINDRO_DUPLICATORE
 10
0
 20
0
 30
0
 70
128
 71
126
 72
2
 73
130
 74
130
 0
VERTEX
 8
CILINDRO_DUPLICATORE
 10
0
 20
0
 30
0
 70
128
 71
1
 72
127
 73
131
 74
131
 0
VERTEX
 8
CILINDRO_DUPLICATORE
 10
0
 20
0
 30
0
 70
128
 71
128
 72
129
 73
133
 74
132
 0
VERTEX
 8
CILINDRO_DUPLICATORE
 10
0
 20
0
 30
0
 70
128
 71
130
 72
2
 73
134
 74
134
 0
VERTEX
 8
CILINDRO_DUPLICATORE
 10
0
 20
0
 30
0
 70
128
 71
1
 72
131
 73
135
 74
135
 0
VERTEX
 8
CILINDRO_DUPLICATORE
 10
0
 20
0
 30
0
 70
128
 71
132
 72
133
 73
137
 74
136
 0
VERTEX
 8
CILINDRO_DUPLICATORE
 10
0
 20
0
 30
0
 70
128
 71
134
 72
2
 73
138
 74
138
 0
VERTEX
 8
CILINDRO_DUPLICATORE
 10
0
 20
0
 30
0
 70
128
 71
1
 72
135
 73
139
 74
139
 0
VERTEX
 8
CILINDRO_DUPLICATORE
 10
0
 20
0
 30
0
 70
128
 71
136
 72
137
 73
141
 74
140
 0
VERTEX
 8
CILINDRO_DUPLICATORE
 10
0
 20
0
 30
0
 70
128
 71
138
 72
2
 73
142
 74
142
 0
VERTEX
 8
CILINDRO_DUPLICATORE
 10
0
 20
0
 30
0
 70
128
 71
1
 72
139
 73
143
 74
143
 0
VERTEX
 8
CILINDRO_DUPLICATORE
 10
0
 20
0
 30
0
 70
128
 71
140
 72
141
 73
145
 74
144
 0
VERTEX
 8
CILINDRO_DUPLICATORE
 10
0
 20
0
 30
0
 70
128
 71
142
 72
2
 73
146
 74
146
 0
VERTEX
 8
CILINDRO_DUPLICATORE
 10
0
 20
0
 30
0
 70
128
 71
1
 72
143
 73
3
 74
3
 0
VERTEX
 8
CILINDRO_DUPLICATORE
 10
0
 20
0
 30
0
 70
128
 71
144
 72
145
 73
5
 74
4
 0
VERTEX
 8
CILINDRO_DUPLICATORE
 10
0
 20
0
 30
0
 70
128
 71
146
 72
2
 73
6
 74
6
 0
SEQEND
 0
POLYLINE
 8
CILINDRO
 66
1
 10
0.0
 20
0.0
 30
0.0
 70
64
 71
146
 72
108
 0
VERTEX
 8
CILINDRO
 10
-11.1967
 20
-3.9997
 30
145.084
 70
192
 0
VERTEX
 8
CILINDRO
 10
-11.0366
 20
-3.9997
 30
145.084
 70
192
 0
VERTEX
 8
CILINDRO
 10
-11.1967
 20
-3.9997
 30
144.0835
 70
192
 0
VERTEX
 8
CILINDRO
 10
-11.1967
 20
-3.9997
 30
144.0835
 70
192
 0
VERTEX
 8
CILINDRO
 10
-11.0366
 20
-3.9997
 30
144.0835
 70
192
 0
VERTEX
 8
CILINDRO
 10
-11.0366
 20
-3.9997
 30
144.0835
 70
192
 0
VERTEX
 8
CILINDRO
 10
-11.1967
 20
-3.826
 30
144.0987
 70
192
 0
VERTEX
 8
CILINDRO
 10
-11.1967
 20
-3.826
 30
144.0987
 70
192
 0
VERTEX
 8
CILINDRO
 10
-11.0366
 20
-3.826
 30
144.0987
 70
192
 0
VERTEX
 8
CILINDRO
 10
-11.0366
 20
-3.826
 30
144.0987
 70
192
 0
VERTEX
 8
CILINDRO
 10
-11.1967
 20
-3.6576
 30
144.1438
 70
192
 0
VERTEX
 8
CILINDRO
 10
-11.1967
 20
-3.6576
 30
144.1438
 70
192
 0
VERTEX
 8
CILINDRO
 10
-11.0366
 20
-3.6576
 30
144.1438
 70
192
 0
VERTEX
 8
CILINDRO
 10
-11.0366
 20
-3.6576
 30
144.1438
 70
192
 0
VERTEX
 8
CILINDRO
 10
-11.1967
 20
-3.4995
 30
144.2175
 70
192
 0
VERTEX
 8
CILINDRO
 10
-11.1967
 20
-3.4995
 30
144.2175
 70
192
 0
VERTEX
 8
CILINDRO
 10
-11.0366
 20
-3.4995
 30
144.2175
 70
192
 0
VERTEX
 8
CILINDRO
 10
-11.0366
 20
-3.4995
 30
144.2175
 70
192
 0
VERTEX
 8
CILINDRO
 10
-11.1967
 20
-3.3566
 30
144.3175
 70
192
 0
VERTEX
 8
CILINDRO
 10
-11.1967
 20
-3.3566
 30
144.3175
 70
192
 0
VERTEX
 8
CILINDRO
 10
-11.0366
 20
-3.3566
 30
144.3175
 70
192
 0
VERTEX
 8
CILINDRO
 10
-11.0366
 20
-3.3566
 30
144.3175
 70
192
 0
VERTEX
 8
CILINDRO
 10
-11.1967
 20
-3.2333
 30
144.4409
 70
192
 0
VERTEX
 8
CILINDRO
 10
-11.1967
 20
-3.2333
 30
144.4409
 70
192
 0
VERTEX
 8
CILINDRO
 10
-11.0366
 20
-3.2333
 30
144.4409
 70
192
 0
VERTEX
 8
CILINDRO
 10
-11.0366
 20
-3.2333
 30
144.4409
 70
192
 0
VERTEX
 8
CILINDRO
 10
-11.1967
 20
-3.1333
 30
144.5837
 70
192
 0
VERTEX
 8
CILINDRO
 10
-11.1967
 20
-3.1333
 30
144.5837
 70
192
 0
VERTEX
 8
CILINDRO
 10
-11.0366
 20
-3.1333
 30
144.5837
 70
192
 0
VERTEX
 8
CILINDRO
 10
-11.0366
 20
-3.1333
 30
144.5837
 70
192
 0
VERTEX
 8
CILINDRO
 10
-11.1967
 20
-3.0596
 30
144.7418
 70
192
 0
VERTEX
 8
CILINDRO
 10
-11.1967
 20
-3.0596
 30
144.7418
 70
192
 0
VERTEX
 8
CILINDRO
 10
-11.0366
 20
-3.0596
 30
144.7418
 70
192
 0
VERTEX
 8
CILINDRO
 10
-11.0366
 20
-3.0596
 30
144.7418
 70
192
 0
VERTEX
 8
CILINDRO
 10
-11.1967
 20
-3.0144
 30
144.9102
 70
192
 0
VERTEX
 8
CILINDRO
 10
-11.1967
 20
-3.0144
 30
144.9102
 70
192
 0
VERTEX
 8
CILINDRO
 10
-11.0366
 20
-3.0144
 30
144.9102
 70
192
 0
VERTEX
 8
CILINDRO
 10
-11.0366
 20
-3.0144
 30
144.9102
 70
192
 0
VERTEX
 8
CILINDRO
 10
-11.1967
 20
-2.9992
 30
145.084
 70
192
 0
VERTEX
 8
CILINDRO
 10
-11.1967
 20
-2.9992
 30
145.084
 70
192
 0
VERTEX
 8
CILINDRO
 10
-11.0366
 20
-2.9992
 30
145.084
 70
192
 0
VERTEX
 8
CILINDRO
 10
-11.0366
 20
-2.9992
 30
145.084
 70
192
 0
VERTEX
 8
CILINDRO
 10
-11.1967
 20
-3.0144
 30
145.2577
 70
192
 0
VERTEX
 8
CILINDRO
 10
-11.1967
 20
-3.0144
 30
145.2577
 70
192
 0
VERTEX
 8
CILINDRO
 10
-11.0366
 20
-3.0144
 30
145.2577
 70
192
 0
VERTEX
 8
CILINDRO
 10
-11.0366
 20
-3.0144
 30
145.2577
 70
192
 0
VERTEX
 8
CILINDRO
 10
-11.1967
 20
-3.0596
 30
145.4262
 70
192
 0
VERTEX
 8
CILINDRO
 10
-11.1967
 20
-3.0596
 30
145.4262
 70
192
 0
VERTEX
 8
CILINDRO
 10
-11.0366
 20
-3.0596
 30
145.4262
 70
192
 0
VERTEX
 8
CILINDRO
 10
-11.0366
 20
-3.0596
 30
145.4262
 70
192
 0
VERTEX
 8
CILINDRO
 10
-11.1967
 20
-3.1333
 30
145.5842
 70
192
 0
VERTEX
 8
CILINDRO
 10
-11.1967
 20
-3.1333
 30
145.5842
 70
192
 0
VERTEX
 8
CILINDRO
 10
-11.0366
 20
-3.1333
 30
145.5842
 70
192
 0
VERTEX
 8
CILINDRO
 10
-11.0366
 20
-3.1333
 30
145.5842
 70
192
 0
VERTEX
 8
CILINDRO
 10
-11.1967
 20
-3.2333
 30
145.7271
 70
192
 0
VERTEX
 8
CILINDRO
 10
-11.1967
 20
-3.2333
 30
145.7271
 70
192
 0
VERTEX
 8
CILINDRO
 10
-11.0366
 20
-3.2333
 30
145.7271
 70
192
 0
VERTEX
 8
CILINDRO
 10
-11.0366
 20
-3.2333
 30
145.7271
 70
192
 0
VERTEX
 8
CILINDRO
 10
-11.1967
 20
-3.3566
 30
145.8504
 70
192
 0
VERTEX
 8
CILINDRO
 10
-11.1967
 20
-3.3566
 30
145.8504
 70
192
 0
VERTEX
 8
CILINDRO
 10
-11.0366
 20
-3.3566
 30
145.8504
 70
192
 0
VERTEX
 8
CILINDRO
 10
-11.0366
 20
-3.3566
 30
145.8504
 70
192
 0
VERTEX
 8
CILINDRO
 10
-11.1967
 20
-3.4995
 30
145.9504
 70
192
 0
VERTEX
 8
CILINDRO
 10
-11.1967
 20
-3.4995
 30
145.9504
 70
192
 0
VERTEX
 8
CILINDRO
 10
-11.0366
 20
-3.4995
 30
145.9504
 70
192
 0
VERTEX
 8
CILINDRO
 10
-11.0366
 20
-3.4995
 30
145.9504
 70
192
 0
VERTEX
 8
CILINDRO
 10
-11.1967
 20
-3.6576
 30
146.0241
 70
192
 0
VERTEX
 8
CILINDRO
 10
-11.1967
 20
-3.6576
 30
146.0241
 70
192
 0
VERTEX
 8
CILINDRO
 10
-11.0366
 20
-3.6576
 30
146.0241
 70
192
 0
VERTEX
 8
CILINDRO
 10
-11.0366
 20
-3.6576
 30
146.0241
 70
192
 0
VERTEX
 8
CILINDRO
 10
-11.1967
 20
-3.826
 30
146.0693
 70
192
 0
VERTEX
 8
CILINDRO
 10
-11.1967
 20
-3.826
 30
146.0693
 70
192
 0
VERTEX
 8
CILINDRO
 10
-11.0366
 20
-3.826
 30
146.0693
 70
192
 0
VERTEX
 8
CILINDRO
 10
-11.0366
 20
-3.826
 30
146.0693
 70
192
 0
VERTEX
 8
CILINDRO
 10
-11.1967
 20
-3.9997
 30
146.0845
 70
192
 0
VERTEX
 8
CILINDRO
 10
-11.1967
 20
-3.9997
 30
146.0845
 70
192
 0
VERTEX
 8
CILINDRO
 10
-11.0366
 20
-3.9997
 30
146.0845
 70
192
 0
VERTEX
 8
CILINDRO
 10
-11.0366
 20
-3.9997
 30
146.0845
 70
192
 0
VERTEX
 8
CILINDRO
 10
-11.1967
 20
-4.1735
 30
146.0693
 70
192
 0
VERTEX
 8
CILINDRO
 10
-11.1967
 20
-4.1735
 30
146.0693
 70
192
 0
VERTEX
 8
CILINDRO
 10
-11.0366
 20
-4.1735
 30
146.0693
 70
192
 0
VERTEX
 8
CILINDRO
 10
-11.0366
 20
-4.1735
 30
146.0693
 70
192
 0
VERTEX
 8
CILINDRO
 10
-11.1967
 20
-4.3419
 30
146.0241
 70
192
 0
VERTEX
 8
CILINDRO
 10
-11.1967
 20
-4.3419
 30
146.0241
 70
192
 0
VERTEX
 8
CILINDRO
 10
-11.0366
 20
-4.3419
 30
146.0241
 70
192
 0
VERTEX
 8
CILINDRO
 10
-11.0366
 20
-4.3419
 30
146.0241
 70
192
 0
VERTEX
 8
CILINDRO
 10
-11.1967
 20
-4.5
 30
145.9504
 70
192
 0
VERTEX
 8
CILINDRO
 10
-11.1967
 20
-4.5
 30
145.9504
 70
192
 0
VERTEX
 8
CILINDRO
 10
-11.0366
 20
-4.5
 30
145.9504
 70
192
 0
VERTEX
 8
CILINDRO
 10
-11.0366
 20
-4.5
 30
145.9504
 70
192
 0
VERTEX
 8
CILINDRO
 10
-11.1967
 20
-4.6429
 30
145.8504
 70
192
 0
VERTEX
 8
CILINDRO
 10
-11.1967
 20
-4.6429
 30
145.8504
 70
192
 0
VERTEX
 8
CILINDRO
 10
-11.0366
 20
-4.6429
 30
145.8504
 70
192
 0
VERTEX
 8
CILINDRO
 10
-11.0366
 20
-4.6429
 30
145.8504
 70
192
 0
VERTEX
 8
CILINDRO
 10
-11.1967
 20
-4.7662
 30
145.7271
 70
192
 0
VERTEX
 8
CILINDRO
 10
-11.1967
 20
-4.7662
 30
145.7271
 70
192
 0
VERTEX
 8
CILINDRO
 10
-11.0366
 20
-4.7662
 30
145.7271
 70
192
 0
VERTEX
 8
CILINDRO
 10
-11.0366
 20
-4.7662
 30
145.7271
 70
192
 0
VERTEX
 8
CILINDRO
 10
-11.1967
 20
-4.8662
 30
145.5842
 70
192
 0
VERTEX
 8
CILINDRO
 10
-11.1967
 20
-4.8662
 30
145.5842
 70
192
 0
VERTEX
 8
CILINDRO
 10
-11.0366
 20
-4.8662
 30
145.5842
 70
192
 0
VERTEX
 8
CILINDRO
 10
-11.0366
 20
-4.8662
 30
145.5842
 70
192
 0
VERTEX
 8
CILINDRO
 10
-11.1967
 20
-4.9399
 30
145.4262
 70
192
 0
VERTEX
 8
CILINDRO
 10
-11.1967
 20
-4.9399
 30
145.4262
 70
192
 0
VERTEX
 8
CILINDRO
 10
-11.0366
 20
-4.9399
 30
145.4262
 70
192
 0
VERTEX
 8
CILINDRO
 10
-11.0366
 20
-4.9399
 30
145.4262
 70
192
 0
VERTEX
 8
CILINDRO
 10
-11.1967
 20
-4.985
 30
145.2577
 70
192
 0
VERTEX
 8
CILINDRO
 10
-11.1967
 20
-4.985
 30
145.2577
 70
192
 0
VERTEX
 8
CILINDRO
 10
-11.0366
 20
-4.985
 30
145.2577
 70
192
 0
VERTEX
 8
CILINDRO
 10
-11.0366
 20
-4.985
 30
145.2577
 70
192
 0
VERTEX
 8
CILINDRO
 10
-11.1967
 20
-5.0002
 30
145.084
 70
192
 0
VERTEX
 8
CILINDRO
 10
-11.1967
 20
-5.0002
 30
145.084
 70
192
 0
VERTEX
 8
CILINDRO
 10
-11.0366
 20
-5.0002
 30
145.084
 70
192
 0
VERTEX
 8
CILINDRO
 10
-11.0366
 20
-5.0002
 30
145.084
 70
192
 0
VERTEX
 8
CILINDRO
 10
-11.1967
 20
-4.985
 30
144.9102
 70
192
 0
VERTEX
 8
CILINDRO
 10
-11.1967
 20
-4.985
 30
144.9102
 70
192
 0
VERTEX
 8
CILINDRO
 10
-11.0366
 20
-4.985
 30
144.9102
 70
192
 0
VERTEX
 8
CILINDRO
 10
-11.0366
 20
-4.985
 30
144.9102
 70
192
 0
VERTEX
 8
CILINDRO
 10
-11.1967
 20
-4.9399
 30
144.7418
 70
192
 0
VERTEX
 8
CILINDRO
 10
-11.1967
 20
-4.9399
 30
144.7418
 70
192
 0
VERTEX
 8
CILINDRO
 10
-11.0366
 20
-4.9399
 30
144.7418
 70
192
 0
VERTEX
 8
CILINDRO
 10
-11.0366
 20
-4.9399
 30
144.7418
 70
192
 0
VERTEX
 8
CILINDRO
 10
-11.1967
 20
-4.8662
 30
144.5837
 70
192
 0
VERTEX
 8
CILINDRO
 10
-11.1967
 20
-4.8662
 30
144.5837
 70
192
 0
VERTEX
 8
CILINDRO
 10
-11.0366
 20
-4.8662
 30
144.5837
 70
192
 0
VERTEX
 8
CILINDRO
 10
-11.0366
 20
-4.8662
 30
144.5837
 70
192
 0
VERTEX
 8
CILINDRO
 10
-11.1967
 20
-4.7662
 30
144.4409
 70
192
 0
VERTEX
 8
CILINDRO
 10
-11.1967
 20
-4.7662
 30
144.4409
 70
192
 0
VERTEX
 8
CILINDRO
 10
-11.0366
 20
-4.7662
 30
144.4409
 70
192
 0
VERTEX
 8
CILINDRO
 10
-11.0366
 20
-4.7662
 30
144.4409
 70
192
 0
VERTEX
 8
CILINDRO
 10
-11.1967
 20
-4.6429
 30
144.3175
 70
192
 0
VERTEX
 8
CILINDRO
 10
-11.1967
 20
-4.6429
 30
144.3175
 70
192
 0
VERTEX
 8
CILINDRO
 10
-11.0366
 20
-4.6429
 30
144.3175
 70
192
 0
VERTEX
 8
CILINDRO
 10
-11.0366
 20
-4.6429
 30
144.3175
 70
192
 0
VERTEX
 8
CILINDRO
 10
-11.1967
 20
-4.5
 30
144.2175
 70
192
 0
VERTEX
 8
CILINDRO
 10
-11.1967
 20
-4.5
 30
144.2175
 70
192
 0
VERTEX
 8
CILINDRO
 10
-11.0366
 20
-4.5
 30
144.2175
 70
192
 0
VERTEX
 8
CILINDRO
 10
-11.0366
 20
-4.5
 30
144.2175
 70
192
 0
VERTEX
 8
CILINDRO
 10
-11.1967
 20
-4.3419
 30
144.1438
 70
192
 0
VERTEX
 8
CILINDRO
 10
-11.1967
 20
-4.3419
 30
144.1438
 70
192
 0
VERTEX
 8
CILINDRO
 10
-11.0366
 20
-4.3419
 30
144.1438
 70
192
 0
VERTEX
 8
CILINDRO
 10
-11.0366
 20
-4.3419
 30
144.1438
 70
192
 0
VERTEX
 8
CILINDRO
 10
-11.1967
 20
-4.1735
 30
144.0987
 70
192
 0
VERTEX
 8
CILINDRO
 10
-11.1967
 20
-4.1735
 30
144.0987
 70
192
 0
VERTEX
 8
CILINDRO
 10
-11.0366
 20
-4.1735
 30
144.0987
 70
192
 0
VERTEX
 8
CILINDRO
 10
-11.0366
 20
-4.1735
 30
144.0987
 70
192
 0
VERTEX
 8
CILINDRO
 10
0
 20
0
 30
0
 70
128
 71
1
 72
3
 73
7
 74
7
 0
VERTEX
 8
CILINDRO
 10
0
 20
0
 30
0
 70
128
 71
4
 72
5
 73
9
 74
8
 0
VERTEX
 8
CILINDRO
 10
0
 20
0
 30
0
 70
128
 71
6
 72
2
 73
10
 74
10
 0
VERTEX
 8
CILINDRO
 10
0
 20
0
 30
0
 70
128
 71
1
 72
7
 73
11
 74
11
 0
VERTEX
 8
CILINDRO
 10
0
 20
0
 30
0
 70
128
 71
8
 72
9
 73
13
 74
12
 0
VERTEX
 8
CILINDRO
 10
0
 20
0
 30
0
 70
128
 71
10
 72
2
 73
14
 74
14
 0
VERTEX
 8
CILINDRO
 10
0
 20
0
 30
0
 70
128
 71
1
 72
11
 73
15
 74
15
 0
VERTEX
 8
CILINDRO
 10
0
 20
0
 30
0
 70
128
 71
12
 72
13
 73
17
 74
16
 0
VERTEX
 8
CILINDRO
 10
0
 20
0
 30
0
 70
128
 71
14
 72
2
 73
18
 74
18
 0
VERTEX
 8
CILINDRO
 10
0
 20
0
 30
0
 70
128
 71
1
 72
15
 73
19
 74
19
 0
VERTEX
 8
CILINDRO
 10
0
 20
0
 30
0
 70
128
 71
16
 72
17
 73
21
 74
20
 0
VERTEX
 8
CILINDRO
 10
0
 20
0
 30
0
 70
128
 71
18
 72
2
 73
22
 74
22
 0
VERTEX
 8
CILINDRO
 10
0
 20
0
 30
0
 70
128
 71
1
 72
19
 73
23
 74
23
 0
VERTEX
 8
CILINDRO
 10
0
 20
0
 30
0
 70
128
 71
20
 72
21
 73
25
 74
24
 0
VERTEX
 8
CILINDRO
 10
0
 20
0
 30
0
 70
128
 71
22
 72
2
 73
26
 74
26
 0
VERTEX
 8
CILINDRO
 10
0
 20
0
 30
0
 70
128
 71
1
 72
23
 73
27
 74
27
 0
VERTEX
 8
CILINDRO
 10
0
 20
0
 30
0
 70
128
 71
24
 72
25
 73
29
 74
28
 0
VERTEX
 8
CILINDRO
 10
0
 20
0
 30
0
 70
128
 71
26
 72
2
 73
30
 74
30
 0
VERTEX
 8
CILINDRO
 10
0
 20
0
 30
0
 70
128
 71
1
 72
27
 73
31
 74
31
 0
VERTEX
 8
CILINDRO
 10
0
 20
0
 30
0
 70
128
 71
28
 72
29
 73
33
 74
32
 0
VERTEX
 8
CILINDRO
 10
0
 20
0
 30
0
 70
128
 71
30
 72
2
 73
34
 74
34
 0
VERTEX
 8
CILINDRO
 10
0
 20
0
 30
0
 70
128
 71
1
 72
31
 73
35
 74
35
 0
VERTEX
 8
CILINDRO
 10
0
 20
0
 30
0
 70
128
 71
32
 72
33
 73
37
 74
36
 0
VERTEX
 8
CILINDRO
 10
0
 20
0
 30
0
 70
128
 71
34
 72
2
 73
38
 74
38
 0
VERTEX
 8
CILINDRO
 10
0
 20
0
 30
0
 70
128
 71
1
 72
35
 73
39
 74
39
 0
VERTEX
 8
CILINDRO
 10
0
 20
0
 30
0
 70
128
 71
36
 72
37
 73
41
 74
40
 0
VERTEX
 8
CILINDRO
 10
0
 20
0
 30
0
 70
128
 71
38
 72
2
 73
42
 74
42
 0
VERTEX
 8
CILINDRO
 10
0
 20
0
 30
0
 70
128
 71
1
 72
39
 73
43
 74
43
 0
VERTEX
 8
CILINDRO
 10
0
 20
0
 30
0
 70
128
 71
40
 72
41
 73
45
 74
44
 0
VERTEX
 8
CILINDRO
 10
0
 20
0
 30
0
 70
128
 71
42
 72
2
 73
46
 74
46
 0
VERTEX
 8
CILINDRO
 10
0
 20
0
 30
0
 70
128
 71
1
 72
43
 73
47
 74
47
 0
VERTEX
 8
CILINDRO
 10
0
 20
0
 30
0
 70
128
 71
44
 72
45
 73
49
 74
48
 0
VERTEX
 8
CILINDRO
 10
0
 20
0
 30
0
 70
128
 71
46
 72
2
 73
50
 74
50
 0
VERTEX
 8
CILINDRO
 10
0
 20
0
 30
0
 70
128
 71
1
 72
47
 73
51
 74
51
 0
VERTEX
 8
CILINDRO
 10
0
 20
0
 30
0
 70
128
 71
48
 72
49
 73
53
 74
52
 0
VERTEX
 8
CILINDRO
 10
0
 20
0
 30
0
 70
128
 71
50
 72
2
 73
54
 74
54
 0
VERTEX
 8
CILINDRO
 10
0
 20
0
 30
0
 70
128
 71
1
 72
51
 73
55
 74
55
 0
VERTEX
 8
CILINDRO
 10
0
 20
0
 30
0
 70
128
 71
52
 72
53
 73
57
 74
56
 0
VERTEX
 8
CILINDRO
 10
0
 20
0
 30
0
 70
128
 71
54
 72
2
 73
58
 74
58
 0
VERTEX
 8
CILINDRO
 10
0
 20
0
 30
0
 70
128
 71
1
 72
55
 73
59
 74
59
 0
VERTEX
 8
CILINDRO
 10
0
 20
0
 30
0
 70
128
 71
56
 72
57
 73
61
 74
60
 0
VERTEX
 8
CILINDRO
 10
0
 20
0
 30
0
 70
128
 71
58
 72
2
 73
62
 74
62
 0
VERTEX
 8
CILINDRO
 10
0
 20
0
 30
0
 70
128
 71
1
 72
59
 73
63
 74
63
 0
VERTEX
 8
CILINDRO
 10
0
 20
0
 30
0
 70
128
 71
60
 72
61
 73
65
 74
64
 0
VERTEX
 8
CILINDRO
 10
0
 20
0
 30
0
 70
128
 71
62
 72
2
 73
66
 74
66
 0
VERTEX
 8
CILINDRO
 10
0
 20
0
 30
0
 70
128
 71
1
 72
63
 73
67
 74
67
 0
VERTEX
 8
CILINDRO
 10
0
 20
0
 30
0
 70
128
 71
64
 72
65
 73
69
 74
68
 0
VERTEX
 8
CILINDRO
 10
0
 20
0
 30
0
 70
128
 71
66
 72
2
 73
70
 74
70
 0
VERTEX
 8
CILINDRO
 10
0
 20
0
 30
0
 70
128
 71
1
 72
67
 73
71
 74
71
 0
VERTEX
 8
CILINDRO
 10
0
 20
0
 30
0
 70
128
 71
68
 72
69
 73
73
 74
72
 0
VERTEX
 8
CILINDRO
 10
0
 20
0
 30
0
 70
128
 71
70
 72
2
 73
74
 74
74
 0
VERTEX
 8
CILINDRO
 10
0
 20
0
 30
0
 70
128
 71
1
 72
71
 73
75
 74
75
 0
VERTEX
 8
CILINDRO
 10
0
 20
0
 30
0
 70
128
 71
72
 72
73
 73
77
 74
76
 0
VERTEX
 8
CILINDRO
 10
0
 20
0
 30
0
 70
128
 71
74
 72
2
 73
78
 74
78
 0
VERTEX
 8
CILINDRO
 10
0
 20
0
 30
0
 70
128
 71
1
 72
75
 73
79
 74
79
 0
VERTEX
 8
CILINDRO
 10
0
 20
0
 30
0
 70
128
 71
76
 72
77
 73
81
 74
80
 0
VERTEX
 8
CILINDRO
 10
0
 20
0
 30
0
 70
128
 71
78
 72
2
 73
82
 74
82
 0
VERTEX
 8
CILINDRO
 10
0
 20
0
 30
0
 70
128
 71
1
 72
79
 73
83
 74
83
 0
VERTEX
 8
CILINDRO
 10
0
 20
0
 30
0
 70
128
 71
80
 72
81
 73
85
 74
84
 0
VERTEX
 8
CILINDRO
 10
0
 20
0
 30
0
 70
128
 71
82
 72
2
 73
86
 74
86
 0
VERTEX
 8
CILINDRO
 10
0
 20
0
 30
0
 70
128
 71
1
 72
83
 73
87
 74
87
 0
VERTEX
 8
CILINDRO
 10
0
 20
0
 30
0
 70
128
 71
84
 72
85
 73
89
 74
88
 0
VERTEX
 8
CILINDRO
 10
0
 20
0
 30
0
 70
128
 71
86
 72
2
 73
90
 74
90
 0
VERTEX
 8
CILINDRO
 10
0
 20
0
 30
0
 70
128
 71
1
 72
87
 73
91
 74
91
 0
VERTEX
 8
CILINDRO
 10
0
 20
0
 30
0
 70
128
 71
88
 72
89
 73
93
 74
92
 0
VERTEX
 8
CILINDRO
 10
0
 20
0
 30
0
 70
128
 71
90
 72
2
 73
94
 74
94
 0
VERTEX
 8
CILINDRO
 10
0
 20
0
 30
0
 70
128
 71
1
 72
91
 73
95
 74
95
 0
VERTEX
 8
CILINDRO
 10
0
 20
0
 30
0
 70
128
 71
92
 72
93
 73
97
 74
96
 0
VERTEX
 8
CILINDRO
 10
0
 20
0
 30
0
 70
128
 71
94
 72
2
 73
98
 74
98
 0
VERTEX
 8
CILINDRO
 10
0
 20
0
 30
0
 70
128
 71
1
 72
95
 73
99
 74
99
 0
VERTEX
 8
CILINDRO
 10
0
 20
0
 30
0
 70
128
 71
96
 72
97
 73
101
 74
100
 0
VERTEX
 8
CILINDRO
 10
0
 20
0
 30
0
 70
128
 71
98
 72
2
 73
102
 74
102
 0
VERTEX
 8
CILINDRO
 10
0
 20
0
 30
0
 70
128
 71
1
 72
99
 73
103
 74
103
 0
VERTEX
 8
CILINDRO
 10
0
 20
0
 30
0
 70
128
 71
100
 72
101
 73
105
 74
104
 0
VERTEX
 8
CILINDRO
 10
0
 20
0
 30
0
 70
128
 71
102
 72
2
 73
106
 74
106
 0
VERTEX
 8
CILINDRO
 10
0
 20
0
 30
0
 70
128
 71
1
 72
103
 73
107
 74
107
 0
VERTEX
 8
CILINDRO
 10
0
 20
0
 30
0
 70
128
 71
104
 72
105
 73
109
 74
108
 0
VERTEX
 8
CILINDRO
 10
0
 20
0
 30
0
 70
128
 71
106
 72
2
 73
110
 74
110
 0
VERTEX
 8
CILINDRO
 10
0
 20
0
 30
0
 70
128
 71
1
 72
107
 73
111
 74
111
 0
VERTEX
 8
CILINDRO
 10
0
 20
0
 30
0
 70
128
 71
108
 72
109
 73
113
 74
112
 0
VERTEX
 8
CILINDRO
 10
0
 20
0
 30
0
 70
128
 71
110
 72
2
 73
114
 74
114
 0
VERTEX
 8
CILINDRO
 10
0
 20
0
 30
0
 70
128
 71
1
 72
111
 73
115
 74
115
 0
VERTEX
 8
CILINDRO
 10
0
 20
0
 30
0
 70
128
 71
112
 72
113
 73
117
 74
116
 0
VERTEX
 8
CILINDRO
 10
0
 20
0
 30
0
 70
128
 71
114
 72
2
 73
118
 74
118
 0
VERTEX
 8
CILINDRO
 10
0
 20
0
 30
0
 70
128
 71
1
 72
115
 73
119
 74
119
 0
VERTEX
 8
CILINDRO
 10
0
 20
0
 30
0
 70
128
 71
116
 72
117
 73
121
 74
120
 0
VERTEX
 8
CILINDRO
 10
0
 20
0
 30
0
 70
128
 71
118
 72
2
 73
122
 74
122
 0
VERTEX
 8
CILINDRO
 10
0
 20
0
 30
0
 70
128
 71
1
 72
119
 73
123
 74
123
 0
VERTEX
 8
CILINDRO
 10
0
 20
0
 30
0
 70
128
 71
120
 72
121
 73
125
 74
124
 0
VERTEX
 8
CILINDRO
 10
0
 20
0
 30
0
 70
128
 71
122
 72
2
 73
126
 74
126
 0
VERTEX
 8
CILINDRO
 10
0
 20
0
 30
0
 70
128
 71
1
 72
123
 73
127
 74
127
 0
VERTEX
 8
CILINDRO
 10
0
 20
0
 30
0
 70
128
 71
124
 72
125
 73
129
 74
128
 0
VERTEX
 8
CILINDRO
 10
0
 20
0
 30
0
 70
128
 71
126
 72
2
 73
130
 74
130
 0
VERTEX
 8
CILINDRO
 10
0
 20
0
 30
0
 70
128
 71
1
 72
127
 73
131
 74
131
 0
VERTEX
 8
CILINDRO
 10
0
 20
0
 30
0
 70
128
 71
128
 72
129
 73
133
 74
132
 0
VERTEX
 8
CILINDRO
 10
0
 20
0
 30
0
 70
128
 71
130
 72
2
 73
134
 74
134
 0
VERTEX
 8
CILINDRO
 10
0
 20
0
 30
0
 70
128
 71
1
 72
131
 73
135
 74
135
 0
VERTEX
 8
CILINDRO
 10
0
 20
0
 30
0
 70
128
 71
132
 72
133
 73
137
 74
136
 0
VERTEX
 8
CILINDRO
 10
0
 20
0
 30
0
 70
128
 71
134
 72
2
 73
138
 74
138
 0
VERTEX
 8
CILINDRO
 10
0
 20
0
 30
0
 70
128
 71
1
 72
135
 73
139
 74
139
 0
VERTEX
 8
CILINDRO
 10
0
 20
0
 30
0
 70
128
 71
136
 72
137
 73
141
 74
140
 0
VERTEX
 8
CILINDRO
 10
0
 20
0
 30
0
 70
128
 71
138
 72
2
 73
142
 74
142
 0
VERTEX
 8
CILINDRO
 10
0
 20
0
 30
0
 70
128
 71
1
 72
139
 73
143
 74
143
 0
VERTEX
 8
CILINDRO
 10
0
 20
0
 30
0
 70
128
 71
140
 72
141
 73
145
 74
144
 0
VERTEX
 8
CILINDRO
 10
0
 20
0
 30
0
 70
128
 71
142
 72
2
 73
146
 74
146
 0
VERTEX
 8
CILINDRO
 10
0
 20
0
 30
0
 70
128
 71
1
 72
143
 73
3
 74
3
 0
VERTEX
 8
CILINDRO
 10
0
 20
0
 30
0
 70
128
 71
144
 72
145
 73
5
 74
4
 0
VERTEX
 8
CILINDRO
 10
0
 20
0
 30
0
 70
128
 71
146
 72
2
 73
6
 74
6
 0
SEQEND
 0
POLYLINE
 8
CILINDRO_1
 66
1
 10
0.0
 20
0.0
 30
0.0
 70
64
 71
146
 72
108
 0
VERTEX
 8
CILINDRO_1
 10
-11.037
 20
-3.9997
 30
145.084
 70
192
 0
VERTEX
 8
CILINDRO_1
 10
11.0355
 20
-3.9997
 30
145.084
 70
192
 0
VERTEX
 8
CILINDRO_1
 10
-11.037
 20
-3.9997
 30
144.0835
 70
192
 0
VERTEX
 8
CILINDRO_1
 10
-11.037
 20
-3.9997
 30
144.0835
 70
192
 0
VERTEX
 8
CILINDRO_1
 10
11.0355
 20
-3.9997
 30
144.0835
 70
192
 0
VERTEX
 8
CILINDRO_1
 10
11.0355
 20
-3.9997
 30
144.0835
 70
192
 0
VERTEX
 8
CILINDRO_1
 10
-11.037
 20
-3.826
 30
144.0987
 70
192
 0
VERTEX
 8
CILINDRO_1
 10
-11.037
 20
-3.826
 30
144.0987
 70
192
 0
VERTEX
 8
CILINDRO_1
 10
11.0355
 20
-3.826
 30
144.0987
 70
192
 0
VERTEX
 8
CILINDRO_1
 10
11.0355
 20
-3.826
 30
144.0987
 70
192
 0
VERTEX
 8
CILINDRO_1
 10
-11.037
 20
-3.6576
 30
144.1438
 70
192
 0
VERTEX
 8
CILINDRO_1
 10
-11.037
 20
-3.6576
 30
144.1438
 70
192
 0
VERTEX
 8
CILINDRO_1
 10
11.0355
 20
-3.6576
 30
144.1438
 70
192
 0
VERTEX
 8
CILINDRO_1
 10
11.0355
 20
-3.6576
 30
144.1438
 70
192
 0
VERTEX
 8
CILINDRO_1
 10
-11.037
 20
-3.4995
 30
144.2175
 70
192
 0
VERTEX
 8
CILINDRO_1
 10
-11.037
 20
-3.4995
 30
144.2175
 70
192
 0
VERTEX
 8
CILINDRO_1
 10
11.0355
 20
-3.4995
 30
144.2175
 70
192
 0
VERTEX
 8
CILINDRO_1
 10
11.0355
 20
-3.4995
 30
144.2175
 70
192
 0
VERTEX
 8
CILINDRO_1
 10
-11.037
 20
-3.3566
 30
144.3175
 70
192
 0
VERTEX
 8
CILINDRO_1
 10
-11.037
 20
-3.3566
 30
144.3175
 70
192
 0
VERTEX
 8
CILINDRO_1
 10
11.0355
 20
-3.3566
 30
144.3175
 70
192
 0
VERTEX
 8
CILINDRO_1
 10
11.0355
 20
-3.3566
 30
144.3175
 70
192
 0
VERTEX
 8
CILINDRO_1
 10
-11.037
 20
-3.2333
 30
144.4409
 70
192
 0
VERTEX
 8
CILINDRO_1
 10
-11.037
 20
-3.2333
 30
144.4409
 70
192
 0
VERTEX
 8
CILINDRO_1
 10
11.0355
 20
-3.2333
 30
144.4409
 70
192
 0
VERTEX
 8
CILINDRO_1
 10
11.0355
 20
-3.2333
 30
144.4409
 70
192
 0
VERTEX
 8
CILINDRO_1
 10
-11.037
 20
-3.1333
 30
144.5837
 70
192
 0
VERTEX
 8
CILINDRO_1
 10
-11.037
 20
-3.1333
 30
144.5837
 70
192
 0
VERTEX
 8
CILINDRO_1
 10
11.0355
 20
-3.1333
 30
144.5837
 70
192
 0
VERTEX
 8
CILINDRO_1
 10
11.0355
 20
-3.1333
 30
144.5837
 70
192
 0
VERTEX
 8
CILINDRO_1
 10
-11.037
 20
-3.0596
 30
144.7418
 70
192
 0
VERTEX
 8
CILINDRO_1
 10
-11.037
 20
-3.0596
 30
144.7418
 70
192
 0
VERTEX
 8
CILINDRO_1
 10
11.0355
 20
-3.0596
 30
144.7418
 70
192
 0
VERTEX
 8
CILINDRO_1
 10
11.0355
 20
-3.0596
 30
144.7418
 70
192
 0
VERTEX
 8
CILINDRO_1
 10
-11.037
 20
-3.0144
 30
144.9102
 70
192
 0
VERTEX
 8
CILINDRO_1
 10
-11.037
 20
-3.0144
 30
144.9102
 70
192
 0
VERTEX
 8
CILINDRO_1
 10
11.0355
 20
-3.0144
 30
144.9102
 70
192
 0
VERTEX
 8
CILINDRO_1
 10
11.0355
 20
-3.0144
 30
144.9102
 70
192
 0
VERTEX
 8
CILINDRO_1
 10
-11.037
 20
-2.9992
 30
145.084
 70
192
 0
VERTEX
 8
CILINDRO_1
 10
-11.037
 20
-2.9992
 30
145.084
 70
192
 0
VERTEX
 8
CILINDRO_1
 10
11.0355
 20
-2.9992
 30
145.084
 70
192
 0
VERTEX
 8
CILINDRO_1
 10
11.0355
 20
-2.9992
 30
145.084
 70
192
 0
VERTEX
 8
CILINDRO_1
 10
-11.037
 20
-3.0144
 30
145.2577
 70
192
 0
VERTEX
 8
CILINDRO_1
 10
-11.037
 20
-3.0144
 30
145.2577
 70
192
 0
VERTEX
 8
CILINDRO_1
 10
11.0355
 20
-3.0144
 30
145.2577
 70
192
 0
VERTEX
 8
CILINDRO_1
 10
11.0355
 20
-3.0144
 30
145.2577
 70
192
 0
VERTEX
 8
CILINDRO_1
 10
-11.037
 20
-3.0596
 30
145.4262
 70
192
 0
VERTEX
 8
CILINDRO_1
 10
-11.037
 20
-3.0596
 30
145.4262
 70
192
 0
VERTEX
 8
CILINDRO_1
 10
11.0355
 20
-3.0596
 30
145.4262
 70
192
 0
VERTEX
 8
CILINDRO_1
 10
11.0355
 20
-3.0596
 30
145.4262
 70
192
 0
VERTEX
 8
CILINDRO_1
 10
-11.037
 20
-3.1333
 30
145.5842
 70
192
 0
VERTEX
 8
CILINDRO_1
 10
-11.037
 20
-3.1333
 30
145.5842
 70
192
 0
VERTEX
 8
CILINDRO_1
 10
11.0355
 20
-3.1333
 30
145.5842
 70
192
 0
VERTEX
 8
CILINDRO_1
 10
11.0355
 20
-3.1333
 30
145.5842
 70
192
 0
VERTEX
 8
CILINDRO_1
 10
-11.037
 20
-3.2333
 30
145.7271
 70
192
 0
VERTEX
 8
CILINDRO_1
 10
-11.037
 20
-3.2333
 30
145.7271
 70
192
 0
VERTEX
 8
CILINDRO_1
 10
11.0355
 20
-3.2333
 30
145.7271
 70
192
 0
VERTEX
 8
CILINDRO_1
 10
11.0355
 20
-3.2333
 30
145.7271
 70
192
 0
VERTEX
 8
CILINDRO_1
 10
-11.037
 20
-3.3566
 30
145.8504
 70
192
 0
VERTEX
 8
CILINDRO_1
 10
-11.037
 20
-3.3566
 30
145.8504
 70
192
 0
VERTEX
 8
CILINDRO_1
 10
11.0355
 20
-3.3566
 30
145.8504
 70
192
 0
VERTEX
 8
CILINDRO_1
 10
11.0355
 20
-3.3566
 30
145.8504
 70
192
 0
VERTEX
 8
CILINDRO_1
 10
-11.037
 20
-3.4995
 30
145.9504
 70
192
 0
VERTEX
 8
CILINDRO_1
 10
-11.037
 20
-3.4995
 30
145.9504
 70
192
 0
VERTEX
 8
CILINDRO_1
 10
11.0355
 20
-3.4995
 30
145.9504
 70
192
 0
VERTEX
 8
CILINDRO_1
 10
11.0355
 20
-3.4995
 30
145.9504
 70
192
 0
VERTEX
 8
CILINDRO_1
 10
-11.037
 20
-3.6576
 30
146.0241
 70
192
 0
VERTEX
 8
CILINDRO_1
 10
-11.037
 20
-3.6576
 30
146.0241
 70
192
 0
VERTEX
 8
CILINDRO_1
 10
11.0355
 20
-3.6576
 30
146.0241
 70
192
 0
VERTEX
 8
CILINDRO_1
 10
11.0355
 20
-3.6576
 30
146.0241
 70
192
 0
VERTEX
 8
CILINDRO_1
 10
-11.037
 20
-3.826
 30
146.0693
 70
192
 0
VERTEX
 8
CILINDRO_1
 10
-11.037
 20
-3.826
 30
146.0693
 70
192
 0
VERTEX
 8
CILINDRO_1
 10
11.0355
 20
-3.826
 30
146.0693
 70
192
 0
VERTEX
 8
CILINDRO_1
 10
11.0355
 20
-3.826
 30
146.0693
 70
192
 0
VERTEX
 8
CILINDRO_1
 10
-11.037
 20
-3.9997
 30
146.0845
 70
192
 0
VERTEX
 8
CILINDRO_1
 10
-11.037
 20
-3.9997
 30
146.0845
 70
192
 0
VERTEX
 8
CILINDRO_1
 10
11.0355
 20
-3.9997
 30
146.0845
 70
192
 0
VERTEX
 8
CILINDRO_1
 10
11.0355
 20
-3.9997
 30
146.0845
 70
192
 0
VERTEX
 8
CILINDRO_1
 10
-11.037
 20
-4.1735
 30
146.0693
 70
192
 0
VERTEX
 8
CILINDRO_1
 10
-11.037
 20
-4.1735
 30
146.0693
 70
192
 0
VERTEX
 8
CILINDRO_1
 10
11.0355
 20
-4.1735
 30
146.0693
 70
192
 0
VERTEX
 8
CILINDRO_1
 10
11.0355
 20
-4.1735
 30
146.0693
 70
192
 0
VERTEX
 8
CILINDRO_1
 10
-11.037
 20
-4.3419
 30
146.0241
 70
192
 0
VERTEX
 8
CILINDRO_1
 10
-11.037
 20
-4.3419
 30
146.0241
 70
192
 0
VERTEX
 8
CILINDRO_1
 10
11.0355
 20
-4.3419
 30
146.0241
 70
192
 0
VERTEX
 8
CILINDRO_1
 10
11.0355
 20
-4.3419
 30
146.0241
 70
192
 0
VERTEX
 8
CILINDRO_1
 10
-11.037
 20
-4.5
 30
145.9504
 70
192
 0
VERTEX
 8
CILINDRO_1
 10
-11.037
 20
-4.5
 30
145.9504
 70
192
 0
VERTEX
 8
CILINDRO_1
 10
11.0355
 20
-4.5
 30
145.9504
 70
192
 0
VERTEX
 8
CILINDRO_1
 10
11.0355
 20
-4.5
 30
145.9504
 70
192
 0
VERTEX
 8
CILINDRO_1
 10
-11.037
 20
-4.6429
 30
145.8504
 70
192
 0
VERTEX
 8
CILINDRO_1
 10
-11.037
 20
-4.6429
 30
145.8504
 70
192
 0
VERTEX
 8
CILINDRO_1
 10
11.0355
 20
-4.6429
 30
145.8504
 70
192
 0
VERTEX
 8
CILINDRO_1
 10
11.0355
 20
-4.6429
 30
145.8504
 70
192
 0
VERTEX
 8
CILINDRO_1
 10
-11.037
 20
-4.7662
 30
145.7271
 70
192
 0
VERTEX
 8
CILINDRO_1
 10
-11.037
 20
-4.7662
 30
145.7271
 70
192
 0
VERTEX
 8
CILINDRO_1
 10
11.0355
 20
-4.7662
 30
145.7271
 70
192
 0
VERTEX
 8
CILINDRO_1
 10
11.0355
 20
-4.7662
 30
145.7271
 70
192
 0
VERTEX
 8
CILINDRO_1
 10
-11.037
 20
-4.8662
 30
145.5842
 70
192
 0
VERTEX
 8
CILINDRO_1
 10
-11.037
 20
-4.8662
 30
145.5842
 70
192
 0
VERTEX
 8
CILINDRO_1
 10
11.0355
 20
-4.8662
 30
145.5842
 70
192
 0
VERTEX
 8
CILINDRO_1
 10
11.0355
 20
-4.8662
 30
145.5842
 70
192
 0
VERTEX
 8
CILINDRO_1
 10
-11.037
 20
-4.9399
 30
145.4262
 70
192
 0
VERTEX
 8
CILINDRO_1
 10
-11.037
 20
-4.9399
 30
145.4262
 70
192
 0
VERTEX
 8
CILINDRO_1
 10
11.0355
 20
-4.9399
 30
145.4262
 70
192
 0
VERTEX
 8
CILINDRO_1
 10
11.0355
 20
-4.9399
 30
145.4262
 70
192
 0
VERTEX
 8
CILINDRO_1
 10
-11.037
 20
-4.985
 30
145.2577
 70
192
 0
VERTEX
 8
CILINDRO_1
 10
-11.037
 20
-4.985
 30
145.2577
 70
192
 0
VERTEX
 8
CILINDRO_1
 10
11.0355
 20
-4.985
 30
145.2577
 70
192
 0
VERTEX
 8
CILINDRO_1
 10
11.0355
 20
-4.985
 30
145.2577
 70
192
 0
VERTEX
 8
CILINDRO_1
 10
-11.037
 20
-5.0002
 30
145.084
 70
192
 0
VERTEX
 8
CILINDRO_1
 10
-11.037
 20
-5.0002
 30
145.084
 70
192
 0
VERTEX
 8
CILINDRO_1
 10
11.0355
 20
-5.0002
 30
145.084
 70
192
 0
VERTEX
 8
CILINDRO_1
 10
11.0355
 20
-5.0002
 30
145.084
 70
192
 0
VERTEX
 8
CILINDRO_1
 10
-11.037
 20
-4.985
 30
144.9102
 70
192
 0
VERTEX
 8
CILINDRO_1
 10
-11.037
 20
-4.985
 30
144.9102
 70
192
 0
VERTEX
 8
CILINDRO_1
 10
11.0355
 20
-4.985
 30
144.9102
 70
192
 0
VERTEX
 8
CILINDRO_1
 10
11.0355
 20
-4.985
 30
144.9102
 70
192
 0
VERTEX
 8
CILINDRO_1
 10
-11.037
 20
-4.9399
 30
144.7418
 70
192
 0
VERTEX
 8
CILINDRO_1
 10
-11.037
 20
-4.9399
 30
144.7418
 70
192
 0
VERTEX
 8
CILINDRO_1
 10
11.0355
 20
-4.9399
 30
144.7418
 70
192
 0
VERTEX
 8
CILINDRO_1
 10
11.0355
 20
-4.9399
 30
144.7418
 70
192
 0
VERTEX
 8
CILINDRO_1
 10
-11.037
 20
-4.8662
 30
144.5837
 70
192
 0
VERTEX
 8
CILINDRO_1
 10
-11.037
 20
-4.8662
 30
144.5837
 70
192
 0
VERTEX
 8
CILINDRO_1
 10
11.0355
 20
-4.8662
 30
144.5837
 70
192
 0
VERTEX
 8
CILINDRO_1
 10
11.0355
 20
-4.8662
 30
144.5837
 70
192
 0
VERTEX
 8
CILINDRO_1
 10
-11.037
 20
-4.7662
 30
144.4409
 70
192
 0
VERTEX
 8
CILINDRO_1
 10
-11.037
 20
-4.7662
 30
144.4409
 70
192
 0
VERTEX
 8
CILINDRO_1
 10
11.0355
 20
-4.7662
 30
144.4409
 70
192
 0
VERTEX
 8
CILINDRO_1
 10
11.0355
 20
-4.7662
 30
144.4409
 70
192
 0
VERTEX
 8
CILINDRO_1
 10
-11.037
 20
-4.6429
 30
144.3175
 70
192
 0
VERTEX
 8
CILINDRO_1
 10
-11.037
 20
-4.6429
 30
144.3175
 70
192
 0
VERTEX
 8
CILINDRO_1
 10
11.0355
 20
-4.6429
 30
144.3175
 70
192
 0
VERTEX
 8
CILINDRO_1
 10
11.0355
 20
-4.6429
 30
144.3175
 70
192
 0
VERTEX
 8
CILINDRO_1
 10
-11.037
 20
-4.5
 30
144.2175
 70
192
 0
VERTEX
 8
CILINDRO_1
 10
-11.037
 20
-4.5
 30
144.2175
 70
192
 0
VERTEX
 8
CILINDRO_1
 10
11.0355
 20
-4.5
 30
144.2175
 70
192
 0
VERTEX
 8
CILINDRO_1
 10
11.0355
 20
-4.5
 30
144.2175
 70
192
 0
VERTEX
 8
CILINDRO_1
 10
-11.037
 20
-4.3419
 30
144.1438
 70
192
 0
VERTEX
 8
CILINDRO_1
 10
-11.037
 20
-4.3419
 30
144.1438
 70
192
 0
VERTEX
 8
CILINDRO_1
 10
11.0355
 20
-4.3419
 30
144.1438
 70
192
 0
VERTEX
 8
CILINDRO_1
 10
11.0355
 20
-4.3419
 30
144.1438
 70
192
 0
VERTEX
 8
CILINDRO_1
 10
-11.037
 20
-4.1735
 30
144.0987
 70
192
 0
VERTEX
 8
CILINDRO_1
 10
-11.037
 20
-4.1735
 30
144.0987
 70
192
 0
VERTEX
 8
CILINDRO_1
 10
11.0355
 20
-4.1735
 30
144.0987
 70
192
 0
VERTEX
 8
CILINDRO_1
 10
11.0355
 20
-4.1735
 30
144.0987
 70
192
 0
VERTEX
 8
CILINDRO_1
 10
0
 20
0
 30
0
 70
128
 71
1
 72
3
 73
7
 74
7
 0
VERTEX
 8
CILINDRO_1
 10
0
 20
0
 30
0
 70
128
 71
4
 72
5
 73
9
 74
8
 0
VERTEX
 8
CILINDRO_1
 10
0
 20
0
 30
0
 70
128
 71
6
 72
2
 73
10
 74
10
 0
VERTEX
 8
CILINDRO_1
 10
0
 20
0
 30
0
 70
128
 71
1
 72
7
 73
11
 74
11
 0
VERTEX
 8
CILINDRO_1
 10
0
 20
0
 30
0
 70
128
 71
8
 72
9
 73
13
 74
12
 0
VERTEX
 8
CILINDRO_1
 10
0
 20
0
 30
0
 70
128
 71
10
 72
2
 73
14
 74
14
 0
VERTEX
 8
CILINDRO_1
 10
0
 20
0
 30
0
 70
128
 71
1
 72
11
 73
15
 74
15
 0
VERTEX
 8
CILINDRO_1
 10
0
 20
0
 30
0
 70
128
 71
12
 72
13
 73
17
 74
16
 0
VERTEX
 8
CILINDRO_1
 10
0
 20
0
 30
0
 70
128
 71
14
 72
2
 73
18
 74
18
 0
VERTEX
 8
CILINDRO_1
 10
0
 20
0
 30
0
 70
128
 71
1
 72
15
 73
19
 74
19
 0
VERTEX
 8
CILINDRO_1
 10
0
 20
0
 30
0
 70
128
 71
16
 72
17
 73
21
 74
20
 0
VERTEX
 8
CILINDRO_1
 10
0
 20
0
 30
0
 70
128
 71
18
 72
2
 73
22
 74
22
 0
VERTEX
 8
CILINDRO_1
 10
0
 20
0
 30
0
 70
128
 71
1
 72
19
 73
23
 74
23
 0
VERTEX
 8
CILINDRO_1
 10
0
 20
0
 30
0
 70
128
 71
20
 72
21
 73
25
 74
24
 0
VERTEX
 8
CILINDRO_1
 10
0
 20
0
 30
0
 70
128
 71
22
 72
2
 73
26
 74
26
 0
VERTEX
 8
CILINDRO_1
 10
0
 20
0
 30
0
 70
128
 71
1
 72
23
 73
27
 74
27
 0
VERTEX
 8
CILINDRO_1
 10
0
 20
0
 30
0
 70
128
 71
24
 72
25
 73
29
 74
28
 0
VERTEX
 8
CILINDRO_1
 10
0
 20
0
 30
0
 70
128
 71
26
 72
2
 73
30
 74
30
 0
VERTEX
 8
CILINDRO_1
 10
0
 20
0
 30
0
 70
128
 71
1
 72
27
 73
31
 74
31
 0
VERTEX
 8
CILINDRO_1
 10
0
 20
0
 30
0
 70
128
 71
28
 72
29
 73
33
 74
32
 0
VERTEX
 8
CILINDRO_1
 10
0
 20
0
 30
0
 70
128
 71
30
 72
2
 73
34
 74
34
 0
VERTEX
 8
CILINDRO_1
 10
0
 20
0
 30
0
 70
128
 71
1
 72
31
 73
35
 74
35
 0
VERTEX
 8
CILINDRO_1
 10
0
 20
0
 30
0
 70
128
 71
32
 72
33
 73
37
 74
36
 0
VERTEX
 8
CILINDRO_1
 10
0
 20
0
 30
0
 70
128
 71
34
 72
2
 73
38
 74
38
 0
VERTEX
 8
CILINDRO_1
 10
0
 20
0
 30
0
 70
128
 71
1
 72
35
 73
39
 74
39
 0
VERTEX
 8
CILINDRO_1
 10
0
 20
0
 30
0
 70
128
 71
36
 72
37
 73
41
 74
40
 0
VERTEX
 8
CILINDRO_1
 10
0
 20
0
 30
0
 70
128
 71
38
 72
2
 73
42
 74
42
 0
VERTEX
 8
CILINDRO_1
 10
0
 20
0
 30
0
 70
128
 71
1
 72
39
 73
43
 74
43
 0
VERTEX
 8
CILINDRO_1
 10
0
 20
0
 30
0
 70
128
 71
40
 72
41
 73
45
 74
44
 0
VERTEX
 8
CILINDRO_1
 10
0
 20
0
 30
0
 70
128
 71
42
 72
2
 73
46
 74
46
 0
VERTEX
 8
CILINDRO_1
 10
0
 20
0
 30
0
 70
128
 71
1
 72
43
 73
47
 74
47
 0
VERTEX
 8
CILINDRO_1
 10
0
 20
0
 30
0
 70
128
 71
44
 72
45
 73
49
 74
48
 0
VERTEX
 8
CILINDRO_1
 10
0
 20
0
 30
0
 70
128
 71
46
 72
2
 73
50
 74
50
 0
VERTEX
 8
CILINDRO_1
 10
0
 20
0
 30
0
 70
128
 71
1
 72
47
 73
51
 74
51
 0
VERTEX
 8
CILINDRO_1
 10
0
 20
0
 30
0
 70
128
 71
48
 72
49
 73
53
 74
52
 0
VERTEX
 8
CILINDRO_1
 10
0
 20
0
 30
0
 70
128
 71
50
 72
2
 73
54
 74
54
 0
VERTEX
 8
CILINDRO_1
 10
0
 20
0
 30
0
 70
128
 71
1
 72
51
 73
55
 74
55
 0
VERTEX
 8
CILINDRO_1
 10
0
 20
0
 30
0
 70
128
 71
52
 72
53
 73
57
 74
56
 0
VERTEX
 8
CILINDRO_1
 10
0
 20
0
 30
0
 70
128
 71
54
 72
2
 73
58
 74
58
 0
VERTEX
 8
CILINDRO_1
 10
0
 20
0
 30
0
 70
128
 71
1
 72
55
 73
59
 74
59
 0
VERTEX
 8
CILINDRO_1
 10
0
 20
0
 30
0
 70
128
 71
56
 72
57
 73
61
 74
60
 0
VERTEX
 8
CILINDRO_1
 10
0
 20
0
 30
0
 70
128
 71
58
 72
2
 73
62
 74
62
 0
VERTEX
 8
CILINDRO_1
 10
0
 20
0
 30
0
 70
128
 71
1
 72
59
 73
63
 74
63
 0
VERTEX
 8
CILINDRO_1
 10
0
 20
0
 30
0
 70
128
 71
60
 72
61
 73
65
 74
64
 0
VERTEX
 8
CILINDRO_1
 10
0
 20
0
 30
0
 70
128
 71
62
 72
2
 73
66
 74
66
 0
VERTEX
 8
CILINDRO_1
 10
0
 20
0
 30
0
 70
128
 71
1
 72
63
 73
67
 74
67
 0
VERTEX
 8
CILINDRO_1
 10
0
 20
0
 30
0
 70
128
 71
64
 72
65
 73
69
 74
68
 0
VERTEX
 8
CILINDRO_1
 10
0
 20
0
 30
0
 70
128
 71
66
 72
2
 73
70
 74
70
 0
VERTEX
 8
CILINDRO_1
 10
0
 20
0
 30
0
 70
128
 71
1
 72
67
 73
71
 74
71
 0
VERTEX
 8
CILINDRO_1
 10
0
 20
0
 30
0
 70
128
 71
68
 72
69
 73
73
 74
72
 0
VERTEX
 8
CILINDRO_1
 10
0
 20
0
 30
0
 70
128
 71
70
 72
2
 73
74
 74
74
 0
VERTEX
 8
CILINDRO_1
 10
0
 20
0
 30
0
 70
128
 71
1
 72
71
 73
75
 74
75
 0
VERTEX
 8
CILINDRO_1
 10
0
 20
0
 30
0
 70
128
 71
72
 72
73
 73
77
 74
76
 0
VERTEX
 8
CILINDRO_1
 10
0
 20
0
 30
0
 70
128
 71
74
 72
2
 73
78
 74
78
 0
VERTEX
 8
CILINDRO_1
 10
0
 20
0
 30
0
 70
128
 71
1
 72
75
 73
79
 74
79
 0
VERTEX
 8
CILINDRO_1
 10
0
 20
0
 30
0
 70
128
 71
76
 72
77
 73
81
 74
80
 0
VERTEX
 8
CILINDRO_1
 10
0
 20
0
 30
0
 70
128
 71
78
 72
2
 73
82
 74
82
 0
VERTEX
 8
CILINDRO_1
 10
0
 20
0
 30
0
 70
128
 71
1
 72
79
 73
83
 74
83
 0
VERTEX
 8
CILINDRO_1
 10
0
 20
0
 30
0
 70
128
 71
80
 72
81
 73
85
 74
84
 0
VERTEX
 8
CILINDRO_1
 10
0
 20
0
 30
0
 70
128
 71
82
 72
2
 73
86
 74
86
 0
VERTEX
 8
CILINDRO_1
 10
0
 20
0
 30
0
 70
128
 71
1
 72
83
 73
87
 74
87
 0
VERTEX
 8
CILINDRO_1
 10
0
 20
0
 30
0
 70
128
 71
84
 72
85
 73
89
 74
88
 0
VERTEX
 8
CILINDRO_1
 10
0
 20
0
 30
0
 70
128
 71
86
 72
2
 73
90
 74
90
 0
VERTEX
 8
CILINDRO_1
 10
0
 20
0
 30
0
 70
128
 71
1
 72
87
 73
91
 74
91
 0
VERTEX
 8
CILINDRO_1
 10
0
 20
0
 30
0
 70
128
 71
88
 72
89
 73
93
 74
92
 0
VERTEX
 8
CILINDRO_1
 10
0
 20
0
 30
0
 70
128
 71
90
 72
2
 73
94
 74
94
 0
VERTEX
 8
CILINDRO_1
 10
0
 20
0
 30
0
 70
128
 71
1
 72
91
 73
95
 74
95
 0
VERTEX
 8
CILINDRO_1
 10
0
 20
0
 30
0
 70
128
 71
92
 72
93
 73
97
 74
96
 0
VERTEX
 8
CILINDRO_1
 10
0
 20
0
 30
0
 70
128
 71
94
 72
2
 73
98
 74
98
 0
VERTEX
 8
CILINDRO_1
 10
0
 20
0
 30
0
 70
128
 71
1
 72
95
 73
99
 74
99
 0
VERTEX
 8
CILINDRO_1
 10
0
 20
0
 30
0
 70
128
 71
96
 72
97
 73
101
 74
100
 0
VERTEX
 8
CILINDRO_1
 10
0
 20
0
 30
0
 70
128
 71
98
 72
2
 73
102
 74
102
 0
VERTEX
 8
CILINDRO_1
 10
0
 20
0
 30
0
 70
128
 71
1
 72
99
 73
103
 74
103
 0
VERTEX
 8
CILINDRO_1
 10
0
 20
0
 30
0
 70
128
 71
100
 72
101
 73
105
 74
104
 0
VERTEX
 8
CILINDRO_1
 10
0
 20
0
 30
0
 70
128
 71
102
 72
2
 73
106
 74
106
 0
VERTEX
 8
CILINDRO_1
 10
0
 20
0
 30
0
 70
128
 71
1
 72
103
 73
107
 74
107
 0
VERTEX
 8
CILINDRO_1
 10
0
 20
0
 30
0
 70
128
 71
104
 72
105
 73
109
 74
108
 0
VERTEX
 8
CILINDRO_1
 10
0
 20
0
 30
0
 70
128
 71
106
 72
2
 73
110
 74
110
 0
VERTEX
 8
CILINDRO_1
 10
0
 20
0
 30
0
 70
128
 71
1
 72
107
 73
111
 74
111
 0
VERTEX
 8
CILINDRO_1
 10
0
 20
0
 30
0
 70
128
 71
108
 72
109
 73
113
 74
112
 0
VERTEX
 8
CILINDRO_1
 10
0
 20
0
 30
0
 70
128
 71
110
 72
2
 73
114
 74
114
 0
VERTEX
 8
CILINDRO_1
 10
0
 20
0
 30
0
 70
128
 71
1
 72
111
 73
115
 74
115
 0
VERTEX
 8
CILINDRO_1
 10
0
 20
0
 30
0
 70
128
 71
112
 72
113
 73
117
 74
116
 0
VERTEX
 8
CILINDRO_1
 10
0
 20
0
 30
0
 70
128
 71
114
 72
2
 73
118
 74
118
 0
VERTEX
 8
CILINDRO_1
 10
0
 20
0
 30
0
 70
128
 71
1
 72
115
 73
119
 74
119
 0
VERTEX
 8
CILINDRO_1
 10
0
 20
0
 30
0
 70
128
 71
116
 72
117
 73
121
 74
120
 0
VERTEX
 8
CILINDRO_1
 10
0
 20
0
 30
0
 70
128
 71
118
 72
2
 73
122
 74
122
 0
VERTEX
 8
CILINDRO_1
 10
0
 20
0
 30
0
 70
128
 71
1
 72
119
 73
123
 74
123
 0
VERTEX
 8
CILINDRO_1
 10
0
 20
0
 30
0
 70
128
 71
120
 72
121
 73
125
 74
124
 0
VERTEX
 8
CILINDRO_1
 10
0
 20
0
 30
0
 70
128
 71
122
 72
2
 73
126
 74
126
 0
VERTEX
 8
CILINDRO_1
 10
0
 20
0
 30
0
 70
128
 71
1
 72
123
 73
127
 74
127
 0
VERTEX
 8
CILINDRO_1
 10
0
 20
0
 30
0
 70
128
 71
124
 72
125
 73
129
 74
128
 0
VERTEX
 8
CILINDRO_1
 10
0
 20
0
 30
0
 70
128
 71
126
 72
2
 73
130
 74
130
 0
VERTEX
 8
CILINDRO_1
 10
0
 20
0
 30
0
 70
128
 71
1
 72
127
 73
131
 74
131
 0
VERTEX
 8
CILINDRO_1
 10
0
 20
0
 30
0
 70
128
 71
128
 72
129
 73
133
 74
132
 0
VERTEX
 8
CILINDRO_1
 10
0
 20
0
 30
0
 70
128
 71
130
 72
2
 73
134
 74
134
 0
VERTEX
 8
CILINDRO_1
 10
0
 20
0
 30
0
 70
128
 71
1
 72
131
 73
135
 74
135
 0
VERTEX
 8
CILINDRO_1
 10
0
 20
0
 30
0
 70
128
 71
132
 72
133
 73
137
 74
136
 0
VERTEX
 8
CILINDRO_1
 10
0
 20
0
 30
0
 70
128
 71
134
 72
2
 73
138
 74
138
 0
VERTEX
 8
CILINDRO_1
 10
0
 20
0
 30
0
 70
128
 71
1
 72
135
 73
139
 74
139
 0
VERTEX
 8
CILINDRO_1
 10
0
 20
0
 30
0
 70
128
 71
136
 72
137
 73
141
 74
140
 0
VERTEX
 8
CILINDRO_1
 10
0
 20
0
 30
0
 70
128
 71
138
 72
2
 73
142
 74
142
 0
VERTEX
 8
CILINDRO_1
 10
0
 20
0
 30
0
 70
128
 71
1
 72
139
 73
143
 74
143
 0
VERTEX
 8
CILINDRO_1
 10
0
 20
0
 30
0
 70
128
 71
140
 72
141
 73
145
 74
144
 0
VERTEX
 8
CILINDRO_1
 10
0
 20
0
 30
0
 70
128
 71
142
 72
2
 73
146
 74
146
 0
VERTEX
 8
CILINDRO_1
 10
0
 20
0
 30
0
 70
128
 71
1
 72
143
 73
3
 74
3
 0
VERTEX
 8
CILINDRO_1
 10
0
 20
0
 30
0
 70
128
 71
144
 72
145
 73
5
 74
4
 0
VERTEX
 8
CILINDRO_1
 10
0
 20
0
 30
0
 70
128
 71
146
 72
2
 73
6
 74
6
 0
SEQEND
 0
POLYLINE
 8
CORNICE_DISPLAY
 66
1
 10
0.0
 20
0.0
 30
0.0
 70
64
 71
16
 72
17
 0
VERTEX
 8
CORNICE_DISPLAY
 10
-15.0001
 20
-0.3999
 30
159.5841
 70
192
 0
VERTEX
 8
CORNICE_DISPLAY
 10
-15.0001
 20
0.0001
 30
159.5841
 70
192
 0
VERTEX
 8
CORNICE_DISPLAY
 10
14.9999
 20
-0.3999
 30
159.5841
 70
192
 0
VERTEX
 8
CORNICE_DISPLAY
 10
14.9999
 20
0.0001
 30
159.5841
 70
192
 0
VERTEX
 8
CORNICE_DISPLAY
 10
14.9999
 20
-0.3999
 30
149.181
 70
192
 0
VERTEX
 8
CORNICE_DISPLAY
 10
14.9999
 20
0.0001
 30
149.181
 70
192
 0
VERTEX
 8
CORNICE_DISPLAY
 10
-15.0001
 20
-0.3999
 30
149.181
 70
192
 0
VERTEX
 8
CORNICE_DISPLAY
 10
-15.0001
 20
0.0001
 30
149.181
 70
192
 0
VERTEX
 8
CORNICE_DISPLAY
 10
-12.9001
 20
0.0001
 30
157.9843
 70
192
 0
VERTEX
 8
CORNICE_DISPLAY
 10
12.8999
 20
0.0001
 30
157.9843
 70
192
 0
VERTEX
 8
CORNICE_DISPLAY
 10
12.8999
 20
0.0001
 30
151.3982
 70
192
 0
VERTEX
 8
CORNICE_DISPLAY
 10
-12.9001
 20
0.0001
 30
151.3982
 70
192
 0
VERTEX
 8
CORNICE_DISPLAY
 10
-12.9001
 20
-0.3999
 30
157.9843
 70
192
 0
VERTEX
 8
CORNICE_DISPLAY
 10
12.8999
 20
-0.3999
 30
157.9843
 70
192
 0
VERTEX
 8
CORNICE_DISPLAY
 10
12.8999
 20
-0.3999
 30
151.3982
 70
192
 0
VERTEX
 8
CORNICE_DISPLAY
 10
-12.9001
 20
-0.3999
 30
151.3982
 70
192
 0
VERTEX
 8
CORNICE_DISPLAY
 10
0
 20
0
 30
0
 70
128
 71
1
 72
2
 73
4
 74
3
 0
VERTEX
 8
CORNICE_DISPLAY
 10
0
 20
0
 30
0
 70
128
 71
3
 72
4
 73
6
 74
5
 0
VERTEX
 8
CORNICE_DISPLAY
 10
0
 20
0
 30
0
 70
128
 71
5
 72
6
 73
8
 74
7
 0
VERTEX
 8
CORNICE_DISPLAY
 10
0
 20
0
 30
0
 70
128
 71
7
 72
8
 73
2
 74
1
 0
VERTEX
 8
CORNICE_DISPLAY
 10
0
 20
0
 30
0
 70
128
 71
15
 72
5
 73
7
 74
16
 0
VERTEX
 8
CORNICE_DISPLAY
 10
0
 20
0
 30
0
 70
128
 71
14
 72
3
 73
5
 74
15
 0
VERTEX
 8
CORNICE_DISPLAY
 10
0
 20
0
 30
0
 70
128
 71
9
 72
2
 73
8
 74
12
 0
VERTEX
 8
CORNICE_DISPLAY
 10
0
 20
0
 30
0
 70
128
 71
12
 72
8
 73
6
 74
11
 0
VERTEX
 8
CORNICE_DISPLAY
 10
0
 20
0
 30
0
 70
128
 71
11
 72
6
 73
4
 74
10
 0
VERTEX
 8
CORNICE_DISPLAY
 10
0
 20
0
 30
0
 70
128
 71
10
 72
4
 73
2
 74
9
 0
VERTEX
 8
CORNICE_DISPLAY
 10
0
 20
0
 30
0
 70
128
 71
16
 72
7
 73
1
 74
13
 0
VERTEX
 8
CORNICE_DISPLAY
 10
0
 20
0
 30
0
 70
128
 71
13
 72
1
 73
3
 74
14
 0
VERTEX
 8
CORNICE_DISPLAY
 10
0
 20
0
 30
0
 70
128
 71
14
 72
15
 73
11
 74
10
 0
VERTEX
 8
CORNICE_DISPLAY
 10
0
 20
0
 30
0
 70
128
 71
15
 72
16
 73
12
 74
11
 0
VERTEX
 8
CORNICE_DISPLAY
 10
0
 20
0
 30
0
 70
128
 71
13
 72
14
 73
10
 74
9
 0
VERTEX
 8
CORNICE_DISPLAY
 10
0
 20
0
 30
0
 70
128
 71
9
 72
12
 73
8
 74
2
 0
VERTEX
 8
CORNICE_DISPLAY
 10
0
 20
0
 30
0
 70
128
 71
13
 72
9
 73
12
 74
16
 0
SEQEND
 0
POLYLINE
 8
VETRO_DISPLAY
 66
1
 10
0.0
 20
0.0
 30
0.0
 70
64
 71
8
 72
6
 0
VERTEX
 8
VETRO_DISPLAY
 10
-29.6
 20
0.0001
 30
160.2196
 70
192
 0
VERTEX
 8
VETRO_DISPLAY
 10
-29.6
 20
0.4001
 30
160.2196
 70
192
 0
VERTEX
 8
VETRO_DISPLAY
 10
29.6
 20
0.0001
 30
160.2196
 70
192
 0
VERTEX
 8
VETRO_DISPLAY
 10
29.6
 20
0.4001
 30
160.2196
 70
192
 0
VERTEX
 8
VETRO_DISPLAY
 10
29.6
 20
0.0001
 30
149.181
 70
192
 0
VERTEX
 8
VETRO_DISPLAY
 10
29.6
 20
0.4001
 30
149.181
 70
192
 0
VERTEX
 8
VETRO_DISPLAY
 10
-29.6
 20
0.0001
 30
149.181
 70
192
 0
VERTEX
 8
VETRO_DISPLAY
 10
-29.6
 20
0.4001
 30
149.181
 70
192
 0
VERTEX
 8
VETRO_DISPLAY
 10
0
 20
0
 30
0
 70
128
 71
1
 72
2
 73
4
 74
3
 0
VERTEX
 8
VETRO_DISPLAY
 10
0
 20
0
 30
0
 70
128
 71
3
 72
4
 73
6
 74
5
 0
VERTEX
 8
VETRO_DISPLAY
 10
0
 20
0
 30
0
 70
128
 71
5
 72
6
 73
8
 74
7
 0
VERTEX
 8
VETRO_DISPLAY
 10
0
 20
0
 30
0
 70
128
 71
7
 72
8
 73
2
 74
1
 0
VERTEX
 8
VETRO_DISPLAY
 10
0
 20
0
 30
0
 70
128
 71
2
 72
8
 73
6
 74
4
 0
VERTEX
 8
VETRO_DISPLAY
 10
0
 20
0
 30
0
 70
128
 71
7
 72
1
 73
3
 74
5
 0
SEQEND
 0
POLYLINE
 8
CUBO_1
 66
1
 10
0.0
 20
0.0
 30
0.0
 70
64
 71
54
 72
52
 0
VERTEX
 8
CUBO_1
 10
-29.5999
 20
0.4008
 30
149.1809
 70
192
 0
VERTEX
 8
CUBO_1
 10
-29.5999
 20
0.4008
 30
160.22
 70
192
 0
VERTEX
 8
CUBO_1
 10
29.5999
 20
0.4008
 30
149.1809
 70
192
 0
VERTEX
 8
CUBO_1
 10
29.5999
 20
0.4008
 30
160.22
 70
192
 0
VERTEX
 8
CUBO_1
 10
29.5999
 20
2.2402
 30
149.1809
 70
192
 0
VERTEX
 8
CUBO_1
 10
29.5999
 20
2.2402
 30
160.22
 70
192
 0
VERTEX
 8
CUBO_1
 10
-29.5999
 20
2.2402
 30
149.1809
 70
192
 0
VERTEX
 8
CUBO_1
 10
-29.5999
 20
2.2402
 30
160.22
 70
192
 0
VERTEX
 8
CUBO_1
 10
-29.5999
 20
1.14
 30
149.1809
 70
192
 0
VERTEX
 8
CUBO_1
 10
29.5999
 20
1.14
 30
149.1809
 70
192
 0
VERTEX
 8
CUBO_1
 10
-27.6531
 20
2.24
 30
115.0981
 70
192
 0
VERTEX
 8
CUBO_1
 10
-27.653
 20
2.2402
 30
115.6662
 70
192
 0
VERTEX
 8
CUBO_1
 10
-29.5999
 20
1.14
 30
115.6662
 70
192
 0
VERTEX
 8
CUBO_1
 10
27.6578
 20
3.784
 30
115.6662
 70
192
 0
VERTEX
 8
CUBO_1
 10
29.5999
 20
3.784
 30
149.1809
 70
192
 0
VERTEX
 8
CUBO_1
 10
-29.5999
 20
3.784
 30
149.1809
 70
192
 0
VERTEX
 8
CUBO_1
 10
29.5999
 20
2.2402
 30
115.6662
 70
192
 0
VERTEX
 8
CUBO_1
 10
27.658
 20
2.2402
 30
115.6662
 70
192
 0
VERTEX
 8
CUBO_1
 10
27.6578
 20
1.14
 30
149.1809
 70
192
 0
VERTEX
 8
CUBO_1
 10
29.5999
 20
3.784
 30
115.6662
 70
192
 0
VERTEX
 8
CUBO_1
 10
-29.5999
 20
1.14
 30
147.9782
 70
192
 0
VERTEX
 8
CUBO_1
 10
27.6578
 20
1.14
 30
147.9782
 70
192
 0
VERTEX
 8
CUBO_1
 10
29.5999
 20
1.14
 30
147.9782
 70
192
 0
VERTEX
 8
CUBO_1
 10
-27.6531
 20
1.14
 30
147.9782
 70
192
 0
VERTEX
 8
CUBO_1
 10
-27.6531
 20
1.14
 30
115.6662
 70
192
 0
VERTEX
 8
CUBO_1
 10
-27.6531
 20
1.14
 30
149.1809
 70
192
 0
VERTEX
 8
CUBO_1
 10
-27.6531
 20
1.14
 30
115.6662
 70
192
 0
VERTEX
 8
CUBO_1
 10
27.6578
 20
0.3988
 30
147.9782
 70
192
 0
VERTEX
 8
CUBO_1
 10
-27.6531
 20
0.3988
 30
147.9782
 70
192
 0
VERTEX
 8
CUBO_1
 10
-29.5999
 20
2.2402
 30
115.6662
 70
192
 0
VERTEX
 8
CUBO_1
 10
-27.6531
 20
3.784
 30
149.221
 70
192
 0
VERTEX
 8
CUBO_1
 10
27.6578
 20
2.24
 30
115.0981
 70
192
 0
VERTEX
 8
CUBO_1
 10
-27.6531
 20
2.2402
 30
160.22
 70
192
 0
VERTEX
 8
CUBO_1
 10
-27.6531
 20
3.784
 30
115.0981
 70
192
 0
VERTEX
 8
CUBO_1
 10
-27.6531
 20
2.2402
 30
149.221
 70
192
 0
VERTEX
 8
CUBO_1
 10
-27.6531
 20
3.784
 30
115.6662
 70
192
 0
VERTEX
 8
CUBO_1
 10
-29.5999
 20
3.784
 30
115.6662
 70
192
 0
VERTEX
 8
CUBO_1
 10
29.5999
 20
1.14
 30
115.6662
 70
192
 0
VERTEX
 8
CUBO_1
 10
27.6578
 20
3.6669
 30
149.1809
 70
192
 0
VERTEX
 8
CUBO_1
 10
27.6578
 20
3.6669
 30
147.9782
 70
192
 0
VERTEX
 8
CUBO_1
 10
-27.6531
 20
3.6669
 30
147.9782
 70
192
 0
VERTEX
 8
CUBO_1
 10
-27.6531
 20
3.6669
 30
149.1809
 70
192
 0
VERTEX
 8
CUBO_1
 10
-27.6531
 20
0.3988
 30
115.6662
 70
192
 0
VERTEX
 8
CUBO_1
 10
27.6578
 20
0.4008
 30
149.1809
 70
192
 0
VERTEX
 8
CUBO_1
 10
27.6578
 20
0.4008
 30
160.22
 70
192
 0
VERTEX
 8
CUBO_1
 10
27.6578
 20
2.2402
 30
160.22
 70
192
 0
VERTEX
 8
CUBO_1
 10
27.6578
 20
2.2402
 30
149.221
 70
192
 0
VERTEX
 8
CUBO_1
 10
27.6578
 20
3.784
 30
149.221
 70
192
 0
VERTEX
 8
CUBO_1
 10
27.6578
 20
3.784
 30
115.0981
 70
192
 0
VERTEX
 8
CUBO_1
 10
27.6578
 20
1.14
 30
115.6662
 70
192
 0
VERTEX
 8
CUBO_1
 10
27.6578
 20
0.3988
 30
115.6662
 70
192
 0
VERTEX
 8
CUBO_1
 10
-27.6531
 20
0.4008
 30
149.1809
 70
192
 0
VERTEX
 8
CUBO_1
 10
-27.6531
 20
0.4008
 30
160.22
 70
192
 0
VERTEX
 8
CUBO_1
 10
27.6578
 20
1.14
 30
115.6662
 70
192
 0
VERTEX
 8
CUBO_1
 10
0
 20
0
 30
0
 70
128
 71
3
 72
4
 73
10
 74
10
 0
VERTEX
 8
CUBO_1
 10
0
 20
0
 30
0
 70
128
 71
10
 72
4
 73
6
 74
5
 0
VERTEX
 8
CUBO_1
 10
0
 20
0
 30
0
 70
128
 71
9
 72
7
 73
8
 74
2
 0
VERTEX
 8
CUBO_1
 10
0
 20
0
 30
0
 70
128
 71
2
 72
1
 73
9
 74
9
 0
VERTEX
 8
CUBO_1
 10
0
 20
0
 30
0
 70
128
 71
30
 72
7
 73
21
 74
13
 0
VERTEX
 8
CUBO_1
 10
0
 20
0
 30
0
 70
128
 71
7
 72
9
 73
21
 74
21
 0
VERTEX
 8
CUBO_1
 10
0
 20
0
 30
0
 70
128
 71
17
 72
38
 73
23
 74
5
 0
VERTEX
 8
CUBO_1
 10
0
 20
0
 30
0
 70
128
 71
23
 72
10
 73
5
 74
5
 0
VERTEX
 8
CUBO_1
 10
0
 20
0
 30
0
 70
128
 71
54
 72
38
 73
17
 74
18
 0
VERTEX
 8
CUBO_1
 10
0
 20
0
 30
0
 70
128
 71
18
 72
12
 73
25
 74
54
 0
VERTEX
 8
CUBO_1
 10
0
 20
0
 30
0
 70
128
 71
31
 72
16
 73
37
 74
36
 0
VERTEX
 8
CUBO_1
 10
0
 20
0
 30
0
 70
128
 71
12
 72
30
 73
13
 74
25
 0
VERTEX
 8
CUBO_1
 10
0
 20
0
 30
0
 70
128
 71
17
 72
5
 73
15
 74
20
 0
VERTEX
 8
CUBO_1
 10
0
 20
0
 30
0
 70
128
 71
12
 72
18
 73
32
 74
11
 0
VERTEX
 8
CUBO_1
 10
0
 20
0
 30
0
 70
128
 71
13
 72
21
 73
24
 74
27
 0
VERTEX
 8
CUBO_1
 10
0
 20
0
 30
0
 70
128
 71
44
 72
3
 73
10
 74
19
 0
VERTEX
 8
CUBO_1
 10
0
 20
0
 30
0
 70
128
 71
26
 72
9
 73
1
 74
52
 0
VERTEX
 8
CUBO_1
 10
0
 20
0
 30
0
 70
128
 71
19
 72
26
 73
52
 74
44
 0
VERTEX
 8
CUBO_1
 10
0
 20
0
 30
0
 70
128
 71
1
 72
2
 73
53
 74
52
 0
VERTEX
 8
CUBO_1
 10
0
 20
0
 30
0
 70
128
 71
5
 72
6
 73
46
 74
47
 0
VERTEX
 8
CUBO_1
 10
0
 20
0
 30
0
 70
128
 71
2
 72
8
 73
33
 74
53
 0
VERTEX
 8
CUBO_1
 10
0
 20
0
 30
0
 70
128
 71
48
 72
31
 73
36
 74
14
 0
VERTEX
 8
CUBO_1
 10
0
 20
0
 30
0
 70
128
 71
51
 72
50
 73
27
 74
43
 0
VERTEX
 8
CUBO_1
 10
0
 20
0
 30
0
 70
128
 71
12
 72
11
 73
34
 74
36
 0
VERTEX
 8
CUBO_1
 10
0
 20
0
 30
0
 70
128
 71
15
 72
5
 73
47
 74
48
 0
VERTEX
 8
CUBO_1
 10
0
 20
0
 30
0
 70
128
 71
16
 72
7
 73
30
 74
37
 0
VERTEX
 8
CUBO_1
 10
0
 20
0
 30
0
 70
128
 71
53
 72
45
 73
44
 74
52
 0
VERTEX
 8
CUBO_1
 10
0
 20
0
 30
0
 70
128
 71
19
 72
10
 73
23
 74
22
 0
VERTEX
 8
CUBO_1
 10
0
 20
0
 30
0
 70
128
 71
21
 72
9
 73
26
 74
24
 0
VERTEX
 8
CUBO_1
 10
0
 20
0
 30
0
 70
128
 71
23
 72
38
 73
50
 74
22
 0
VERTEX
 8
CUBO_1
 10
0
 20
0
 30
0
 70
128
 71
29
 72
28
 73
51
 74
43
 0
VERTEX
 8
CUBO_1
 10
0
 20
0
 30
0
 70
128
 71
42
 72
39
 73
40
 74
41
 0
VERTEX
 8
CUBO_1
 10
0
 20
0
 30
0
 70
128
 71
29
 72
24
 73
22
 74
28
 0
VERTEX
 8
CUBO_1
 10
0
 20
0
 30
0
 70
128
 71
28
 72
22
 73
50
 74
51
 0
VERTEX
 8
CUBO_1
 10
0
 20
0
 30
0
 70
128
 71
46
 72
6
 73
4
 74
45
 0
VERTEX
 8
CUBO_1
 10
0
 20
0
 30
0
 70
128
 71
47
 72
35
 73
31
 74
48
 0
VERTEX
 8
CUBO_1
 10
0
 20
0
 30
0
 70
128
 71
32
 72
49
 73
34
 74
11
 0
VERTEX
 8
CUBO_1
 10
0
 20
0
 30
0
 70
128
 71
36
 72
34
 73
49
 74
14
 0
VERTEX
 8
CUBO_1
 10
0
 20
0
 30
0
 70
128
 71
20
 72
15
 73
48
 74
14
 0
VERTEX
 8
CUBO_1
 10
0
 20
0
 30
0
 70
128
 71
35
 72
7
 73
16
 74
31
 0
VERTEX
 8
CUBO_1
 10
0
 20
0
 30
0
 70
128
 71
33
 72
8
 73
7
 74
35
 0
VERTEX
 8
CUBO_1
 10
0
 20
0
 30
0
 70
128
 71
30
 72
12
 73
36
 74
37
 0
VERTEX
 8
CUBO_1
 10
0
 20
0
 30
0
 70
128
 71
27
 72
24
 73
29
 74
43
 0
VERTEX
 8
CUBO_1
 10
0
 20
0
 30
0
 70
128
 71
33
 72
46
 73
45
 74
53
 0
VERTEX
 8
CUBO_1
 10
0
 20
0
 30
0
 70
128
 71
42
 72
26
 73
19
 74
39
 0
VERTEX
 8
CUBO_1
 10
0
 20
0
 30
0
 70
128
 71
39
 72
19
 73
22
 74
40
 0
VERTEX
 8
CUBO_1
 10
0
 20
0
 30
0
 70
128
 71
40
 72
22
 73
24
 74
41
 0
VERTEX
 8
CUBO_1
 10
0
 20
0
 30
0
 70
128
 71
41
 72
24
 73
26
 74
42
 0
VERTEX
 8
CUBO_1
 10
0
 20
0
 30
0
 70
128
 71
45
 72
4
 73
3
 74
44
 0
VERTEX
 8
CUBO_1
 10
0
 20
0
 30
0
 70
128
 71
46
 72
33
 73
35
 74
47
 0
VERTEX
 8
CUBO_1
 10
0
 20
0
 30
0
 70
128
 71
14
 72
49
 73
32
 74
18
 0
VERTEX
 8
CUBO_1
 10
0
 20
0
 30
0
 70
128
 71
20
 72
14
 73
18
 74
17
 0
SEQEND
 0
POLYLINE
 8
FORNO
 66
1
 10
0.0
 20
0.0
 30
0.0
 70
64
 71
24
 72
22
 0
VERTEX
 8
FORNO
 10
-26.9201
 20
3.7902
 30
115
 70
192
 0
VERTEX
 8
FORNO
 10
-26.9201
 20
1.0211
 30
159.53
 70
192
 0
VERTEX
 8
FORNO
 10
26.9201
 20
3.7902
 30
115
 70
192
 0
VERTEX
 8
FORNO
 10
26.9201
 20
1.0211
 30
159.53
 70
192
 0
VERTEX
 8
FORNO
 10
26.9201
 20
54.823
 30
115
 70
192
 0
VERTEX
 8
FORNO
 10
26.9201
 20
54.823
 30
150.7255
 70
192
 0
VERTEX
 8
FORNO
 10
-26.9201
 20
54.823
 30
115
 70
192
 0
VERTEX
 8
FORNO
 10
-26.9201
 20
54.823
 30
150.7255
 70
192
 0
VERTEX
 8
FORNO
 10
-26.9201
 20
1.0211
 30
149.222
 70
192
 0
VERTEX
 8
FORNO
 10
26.9201
 20
1.0211
 30
149.222
 70
192
 0
VERTEX
 8
FORNO
 10
-26.9201
 20
3.9003
 30
149.2202
 70
192
 0
VERTEX
 8
FORNO
 10
26.9201
 20
3.9003
 30
149.2202
 70
192
 0
VERTEX
 8
FORNO
 10
26.9201
 20
42.1906
 30
115
 70
192
 0
VERTEX
 8
FORNO
 10
26.9201
 20
42.1906
 30
158.3233
 70
192
 0
VERTEX
 8
FORNO
 10
-26.9201
 20
42.1906
 30
158.3233
 70
192
 0
VERTEX
 8
FORNO
 10
-26.9201
 20
42.1906
 30
115
 70
192
 0
VERTEX
 8
FORNO
 10
-26.9201
 20
3.0173
 30
159.5106
 70
192
 0
VERTEX
 8
FORNO
 10
26.9201
 20
3.0173
 30
159.5106
 70
192
 0
VERTEX
 8
FORNO
 10
26.9201
 20
3.0173
 30
149.2207
 70
192
 0
VERTEX
 8
FORNO
 10
-26.9201
 20
3.0173
 30
149.2207
 70
192
 0
VERTEX
 8
FORNO
 10
-26.9201
 20
5.0999
 30
158.3116
 70
192
 0
VERTEX
 8
FORNO
 10
26.9201
 20
5.0999
 30
158.3116
 70
192
 0
VERTEX
 8
FORNO
 10
26.9201
 20
5.0999
 30
115
 70
192
 0
VERTEX
 8
FORNO
 10
-26.9201
 20
5.0999
 30
115
 70
192
 0
VERTEX
 8
FORNO
 10
0
 20
0
 30
0
 70
128
 71
23
 72
3
 73
12
 74
22
 0
VERTEX
 8
FORNO
 10
0
 20
0
 30
0
 70
128
 71
22
 72
12
 73
19
 74
18
 0
VERTEX
 8
FORNO
 10
0
 20
0
 30
0
 70
128
 71
21
 72
17
 73
20
 74
11
 0
VERTEX
 8
FORNO
 10
0
 20
0
 30
0
 70
128
 71
24
 72
21
 73
11
 74
1
 0
VERTEX
 8
FORNO
 10
0
 20
0
 30
0
 70
128
 71
1
 72
11
 73
12
 74
3
 0
VERTEX
 8
FORNO
 10
0
 20
0
 30
0
 70
128
 71
14
 72
6
 73
5
 74
13
 0
VERTEX
 8
FORNO
 10
0
 20
0
 30
0
 70
128
 71
5
 72
6
 73
8
 74
7
 0
VERTEX
 8
FORNO
 10
0
 20
0
 30
0
 70
128
 71
7
 72
8
 73
15
 74
16
 0
VERTEX
 8
FORNO
 10
0
 20
0
 30
0
 70
128
 71
2
 72
17
 73
18
 74
4
 0
VERTEX
 8
FORNO
 10
0
 20
0
 30
0
 70
128
 71
7
 72
16
 73
13
 74
5
 0
VERTEX
 8
FORNO
 10
0
 20
0
 30
0
 70
128
 71
19
 72
10
 73
4
 74
18
 0
VERTEX
 8
FORNO
 10
0
 20
0
 30
0
 70
128
 71
17
 72
21
 73
22
 74
18
 0
VERTEX
 8
FORNO
 10
0
 20
0
 30
0
 70
128
 71
9
 72
2
 73
4
 74
10
 0
VERTEX
 8
FORNO
 10
0
 20
0
 30
0
 70
128
 71
17
 72
2
 73
9
 74
20
 0
VERTEX
 8
FORNO
 10
0
 20
0
 30
0
 70
128
 71
22
 72
14
 73
13
 74
23
 0
VERTEX
 8
FORNO
 10
0
 20
0
 30
0
 70
128
 71
11
 72
20
 73
19
 74
12
 0
VERTEX
 8
FORNO
 10
0
 20
0
 30
0
 70
128
 71
15
 72
8
 73
6
 74
14
 0
VERTEX
 8
FORNO
 10
0
 20
0
 30
0
 70
128
 71
16
 72
24
 73
23
 74
13
 0
VERTEX
 8
FORNO
 10
0
 20
0
 30
0
 70
128
 71
21
 72
15
 73
14
 74
22
 0
VERTEX
 8
FORNO
 10
0
 20
0
 30
0
 70
128
 71
24
 72
16
 73
15
 74
21
 0
VERTEX
 8
FORNO
 10
0
 20
0
 30
0
 70
128
 71
24
 72
1
 73
3
 74
23
 0
VERTEX
 8
FORNO
 10
0
 20
0
 30
0
 70
128
 71
20
 72
9
 73
10
 74
19
 0
SEQEND
 0
ENDSEC
 0
EOF
