 0
SECTION
 2
HEADER
 9
$ACADVER
 1
AC1009
 0
ENDSEC
 0
SECTION
 2
TABLES
 0
TABLE
 2
LTYPE
 70
1
 0
LTYPE
 2
CONTINUOUS
 70
64
 3
solid line
 72
65
 73
0
 40
0.0
 0
ENDTAB
 0
TABLE
 2
LAYER
 70
6
 0
LAYER
 2
0
 70
0
 62
7
 6
CONTINUOUS
 0
LAYER
 2
FUGMO_4505_MT_M_BK
 70
64
 62
7
 6
CONTINUOUS
 0
LAYER
 2
MANOPOLA
 70
64
 62
7
 6
CONTINUOUS
 0
LAYER
 2
TACCA_1
 70
64
 62
39
 6
CONTINUOUS
 0
LAYER
 2
CILINDRO
 70
64
 62
39
 6
CONTINUOUS
 0
LAYER
 2
MANOPOLA_1
 70
64
 62
7
 6
CONTINUOUS
 0
LAYER
 2
TACCA_1_1
 70
64
 62
39
 6
CONTINUOUS
 0
LAYER
 2
CILINDRO_1
 70
64
 62
39
 6
CONTINUOUS
 0
LAYER
 2
MANIGLIA
 70
64
 62
7
 6
CONTINUOUS
 0
LAYER
 2
CILINDRO_2
 70
64
 62
39
 6
CONTINUOUS
 0
LAYER
 2
CUBO_5
 70
64
 62
39
 6
CONTINUOUS
 0
LAYER
 2
CUBO_4
 70
64
 62
39
 6
CONTINUOUS
 0
LAYER
 2
CUBO_3
 70
64
 62
39
 6
CONTINUOUS
 0
LAYER
 2
LOGO_FULGOR_MILANO
 70
64
 62
7
 6
CONTINUOUS
 0
LAYER
 2
FULGOR
 70
64
 62
7
 6
CONTINUOUS
 0
LAYER
 2
MILANO
 70
64
 62
7
 6
CONTINUOUS
 0
LAYER
 2
CORNICE_DISPLAY
 70
64
 62
39
 6
CONTINUOUS
 0
LAYER
 2
PANNELLO_DISPLAY
 70
64
 62
39
 6
CONTINUOUS
 0
LAYER
 2
DISPLAY_2
 70
64
 62
39
 6
CONTINUOUS
 0
LAYER
 2
DISPLAY_1
 70
64
 62
37
 6
CONTINUOUS
 0
LAYER
 2
ANTA
 70
64
 62
7
 6
CONTINUOUS
 0
LAYER
 2
VETRO_ANTA
 70
64
 62
39
 6
CONTINUOUS
 0
LAYER
 2
VETRO_ANTA_1
 70
64
 62
37
 6
CONTINUOUS
 0
LAYER
 2
CUBO
 70
64
 62
39
 6
CONTINUOUS
 0
LAYER
 2
FORNO
 70
64
 62
253
 6
CONTINUOUS
 0
ENDTAB
 0
ENDSEC
 0
SECTION
 2
BLOCKS
 0
ENDSEC
 0
SECTION
 2
ENTITIES
 0
POLYLINE
 8
TACCA_1
 66
1
 10
0.0
 20
0.0
 30
0.0
 70
64
 71
80
 72
80
 0
VERTEX
 8
TACCA_1
 10
-15.1402
 20
-0.9866
 30
155.8645
 70
192
 0
VERTEX
 8
TACCA_1
 10
-15.1402
 20
-0.9866
 30
156.9073
 70
192
 0
VERTEX
 8
TACCA_1
 10
-15.1402
 20
-0.9882
 30
156.9132
 70
192
 0
VERTEX
 8
TACCA_1
 10
-15.1402
 20
-0.9914
 30
156.9161
 70
192
 0
VERTEX
 8
TACCA_1
 10
-15.1402
 20
-0.9974
 30
156.9172
 70
192
 0
VERTEX
 8
TACCA_1
 10
-15.1402
 20
-2.4135
 30
156.9047
 70
192
 0
VERTEX
 8
TACCA_1
 10
-15.1402
 20
-2.4311
 30
156.8987
 70
192
 0
VERTEX
 8
TACCA_1
 10
-15.1402
 20
-2.443
 30
156.8857
 70
192
 0
VERTEX
 8
TACCA_1
 10
-15.1402
 20
-2.4475
 30
156.8677
 70
192
 0
VERTEX
 8
TACCA_1
 10
-15.1402
 20
-2.4475
 30
155.8645
 70
192
 0
VERTEX
 8
TACCA_1
 10
-15.1264
 20
-2.4675
 30
155.8445
 70
192
 0
VERTEX
 8
TACCA_1
 10
-14.874
 20
-0.9666
 30
155.8445
 70
192
 0
VERTEX
 8
TACCA_1
 10
-15.1264
 20
-2.4675
 30
156.8701
 70
192
 0
VERTEX
 8
TACCA_1
 10
-14.874
 20
-2.4675
 30
155.8445
 70
192
 0
VERTEX
 8
TACCA_1
 10
-14.8602
 20
-2.4475
 30
155.8645
 70
192
 0
VERTEX
 8
TACCA_1
 10
-14.8602
 20
-2.4475
 30
156.8677
 70
192
 0
VERTEX
 8
TACCA_1
 10
-14.8602
 20
-2.443
 30
156.8857
 70
192
 0
VERTEX
 8
TACCA_1
 10
-14.8602
 20
-2.4311
 30
156.8987
 70
192
 0
VERTEX
 8
TACCA_1
 10
-14.8602
 20
-2.4135
 30
156.9047
 70
192
 0
VERTEX
 8
TACCA_1
 10
-14.8602
 20
-0.9974
 30
156.9172
 70
192
 0
VERTEX
 8
TACCA_1
 10
-14.8602
 20
-0.9914
 30
156.9161
 70
192
 0
VERTEX
 8
TACCA_1
 10
-14.8602
 20
-0.9882
 30
156.9132
 70
192
 0
VERTEX
 8
TACCA_1
 10
-14.8602
 20
-0.9866
 30
156.9073
 70
192
 0
VERTEX
 8
TACCA_1
 10
-14.8602
 20
-0.9866
 30
155.8645
 70
192
 0
VERTEX
 8
TACCA_1
 10
-14.874
 20
-0.9666
 30
156.91
 70
192
 0
VERTEX
 8
TACCA_1
 10
-15.1264
 20
-0.9666
 30
155.8445
 70
192
 0
VERTEX
 8
TACCA_1
 10
-15.1264
 20
-2.4177
 30
156.9244
 70
192
 0
VERTEX
 8
TACCA_1
 10
-14.874
 20
-2.4424
 30
156.916
 70
192
 0
VERTEX
 8
TACCA_1
 10
-15.1264
 20
-0.9965
 30
156.9374
 70
192
 0
VERTEX
 8
TACCA_1
 10
-14.874
 20
-2.4177
 30
156.9244
 70
192
 0
VERTEX
 8
TACCA_1
 10
-15.1264
 20
-2.4612
 30
156.8955
 70
192
 0
VERTEX
 8
TACCA_1
 10
-14.874
 20
-2.4675
 30
156.8701
 70
192
 0
VERTEX
 8
TACCA_1
 10
-15.1264
 20
-2.4424
 30
156.916
 70
192
 0
VERTEX
 8
TACCA_1
 10
-14.874
 20
-2.4612
 30
156.8955
 70
192
 0
VERTEX
 8
TACCA_1
 10
-15.1264
 20
-0.9821
 30
156.9347
 70
192
 0
VERTEX
 8
TACCA_1
 10
-14.874
 20
-0.9965
 30
156.9374
 70
192
 0
VERTEX
 8
TACCA_1
 10
-15.1264
 20
-0.9666
 30
156.91
 70
192
 0
VERTEX
 8
TACCA_1
 10
-14.874
 20
-0.9705
 30
156.9241
 70
192
 0
VERTEX
 8
TACCA_1
 10
-15.1264
 20
-0.9705
 30
156.9241
 70
192
 0
VERTEX
 8
TACCA_1
 10
-14.874
 20
-0.9821
 30
156.9347
 70
192
 0
VERTEX
 8
TACCA_1
 10
-15.1385
 20
-0.9768
 30
155.8547
 70
192
 0
VERTEX
 8
TACCA_1
 10
-15.1332
 20
-0.9691
 30
155.847
 70
192
 0
VERTEX
 8
TACCA_1
 10
-15.1385
 20
-0.9768
 30
156.9086
 70
192
 0
VERTEX
 8
TACCA_1
 10
-15.1332
 20
-0.9691
 30
156.9096
 70
192
 0
VERTEX
 8
TACCA_1
 10
-15.1385
 20
-0.9795
 30
156.9185
 70
192
 0
VERTEX
 8
TACCA_1
 10
-15.1332
 20
-0.9727
 30
156.9227
 70
192
 0
VERTEX
 8
TACCA_1
 10
-15.1385
 20
-0.9868
 30
156.9252
 70
192
 0
VERTEX
 8
TACCA_1
 10
-15.1332
 20
-0.9833
 30
156.9324
 70
192
 0
VERTEX
 8
TACCA_1
 10
-15.1385
 20
-0.997
 30
156.9271
 70
192
 0
VERTEX
 8
TACCA_1
 10
-15.1332
 20
-0.9966
 30
156.9348
 70
192
 0
VERTEX
 8
TACCA_1
 10
-15.1385
 20
-2.4155
 30
156.9144
 70
192
 0
VERTEX
 8
TACCA_1
 10
-15.1332
 20
-2.4171
 30
156.9219
 70
192
 0
VERTEX
 8
TACCA_1
 10
-15.1385
 20
-2.4366
 30
156.9072
 70
192
 0
VERTEX
 8
TACCA_1
 10
-15.1332
 20
-2.441
 30
156.9138
 70
192
 0
VERTEX
 8
TACCA_1
 10
-15.1385
 20
-2.4519
 30
156.8905
 70
192
 0
VERTEX
 8
TACCA_1
 10
-15.1332
 20
-2.4589
 30
156.8942
 70
192
 0
VERTEX
 8
TACCA_1
 10
-15.1385
 20
-2.4572
 30
156.8689
 70
192
 0
VERTEX
 8
TACCA_1
 10
-15.1332
 20
-2.4649
 30
156.8698
 70
192
 0
VERTEX
 8
TACCA_1
 10
-15.1385
 20
-2.4572
 30
155.8547
 70
192
 0
VERTEX
 8
TACCA_1
 10
-15.1332
 20
-2.4649
 30
155.847
 70
192
 0
VERTEX
 8
TACCA_1
 10
-14.8673
 20
-2.4649
 30
155.847
 70
192
 0
VERTEX
 8
TACCA_1
 10
-14.862
 20
-2.4572
 30
155.8547
 70
192
 0
VERTEX
 8
TACCA_1
 10
-14.8673
 20
-0.9691
 30
155.847
 70
192
 0
VERTEX
 8
TACCA_1
 10
-14.862
 20
-0.9768
 30
155.8547
 70
192
 0
VERTEX
 8
TACCA_1
 10
-14.8673
 20
-2.4649
 30
156.8698
 70
192
 0
VERTEX
 8
TACCA_1
 10
-14.862
 20
-2.4572
 30
156.8689
 70
192
 0
VERTEX
 8
TACCA_1
 10
-14.862
 20
-2.4519
 30
156.8905
 70
192
 0
VERTEX
 8
TACCA_1
 10
-14.8673
 20
-2.4589
 30
156.8942
 70
192
 0
VERTEX
 8
TACCA_1
 10
-14.862
 20
-2.4366
 30
156.9072
 70
192
 0
VERTEX
 8
TACCA_1
 10
-14.8673
 20
-2.441
 30
156.9138
 70
192
 0
VERTEX
 8
TACCA_1
 10
-14.862
 20
-2.4155
 30
156.9144
 70
192
 0
VERTEX
 8
TACCA_1
 10
-14.8673
 20
-2.4171
 30
156.9219
 70
192
 0
VERTEX
 8
TACCA_1
 10
-14.862
 20
-0.997
 30
156.9271
 70
192
 0
VERTEX
 8
TACCA_1
 10
-14.8673
 20
-0.9966
 30
156.9348
 70
192
 0
VERTEX
 8
TACCA_1
 10
-14.862
 20
-0.9868
 30
156.9252
 70
192
 0
VERTEX
 8
TACCA_1
 10
-14.8673
 20
-0.9833
 30
156.9324
 70
192
 0
VERTEX
 8
TACCA_1
 10
-14.862
 20
-0.9795
 30
156.9185
 70
192
 0
VERTEX
 8
TACCA_1
 10
-14.8673
 20
-0.9727
 30
156.9227
 70
192
 0
VERTEX
 8
TACCA_1
 10
-14.862
 20
-0.9768
 30
156.9086
 70
192
 0
VERTEX
 8
TACCA_1
 10
-14.8673
 20
-0.9691
 30
156.9096
 70
192
 0
VERTEX
 8
TACCA_1
 10
0
 20
0
 30
0
 70
128
 71
11
 72
13
 73
32
 74
14
 0
VERTEX
 8
TACCA_1
 10
0
 20
0
 30
0
 70
128
 71
19
 72
15
 73
16
 74
18
 0
VERTEX
 8
TACCA_1
 10
0
 20
0
 30
0
 70
128
 71
12
 72
25
 73
37
 74
26
 0
VERTEX
 8
TACCA_1
 10
0
 20
0
 30
0
 70
128
 71
1
 72
2
 73
5
 74
5
 0
VERTEX
 8
TACCA_1
 10
0
 20
0
 30
0
 70
128
 71
27
 72
29
 73
36
 74
30
 0
VERTEX
 8
TACCA_1
 10
0
 20
0
 30
0
 70
128
 71
26
 72
11
 73
14
 74
12
 0
VERTEX
 8
TACCA_1
 10
0
 20
0
 30
0
 70
128
 71
20
 72
21
 73
22
 74
23
 0
VERTEX
 8
TACCA_1
 10
0
 20
0
 30
0
 70
128
 71
16
 72
17
 73
18
 74
18
 0
VERTEX
 8
TACCA_1
 10
0
 20
0
 30
0
 70
128
 71
5
 72
2
 73
3
 74
4
 0
VERTEX
 8
TACCA_1
 10
0
 20
0
 30
0
 70
128
 71
6
 72
7
 73
8
 74
8
 0
VERTEX
 8
TACCA_1
 10
0
 20
0
 30
0
 70
128
 71
13
 72
31
 73
34
 74
32
 0
VERTEX
 8
TACCA_1
 10
0
 20
0
 30
0
 70
128
 71
31
 72
33
 73
28
 74
34
 0
VERTEX
 8
TACCA_1
 10
0
 20
0
 30
0
 70
128
 71
33
 72
27
 73
30
 74
28
 0
VERTEX
 8
TACCA_1
 10
0
 20
0
 30
0
 70
128
 71
20
 72
23
 73
24
 74
24
 0
VERTEX
 8
TACCA_1
 10
0
 20
0
 30
0
 70
128
 71
24
 72
15
 73
19
 74
20
 0
VERTEX
 8
TACCA_1
 10
0
 20
0
 30
0
 70
128
 71
6
 72
8
 73
9
 74
10
 0
VERTEX
 8
TACCA_1
 10
0
 20
0
 30
0
 70
128
 71
1
 72
5
 73
6
 74
10
 0
VERTEX
 8
TACCA_1
 10
0
 20
0
 30
0
 70
128
 71
29
 72
35
 73
40
 74
36
 0
VERTEX
 8
TACCA_1
 10
0
 20
0
 30
0
 70
128
 71
35
 72
39
 73
38
 74
40
 0
VERTEX
 8
TACCA_1
 10
0
 20
0
 30
0
 70
128
 71
39
 72
37
 73
25
 74
38
 0
VERTEX
 8
TACCA_1
 10
0
 20
0
 30
0
 70
128
 71
9
 72
57
 73
59
 74
10
 0
VERTEX
 8
TACCA_1
 10
0
 20
0
 30
0
 70
128
 71
32
 72
65
 73
61
 74
14
 0
VERTEX
 8
TACCA_1
 10
0
 20
0
 30
0
 70
128
 71
30
 72
72
 73
70
 74
28
 0
VERTEX
 8
TACCA_1
 10
0
 20
0
 30
0
 70
128
 71
12
 72
63
 73
80
 74
25
 0
VERTEX
 8
TACCA_1
 10
0
 20
0
 30
0
 70
128
 71
1
 72
41
 73
43
 74
2
 0
VERTEX
 8
TACCA_1
 10
0
 20
0
 30
0
 70
128
 71
5
 72
49
 73
51
 74
6
 0
VERTEX
 8
TACCA_1
 10
0
 20
0
 30
0
 70
128
 71
36
 72
74
 73
72
 74
30
 0
VERTEX
 8
TACCA_1
 10
0
 20
0
 30
0
 70
128
 71
10
 72
59
 73
41
 74
1
 0
VERTEX
 8
TACCA_1
 10
0
 20
0
 30
0
 70
128
 71
14
 72
61
 73
63
 74
12
 0
VERTEX
 8
TACCA_1
 10
0
 20
0
 30
0
 70
128
 71
34
 72
68
 73
65
 74
32
 0
VERTEX
 8
TACCA_1
 10
0
 20
0
 30
0
 70
128
 71
28
 72
70
 73
68
 74
34
 0
VERTEX
 8
TACCA_1
 10
0
 20
0
 30
0
 70
128
 71
6
 72
51
 73
53
 74
7
 0
VERTEX
 8
TACCA_1
 10
0
 20
0
 30
0
 70
128
 71
8
 72
55
 73
57
 74
9
 0
VERTEX
 8
TACCA_1
 10
0
 20
0
 30
0
 70
128
 71
7
 72
53
 73
55
 74
8
 0
VERTEX
 8
TACCA_1
 10
0
 20
0
 30
0
 70
128
 71
40
 72
76
 73
74
 74
36
 0
VERTEX
 8
TACCA_1
 10
0
 20
0
 30
0
 70
128
 71
38
 72
78
 73
76
 74
40
 0
VERTEX
 8
TACCA_1
 10
0
 20
0
 30
0
 70
128
 71
25
 72
80
 73
78
 74
38
 0
VERTEX
 8
TACCA_1
 10
0
 20
0
 30
0
 70
128
 71
2
 72
43
 73
45
 74
3
 0
VERTEX
 8
TACCA_1
 10
0
 20
0
 30
0
 70
128
 71
3
 72
45
 73
47
 74
4
 0
VERTEX
 8
TACCA_1
 10
0
 20
0
 30
0
 70
128
 71
4
 72
47
 73
49
 74
5
 0
VERTEX
 8
TACCA_1
 10
0
 20
0
 30
0
 70
128
 71
57
 72
58
 73
60
 74
59
 0
VERTEX
 8
TACCA_1
 10
0
 20
0
 30
0
 70
128
 71
58
 72
13
 73
11
 74
60
 0
VERTEX
 8
TACCA_1
 10
0
 20
0
 30
0
 70
128
 71
65
 72
66
 73
62
 74
61
 0
VERTEX
 8
TACCA_1
 10
0
 20
0
 30
0
 70
128
 71
66
 72
16
 73
15
 74
62
 0
VERTEX
 8
TACCA_1
 10
0
 20
0
 30
0
 70
128
 71
72
 72
71
 73
69
 74
70
 0
VERTEX
 8
TACCA_1
 10
0
 20
0
 30
0
 70
128
 71
71
 72
19
 73
18
 74
69
 0
VERTEX
 8
TACCA_1
 10
0
 20
0
 30
0
 70
128
 71
63
 72
64
 73
79
 74
80
 0
VERTEX
 8
TACCA_1
 10
0
 20
0
 30
0
 70
128
 71
64
 72
24
 73
23
 74
79
 0
VERTEX
 8
TACCA_1
 10
0
 20
0
 30
0
 70
128
 71
41
 72
42
 73
44
 74
43
 0
VERTEX
 8
TACCA_1
 10
0
 20
0
 30
0
 70
128
 71
42
 72
26
 73
37
 74
44
 0
VERTEX
 8
TACCA_1
 10
0
 20
0
 30
0
 70
128
 71
49
 72
50
 73
52
 74
51
 0
VERTEX
 8
TACCA_1
 10
0
 20
0
 30
0
 70
128
 71
50
 72
29
 73
27
 74
52
 0
VERTEX
 8
TACCA_1
 10
0
 20
0
 30
0
 70
128
 71
74
 72
73
 73
71
 74
72
 0
VERTEX
 8
TACCA_1
 10
0
 20
0
 30
0
 70
128
 71
73
 72
20
 73
19
 74
71
 0
VERTEX
 8
TACCA_1
 10
0
 20
0
 30
0
 70
128
 71
59
 72
60
 73
42
 74
41
 0
VERTEX
 8
TACCA_1
 10
0
 20
0
 30
0
 70
128
 71
60
 72
11
 73
26
 74
42
 0
VERTEX
 8
TACCA_1
 10
0
 20
0
 30
0
 70
128
 71
61
 72
62
 73
64
 74
63
 0
VERTEX
 8
TACCA_1
 10
0
 20
0
 30
0
 70
128
 71
62
 72
15
 73
24
 74
64
 0
VERTEX
 8
TACCA_1
 10
0
 20
0
 30
0
 70
128
 71
68
 72
67
 73
66
 74
65
 0
VERTEX
 8
TACCA_1
 10
0
 20
0
 30
0
 70
128
 71
67
 72
17
 73
16
 74
66
 0
VERTEX
 8
TACCA_1
 10
0
 20
0
 30
0
 70
128
 71
70
 72
69
 73
67
 74
68
 0
VERTEX
 8
TACCA_1
 10
0
 20
0
 30
0
 70
128
 71
69
 72
18
 73
17
 74
67
 0
VERTEX
 8
TACCA_1
 10
0
 20
0
 30
0
 70
128
 71
51
 72
52
 73
54
 74
53
 0
VERTEX
 8
TACCA_1
 10
0
 20
0
 30
0
 70
128
 71
52
 72
27
 73
33
 74
54
 0
VERTEX
 8
TACCA_1
 10
0
 20
0
 30
0
 70
128
 71
55
 72
56
 73
58
 74
57
 0
VERTEX
 8
TACCA_1
 10
0
 20
0
 30
0
 70
128
 71
56
 72
31
 73
13
 74
58
 0
VERTEX
 8
TACCA_1
 10
0
 20
0
 30
0
 70
128
 71
53
 72
54
 73
56
 74
55
 0
VERTEX
 8
TACCA_1
 10
0
 20
0
 30
0
 70
128
 71
54
 72
33
 73
31
 74
56
 0
VERTEX
 8
TACCA_1
 10
0
 20
0
 30
0
 70
128
 71
76
 72
75
 73
73
 74
74
 0
VERTEX
 8
TACCA_1
 10
0
 20
0
 30
0
 70
128
 71
75
 72
21
 73
20
 74
73
 0
VERTEX
 8
TACCA_1
 10
0
 20
0
 30
0
 70
128
 71
78
 72
77
 73
75
 74
76
 0
VERTEX
 8
TACCA_1
 10
0
 20
0
 30
0
 70
128
 71
77
 72
22
 73
21
 74
75
 0
VERTEX
 8
TACCA_1
 10
0
 20
0
 30
0
 70
128
 71
80
 72
79
 73
77
 74
78
 0
VERTEX
 8
TACCA_1
 10
0
 20
0
 30
0
 70
128
 71
79
 72
23
 73
22
 74
77
 0
VERTEX
 8
TACCA_1
 10
0
 20
0
 30
0
 70
128
 71
43
 72
44
 73
46
 74
45
 0
VERTEX
 8
TACCA_1
 10
0
 20
0
 30
0
 70
128
 71
44
 72
37
 73
39
 74
46
 0
VERTEX
 8
TACCA_1
 10
0
 20
0
 30
0
 70
128
 71
45
 72
46
 73
48
 74
47
 0
VERTEX
 8
TACCA_1
 10
0
 20
0
 30
0
 70
128
 71
46
 72
39
 73
35
 74
48
 0
VERTEX
 8
TACCA_1
 10
0
 20
0
 30
0
 70
128
 71
47
 72
48
 73
50
 74
49
 0
VERTEX
 8
TACCA_1
 10
0
 20
0
 30
0
 70
128
 71
48
 72
35
 73
29
 74
50
 0
SEQEND
 0
POLYLINE
 8
CILINDRO
 66
1
 10
0.0
 20
0.0
 30
0.0
 70
64
 71
242
 72
280
 0
VERTEX
 8
CILINDRO
 10
-15.0002
 20
-0.1336
 30
154.5863
 70
192
 0
VERTEX
 8
CILINDRO
 10
-15.0002
 20
-2.4171
 30
154.5863
 70
192
 0
VERTEX
 8
CILINDRO
 10
-17.2157
 20
-0.617
 30
154.5863
 70
192
 0
VERTEX
 8
CILINDRO
 10
-17.2157
 20
-2.4171
 30
154.5863
 70
192
 0
VERTEX
 8
CILINDRO
 10
-17.1885
 20
-0.617
 30
154.2397
 70
192
 0
VERTEX
 8
CILINDRO
 10
-17.1885
 20
-2.4171
 30
154.2397
 70
192
 0
VERTEX
 8
CILINDRO
 10
-17.1073
 20
-0.617
 30
153.9016
 70
192
 0
VERTEX
 8
CILINDRO
 10
-17.1073
 20
-2.4171
 30
153.9016
 70
192
 0
VERTEX
 8
CILINDRO
 10
-16.9743
 20
-0.617
 30
153.5804
 70
192
 0
VERTEX
 8
CILINDRO
 10
-16.9743
 20
-2.4171
 30
153.5804
 70
192
 0
VERTEX
 8
CILINDRO
 10
-16.7926
 20
-0.617
 30
153.284
 70
192
 0
VERTEX
 8
CILINDRO
 10
-16.7926
 20
-2.4171
 30
153.284
 70
192
 0
VERTEX
 8
CILINDRO
 10
-16.5668
 20
-0.617
 30
153.0197
 70
192
 0
VERTEX
 8
CILINDRO
 10
-16.5668
 20
-2.4171
 30
153.0197
 70
192
 0
VERTEX
 8
CILINDRO
 10
-16.3025
 20
-0.617
 30
152.7939
 70
192
 0
VERTEX
 8
CILINDRO
 10
-16.3025
 20
-2.4171
 30
152.7939
 70
192
 0
VERTEX
 8
CILINDRO
 10
-16.006
 20
-0.617
 30
152.6122
 70
192
 0
VERTEX
 8
CILINDRO
 10
-16.006
 20
-2.4171
 30
152.6122
 70
192
 0
VERTEX
 8
CILINDRO
 10
-15.6849
 20
-0.617
 30
152.4792
 70
192
 0
VERTEX
 8
CILINDRO
 10
-15.6849
 20
-2.4171
 30
152.4792
 70
192
 0
VERTEX
 8
CILINDRO
 10
-15.3468
 20
-0.617
 30
152.398
 70
192
 0
VERTEX
 8
CILINDRO
 10
-15.3468
 20
-2.4171
 30
152.398
 70
192
 0
VERTEX
 8
CILINDRO
 10
-15.0002
 20
-0.617
 30
152.3708
 70
192
 0
VERTEX
 8
CILINDRO
 10
-15.0002
 20
-2.4171
 30
152.3708
 70
192
 0
VERTEX
 8
CILINDRO
 10
-14.6536
 20
-0.617
 30
152.398
 70
192
 0
VERTEX
 8
CILINDRO
 10
-14.6536
 20
-2.4171
 30
152.398
 70
192
 0
VERTEX
 8
CILINDRO
 10
-14.3156
 20
-0.617
 30
152.4792
 70
192
 0
VERTEX
 8
CILINDRO
 10
-14.3156
 20
-2.4171
 30
152.4792
 70
192
 0
VERTEX
 8
CILINDRO
 10
-13.9944
 20
-0.617
 30
152.6122
 70
192
 0
VERTEX
 8
CILINDRO
 10
-13.9944
 20
-2.4171
 30
152.6122
 70
192
 0
VERTEX
 8
CILINDRO
 10
-13.698
 20
-0.617
 30
152.7939
 70
192
 0
VERTEX
 8
CILINDRO
 10
-13.698
 20
-2.4171
 30
152.7939
 70
192
 0
VERTEX
 8
CILINDRO
 10
-13.4336
 20
-0.617
 30
153.0197
 70
192
 0
VERTEX
 8
CILINDRO
 10
-13.4336
 20
-2.4171
 30
153.0197
 70
192
 0
VERTEX
 8
CILINDRO
 10
-13.2079
 20
-0.617
 30
153.284
 70
192
 0
VERTEX
 8
CILINDRO
 10
-13.2079
 20
-2.4171
 30
153.284
 70
192
 0
VERTEX
 8
CILINDRO
 10
-13.0262
 20
-0.617
 30
153.5804
 70
192
 0
VERTEX
 8
CILINDRO
 10
-13.0262
 20
-2.4171
 30
153.5804
 70
192
 0
VERTEX
 8
CILINDRO
 10
-12.8932
 20
-0.617
 30
153.9016
 70
192
 0
VERTEX
 8
CILINDRO
 10
-12.8932
 20
-2.4171
 30
153.9016
 70
192
 0
VERTEX
 8
CILINDRO
 10
-12.812
 20
-0.617
 30
154.2397
 70
192
 0
VERTEX
 8
CILINDRO
 10
-12.812
 20
-2.4171
 30
154.2397
 70
192
 0
VERTEX
 8
CILINDRO
 10
-12.7847
 20
-0.617
 30
154.5863
 70
192
 0
VERTEX
 8
CILINDRO
 10
-12.7847
 20
-2.4171
 30
154.5863
 70
192
 0
VERTEX
 8
CILINDRO
 10
-12.812
 20
-0.617
 30
154.9328
 70
192
 0
VERTEX
 8
CILINDRO
 10
-12.812
 20
-2.4171
 30
154.9328
 70
192
 0
VERTEX
 8
CILINDRO
 10
-12.8932
 20
-0.617
 30
155.2709
 70
192
 0
VERTEX
 8
CILINDRO
 10
-12.8932
 20
-2.4171
 30
155.2709
 70
192
 0
VERTEX
 8
CILINDRO
 10
-13.0262
 20
-0.617
 30
155.5921
 70
192
 0
VERTEX
 8
CILINDRO
 10
-13.0262
 20
-2.4171
 30
155.5921
 70
192
 0
VERTEX
 8
CILINDRO
 10
-13.2079
 20
-0.617
 30
155.8885
 70
192
 0
VERTEX
 8
CILINDRO
 10
-13.2079
 20
-2.4171
 30
155.8885
 70
192
 0
VERTEX
 8
CILINDRO
 10
-13.4336
 20
-0.617
 30
156.1528
 70
192
 0
VERTEX
 8
CILINDRO
 10
-13.4336
 20
-2.4171
 30
156.1528
 70
192
 0
VERTEX
 8
CILINDRO
 10
-13.698
 20
-0.617
 30
156.3786
 70
192
 0
VERTEX
 8
CILINDRO
 10
-13.698
 20
-2.4171
 30
156.3786
 70
192
 0
VERTEX
 8
CILINDRO
 10
-13.9944
 20
-0.617
 30
156.5603
 70
192
 0
VERTEX
 8
CILINDRO
 10
-13.9944
 20
-2.4171
 30
156.5603
 70
192
 0
VERTEX
 8
CILINDRO
 10
-14.3156
 20
-0.617
 30
156.6933
 70
192
 0
VERTEX
 8
CILINDRO
 10
-14.3156
 20
-2.4171
 30
156.6933
 70
192
 0
VERTEX
 8
CILINDRO
 10
-14.6536
 20
-0.617
 30
156.7745
 70
192
 0
VERTEX
 8
CILINDRO
 10
-14.6536
 20
-2.4171
 30
156.7745
 70
192
 0
VERTEX
 8
CILINDRO
 10
-15.0002
 20
-0.617
 30
156.8018
 70
192
 0
VERTEX
 8
CILINDRO
 10
-15.0002
 20
-2.4171
 30
156.8018
 70
192
 0
VERTEX
 8
CILINDRO
 10
-15.3468
 20
-0.617
 30
156.7745
 70
192
 0
VERTEX
 8
CILINDRO
 10
-15.3468
 20
-2.4171
 30
156.7745
 70
192
 0
VERTEX
 8
CILINDRO
 10
-15.6849
 20
-0.617
 30
156.6933
 70
192
 0
VERTEX
 8
CILINDRO
 10
-15.6849
 20
-2.4171
 30
156.6933
 70
192
 0
VERTEX
 8
CILINDRO
 10
-16.006
 20
-0.617
 30
156.5603
 70
192
 0
VERTEX
 8
CILINDRO
 10
-16.006
 20
-2.4171
 30
156.5603
 70
192
 0
VERTEX
 8
CILINDRO
 10
-16.3025
 20
-0.617
 30
156.3786
 70
192
 0
VERTEX
 8
CILINDRO
 10
-16.3025
 20
-2.4171
 30
156.3786
 70
192
 0
VERTEX
 8
CILINDRO
 10
-16.5668
 20
-0.617
 30
156.1528
 70
192
 0
VERTEX
 8
CILINDRO
 10
-16.5668
 20
-2.4171
 30
156.1528
 70
192
 0
VERTEX
 8
CILINDRO
 10
-16.7926
 20
-0.617
 30
155.8885
 70
192
 0
VERTEX
 8
CILINDRO
 10
-16.7926
 20
-2.4171
 30
155.8885
 70
192
 0
VERTEX
 8
CILINDRO
 10
-16.9743
 20
-0.617
 30
155.5921
 70
192
 0
VERTEX
 8
CILINDRO
 10
-16.9743
 20
-2.4171
 30
155.5921
 70
192
 0
VERTEX
 8
CILINDRO
 10
-17.1073
 20
-0.617
 30
155.2709
 70
192
 0
VERTEX
 8
CILINDRO
 10
-17.1073
 20
-2.4171
 30
155.2709
 70
192
 0
VERTEX
 8
CILINDRO
 10
-17.1885
 20
-0.617
 30
154.9328
 70
192
 0
VERTEX
 8
CILINDRO
 10
-17.1885
 20
-2.4171
 30
154.9328
 70
192
 0
VERTEX
 8
CILINDRO
 10
-17.0051
 20
-0.617
 30
154.5863
 70
192
 0
VERTEX
 8
CILINDRO
 10
-16.9804
 20
-0.617
 30
154.2726
 70
192
 0
VERTEX
 8
CILINDRO
 10
-16.907
 20
-0.617
 30
153.9667
 70
192
 0
VERTEX
 8
CILINDRO
 10
-16.7866
 20
-0.617
 30
153.6761
 70
192
 0
VERTEX
 8
CILINDRO
 10
-16.6222
 20
-0.617
 30
153.4078
 70
192
 0
VERTEX
 8
CILINDRO
 10
-16.4179
 20
-0.617
 30
153.1686
 70
192
 0
VERTEX
 8
CILINDRO
 10
-16.1787
 20
-0.617
 30
152.9643
 70
192
 0
VERTEX
 8
CILINDRO
 10
-15.9104
 20
-0.617
 30
152.7999
 70
192
 0
VERTEX
 8
CILINDRO
 10
-15.6198
 20
-0.617
 30
152.6795
 70
192
 0
VERTEX
 8
CILINDRO
 10
-15.3139
 20
-0.617
 30
152.6061
 70
192
 0
VERTEX
 8
CILINDRO
 10
-15.0002
 20
-0.617
 30
152.5814
 70
192
 0
VERTEX
 8
CILINDRO
 10
-14.6866
 20
-0.617
 30
152.6061
 70
192
 0
VERTEX
 8
CILINDRO
 10
-14.3807
 20
-0.617
 30
152.6795
 70
192
 0
VERTEX
 8
CILINDRO
 10
-14.09
 20
-0.617
 30
152.7999
 70
192
 0
VERTEX
 8
CILINDRO
 10
-13.8218
 20
-0.617
 30
152.9643
 70
192
 0
VERTEX
 8
CILINDRO
 10
-13.5826
 20
-0.617
 30
153.1686
 70
192
 0
VERTEX
 8
CILINDRO
 10
-13.3783
 20
-0.617
 30
153.4078
 70
192
 0
VERTEX
 8
CILINDRO
 10
-13.2139
 20
-0.617
 30
153.6761
 70
192
 0
VERTEX
 8
CILINDRO
 10
-13.0935
 20
-0.617
 30
153.9667
 70
192
 0
VERTEX
 8
CILINDRO
 10
-13.0201
 20
-0.617
 30
154.2726
 70
192
 0
VERTEX
 8
CILINDRO
 10
-12.9954
 20
-0.617
 30
154.5863
 70
192
 0
VERTEX
 8
CILINDRO
 10
-13.0201
 20
-0.617
 30
154.8999
 70
192
 0
VERTEX
 8
CILINDRO
 10
-13.0935
 20
-0.617
 30
155.2058
 70
192
 0
VERTEX
 8
CILINDRO
 10
-13.2139
 20
-0.617
 30
155.4964
 70
192
 0
VERTEX
 8
CILINDRO
 10
-13.3783
 20
-0.617
 30
155.7647
 70
192
 0
VERTEX
 8
CILINDRO
 10
-13.5826
 20
-0.617
 30
156.0039
 70
192
 0
VERTEX
 8
CILINDRO
 10
-13.8218
 20
-0.617
 30
156.2082
 70
192
 0
VERTEX
 8
CILINDRO
 10
-14.09
 20
-0.617
 30
156.3726
 70
192
 0
VERTEX
 8
CILINDRO
 10
-14.3807
 20
-0.617
 30
156.493
 70
192
 0
VERTEX
 8
CILINDRO
 10
-14.6866
 20
-0.617
 30
156.5664
 70
192
 0
VERTEX
 8
CILINDRO
 10
-15.0002
 20
-0.617
 30
156.5911
 70
192
 0
VERTEX
 8
CILINDRO
 10
-15.3139
 20
-0.617
 30
156.5664
 70
192
 0
VERTEX
 8
CILINDRO
 10
-15.6198
 20
-0.617
 30
156.493
 70
192
 0
VERTEX
 8
CILINDRO
 10
-15.9104
 20
-0.617
 30
156.3726
 70
192
 0
VERTEX
 8
CILINDRO
 10
-16.1787
 20
-0.617
 30
156.2082
 70
192
 0
VERTEX
 8
CILINDRO
 10
-16.4179
 20
-0.617
 30
156.0039
 70
192
 0
VERTEX
 8
CILINDRO
 10
-16.6222
 20
-0.617
 30
155.7647
 70
192
 0
VERTEX
 8
CILINDRO
 10
-16.7866
 20
-0.617
 30
155.4964
 70
192
 0
VERTEX
 8
CILINDRO
 10
-16.907
 20
-0.617
 30
155.2058
 70
192
 0
VERTEX
 8
CILINDRO
 10
-16.9804
 20
-0.617
 30
154.8999
 70
192
 0
VERTEX
 8
CILINDRO
 10
-17.0051
 20
-0.2658
 30
154.5863
 70
192
 0
VERTEX
 8
CILINDRO
 10
-16.9804
 20
-0.2658
 30
154.2726
 70
192
 0
VERTEX
 8
CILINDRO
 10
-16.907
 20
-0.2658
 30
153.9667
 70
192
 0
VERTEX
 8
CILINDRO
 10
-16.7866
 20
-0.2658
 30
153.6761
 70
192
 0
VERTEX
 8
CILINDRO
 10
-16.6222
 20
-0.2658
 30
153.4078
 70
192
 0
VERTEX
 8
CILINDRO
 10
-16.4179
 20
-0.2658
 30
153.1686
 70
192
 0
VERTEX
 8
CILINDRO
 10
-16.1787
 20
-0.2658
 30
152.9643
 70
192
 0
VERTEX
 8
CILINDRO
 10
-15.9104
 20
-0.2658
 30
152.7999
 70
192
 0
VERTEX
 8
CILINDRO
 10
-15.6198
 20
-0.2658
 30
152.6795
 70
192
 0
VERTEX
 8
CILINDRO
 10
-15.3139
 20
-0.2658
 30
152.6061
 70
192
 0
VERTEX
 8
CILINDRO
 10
-15.0002
 20
-0.2658
 30
152.5814
 70
192
 0
VERTEX
 8
CILINDRO
 10
-14.6866
 20
-0.2658
 30
152.6061
 70
192
 0
VERTEX
 8
CILINDRO
 10
-14.3807
 20
-0.2658
 30
152.6795
 70
192
 0
VERTEX
 8
CILINDRO
 10
-14.09
 20
-0.2658
 30
152.7999
 70
192
 0
VERTEX
 8
CILINDRO
 10
-13.8218
 20
-0.2658
 30
152.9643
 70
192
 0
VERTEX
 8
CILINDRO
 10
-13.5826
 20
-0.2658
 30
153.1686
 70
192
 0
VERTEX
 8
CILINDRO
 10
-13.3783
 20
-0.2658
 30
153.4078
 70
192
 0
VERTEX
 8
CILINDRO
 10
-13.2139
 20
-0.2658
 30
153.6761
 70
192
 0
VERTEX
 8
CILINDRO
 10
-13.0935
 20
-0.2658
 30
153.9667
 70
192
 0
VERTEX
 8
CILINDRO
 10
-13.0201
 20
-0.2658
 30
154.2726
 70
192
 0
VERTEX
 8
CILINDRO
 10
-12.9954
 20
-0.2658
 30
154.5863
 70
192
 0
VERTEX
 8
CILINDRO
 10
-13.0201
 20
-0.2658
 30
154.8999
 70
192
 0
VERTEX
 8
CILINDRO
 10
-13.0935
 20
-0.2658
 30
155.2058
 70
192
 0
VERTEX
 8
CILINDRO
 10
-13.2139
 20
-0.2658
 30
155.4964
 70
192
 0
VERTEX
 8
CILINDRO
 10
-13.3783
 20
-0.2658
 30
155.7647
 70
192
 0
VERTEX
 8
CILINDRO
 10
-13.5826
 20
-0.2658
 30
156.0039
 70
192
 0
VERTEX
 8
CILINDRO
 10
-13.8218
 20
-0.2658
 30
156.2082
 70
192
 0
VERTEX
 8
CILINDRO
 10
-14.09
 20
-0.2658
 30
156.3726
 70
192
 0
VERTEX
 8
CILINDRO
 10
-14.3807
 20
-0.2658
 30
156.493
 70
192
 0
VERTEX
 8
CILINDRO
 10
-14.6866
 20
-0.2658
 30
156.5664
 70
192
 0
VERTEX
 8
CILINDRO
 10
-15.0002
 20
-0.2658
 30
156.5911
 70
192
 0
VERTEX
 8
CILINDRO
 10
-15.3139
 20
-0.2658
 30
156.5664
 70
192
 0
VERTEX
 8
CILINDRO
 10
-15.6198
 20
-0.2658
 30
156.493
 70
192
 0
VERTEX
 8
CILINDRO
 10
-15.9104
 20
-0.2658
 30
156.3726
 70
192
 0
VERTEX
 8
CILINDRO
 10
-16.1787
 20
-0.2658
 30
156.2082
 70
192
 0
VERTEX
 8
CILINDRO
 10
-16.4179
 20
-0.2658
 30
156.0039
 70
192
 0
VERTEX
 8
CILINDRO
 10
-16.6222
 20
-0.2658
 30
155.7647
 70
192
 0
VERTEX
 8
CILINDRO
 10
-16.7866
 20
-0.2658
 30
155.4964
 70
192
 0
VERTEX
 8
CILINDRO
 10
-16.907
 20
-0.2658
 30
155.2058
 70
192
 0
VERTEX
 8
CILINDRO
 10
-16.9804
 20
-0.2658
 30
154.8999
 70
192
 0
VERTEX
 8
CILINDRO
 10
-17.2002
 20
-0.5276
 30
154.5863
 70
192
 0
VERTEX
 8
CILINDRO
 10
-17.1731
 20
-0.5276
 30
154.2421
 70
192
 0
VERTEX
 8
CILINDRO
 10
-17.0925
 20
-0.5276
 30
153.9064
 70
192
 0
VERTEX
 8
CILINDRO
 10
-16.9604
 20
-0.5276
 30
153.5875
 70
192
 0
VERTEX
 8
CILINDRO
 10
-16.78
 20
-0.5276
 30
153.2932
 70
192
 0
VERTEX
 8
CILINDRO
 10
-16.5558
 20
-0.5276
 30
153.0307
 70
192
 0
VERTEX
 8
CILINDRO
 10
-16.2933
 20
-0.5276
 30
152.8065
 70
192
 0
VERTEX
 8
CILINDRO
 10
-15.999
 20
-0.5276
 30
152.6261
 70
192
 0
VERTEX
 8
CILINDRO
 10
-15.6801
 20
-0.5276
 30
152.494
 70
192
 0
VERTEX
 8
CILINDRO
 10
-15.3444
 20
-0.5276
 30
152.4134
 70
192
 0
VERTEX
 8
CILINDRO
 10
-15.0002
 20
-0.5276
 30
152.3863
 70
192
 0
VERTEX
 8
CILINDRO
 10
-14.6561
 20
-0.5276
 30
152.4134
 70
192
 0
VERTEX
 8
CILINDRO
 10
-14.3204
 20
-0.5276
 30
152.494
 70
192
 0
VERTEX
 8
CILINDRO
 10
-14.0015
 20
-0.5276
 30
152.6261
 70
192
 0
VERTEX
 8
CILINDRO
 10
-13.7071
 20
-0.5276
 30
152.8065
 70
192
 0
VERTEX
 8
CILINDRO
 10
-13.4446
 20
-0.5276
 30
153.0307
 70
192
 0
VERTEX
 8
CILINDRO
 10
-13.2204
 20
-0.5276
 30
153.2932
 70
192
 0
VERTEX
 8
CILINDRO
 10
-13.0401
 20
-0.5276
 30
153.5875
 70
192
 0
VERTEX
 8
CILINDRO
 10
-12.908
 20
-0.5276
 30
153.9064
 70
192
 0
VERTEX
 8
CILINDRO
 10
-12.8274
 20
-0.5276
 30
154.2421
 70
192
 0
VERTEX
 8
CILINDRO
 10
-12.8003
 20
-0.5276
 30
154.5863
 70
192
 0
VERTEX
 8
CILINDRO
 10
-12.8274
 20
-0.5276
 30
154.9304
 70
192
 0
VERTEX
 8
CILINDRO
 10
-12.908
 20
-0.5276
 30
155.2661
 70
192
 0
VERTEX
 8
CILINDRO
 10
-13.0401
 20
-0.5276
 30
155.585
 70
192
 0
VERTEX
 8
CILINDRO
 10
-13.2204
 20
-0.5276
 30
155.8794
 70
192
 0
VERTEX
 8
CILINDRO
 10
-13.4446
 20
-0.5276
 30
156.1419
 70
192
 0
VERTEX
 8
CILINDRO
 10
-13.7071
 20
-0.5276
 30
156.3661
 70
192
 0
VERTEX
 8
CILINDRO
 10
-14.0015
 20
-0.5276
 30
156.5464
 70
192
 0
VERTEX
 8
CILINDRO
 10
-14.3204
 20
-0.5276
 30
156.6785
 70
192
 0
VERTEX
 8
CILINDRO
 10
-14.6561
 20
-0.5276
 30
156.7591
 70
192
 0
VERTEX
 8
CILINDRO
 10
-15.0002
 20
-0.5276
 30
156.7862
 70
192
 0
VERTEX
 8
CILINDRO
 10
-15.3444
 20
-0.5276
 30
156.7591
 70
192
 0
VERTEX
 8
CILINDRO
 10
-15.6801
 20
-0.5276
 30
156.6785
 70
192
 0
VERTEX
 8
CILINDRO
 10
-15.999
 20
-0.5276
 30
156.5464
 70
192
 0
VERTEX
 8
CILINDRO
 10
-16.2933
 20
-0.5276
 30
156.3661
 70
192
 0
VERTEX
 8
CILINDRO
 10
-16.5558
 20
-0.5276
 30
156.1419
 70
192
 0
VERTEX
 8
CILINDRO
 10
-16.78
 20
-0.5276
 30
155.8794
 70
192
 0
VERTEX
 8
CILINDRO
 10
-16.9604
 20
-0.5276
 30
155.585
 70
192
 0
VERTEX
 8
CILINDRO
 10
-17.0925
 20
-0.5276
 30
155.2661
 70
192
 0
VERTEX
 8
CILINDRO
 10
-17.1731
 20
-0.5276
 30
154.9304
 70
192
 0
VERTEX
 8
CILINDRO
 10
-17.2002
 20
-0.1336
 30
154.5863
 70
192
 0
VERTEX
 8
CILINDRO
 10
-17.1731
 20
-0.1336
 30
154.2421
 70
192
 0
VERTEX
 8
CILINDRO
 10
-17.0925
 20
-0.1336
 30
153.9064
 70
192
 0
VERTEX
 8
CILINDRO
 10
-16.9604
 20
-0.1336
 30
153.5875
 70
192
 0
VERTEX
 8
CILINDRO
 10
-16.78
 20
-0.1336
 30
153.2932
 70
192
 0
VERTEX
 8
CILINDRO
 10
-16.5558
 20
-0.1336
 30
153.0307
 70
192
 0
VERTEX
 8
CILINDRO
 10
-16.2933
 20
-0.1336
 30
152.8065
 70
192
 0
VERTEX
 8
CILINDRO
 10
-15.999
 20
-0.1336
 30
152.6261
 70
192
 0
VERTEX
 8
CILINDRO
 10
-15.6801
 20
-0.1336
 30
152.494
 70
192
 0
VERTEX
 8
CILINDRO
 10
-15.3444
 20
-0.1336
 30
152.4134
 70
192
 0
VERTEX
 8
CILINDRO
 10
-15.0002
 20
-0.1336
 30
152.3863
 70
192
 0
VERTEX
 8
CILINDRO
 10
-14.6561
 20
-0.1336
 30
152.4134
 70
192
 0
VERTEX
 8
CILINDRO
 10
-14.3204
 20
-0.1336
 30
152.494
 70
192
 0
VERTEX
 8
CILINDRO
 10
-14.0015
 20
-0.1336
 30
152.6261
 70
192
 0
VERTEX
 8
CILINDRO
 10
-13.7071
 20
-0.1336
 30
152.8065
 70
192
 0
VERTEX
 8
CILINDRO
 10
-13.4446
 20
-0.1336
 30
153.0307
 70
192
 0
VERTEX
 8
CILINDRO
 10
-13.2204
 20
-0.1336
 30
153.2932
 70
192
 0
VERTEX
 8
CILINDRO
 10
-13.0401
 20
-0.1336
 30
153.5875
 70
192
 0
VERTEX
 8
CILINDRO
 10
-12.908
 20
-0.1336
 30
153.9064
 70
192
 0
VERTEX
 8
CILINDRO
 10
-12.8274
 20
-0.1336
 30
154.2421
 70
192
 0
VERTEX
 8
CILINDRO
 10
-12.8003
 20
-0.1336
 30
154.5863
 70
192
 0
VERTEX
 8
CILINDRO
 10
-12.8274
 20
-0.1336
 30
154.9304
 70
192
 0
VERTEX
 8
CILINDRO
 10
-12.908
 20
-0.1336
 30
155.2661
 70
192
 0
VERTEX
 8
CILINDRO
 10
-13.0401
 20
-0.1336
 30
155.585
 70
192
 0
VERTEX
 8
CILINDRO
 10
-13.2204
 20
-0.1336
 30
155.8794
 70
192
 0
VERTEX
 8
CILINDRO
 10
-13.4446
 20
-0.1336
 30
156.1419
 70
192
 0
VERTEX
 8
CILINDRO
 10
-13.7071
 20
-0.1336
 30
156.3661
 70
192
 0
VERTEX
 8
CILINDRO
 10
-14.0015
 20
-0.1336
 30
156.5464
 70
192
 0
VERTEX
 8
CILINDRO
 10
-14.3204
 20
-0.1336
 30
156.6785
 70
192
 0
VERTEX
 8
CILINDRO
 10
-14.6561
 20
-0.1336
 30
156.7591
 70
192
 0
VERTEX
 8
CILINDRO
 10
-15.0002
 20
-0.1336
 30
156.7862
 70
192
 0
VERTEX
 8
CILINDRO
 10
-15.3444
 20
-0.1336
 30
156.7591
 70
192
 0
VERTEX
 8
CILINDRO
 10
-15.6801
 20
-0.1336
 30
156.6785
 70
192
 0
VERTEX
 8
CILINDRO
 10
-15.999
 20
-0.1336
 30
156.5464
 70
192
 0
VERTEX
 8
CILINDRO
 10
-16.2933
 20
-0.1336
 30
156.3661
 70
192
 0
VERTEX
 8
CILINDRO
 10
-16.5558
 20
-0.1336
 30
156.1419
 70
192
 0
VERTEX
 8
CILINDRO
 10
-16.78
 20
-0.1336
 30
155.8794
 70
192
 0
VERTEX
 8
CILINDRO
 10
-16.9604
 20
-0.1336
 30
155.585
 70
192
 0
VERTEX
 8
CILINDRO
 10
-17.0925
 20
-0.1336
 30
155.2661
 70
192
 0
VERTEX
 8
CILINDRO
 10
-17.1731
 20
-0.1336
 30
154.9304
 70
192
 0
VERTEX
 8
CILINDRO
 10
0
 20
0
 30
0
 70
128
 71
1
 72
203
 73
204
 74
204
 0
VERTEX
 8
CILINDRO
 10
0
 20
0
 30
0
 70
128
 71
3
 72
4
 73
6
 74
5
 0
VERTEX
 8
CILINDRO
 10
0
 20
0
 30
0
 70
128
 71
4
 72
2
 73
6
 74
6
 0
VERTEX
 8
CILINDRO
 10
0
 20
0
 30
0
 70
128
 71
1
 72
204
 73
205
 74
205
 0
VERTEX
 8
CILINDRO
 10
0
 20
0
 30
0
 70
128
 71
5
 72
6
 73
8
 74
7
 0
VERTEX
 8
CILINDRO
 10
0
 20
0
 30
0
 70
128
 71
6
 72
2
 73
8
 74
8
 0
VERTEX
 8
CILINDRO
 10
0
 20
0
 30
0
 70
128
 71
1
 72
205
 73
206
 74
206
 0
VERTEX
 8
CILINDRO
 10
0
 20
0
 30
0
 70
128
 71
7
 72
8
 73
10
 74
9
 0
VERTEX
 8
CILINDRO
 10
0
 20
0
 30
0
 70
128
 71
8
 72
2
 73
10
 74
10
 0
VERTEX
 8
CILINDRO
 10
0
 20
0
 30
0
 70
128
 71
1
 72
206
 73
207
 74
207
 0
VERTEX
 8
CILINDRO
 10
0
 20
0
 30
0
 70
128
 71
9
 72
10
 73
12
 74
11
 0
VERTEX
 8
CILINDRO
 10
0
 20
0
 30
0
 70
128
 71
10
 72
2
 73
12
 74
12
 0
VERTEX
 8
CILINDRO
 10
0
 20
0
 30
0
 70
128
 71
1
 72
207
 73
208
 74
208
 0
VERTEX
 8
CILINDRO
 10
0
 20
0
 30
0
 70
128
 71
11
 72
12
 73
14
 74
13
 0
VERTEX
 8
CILINDRO
 10
0
 20
0
 30
0
 70
128
 71
12
 72
2
 73
14
 74
14
 0
VERTEX
 8
CILINDRO
 10
0
 20
0
 30
0
 70
128
 71
1
 72
208
 73
209
 74
209
 0
VERTEX
 8
CILINDRO
 10
0
 20
0
 30
0
 70
128
 71
13
 72
14
 73
16
 74
15
 0
VERTEX
 8
CILINDRO
 10
0
 20
0
 30
0
 70
128
 71
14
 72
2
 73
16
 74
16
 0
VERTEX
 8
CILINDRO
 10
0
 20
0
 30
0
 70
128
 71
1
 72
209
 73
210
 74
210
 0
VERTEX
 8
CILINDRO
 10
0
 20
0
 30
0
 70
128
 71
15
 72
16
 73
18
 74
17
 0
VERTEX
 8
CILINDRO
 10
0
 20
0
 30
0
 70
128
 71
16
 72
2
 73
18
 74
18
 0
VERTEX
 8
CILINDRO
 10
0
 20
0
 30
0
 70
128
 71
1
 72
210
 73
211
 74
211
 0
VERTEX
 8
CILINDRO
 10
0
 20
0
 30
0
 70
128
 71
17
 72
18
 73
20
 74
19
 0
VERTEX
 8
CILINDRO
 10
0
 20
0
 30
0
 70
128
 71
18
 72
2
 73
20
 74
20
 0
VERTEX
 8
CILINDRO
 10
0
 20
0
 30
0
 70
128
 71
1
 72
211
 73
212
 74
212
 0
VERTEX
 8
CILINDRO
 10
0
 20
0
 30
0
 70
128
 71
19
 72
20
 73
22
 74
21
 0
VERTEX
 8
CILINDRO
 10
0
 20
0
 30
0
 70
128
 71
20
 72
2
 73
22
 74
22
 0
VERTEX
 8
CILINDRO
 10
0
 20
0
 30
0
 70
128
 71
1
 72
212
 73
213
 74
213
 0
VERTEX
 8
CILINDRO
 10
0
 20
0
 30
0
 70
128
 71
21
 72
22
 73
24
 74
23
 0
VERTEX
 8
CILINDRO
 10
0
 20
0
 30
0
 70
128
 71
22
 72
2
 73
24
 74
24
 0
VERTEX
 8
CILINDRO
 10
0
 20
0
 30
0
 70
128
 71
1
 72
213
 73
214
 74
214
 0
VERTEX
 8
CILINDRO
 10
0
 20
0
 30
0
 70
128
 71
23
 72
24
 73
26
 74
25
 0
VERTEX
 8
CILINDRO
 10
0
 20
0
 30
0
 70
128
 71
24
 72
2
 73
26
 74
26
 0
VERTEX
 8
CILINDRO
 10
0
 20
0
 30
0
 70
128
 71
1
 72
214
 73
215
 74
215
 0
VERTEX
 8
CILINDRO
 10
0
 20
0
 30
0
 70
128
 71
25
 72
26
 73
28
 74
27
 0
VERTEX
 8
CILINDRO
 10
0
 20
0
 30
0
 70
128
 71
26
 72
2
 73
28
 74
28
 0
VERTEX
 8
CILINDRO
 10
0
 20
0
 30
0
 70
128
 71
1
 72
215
 73
216
 74
216
 0
VERTEX
 8
CILINDRO
 10
0
 20
0
 30
0
 70
128
 71
27
 72
28
 73
30
 74
29
 0
VERTEX
 8
CILINDRO
 10
0
 20
0
 30
0
 70
128
 71
28
 72
2
 73
30
 74
30
 0
VERTEX
 8
CILINDRO
 10
0
 20
0
 30
0
 70
128
 71
1
 72
216
 73
217
 74
217
 0
VERTEX
 8
CILINDRO
 10
0
 20
0
 30
0
 70
128
 71
29
 72
30
 73
32
 74
31
 0
VERTEX
 8
CILINDRO
 10
0
 20
0
 30
0
 70
128
 71
30
 72
2
 73
32
 74
32
 0
VERTEX
 8
CILINDRO
 10
0
 20
0
 30
0
 70
128
 71
1
 72
217
 73
218
 74
218
 0
VERTEX
 8
CILINDRO
 10
0
 20
0
 30
0
 70
128
 71
31
 72
32
 73
34
 74
33
 0
VERTEX
 8
CILINDRO
 10
0
 20
0
 30
0
 70
128
 71
32
 72
2
 73
34
 74
34
 0
VERTEX
 8
CILINDRO
 10
0
 20
0
 30
0
 70
128
 71
1
 72
218
 73
219
 74
219
 0
VERTEX
 8
CILINDRO
 10
0
 20
0
 30
0
 70
128
 71
33
 72
34
 73
36
 74
35
 0
VERTEX
 8
CILINDRO
 10
0
 20
0
 30
0
 70
128
 71
34
 72
2
 73
36
 74
36
 0
VERTEX
 8
CILINDRO
 10
0
 20
0
 30
0
 70
128
 71
1
 72
219
 73
220
 74
220
 0
VERTEX
 8
CILINDRO
 10
0
 20
0
 30
0
 70
128
 71
35
 72
36
 73
38
 74
37
 0
VERTEX
 8
CILINDRO
 10
0
 20
0
 30
0
 70
128
 71
36
 72
2
 73
38
 74
38
 0
VERTEX
 8
CILINDRO
 10
0
 20
0
 30
0
 70
128
 71
1
 72
220
 73
221
 74
221
 0
VERTEX
 8
CILINDRO
 10
0
 20
0
 30
0
 70
128
 71
37
 72
38
 73
40
 74
39
 0
VERTEX
 8
CILINDRO
 10
0
 20
0
 30
0
 70
128
 71
38
 72
2
 73
40
 74
40
 0
VERTEX
 8
CILINDRO
 10
0
 20
0
 30
0
 70
128
 71
1
 72
221
 73
222
 74
222
 0
VERTEX
 8
CILINDRO
 10
0
 20
0
 30
0
 70
128
 71
39
 72
40
 73
42
 74
41
 0
VERTEX
 8
CILINDRO
 10
0
 20
0
 30
0
 70
128
 71
40
 72
2
 73
42
 74
42
 0
VERTEX
 8
CILINDRO
 10
0
 20
0
 30
0
 70
128
 71
1
 72
222
 73
223
 74
223
 0
VERTEX
 8
CILINDRO
 10
0
 20
0
 30
0
 70
128
 71
41
 72
42
 73
44
 74
43
 0
VERTEX
 8
CILINDRO
 10
0
 20
0
 30
0
 70
128
 71
42
 72
2
 73
44
 74
44
 0
VERTEX
 8
CILINDRO
 10
0
 20
0
 30
0
 70
128
 71
1
 72
223
 73
224
 74
224
 0
VERTEX
 8
CILINDRO
 10
0
 20
0
 30
0
 70
128
 71
43
 72
44
 73
46
 74
45
 0
VERTEX
 8
CILINDRO
 10
0
 20
0
 30
0
 70
128
 71
44
 72
2
 73
46
 74
46
 0
VERTEX
 8
CILINDRO
 10
0
 20
0
 30
0
 70
128
 71
1
 72
224
 73
225
 74
225
 0
VERTEX
 8
CILINDRO
 10
0
 20
0
 30
0
 70
128
 71
45
 72
46
 73
48
 74
47
 0
VERTEX
 8
CILINDRO
 10
0
 20
0
 30
0
 70
128
 71
46
 72
2
 73
48
 74
48
 0
VERTEX
 8
CILINDRO
 10
0
 20
0
 30
0
 70
128
 71
1
 72
225
 73
226
 74
226
 0
VERTEX
 8
CILINDRO
 10
0
 20
0
 30
0
 70
128
 71
47
 72
48
 73
50
 74
49
 0
VERTEX
 8
CILINDRO
 10
0
 20
0
 30
0
 70
128
 71
48
 72
2
 73
50
 74
50
 0
VERTEX
 8
CILINDRO
 10
0
 20
0
 30
0
 70
128
 71
1
 72
226
 73
227
 74
227
 0
VERTEX
 8
CILINDRO
 10
0
 20
0
 30
0
 70
128
 71
49
 72
50
 73
52
 74
51
 0
VERTEX
 8
CILINDRO
 10
0
 20
0
 30
0
 70
128
 71
50
 72
2
 73
52
 74
52
 0
VERTEX
 8
CILINDRO
 10
0
 20
0
 30
0
 70
128
 71
1
 72
227
 73
228
 74
228
 0
VERTEX
 8
CILINDRO
 10
0
 20
0
 30
0
 70
128
 71
51
 72
52
 73
54
 74
53
 0
VERTEX
 8
CILINDRO
 10
0
 20
0
 30
0
 70
128
 71
52
 72
2
 73
54
 74
54
 0
VERTEX
 8
CILINDRO
 10
0
 20
0
 30
0
 70
128
 71
1
 72
228
 73
229
 74
229
 0
VERTEX
 8
CILINDRO
 10
0
 20
0
 30
0
 70
128
 71
53
 72
54
 73
56
 74
55
 0
VERTEX
 8
CILINDRO
 10
0
 20
0
 30
0
 70
128
 71
54
 72
2
 73
56
 74
56
 0
VERTEX
 8
CILINDRO
 10
0
 20
0
 30
0
 70
128
 71
1
 72
229
 73
230
 74
230
 0
VERTEX
 8
CILINDRO
 10
0
 20
0
 30
0
 70
128
 71
55
 72
56
 73
58
 74
57
 0
VERTEX
 8
CILINDRO
 10
0
 20
0
 30
0
 70
128
 71
56
 72
2
 73
58
 74
58
 0
VERTEX
 8
CILINDRO
 10
0
 20
0
 30
0
 70
128
 71
1
 72
230
 73
231
 74
231
 0
VERTEX
 8
CILINDRO
 10
0
 20
0
 30
0
 70
128
 71
57
 72
58
 73
60
 74
59
 0
VERTEX
 8
CILINDRO
 10
0
 20
0
 30
0
 70
128
 71
58
 72
2
 73
60
 74
60
 0
VERTEX
 8
CILINDRO
 10
0
 20
0
 30
0
 70
128
 71
1
 72
231
 73
232
 74
232
 0
VERTEX
 8
CILINDRO
 10
0
 20
0
 30
0
 70
128
 71
59
 72
60
 73
62
 74
61
 0
VERTEX
 8
CILINDRO
 10
0
 20
0
 30
0
 70
128
 71
60
 72
2
 73
62
 74
62
 0
VERTEX
 8
CILINDRO
 10
0
 20
0
 30
0
 70
128
 71
1
 72
232
 73
233
 74
233
 0
VERTEX
 8
CILINDRO
 10
0
 20
0
 30
0
 70
128
 71
61
 72
62
 73
64
 74
63
 0
VERTEX
 8
CILINDRO
 10
0
 20
0
 30
0
 70
128
 71
62
 72
2
 73
64
 74
64
 0
VERTEX
 8
CILINDRO
 10
0
 20
0
 30
0
 70
128
 71
1
 72
233
 73
234
 74
234
 0
VERTEX
 8
CILINDRO
 10
0
 20
0
 30
0
 70
128
 71
63
 72
64
 73
66
 74
65
 0
VERTEX
 8
CILINDRO
 10
0
 20
0
 30
0
 70
128
 71
64
 72
2
 73
66
 74
66
 0
VERTEX
 8
CILINDRO
 10
0
 20
0
 30
0
 70
128
 71
1
 72
234
 73
235
 74
235
 0
VERTEX
 8
CILINDRO
 10
0
 20
0
 30
0
 70
128
 71
65
 72
66
 73
68
 74
67
 0
VERTEX
 8
CILINDRO
 10
0
 20
0
 30
0
 70
128
 71
66
 72
2
 73
68
 74
68
 0
VERTEX
 8
CILINDRO
 10
0
 20
0
 30
0
 70
128
 71
1
 72
235
 73
236
 74
236
 0
VERTEX
 8
CILINDRO
 10
0
 20
0
 30
0
 70
128
 71
67
 72
68
 73
70
 74
69
 0
VERTEX
 8
CILINDRO
 10
0
 20
0
 30
0
 70
128
 71
68
 72
2
 73
70
 74
70
 0
VERTEX
 8
CILINDRO
 10
0
 20
0
 30
0
 70
128
 71
1
 72
236
 73
237
 74
237
 0
VERTEX
 8
CILINDRO
 10
0
 20
0
 30
0
 70
128
 71
69
 72
70
 73
72
 74
71
 0
VERTEX
 8
CILINDRO
 10
0
 20
0
 30
0
 70
128
 71
70
 72
2
 73
72
 74
72
 0
VERTEX
 8
CILINDRO
 10
0
 20
0
 30
0
 70
128
 71
1
 72
237
 73
238
 74
238
 0
VERTEX
 8
CILINDRO
 10
0
 20
0
 30
0
 70
128
 71
71
 72
72
 73
74
 74
73
 0
VERTEX
 8
CILINDRO
 10
0
 20
0
 30
0
 70
128
 71
72
 72
2
 73
74
 74
74
 0
VERTEX
 8
CILINDRO
 10
0
 20
0
 30
0
 70
128
 71
1
 72
238
 73
239
 74
239
 0
VERTEX
 8
CILINDRO
 10
0
 20
0
 30
0
 70
128
 71
73
 72
74
 73
76
 74
75
 0
VERTEX
 8
CILINDRO
 10
0
 20
0
 30
0
 70
128
 71
74
 72
2
 73
76
 74
76
 0
VERTEX
 8
CILINDRO
 10
0
 20
0
 30
0
 70
128
 71
1
 72
239
 73
240
 74
240
 0
VERTEX
 8
CILINDRO
 10
0
 20
0
 30
0
 70
128
 71
75
 72
76
 73
78
 74
77
 0
VERTEX
 8
CILINDRO
 10
0
 20
0
 30
0
 70
128
 71
76
 72
2
 73
78
 74
78
 0
VERTEX
 8
CILINDRO
 10
0
 20
0
 30
0
 70
128
 71
1
 72
240
 73
241
 74
241
 0
VERTEX
 8
CILINDRO
 10
0
 20
0
 30
0
 70
128
 71
77
 72
78
 73
80
 74
79
 0
VERTEX
 8
CILINDRO
 10
0
 20
0
 30
0
 70
128
 71
78
 72
2
 73
80
 74
80
 0
VERTEX
 8
CILINDRO
 10
0
 20
0
 30
0
 70
128
 71
1
 72
241
 73
242
 74
242
 0
VERTEX
 8
CILINDRO
 10
0
 20
0
 30
0
 70
128
 71
79
 72
80
 73
82
 74
81
 0
VERTEX
 8
CILINDRO
 10
0
 20
0
 30
0
 70
128
 71
80
 72
2
 73
82
 74
82
 0
VERTEX
 8
CILINDRO
 10
0
 20
0
 30
0
 70
128
 71
1
 72
242
 73
203
 74
203
 0
VERTEX
 8
CILINDRO
 10
0
 20
0
 30
0
 70
128
 71
81
 72
82
 73
4
 74
3
 0
VERTEX
 8
CILINDRO
 10
0
 20
0
 30
0
 70
128
 71
82
 72
2
 73
4
 74
4
 0
VERTEX
 8
CILINDRO
 10
0
 20
0
 30
0
 70
128
 71
83
 72
3
 73
5
 74
84
 0
VERTEX
 8
CILINDRO
 10
0
 20
0
 30
0
 70
128
 71
84
 72
5
 73
7
 74
85
 0
VERTEX
 8
CILINDRO
 10
0
 20
0
 30
0
 70
128
 71
85
 72
7
 73
9
 74
86
 0
VERTEX
 8
CILINDRO
 10
0
 20
0
 30
0
 70
128
 71
86
 72
9
 73
11
 74
87
 0
VERTEX
 8
CILINDRO
 10
0
 20
0
 30
0
 70
128
 71
87
 72
11
 73
13
 74
88
 0
VERTEX
 8
CILINDRO
 10
0
 20
0
 30
0
 70
128
 71
88
 72
13
 73
15
 74
89
 0
VERTEX
 8
CILINDRO
 10
0
 20
0
 30
0
 70
128
 71
89
 72
15
 73
17
 74
90
 0
VERTEX
 8
CILINDRO
 10
0
 20
0
 30
0
 70
128
 71
90
 72
17
 73
19
 74
91
 0
VERTEX
 8
CILINDRO
 10
0
 20
0
 30
0
 70
128
 71
91
 72
19
 73
21
 74
92
 0
VERTEX
 8
CILINDRO
 10
0
 20
0
 30
0
 70
128
 71
92
 72
21
 73
23
 74
93
 0
VERTEX
 8
CILINDRO
 10
0
 20
0
 30
0
 70
128
 71
93
 72
23
 73
25
 74
94
 0
VERTEX
 8
CILINDRO
 10
0
 20
0
 30
0
 70
128
 71
94
 72
25
 73
27
 74
95
 0
VERTEX
 8
CILINDRO
 10
0
 20
0
 30
0
 70
128
 71
95
 72
27
 73
29
 74
96
 0
VERTEX
 8
CILINDRO
 10
0
 20
0
 30
0
 70
128
 71
96
 72
29
 73
31
 74
97
 0
VERTEX
 8
CILINDRO
 10
0
 20
0
 30
0
 70
128
 71
97
 72
31
 73
33
 74
98
 0
VERTEX
 8
CILINDRO
 10
0
 20
0
 30
0
 70
128
 71
98
 72
33
 73
35
 74
99
 0
VERTEX
 8
CILINDRO
 10
0
 20
0
 30
0
 70
128
 71
99
 72
35
 73
37
 74
100
 0
VERTEX
 8
CILINDRO
 10
0
 20
0
 30
0
 70
128
 71
100
 72
37
 73
39
 74
101
 0
VERTEX
 8
CILINDRO
 10
0
 20
0
 30
0
 70
128
 71
101
 72
39
 73
41
 74
102
 0
VERTEX
 8
CILINDRO
 10
0
 20
0
 30
0
 70
128
 71
102
 72
41
 73
43
 74
103
 0
VERTEX
 8
CILINDRO
 10
0
 20
0
 30
0
 70
128
 71
103
 72
43
 73
45
 74
104
 0
VERTEX
 8
CILINDRO
 10
0
 20
0
 30
0
 70
128
 71
104
 72
45
 73
47
 74
105
 0
VERTEX
 8
CILINDRO
 10
0
 20
0
 30
0
 70
128
 71
105
 72
47
 73
49
 74
106
 0
VERTEX
 8
CILINDRO
 10
0
 20
0
 30
0
 70
128
 71
106
 72
49
 73
51
 74
107
 0
VERTEX
 8
CILINDRO
 10
0
 20
0
 30
0
 70
128
 71
107
 72
51
 73
53
 74
108
 0
VERTEX
 8
CILINDRO
 10
0
 20
0
 30
0
 70
128
 71
108
 72
53
 73
55
 74
109
 0
VERTEX
 8
CILINDRO
 10
0
 20
0
 30
0
 70
128
 71
109
 72
55
 73
57
 74
110
 0
VERTEX
 8
CILINDRO
 10
0
 20
0
 30
0
 70
128
 71
110
 72
57
 73
59
 74
111
 0
VERTEX
 8
CILINDRO
 10
0
 20
0
 30
0
 70
128
 71
111
 72
59
 73
61
 74
112
 0
VERTEX
 8
CILINDRO
 10
0
 20
0
 30
0
 70
128
 71
112
 72
61
 73
63
 74
113
 0
VERTEX
 8
CILINDRO
 10
0
 20
0
 30
0
 70
128
 71
113
 72
63
 73
65
 74
114
 0
VERTEX
 8
CILINDRO
 10
0
 20
0
 30
0
 70
128
 71
114
 72
65
 73
67
 74
115
 0
VERTEX
 8
CILINDRO
 10
0
 20
0
 30
0
 70
128
 71
115
 72
67
 73
69
 74
116
 0
VERTEX
 8
CILINDRO
 10
0
 20
0
 30
0
 70
128
 71
116
 72
69
 73
71
 74
117
 0
VERTEX
 8
CILINDRO
 10
0
 20
0
 30
0
 70
128
 71
117
 72
71
 73
73
 74
118
 0
VERTEX
 8
CILINDRO
 10
0
 20
0
 30
0
 70
128
 71
118
 72
73
 73
75
 74
119
 0
VERTEX
 8
CILINDRO
 10
0
 20
0
 30
0
 70
128
 71
119
 72
75
 73
77
 74
120
 0
VERTEX
 8
CILINDRO
 10
0
 20
0
 30
0
 70
128
 71
120
 72
77
 73
79
 74
121
 0
VERTEX
 8
CILINDRO
 10
0
 20
0
 30
0
 70
128
 71
121
 72
79
 73
81
 74
122
 0
VERTEX
 8
CILINDRO
 10
0
 20
0
 30
0
 70
128
 71
122
 72
81
 73
3
 74
83
 0
VERTEX
 8
CILINDRO
 10
0
 20
0
 30
0
 70
128
 71
123
 72
83
 73
84
 74
124
 0
VERTEX
 8
CILINDRO
 10
0
 20
0
 30
0
 70
128
 71
124
 72
84
 73
85
 74
125
 0
VERTEX
 8
CILINDRO
 10
0
 20
0
 30
0
 70
128
 71
125
 72
85
 73
86
 74
126
 0
VERTEX
 8
CILINDRO
 10
0
 20
0
 30
0
 70
128
 71
126
 72
86
 73
87
 74
127
 0
VERTEX
 8
CILINDRO
 10
0
 20
0
 30
0
 70
128
 71
127
 72
87
 73
88
 74
128
 0
VERTEX
 8
CILINDRO
 10
0
 20
0
 30
0
 70
128
 71
128
 72
88
 73
89
 74
129
 0
VERTEX
 8
CILINDRO
 10
0
 20
0
 30
0
 70
128
 71
129
 72
89
 73
90
 74
130
 0
VERTEX
 8
CILINDRO
 10
0
 20
0
 30
0
 70
128
 71
130
 72
90
 73
91
 74
131
 0
VERTEX
 8
CILINDRO
 10
0
 20
0
 30
0
 70
128
 71
131
 72
91
 73
92
 74
132
 0
VERTEX
 8
CILINDRO
 10
0
 20
0
 30
0
 70
128
 71
132
 72
92
 73
93
 74
133
 0
VERTEX
 8
CILINDRO
 10
0
 20
0
 30
0
 70
128
 71
133
 72
93
 73
94
 74
134
 0
VERTEX
 8
CILINDRO
 10
0
 20
0
 30
0
 70
128
 71
134
 72
94
 73
95
 74
135
 0
VERTEX
 8
CILINDRO
 10
0
 20
0
 30
0
 70
128
 71
135
 72
95
 73
96
 74
136
 0
VERTEX
 8
CILINDRO
 10
0
 20
0
 30
0
 70
128
 71
136
 72
96
 73
97
 74
137
 0
VERTEX
 8
CILINDRO
 10
0
 20
0
 30
0
 70
128
 71
137
 72
97
 73
98
 74
138
 0
VERTEX
 8
CILINDRO
 10
0
 20
0
 30
0
 70
128
 71
138
 72
98
 73
99
 74
139
 0
VERTEX
 8
CILINDRO
 10
0
 20
0
 30
0
 70
128
 71
139
 72
99
 73
100
 74
140
 0
VERTEX
 8
CILINDRO
 10
0
 20
0
 30
0
 70
128
 71
140
 72
100
 73
101
 74
141
 0
VERTEX
 8
CILINDRO
 10
0
 20
0
 30
0
 70
128
 71
141
 72
101
 73
102
 74
142
 0
VERTEX
 8
CILINDRO
 10
0
 20
0
 30
0
 70
128
 71
142
 72
102
 73
103
 74
143
 0
VERTEX
 8
CILINDRO
 10
0
 20
0
 30
0
 70
128
 71
143
 72
103
 73
104
 74
144
 0
VERTEX
 8
CILINDRO
 10
0
 20
0
 30
0
 70
128
 71
144
 72
104
 73
105
 74
145
 0
VERTEX
 8
CILINDRO
 10
0
 20
0
 30
0
 70
128
 71
145
 72
105
 73
106
 74
146
 0
VERTEX
 8
CILINDRO
 10
0
 20
0
 30
0
 70
128
 71
146
 72
106
 73
107
 74
147
 0
VERTEX
 8
CILINDRO
 10
0
 20
0
 30
0
 70
128
 71
147
 72
107
 73
108
 74
148
 0
VERTEX
 8
CILINDRO
 10
0
 20
0
 30
0
 70
128
 71
148
 72
108
 73
109
 74
149
 0
VERTEX
 8
CILINDRO
 10
0
 20
0
 30
0
 70
128
 71
149
 72
109
 73
110
 74
150
 0
VERTEX
 8
CILINDRO
 10
0
 20
0
 30
0
 70
128
 71
150
 72
110
 73
111
 74
151
 0
VERTEX
 8
CILINDRO
 10
0
 20
0
 30
0
 70
128
 71
151
 72
111
 73
112
 74
152
 0
VERTEX
 8
CILINDRO
 10
0
 20
0
 30
0
 70
128
 71
152
 72
112
 73
113
 74
153
 0
VERTEX
 8
CILINDRO
 10
0
 20
0
 30
0
 70
128
 71
153
 72
113
 73
114
 74
154
 0
VERTEX
 8
CILINDRO
 10
0
 20
0
 30
0
 70
128
 71
154
 72
114
 73
115
 74
155
 0
VERTEX
 8
CILINDRO
 10
0
 20
0
 30
0
 70
128
 71
155
 72
115
 73
116
 74
156
 0
VERTEX
 8
CILINDRO
 10
0
 20
0
 30
0
 70
128
 71
156
 72
116
 73
117
 74
157
 0
VERTEX
 8
CILINDRO
 10
0
 20
0
 30
0
 70
128
 71
157
 72
117
 73
118
 74
158
 0
VERTEX
 8
CILINDRO
 10
0
 20
0
 30
0
 70
128
 71
158
 72
118
 73
119
 74
159
 0
VERTEX
 8
CILINDRO
 10
0
 20
0
 30
0
 70
128
 71
159
 72
119
 73
120
 74
160
 0
VERTEX
 8
CILINDRO
 10
0
 20
0
 30
0
 70
128
 71
160
 72
120
 73
121
 74
161
 0
VERTEX
 8
CILINDRO
 10
0
 20
0
 30
0
 70
128
 71
161
 72
121
 73
122
 74
162
 0
VERTEX
 8
CILINDRO
 10
0
 20
0
 30
0
 70
128
 71
162
 72
122
 73
83
 74
123
 0
VERTEX
 8
CILINDRO
 10
0
 20
0
 30
0
 70
128
 71
163
 72
123
 73
124
 74
164
 0
VERTEX
 8
CILINDRO
 10
0
 20
0
 30
0
 70
128
 71
164
 72
124
 73
125
 74
165
 0
VERTEX
 8
CILINDRO
 10
0
 20
0
 30
0
 70
128
 71
165
 72
125
 73
126
 74
166
 0
VERTEX
 8
CILINDRO
 10
0
 20
0
 30
0
 70
128
 71
166
 72
126
 73
127
 74
167
 0
VERTEX
 8
CILINDRO
 10
0
 20
0
 30
0
 70
128
 71
167
 72
127
 73
128
 74
168
 0
VERTEX
 8
CILINDRO
 10
0
 20
0
 30
0
 70
128
 71
168
 72
128
 73
129
 74
169
 0
VERTEX
 8
CILINDRO
 10
0
 20
0
 30
0
 70
128
 71
169
 72
129
 73
130
 74
170
 0
VERTEX
 8
CILINDRO
 10
0
 20
0
 30
0
 70
128
 71
170
 72
130
 73
131
 74
171
 0
VERTEX
 8
CILINDRO
 10
0
 20
0
 30
0
 70
128
 71
171
 72
131
 73
132
 74
172
 0
VERTEX
 8
CILINDRO
 10
0
 20
0
 30
0
 70
128
 71
172
 72
132
 73
133
 74
173
 0
VERTEX
 8
CILINDRO
 10
0
 20
0
 30
0
 70
128
 71
173
 72
133
 73
134
 74
174
 0
VERTEX
 8
CILINDRO
 10
0
 20
0
 30
0
 70
128
 71
174
 72
134
 73
135
 74
175
 0
VERTEX
 8
CILINDRO
 10
0
 20
0
 30
0
 70
128
 71
175
 72
135
 73
136
 74
176
 0
VERTEX
 8
CILINDRO
 10
0
 20
0
 30
0
 70
128
 71
176
 72
136
 73
137
 74
177
 0
VERTEX
 8
CILINDRO
 10
0
 20
0
 30
0
 70
128
 71
177
 72
137
 73
138
 74
178
 0
VERTEX
 8
CILINDRO
 10
0
 20
0
 30
0
 70
128
 71
178
 72
138
 73
139
 74
179
 0
VERTEX
 8
CILINDRO
 10
0
 20
0
 30
0
 70
128
 71
179
 72
139
 73
140
 74
180
 0
VERTEX
 8
CILINDRO
 10
0
 20
0
 30
0
 70
128
 71
180
 72
140
 73
141
 74
181
 0
VERTEX
 8
CILINDRO
 10
0
 20
0
 30
0
 70
128
 71
181
 72
141
 73
142
 74
182
 0
VERTEX
 8
CILINDRO
 10
0
 20
0
 30
0
 70
128
 71
182
 72
142
 73
143
 74
183
 0
VERTEX
 8
CILINDRO
 10
0
 20
0
 30
0
 70
128
 71
183
 72
143
 73
144
 74
184
 0
VERTEX
 8
CILINDRO
 10
0
 20
0
 30
0
 70
128
 71
184
 72
144
 73
145
 74
185
 0
VERTEX
 8
CILINDRO
 10
0
 20
0
 30
0
 70
128
 71
185
 72
145
 73
146
 74
186
 0
VERTEX
 8
CILINDRO
 10
0
 20
0
 30
0
 70
128
 71
186
 72
146
 73
147
 74
187
 0
VERTEX
 8
CILINDRO
 10
0
 20
0
 30
0
 70
128
 71
187
 72
147
 73
148
 74
188
 0
VERTEX
 8
CILINDRO
 10
0
 20
0
 30
0
 70
128
 71
188
 72
148
 73
149
 74
189
 0
VERTEX
 8
CILINDRO
 10
0
 20
0
 30
0
 70
128
 71
189
 72
149
 73
150
 74
190
 0
VERTEX
 8
CILINDRO
 10
0
 20
0
 30
0
 70
128
 71
190
 72
150
 73
151
 74
191
 0
VERTEX
 8
CILINDRO
 10
0
 20
0
 30
0
 70
128
 71
191
 72
151
 73
152
 74
192
 0
VERTEX
 8
CILINDRO
 10
0
 20
0
 30
0
 70
128
 71
192
 72
152
 73
153
 74
193
 0
VERTEX
 8
CILINDRO
 10
0
 20
0
 30
0
 70
128
 71
193
 72
153
 73
154
 74
194
 0
VERTEX
 8
CILINDRO
 10
0
 20
0
 30
0
 70
128
 71
194
 72
154
 73
155
 74
195
 0
VERTEX
 8
CILINDRO
 10
0
 20
0
 30
0
 70
128
 71
195
 72
155
 73
156
 74
196
 0
VERTEX
 8
CILINDRO
 10
0
 20
0
 30
0
 70
128
 71
196
 72
156
 73
157
 74
197
 0
VERTEX
 8
CILINDRO
 10
0
 20
0
 30
0
 70
128
 71
197
 72
157
 73
158
 74
198
 0
VERTEX
 8
CILINDRO
 10
0
 20
0
 30
0
 70
128
 71
198
 72
158
 73
159
 74
199
 0
VERTEX
 8
CILINDRO
 10
0
 20
0
 30
0
 70
128
 71
199
 72
159
 73
160
 74
200
 0
VERTEX
 8
CILINDRO
 10
0
 20
0
 30
0
 70
128
 71
200
 72
160
 73
161
 74
201
 0
VERTEX
 8
CILINDRO
 10
0
 20
0
 30
0
 70
128
 71
201
 72
161
 73
162
 74
202
 0
VERTEX
 8
CILINDRO
 10
0
 20
0
 30
0
 70
128
 71
202
 72
162
 73
123
 74
163
 0
VERTEX
 8
CILINDRO
 10
0
 20
0
 30
0
 70
128
 71
203
 72
163
 73
164
 74
204
 0
VERTEX
 8
CILINDRO
 10
0
 20
0
 30
0
 70
128
 71
204
 72
164
 73
165
 74
205
 0
VERTEX
 8
CILINDRO
 10
0
 20
0
 30
0
 70
128
 71
205
 72
165
 73
166
 74
206
 0
VERTEX
 8
CILINDRO
 10
0
 20
0
 30
0
 70
128
 71
206
 72
166
 73
167
 74
207
 0
VERTEX
 8
CILINDRO
 10
0
 20
0
 30
0
 70
128
 71
207
 72
167
 73
168
 74
208
 0
VERTEX
 8
CILINDRO
 10
0
 20
0
 30
0
 70
128
 71
208
 72
168
 73
169
 74
209
 0
VERTEX
 8
CILINDRO
 10
0
 20
0
 30
0
 70
128
 71
209
 72
169
 73
170
 74
210
 0
VERTEX
 8
CILINDRO
 10
0
 20
0
 30
0
 70
128
 71
210
 72
170
 73
171
 74
211
 0
VERTEX
 8
CILINDRO
 10
0
 20
0
 30
0
 70
128
 71
211
 72
171
 73
172
 74
212
 0
VERTEX
 8
CILINDRO
 10
0
 20
0
 30
0
 70
128
 71
212
 72
172
 73
173
 74
213
 0
VERTEX
 8
CILINDRO
 10
0
 20
0
 30
0
 70
128
 71
213
 72
173
 73
174
 74
214
 0
VERTEX
 8
CILINDRO
 10
0
 20
0
 30
0
 70
128
 71
214
 72
174
 73
175
 74
215
 0
VERTEX
 8
CILINDRO
 10
0
 20
0
 30
0
 70
128
 71
215
 72
175
 73
176
 74
216
 0
VERTEX
 8
CILINDRO
 10
0
 20
0
 30
0
 70
128
 71
216
 72
176
 73
177
 74
217
 0
VERTEX
 8
CILINDRO
 10
0
 20
0
 30
0
 70
128
 71
217
 72
177
 73
178
 74
218
 0
VERTEX
 8
CILINDRO
 10
0
 20
0
 30
0
 70
128
 71
218
 72
178
 73
179
 74
219
 0
VERTEX
 8
CILINDRO
 10
0
 20
0
 30
0
 70
128
 71
219
 72
179
 73
180
 74
220
 0
VERTEX
 8
CILINDRO
 10
0
 20
0
 30
0
 70
128
 71
220
 72
180
 73
181
 74
221
 0
VERTEX
 8
CILINDRO
 10
0
 20
0
 30
0
 70
128
 71
221
 72
181
 73
182
 74
222
 0
VERTEX
 8
CILINDRO
 10
0
 20
0
 30
0
 70
128
 71
222
 72
182
 73
183
 74
223
 0
VERTEX
 8
CILINDRO
 10
0
 20
0
 30
0
 70
128
 71
223
 72
183
 73
184
 74
224
 0
VERTEX
 8
CILINDRO
 10
0
 20
0
 30
0
 70
128
 71
224
 72
184
 73
185
 74
225
 0
VERTEX
 8
CILINDRO
 10
0
 20
0
 30
0
 70
128
 71
225
 72
185
 73
186
 74
226
 0
VERTEX
 8
CILINDRO
 10
0
 20
0
 30
0
 70
128
 71
226
 72
186
 73
187
 74
227
 0
VERTEX
 8
CILINDRO
 10
0
 20
0
 30
0
 70
128
 71
227
 72
187
 73
188
 74
228
 0
VERTEX
 8
CILINDRO
 10
0
 20
0
 30
0
 70
128
 71
228
 72
188
 73
189
 74
229
 0
VERTEX
 8
CILINDRO
 10
0
 20
0
 30
0
 70
128
 71
229
 72
189
 73
190
 74
230
 0
VERTEX
 8
CILINDRO
 10
0
 20
0
 30
0
 70
128
 71
230
 72
190
 73
191
 74
231
 0
VERTEX
 8
CILINDRO
 10
0
 20
0
 30
0
 70
128
 71
231
 72
191
 73
192
 74
232
 0
VERTEX
 8
CILINDRO
 10
0
 20
0
 30
0
 70
128
 71
232
 72
192
 73
193
 74
233
 0
VERTEX
 8
CILINDRO
 10
0
 20
0
 30
0
 70
128
 71
233
 72
193
 73
194
 74
234
 0
VERTEX
 8
CILINDRO
 10
0
 20
0
 30
0
 70
128
 71
234
 72
194
 73
195
 74
235
 0
VERTEX
 8
CILINDRO
 10
0
 20
0
 30
0
 70
128
 71
235
 72
195
 73
196
 74
236
 0
VERTEX
 8
CILINDRO
 10
0
 20
0
 30
0
 70
128
 71
236
 72
196
 73
197
 74
237
 0
VERTEX
 8
CILINDRO
 10
0
 20
0
 30
0
 70
128
 71
237
 72
197
 73
198
 74
238
 0
VERTEX
 8
CILINDRO
 10
0
 20
0
 30
0
 70
128
 71
238
 72
198
 73
199
 74
239
 0
VERTEX
 8
CILINDRO
 10
0
 20
0
 30
0
 70
128
 71
239
 72
199
 73
200
 74
240
 0
VERTEX
 8
CILINDRO
 10
0
 20
0
 30
0
 70
128
 71
240
 72
200
 73
201
 74
241
 0
VERTEX
 8
CILINDRO
 10
0
 20
0
 30
0
 70
128
 71
241
 72
201
 73
202
 74
242
 0
VERTEX
 8
CILINDRO
 10
0
 20
0
 30
0
 70
128
 71
242
 72
202
 73
163
 74
203
 0
SEQEND
 0
POLYLINE
 8
TACCA_1_1
 66
1
 10
0.0
 20
0.0
 30
0.0
 70
64
 71
80
 72
80
 0
VERTEX
 8
TACCA_1_1
 10
14.8725
 20
-0.9866
 30
155.8645
 70
192
 0
VERTEX
 8
TACCA_1_1
 10
14.8725
 20
-0.9866
 30
156.9073
 70
192
 0
VERTEX
 8
TACCA_1_1
 10
14.8725
 20
-0.9882
 30
156.9132
 70
192
 0
VERTEX
 8
TACCA_1_1
 10
14.8725
 20
-0.9914
 30
156.9161
 70
192
 0
VERTEX
 8
TACCA_1_1
 10
14.8725
 20
-0.9974
 30
156.9172
 70
192
 0
VERTEX
 8
TACCA_1_1
 10
14.8725
 20
-2.4135
 30
156.9047
 70
192
 0
VERTEX
 8
TACCA_1_1
 10
14.8725
 20
-2.4311
 30
156.8987
 70
192
 0
VERTEX
 8
TACCA_1_1
 10
14.8725
 20
-2.443
 30
156.8857
 70
192
 0
VERTEX
 8
TACCA_1_1
 10
14.8725
 20
-2.4475
 30
156.8677
 70
192
 0
VERTEX
 8
TACCA_1_1
 10
14.8725
 20
-2.4475
 30
155.8645
 70
192
 0
VERTEX
 8
TACCA_1_1
 10
14.8863
 20
-2.4675
 30
155.8445
 70
192
 0
VERTEX
 8
TACCA_1_1
 10
15.1387
 20
-0.9666
 30
155.8445
 70
192
 0
VERTEX
 8
TACCA_1_1
 10
14.8863
 20
-2.4675
 30
156.8701
 70
192
 0
VERTEX
 8
TACCA_1_1
 10
15.1387
 20
-2.4675
 30
155.8445
 70
192
 0
VERTEX
 8
TACCA_1_1
 10
15.1525
 20
-2.4475
 30
155.8645
 70
192
 0
VERTEX
 8
TACCA_1_1
 10
15.1525
 20
-2.4475
 30
156.8677
 70
192
 0
VERTEX
 8
TACCA_1_1
 10
15.1525
 20
-2.443
 30
156.8857
 70
192
 0
VERTEX
 8
TACCA_1_1
 10
15.1525
 20
-2.4311
 30
156.8987
 70
192
 0
VERTEX
 8
TACCA_1_1
 10
15.1525
 20
-2.4135
 30
156.9047
 70
192
 0
VERTEX
 8
TACCA_1_1
 10
15.1525
 20
-0.9974
 30
156.9172
 70
192
 0
VERTEX
 8
TACCA_1_1
 10
15.1525
 20
-0.9914
 30
156.9161
 70
192
 0
VERTEX
 8
TACCA_1_1
 10
15.1525
 20
-0.9882
 30
156.9132
 70
192
 0
VERTEX
 8
TACCA_1_1
 10
15.1525
 20
-0.9866
 30
156.9073
 70
192
 0
VERTEX
 8
TACCA_1_1
 10
15.1525
 20
-0.9866
 30
155.8645
 70
192
 0
VERTEX
 8
TACCA_1_1
 10
15.1387
 20
-0.9666
 30
156.91
 70
192
 0
VERTEX
 8
TACCA_1_1
 10
14.8863
 20
-0.9666
 30
155.8445
 70
192
 0
VERTEX
 8
TACCA_1_1
 10
14.8863
 20
-2.4177
 30
156.9244
 70
192
 0
VERTEX
 8
TACCA_1_1
 10
15.1387
 20
-2.4424
 30
156.916
 70
192
 0
VERTEX
 8
TACCA_1_1
 10
14.8863
 20
-0.9965
 30
156.9374
 70
192
 0
VERTEX
 8
TACCA_1_1
 10
15.1387
 20
-2.4177
 30
156.9244
 70
192
 0
VERTEX
 8
TACCA_1_1
 10
14.8863
 20
-2.4612
 30
156.8955
 70
192
 0
VERTEX
 8
TACCA_1_1
 10
15.1387
 20
-2.4675
 30
156.8701
 70
192
 0
VERTEX
 8
TACCA_1_1
 10
14.8863
 20
-2.4424
 30
156.916
 70
192
 0
VERTEX
 8
TACCA_1_1
 10
15.1387
 20
-2.4612
 30
156.8955
 70
192
 0
VERTEX
 8
TACCA_1_1
 10
14.8863
 20
-0.9821
 30
156.9347
 70
192
 0
VERTEX
 8
TACCA_1_1
 10
15.1387
 20
-0.9965
 30
156.9374
 70
192
 0
VERTEX
 8
TACCA_1_1
 10
14.8863
 20
-0.9666
 30
156.91
 70
192
 0
VERTEX
 8
TACCA_1_1
 10
15.1387
 20
-0.9705
 30
156.9241
 70
192
 0
VERTEX
 8
TACCA_1_1
 10
14.8863
 20
-0.9705
 30
156.9241
 70
192
 0
VERTEX
 8
TACCA_1_1
 10
15.1387
 20
-0.9821
 30
156.9347
 70
192
 0
VERTEX
 8
TACCA_1_1
 10
14.8743
 20
-0.9768
 30
155.8547
 70
192
 0
VERTEX
 8
TACCA_1_1
 10
14.8796
 20
-0.9691
 30
155.847
 70
192
 0
VERTEX
 8
TACCA_1_1
 10
14.8743
 20
-0.9768
 30
156.9086
 70
192
 0
VERTEX
 8
TACCA_1_1
 10
14.8796
 20
-0.9691
 30
156.9096
 70
192
 0
VERTEX
 8
TACCA_1_1
 10
14.8743
 20
-0.9795
 30
156.9185
 70
192
 0
VERTEX
 8
TACCA_1_1
 10
14.8796
 20
-0.9727
 30
156.9227
 70
192
 0
VERTEX
 8
TACCA_1_1
 10
14.8743
 20
-0.9868
 30
156.9252
 70
192
 0
VERTEX
 8
TACCA_1_1
 10
14.8796
 20
-0.9833
 30
156.9324
 70
192
 0
VERTEX
 8
TACCA_1_1
 10
14.8743
 20
-0.997
 30
156.9271
 70
192
 0
VERTEX
 8
TACCA_1_1
 10
14.8796
 20
-0.9966
 30
156.9348
 70
192
 0
VERTEX
 8
TACCA_1_1
 10
14.8743
 20
-2.4155
 30
156.9144
 70
192
 0
VERTEX
 8
TACCA_1_1
 10
14.8796
 20
-2.4171
 30
156.9219
 70
192
 0
VERTEX
 8
TACCA_1_1
 10
14.8743
 20
-2.4366
 30
156.9072
 70
192
 0
VERTEX
 8
TACCA_1_1
 10
14.8796
 20
-2.441
 30
156.9138
 70
192
 0
VERTEX
 8
TACCA_1_1
 10
14.8743
 20
-2.4519
 30
156.8905
 70
192
 0
VERTEX
 8
TACCA_1_1
 10
14.8796
 20
-2.4589
 30
156.8942
 70
192
 0
VERTEX
 8
TACCA_1_1
 10
14.8743
 20
-2.4572
 30
156.8689
 70
192
 0
VERTEX
 8
TACCA_1_1
 10
14.8796
 20
-2.4649
 30
156.8698
 70
192
 0
VERTEX
 8
TACCA_1_1
 10
14.8743
 20
-2.4572
 30
155.8547
 70
192
 0
VERTEX
 8
TACCA_1_1
 10
14.8796
 20
-2.4649
 30
155.847
 70
192
 0
VERTEX
 8
TACCA_1_1
 10
15.1455
 20
-2.4649
 30
155.847
 70
192
 0
VERTEX
 8
TACCA_1_1
 10
15.1507
 20
-2.4572
 30
155.8547
 70
192
 0
VERTEX
 8
TACCA_1_1
 10
15.1455
 20
-0.9691
 30
155.847
 70
192
 0
VERTEX
 8
TACCA_1_1
 10
15.1507
 20
-0.9768
 30
155.8547
 70
192
 0
VERTEX
 8
TACCA_1_1
 10
15.1455
 20
-2.4649
 30
156.8698
 70
192
 0
VERTEX
 8
TACCA_1_1
 10
15.1507
 20
-2.4572
 30
156.8689
 70
192
 0
VERTEX
 8
TACCA_1_1
 10
15.1507
 20
-2.4519
 30
156.8905
 70
192
 0
VERTEX
 8
TACCA_1_1
 10
15.1455
 20
-2.4589
 30
156.8942
 70
192
 0
VERTEX
 8
TACCA_1_1
 10
15.1507
 20
-2.4366
 30
156.9072
 70
192
 0
VERTEX
 8
TACCA_1_1
 10
15.1455
 20
-2.441
 30
156.9138
 70
192
 0
VERTEX
 8
TACCA_1_1
 10
15.1507
 20
-2.4155
 30
156.9144
 70
192
 0
VERTEX
 8
TACCA_1_1
 10
15.1455
 20
-2.4171
 30
156.9219
 70
192
 0
VERTEX
 8
TACCA_1_1
 10
15.1507
 20
-0.997
 30
156.9271
 70
192
 0
VERTEX
 8
TACCA_1_1
 10
15.1455
 20
-0.9966
 30
156.9348
 70
192
 0
VERTEX
 8
TACCA_1_1
 10
15.1507
 20
-0.9868
 30
156.9252
 70
192
 0
VERTEX
 8
TACCA_1_1
 10
15.1455
 20
-0.9833
 30
156.9324
 70
192
 0
VERTEX
 8
TACCA_1_1
 10
15.1507
 20
-0.9795
 30
156.9185
 70
192
 0
VERTEX
 8
TACCA_1_1
 10
15.1455
 20
-0.9727
 30
156.9227
 70
192
 0
VERTEX
 8
TACCA_1_1
 10
15.1507
 20
-0.9768
 30
156.9086
 70
192
 0
VERTEX
 8
TACCA_1_1
 10
15.1455
 20
-0.9691
 30
156.9096
 70
192
 0
VERTEX
 8
TACCA_1_1
 10
0
 20
0
 30
0
 70
128
 71
11
 72
13
 73
32
 74
14
 0
VERTEX
 8
TACCA_1_1
 10
0
 20
0
 30
0
 70
128
 71
19
 72
15
 73
16
 74
18
 0
VERTEX
 8
TACCA_1_1
 10
0
 20
0
 30
0
 70
128
 71
12
 72
25
 73
37
 74
26
 0
VERTEX
 8
TACCA_1_1
 10
0
 20
0
 30
0
 70
128
 71
1
 72
2
 73
5
 74
5
 0
VERTEX
 8
TACCA_1_1
 10
0
 20
0
 30
0
 70
128
 71
27
 72
29
 73
36
 74
30
 0
VERTEX
 8
TACCA_1_1
 10
0
 20
0
 30
0
 70
128
 71
26
 72
11
 73
14
 74
12
 0
VERTEX
 8
TACCA_1_1
 10
0
 20
0
 30
0
 70
128
 71
20
 72
21
 73
22
 74
23
 0
VERTEX
 8
TACCA_1_1
 10
0
 20
0
 30
0
 70
128
 71
16
 72
17
 73
18
 74
18
 0
VERTEX
 8
TACCA_1_1
 10
0
 20
0
 30
0
 70
128
 71
5
 72
2
 73
3
 74
4
 0
VERTEX
 8
TACCA_1_1
 10
0
 20
0
 30
0
 70
128
 71
6
 72
7
 73
8
 74
8
 0
VERTEX
 8
TACCA_1_1
 10
0
 20
0
 30
0
 70
128
 71
13
 72
31
 73
34
 74
32
 0
VERTEX
 8
TACCA_1_1
 10
0
 20
0
 30
0
 70
128
 71
31
 72
33
 73
28
 74
34
 0
VERTEX
 8
TACCA_1_1
 10
0
 20
0
 30
0
 70
128
 71
33
 72
27
 73
30
 74
28
 0
VERTEX
 8
TACCA_1_1
 10
0
 20
0
 30
0
 70
128
 71
20
 72
23
 73
24
 74
24
 0
VERTEX
 8
TACCA_1_1
 10
0
 20
0
 30
0
 70
128
 71
24
 72
15
 73
19
 74
20
 0
VERTEX
 8
TACCA_1_1
 10
0
 20
0
 30
0
 70
128
 71
6
 72
8
 73
9
 74
10
 0
VERTEX
 8
TACCA_1_1
 10
0
 20
0
 30
0
 70
128
 71
1
 72
5
 73
6
 74
10
 0
VERTEX
 8
TACCA_1_1
 10
0
 20
0
 30
0
 70
128
 71
29
 72
35
 73
40
 74
36
 0
VERTEX
 8
TACCA_1_1
 10
0
 20
0
 30
0
 70
128
 71
35
 72
39
 73
38
 74
40
 0
VERTEX
 8
TACCA_1_1
 10
0
 20
0
 30
0
 70
128
 71
39
 72
37
 73
25
 74
38
 0
VERTEX
 8
TACCA_1_1
 10
0
 20
0
 30
0
 70
128
 71
9
 72
57
 73
59
 74
10
 0
VERTEX
 8
TACCA_1_1
 10
0
 20
0
 30
0
 70
128
 71
32
 72
65
 73
61
 74
14
 0
VERTEX
 8
TACCA_1_1
 10
0
 20
0
 30
0
 70
128
 71
30
 72
72
 73
70
 74
28
 0
VERTEX
 8
TACCA_1_1
 10
0
 20
0
 30
0
 70
128
 71
12
 72
63
 73
80
 74
25
 0
VERTEX
 8
TACCA_1_1
 10
0
 20
0
 30
0
 70
128
 71
1
 72
41
 73
43
 74
2
 0
VERTEX
 8
TACCA_1_1
 10
0
 20
0
 30
0
 70
128
 71
5
 72
49
 73
51
 74
6
 0
VERTEX
 8
TACCA_1_1
 10
0
 20
0
 30
0
 70
128
 71
36
 72
74
 73
72
 74
30
 0
VERTEX
 8
TACCA_1_1
 10
0
 20
0
 30
0
 70
128
 71
10
 72
59
 73
41
 74
1
 0
VERTEX
 8
TACCA_1_1
 10
0
 20
0
 30
0
 70
128
 71
14
 72
61
 73
63
 74
12
 0
VERTEX
 8
TACCA_1_1
 10
0
 20
0
 30
0
 70
128
 71
34
 72
68
 73
65
 74
32
 0
VERTEX
 8
TACCA_1_1
 10
0
 20
0
 30
0
 70
128
 71
28
 72
70
 73
68
 74
34
 0
VERTEX
 8
TACCA_1_1
 10
0
 20
0
 30
0
 70
128
 71
6
 72
51
 73
53
 74
7
 0
VERTEX
 8
TACCA_1_1
 10
0
 20
0
 30
0
 70
128
 71
8
 72
55
 73
57
 74
9
 0
VERTEX
 8
TACCA_1_1
 10
0
 20
0
 30
0
 70
128
 71
7
 72
53
 73
55
 74
8
 0
VERTEX
 8
TACCA_1_1
 10
0
 20
0
 30
0
 70
128
 71
40
 72
76
 73
74
 74
36
 0
VERTEX
 8
TACCA_1_1
 10
0
 20
0
 30
0
 70
128
 71
38
 72
78
 73
76
 74
40
 0
VERTEX
 8
TACCA_1_1
 10
0
 20
0
 30
0
 70
128
 71
25
 72
80
 73
78
 74
38
 0
VERTEX
 8
TACCA_1_1
 10
0
 20
0
 30
0
 70
128
 71
2
 72
43
 73
45
 74
3
 0
VERTEX
 8
TACCA_1_1
 10
0
 20
0
 30
0
 70
128
 71
3
 72
45
 73
47
 74
4
 0
VERTEX
 8
TACCA_1_1
 10
0
 20
0
 30
0
 70
128
 71
4
 72
47
 73
49
 74
5
 0
VERTEX
 8
TACCA_1_1
 10
0
 20
0
 30
0
 70
128
 71
57
 72
58
 73
60
 74
59
 0
VERTEX
 8
TACCA_1_1
 10
0
 20
0
 30
0
 70
128
 71
58
 72
13
 73
11
 74
60
 0
VERTEX
 8
TACCA_1_1
 10
0
 20
0
 30
0
 70
128
 71
65
 72
66
 73
62
 74
61
 0
VERTEX
 8
TACCA_1_1
 10
0
 20
0
 30
0
 70
128
 71
66
 72
16
 73
15
 74
62
 0
VERTEX
 8
TACCA_1_1
 10
0
 20
0
 30
0
 70
128
 71
72
 72
71
 73
69
 74
70
 0
VERTEX
 8
TACCA_1_1
 10
0
 20
0
 30
0
 70
128
 71
71
 72
19
 73
18
 74
69
 0
VERTEX
 8
TACCA_1_1
 10
0
 20
0
 30
0
 70
128
 71
63
 72
64
 73
79
 74
80
 0
VERTEX
 8
TACCA_1_1
 10
0
 20
0
 30
0
 70
128
 71
64
 72
24
 73
23
 74
79
 0
VERTEX
 8
TACCA_1_1
 10
0
 20
0
 30
0
 70
128
 71
41
 72
42
 73
44
 74
43
 0
VERTEX
 8
TACCA_1_1
 10
0
 20
0
 30
0
 70
128
 71
42
 72
26
 73
37
 74
44
 0
VERTEX
 8
TACCA_1_1
 10
0
 20
0
 30
0
 70
128
 71
49
 72
50
 73
52
 74
51
 0
VERTEX
 8
TACCA_1_1
 10
0
 20
0
 30
0
 70
128
 71
50
 72
29
 73
27
 74
52
 0
VERTEX
 8
TACCA_1_1
 10
0
 20
0
 30
0
 70
128
 71
74
 72
73
 73
71
 74
72
 0
VERTEX
 8
TACCA_1_1
 10
0
 20
0
 30
0
 70
128
 71
73
 72
20
 73
19
 74
71
 0
VERTEX
 8
TACCA_1_1
 10
0
 20
0
 30
0
 70
128
 71
59
 72
60
 73
42
 74
41
 0
VERTEX
 8
TACCA_1_1
 10
0
 20
0
 30
0
 70
128
 71
60
 72
11
 73
26
 74
42
 0
VERTEX
 8
TACCA_1_1
 10
0
 20
0
 30
0
 70
128
 71
61
 72
62
 73
64
 74
63
 0
VERTEX
 8
TACCA_1_1
 10
0
 20
0
 30
0
 70
128
 71
62
 72
15
 73
24
 74
64
 0
VERTEX
 8
TACCA_1_1
 10
0
 20
0
 30
0
 70
128
 71
68
 72
67
 73
66
 74
65
 0
VERTEX
 8
TACCA_1_1
 10
0
 20
0
 30
0
 70
128
 71
67
 72
17
 73
16
 74
66
 0
VERTEX
 8
TACCA_1_1
 10
0
 20
0
 30
0
 70
128
 71
70
 72
69
 73
67
 74
68
 0
VERTEX
 8
TACCA_1_1
 10
0
 20
0
 30
0
 70
128
 71
69
 72
18
 73
17
 74
67
 0
VERTEX
 8
TACCA_1_1
 10
0
 20
0
 30
0
 70
128
 71
51
 72
52
 73
54
 74
53
 0
VERTEX
 8
TACCA_1_1
 10
0
 20
0
 30
0
 70
128
 71
52
 72
27
 73
33
 74
54
 0
VERTEX
 8
TACCA_1_1
 10
0
 20
0
 30
0
 70
128
 71
55
 72
56
 73
58
 74
57
 0
VERTEX
 8
TACCA_1_1
 10
0
 20
0
 30
0
 70
128
 71
56
 72
31
 73
13
 74
58
 0
VERTEX
 8
TACCA_1_1
 10
0
 20
0
 30
0
 70
128
 71
53
 72
54
 73
56
 74
55
 0
VERTEX
 8
TACCA_1_1
 10
0
 20
0
 30
0
 70
128
 71
54
 72
33
 73
31
 74
56
 0
VERTEX
 8
TACCA_1_1
 10
0
 20
0
 30
0
 70
128
 71
76
 72
75
 73
73
 74
74
 0
VERTEX
 8
TACCA_1_1
 10
0
 20
0
 30
0
 70
128
 71
75
 72
21
 73
20
 74
73
 0
VERTEX
 8
TACCA_1_1
 10
0
 20
0
 30
0
 70
128
 71
78
 72
77
 73
75
 74
76
 0
VERTEX
 8
TACCA_1_1
 10
0
 20
0
 30
0
 70
128
 71
77
 72
22
 73
21
 74
75
 0
VERTEX
 8
TACCA_1_1
 10
0
 20
0
 30
0
 70
128
 71
80
 72
79
 73
77
 74
78
 0
VERTEX
 8
TACCA_1_1
 10
0
 20
0
 30
0
 70
128
 71
79
 72
23
 73
22
 74
77
 0
VERTEX
 8
TACCA_1_1
 10
0
 20
0
 30
0
 70
128
 71
43
 72
44
 73
46
 74
45
 0
VERTEX
 8
TACCA_1_1
 10
0
 20
0
 30
0
 70
128
 71
44
 72
37
 73
39
 74
46
 0
VERTEX
 8
TACCA_1_1
 10
0
 20
0
 30
0
 70
128
 71
45
 72
46
 73
48
 74
47
 0
VERTEX
 8
TACCA_1_1
 10
0
 20
0
 30
0
 70
128
 71
46
 72
39
 73
35
 74
48
 0
VERTEX
 8
TACCA_1_1
 10
0
 20
0
 30
0
 70
128
 71
47
 72
48
 73
50
 74
49
 0
VERTEX
 8
TACCA_1_1
 10
0
 20
0
 30
0
 70
128
 71
48
 72
35
 73
29
 74
50
 0
SEQEND
 0
POLYLINE
 8
CILINDRO_1
 66
1
 10
0.0
 20
0.0
 30
0.0
 70
64
 71
242
 72
280
 0
VERTEX
 8
CILINDRO_1
 10
15.0125
 20
-0.1336
 30
154.5863
 70
192
 0
VERTEX
 8
CILINDRO_1
 10
15.0125
 20
-2.4171
 30
154.5863
 70
192
 0
VERTEX
 8
CILINDRO_1
 10
12.797
 20
-0.617
 30
154.5863
 70
192
 0
VERTEX
 8
CILINDRO_1
 10
12.797
 20
-2.4171
 30
154.5863
 70
192
 0
VERTEX
 8
CILINDRO_1
 10
12.8243
 20
-0.617
 30
154.2397
 70
192
 0
VERTEX
 8
CILINDRO_1
 10
12.8243
 20
-2.4171
 30
154.2397
 70
192
 0
VERTEX
 8
CILINDRO_1
 10
12.9054
 20
-0.617
 30
153.9016
 70
192
 0
VERTEX
 8
CILINDRO_1
 10
12.9054
 20
-2.4171
 30
153.9016
 70
192
 0
VERTEX
 8
CILINDRO_1
 10
13.0385
 20
-0.617
 30
153.5804
 70
192
 0
VERTEX
 8
CILINDRO_1
 10
13.0385
 20
-2.4171
 30
153.5804
 70
192
 0
VERTEX
 8
CILINDRO_1
 10
13.2201
 20
-0.617
 30
153.284
 70
192
 0
VERTEX
 8
CILINDRO_1
 10
13.2201
 20
-2.4171
 30
153.284
 70
192
 0
VERTEX
 8
CILINDRO_1
 10
13.4459
 20
-0.617
 30
153.0197
 70
192
 0
VERTEX
 8
CILINDRO_1
 10
13.4459
 20
-2.4171
 30
153.0197
 70
192
 0
VERTEX
 8
CILINDRO_1
 10
13.7103
 20
-0.617
 30
152.7939
 70
192
 0
VERTEX
 8
CILINDRO_1
 10
13.7103
 20
-2.4171
 30
152.7939
 70
192
 0
VERTEX
 8
CILINDRO_1
 10
14.0067
 20
-0.617
 30
152.6122
 70
192
 0
VERTEX
 8
CILINDRO_1
 10
14.0067
 20
-2.4171
 30
152.6122
 70
192
 0
VERTEX
 8
CILINDRO_1
 10
14.3279
 20
-0.617
 30
152.4792
 70
192
 0
VERTEX
 8
CILINDRO_1
 10
14.3279
 20
-2.4171
 30
152.4792
 70
192
 0
VERTEX
 8
CILINDRO_1
 10
14.6659
 20
-0.617
 30
152.398
 70
192
 0
VERTEX
 8
CILINDRO_1
 10
14.6659
 20
-2.4171
 30
152.398
 70
192
 0
VERTEX
 8
CILINDRO_1
 10
15.0125
 20
-0.617
 30
152.3708
 70
192
 0
VERTEX
 8
CILINDRO_1
 10
15.0125
 20
-2.4171
 30
152.3708
 70
192
 0
VERTEX
 8
CILINDRO_1
 10
15.3591
 20
-0.617
 30
152.398
 70
192
 0
VERTEX
 8
CILINDRO_1
 10
15.3591
 20
-2.4171
 30
152.398
 70
192
 0
VERTEX
 8
CILINDRO_1
 10
15.6971
 20
-0.617
 30
152.4792
 70
192
 0
VERTEX
 8
CILINDRO_1
 10
15.6971
 20
-2.4171
 30
152.4792
 70
192
 0
VERTEX
 8
CILINDRO_1
 10
16.0183
 20
-0.617
 30
152.6122
 70
192
 0
VERTEX
 8
CILINDRO_1
 10
16.0183
 20
-2.4171
 30
152.6122
 70
192
 0
VERTEX
 8
CILINDRO_1
 10
16.3148
 20
-0.617
 30
152.7939
 70
192
 0
VERTEX
 8
CILINDRO_1
 10
16.3148
 20
-2.4171
 30
152.7939
 70
192
 0
VERTEX
 8
CILINDRO_1
 10
16.5791
 20
-0.617
 30
153.0197
 70
192
 0
VERTEX
 8
CILINDRO_1
 10
16.5791
 20
-2.4171
 30
153.0197
 70
192
 0
VERTEX
 8
CILINDRO_1
 10
16.8049
 20
-0.617
 30
153.284
 70
192
 0
VERTEX
 8
CILINDRO_1
 10
16.8049
 20
-2.4171
 30
153.284
 70
192
 0
VERTEX
 8
CILINDRO_1
 10
16.9865
 20
-0.617
 30
153.5804
 70
192
 0
VERTEX
 8
CILINDRO_1
 10
16.9865
 20
-2.4171
 30
153.5804
 70
192
 0
VERTEX
 8
CILINDRO_1
 10
17.1196
 20
-0.617
 30
153.9016
 70
192
 0
VERTEX
 8
CILINDRO_1
 10
17.1196
 20
-2.4171
 30
153.9016
 70
192
 0
VERTEX
 8
CILINDRO_1
 10
17.2007
 20
-0.617
 30
154.2397
 70
192
 0
VERTEX
 8
CILINDRO_1
 10
17.2007
 20
-2.4171
 30
154.2397
 70
192
 0
VERTEX
 8
CILINDRO_1
 10
17.228
 20
-0.617
 30
154.5863
 70
192
 0
VERTEX
 8
CILINDRO_1
 10
17.228
 20
-2.4171
 30
154.5863
 70
192
 0
VERTEX
 8
CILINDRO_1
 10
17.2007
 20
-0.617
 30
154.9328
 70
192
 0
VERTEX
 8
CILINDRO_1
 10
17.2007
 20
-2.4171
 30
154.9328
 70
192
 0
VERTEX
 8
CILINDRO_1
 10
17.1196
 20
-0.617
 30
155.2709
 70
192
 0
VERTEX
 8
CILINDRO_1
 10
17.1196
 20
-2.4171
 30
155.2709
 70
192
 0
VERTEX
 8
CILINDRO_1
 10
16.9865
 20
-0.617
 30
155.5921
 70
192
 0
VERTEX
 8
CILINDRO_1
 10
16.9865
 20
-2.4171
 30
155.5921
 70
192
 0
VERTEX
 8
CILINDRO_1
 10
16.8049
 20
-0.617
 30
155.8885
 70
192
 0
VERTEX
 8
CILINDRO_1
 10
16.8049
 20
-2.4171
 30
155.8885
 70
192
 0
VERTEX
 8
CILINDRO_1
 10
16.5791
 20
-0.617
 30
156.1528
 70
192
 0
VERTEX
 8
CILINDRO_1
 10
16.5791
 20
-2.4171
 30
156.1528
 70
192
 0
VERTEX
 8
CILINDRO_1
 10
16.3148
 20
-0.617
 30
156.3786
 70
192
 0
VERTEX
 8
CILINDRO_1
 10
16.3148
 20
-2.4171
 30
156.3786
 70
192
 0
VERTEX
 8
CILINDRO_1
 10
16.0183
 20
-0.617
 30
156.5603
 70
192
 0
VERTEX
 8
CILINDRO_1
 10
16.0183
 20
-2.4171
 30
156.5603
 70
192
 0
VERTEX
 8
CILINDRO_1
 10
15.6971
 20
-0.617
 30
156.6933
 70
192
 0
VERTEX
 8
CILINDRO_1
 10
15.6971
 20
-2.4171
 30
156.6933
 70
192
 0
VERTEX
 8
CILINDRO_1
 10
15.3591
 20
-0.617
 30
156.7745
 70
192
 0
VERTEX
 8
CILINDRO_1
 10
15.3591
 20
-2.4171
 30
156.7745
 70
192
 0
VERTEX
 8
CILINDRO_1
 10
15.0125
 20
-0.617
 30
156.8018
 70
192
 0
VERTEX
 8
CILINDRO_1
 10
15.0125
 20
-2.4171
 30
156.8018
 70
192
 0
VERTEX
 8
CILINDRO_1
 10
14.6659
 20
-0.617
 30
156.7745
 70
192
 0
VERTEX
 8
CILINDRO_1
 10
14.6659
 20
-2.4171
 30
156.7745
 70
192
 0
VERTEX
 8
CILINDRO_1
 10
14.3279
 20
-0.617
 30
156.6933
 70
192
 0
VERTEX
 8
CILINDRO_1
 10
14.3279
 20
-2.4171
 30
156.6933
 70
192
 0
VERTEX
 8
CILINDRO_1
 10
14.0067
 20
-0.617
 30
156.5603
 70
192
 0
VERTEX
 8
CILINDRO_1
 10
14.0067
 20
-2.4171
 30
156.5603
 70
192
 0
VERTEX
 8
CILINDRO_1
 10
13.7103
 20
-0.617
 30
156.3786
 70
192
 0
VERTEX
 8
CILINDRO_1
 10
13.7103
 20
-2.4171
 30
156.3786
 70
192
 0
VERTEX
 8
CILINDRO_1
 10
13.4459
 20
-0.617
 30
156.1528
 70
192
 0
VERTEX
 8
CILINDRO_1
 10
13.4459
 20
-2.4171
 30
156.1528
 70
192
 0
VERTEX
 8
CILINDRO_1
 10
13.2201
 20
-0.617
 30
155.8885
 70
192
 0
VERTEX
 8
CILINDRO_1
 10
13.2201
 20
-2.4171
 30
155.8885
 70
192
 0
VERTEX
 8
CILINDRO_1
 10
13.0385
 20
-0.617
 30
155.5921
 70
192
 0
VERTEX
 8
CILINDRO_1
 10
13.0385
 20
-2.4171
 30
155.5921
 70
192
 0
VERTEX
 8
CILINDRO_1
 10
12.9054
 20
-0.617
 30
155.2709
 70
192
 0
VERTEX
 8
CILINDRO_1
 10
12.9054
 20
-2.4171
 30
155.2709
 70
192
 0
VERTEX
 8
CILINDRO_1
 10
12.8243
 20
-0.617
 30
154.9328
 70
192
 0
VERTEX
 8
CILINDRO_1
 10
12.8243
 20
-2.4171
 30
154.9328
 70
192
 0
VERTEX
 8
CILINDRO_1
 10
13.0077
 20
-0.617
 30
154.5863
 70
192
 0
VERTEX
 8
CILINDRO_1
 10
13.0323
 20
-0.617
 30
154.2726
 70
192
 0
VERTEX
 8
CILINDRO_1
 10
13.1058
 20
-0.617
 30
153.9667
 70
192
 0
VERTEX
 8
CILINDRO_1
 10
13.2262
 20
-0.617
 30
153.6761
 70
192
 0
VERTEX
 8
CILINDRO_1
 10
13.3906
 20
-0.617
 30
153.4078
 70
192
 0
VERTEX
 8
CILINDRO_1
 10
13.5949
 20
-0.617
 30
153.1686
 70
192
 0
VERTEX
 8
CILINDRO_1
 10
13.8341
 20
-0.617
 30
152.9643
 70
192
 0
VERTEX
 8
CILINDRO_1
 10
14.1023
 20
-0.617
 30
152.7999
 70
192
 0
VERTEX
 8
CILINDRO_1
 10
14.393
 20
-0.617
 30
152.6795
 70
192
 0
VERTEX
 8
CILINDRO_1
 10
14.6989
 20
-0.617
 30
152.6061
 70
192
 0
VERTEX
 8
CILINDRO_1
 10
15.0125
 20
-0.617
 30
152.5814
 70
192
 0
VERTEX
 8
CILINDRO_1
 10
15.3261
 20
-0.617
 30
152.6061
 70
192
 0
VERTEX
 8
CILINDRO_1
 10
15.632
 20
-0.617
 30
152.6795
 70
192
 0
VERTEX
 8
CILINDRO_1
 10
15.9227
 20
-0.617
 30
152.7999
 70
192
 0
VERTEX
 8
CILINDRO_1
 10
16.1909
 20
-0.617
 30
152.9643
 70
192
 0
VERTEX
 8
CILINDRO_1
 10
16.4302
 20
-0.617
 30
153.1686
 70
192
 0
VERTEX
 8
CILINDRO_1
 10
16.6345
 20
-0.617
 30
153.4078
 70
192
 0
VERTEX
 8
CILINDRO_1
 10
16.7989
 20
-0.617
 30
153.6761
 70
192
 0
VERTEX
 8
CILINDRO_1
 10
16.9192
 20
-0.617
 30
153.9667
 70
192
 0
VERTEX
 8
CILINDRO_1
 10
16.9927
 20
-0.617
 30
154.2726
 70
192
 0
VERTEX
 8
CILINDRO_1
 10
17.0174
 20
-0.617
 30
154.5863
 70
192
 0
VERTEX
 8
CILINDRO_1
 10
16.9927
 20
-0.617
 30
154.8999
 70
192
 0
VERTEX
 8
CILINDRO_1
 10
16.9192
 20
-0.617
 30
155.2058
 70
192
 0
VERTEX
 8
CILINDRO_1
 10
16.7989
 20
-0.617
 30
155.4964
 70
192
 0
VERTEX
 8
CILINDRO_1
 10
16.6345
 20
-0.617
 30
155.7647
 70
192
 0
VERTEX
 8
CILINDRO_1
 10
16.4302
 20
-0.617
 30
156.0039
 70
192
 0
VERTEX
 8
CILINDRO_1
 10
16.1909
 20
-0.617
 30
156.2082
 70
192
 0
VERTEX
 8
CILINDRO_1
 10
15.9227
 20
-0.617
 30
156.3726
 70
192
 0
VERTEX
 8
CILINDRO_1
 10
15.632
 20
-0.617
 30
156.493
 70
192
 0
VERTEX
 8
CILINDRO_1
 10
15.3261
 20
-0.617
 30
156.5664
 70
192
 0
VERTEX
 8
CILINDRO_1
 10
15.0125
 20
-0.617
 30
156.5911
 70
192
 0
VERTEX
 8
CILINDRO_1
 10
14.6989
 20
-0.617
 30
156.5664
 70
192
 0
VERTEX
 8
CILINDRO_1
 10
14.393
 20
-0.617
 30
156.493
 70
192
 0
VERTEX
 8
CILINDRO_1
 10
14.1023
 20
-0.617
 30
156.3726
 70
192
 0
VERTEX
 8
CILINDRO_1
 10
13.8341
 20
-0.617
 30
156.2082
 70
192
 0
VERTEX
 8
CILINDRO_1
 10
13.5949
 20
-0.617
 30
156.0039
 70
192
 0
VERTEX
 8
CILINDRO_1
 10
13.3906
 20
-0.617
 30
155.7647
 70
192
 0
VERTEX
 8
CILINDRO_1
 10
13.2262
 20
-0.617
 30
155.4964
 70
192
 0
VERTEX
 8
CILINDRO_1
 10
13.1058
 20
-0.617
 30
155.2058
 70
192
 0
VERTEX
 8
CILINDRO_1
 10
13.0323
 20
-0.617
 30
154.8999
 70
192
 0
VERTEX
 8
CILINDRO_1
 10
13.0077
 20
-0.2658
 30
154.5863
 70
192
 0
VERTEX
 8
CILINDRO_1
 10
13.0323
 20
-0.2658
 30
154.2726
 70
192
 0
VERTEX
 8
CILINDRO_1
 10
13.1058
 20
-0.2658
 30
153.9667
 70
192
 0
VERTEX
 8
CILINDRO_1
 10
13.2262
 20
-0.2658
 30
153.6761
 70
192
 0
VERTEX
 8
CILINDRO_1
 10
13.3906
 20
-0.2658
 30
153.4078
 70
192
 0
VERTEX
 8
CILINDRO_1
 10
13.5949
 20
-0.2658
 30
153.1686
 70
192
 0
VERTEX
 8
CILINDRO_1
 10
13.8341
 20
-0.2658
 30
152.9643
 70
192
 0
VERTEX
 8
CILINDRO_1
 10
14.1023
 20
-0.2658
 30
152.7999
 70
192
 0
VERTEX
 8
CILINDRO_1
 10
14.393
 20
-0.2658
 30
152.6795
 70
192
 0
VERTEX
 8
CILINDRO_1
 10
14.6989
 20
-0.2658
 30
152.6061
 70
192
 0
VERTEX
 8
CILINDRO_1
 10
15.0125
 20
-0.2658
 30
152.5814
 70
192
 0
VERTEX
 8
CILINDRO_1
 10
15.3261
 20
-0.2658
 30
152.6061
 70
192
 0
VERTEX
 8
CILINDRO_1
 10
15.632
 20
-0.2658
 30
152.6795
 70
192
 0
VERTEX
 8
CILINDRO_1
 10
15.9227
 20
-0.2658
 30
152.7999
 70
192
 0
VERTEX
 8
CILINDRO_1
 10
16.1909
 20
-0.2658
 30
152.9643
 70
192
 0
VERTEX
 8
CILINDRO_1
 10
16.4302
 20
-0.2658
 30
153.1686
 70
192
 0
VERTEX
 8
CILINDRO_1
 10
16.6345
 20
-0.2658
 30
153.4078
 70
192
 0
VERTEX
 8
CILINDRO_1
 10
16.7989
 20
-0.2658
 30
153.6761
 70
192
 0
VERTEX
 8
CILINDRO_1
 10
16.9192
 20
-0.2658
 30
153.9667
 70
192
 0
VERTEX
 8
CILINDRO_1
 10
16.9927
 20
-0.2658
 30
154.2726
 70
192
 0
VERTEX
 8
CILINDRO_1
 10
17.0174
 20
-0.2658
 30
154.5863
 70
192
 0
VERTEX
 8
CILINDRO_1
 10
16.9927
 20
-0.2658
 30
154.8999
 70
192
 0
VERTEX
 8
CILINDRO_1
 10
16.9192
 20
-0.2658
 30
155.2058
 70
192
 0
VERTEX
 8
CILINDRO_1
 10
16.7989
 20
-0.2658
 30
155.4964
 70
192
 0
VERTEX
 8
CILINDRO_1
 10
16.6345
 20
-0.2658
 30
155.7647
 70
192
 0
VERTEX
 8
CILINDRO_1
 10
16.4302
 20
-0.2658
 30
156.0039
 70
192
 0
VERTEX
 8
CILINDRO_1
 10
16.1909
 20
-0.2658
 30
156.2082
 70
192
 0
VERTEX
 8
CILINDRO_1
 10
15.9227
 20
-0.2658
 30
156.3726
 70
192
 0
VERTEX
 8
CILINDRO_1
 10
15.632
 20
-0.2658
 30
156.493
 70
192
 0
VERTEX
 8
CILINDRO_1
 10
15.3261
 20
-0.2658
 30
156.5664
 70
192
 0
VERTEX
 8
CILINDRO_1
 10
15.0125
 20
-0.2658
 30
156.5911
 70
192
 0
VERTEX
 8
CILINDRO_1
 10
14.6989
 20
-0.2658
 30
156.5664
 70
192
 0
VERTEX
 8
CILINDRO_1
 10
14.393
 20
-0.2658
 30
156.493
 70
192
 0
VERTEX
 8
CILINDRO_1
 10
14.1023
 20
-0.2658
 30
156.3726
 70
192
 0
VERTEX
 8
CILINDRO_1
 10
13.8341
 20
-0.2658
 30
156.2082
 70
192
 0
VERTEX
 8
CILINDRO_1
 10
13.5949
 20
-0.2658
 30
156.0039
 70
192
 0
VERTEX
 8
CILINDRO_1
 10
13.3906
 20
-0.2658
 30
155.7647
 70
192
 0
VERTEX
 8
CILINDRO_1
 10
13.2262
 20
-0.2658
 30
155.4964
 70
192
 0
VERTEX
 8
CILINDRO_1
 10
13.1058
 20
-0.2658
 30
155.2058
 70
192
 0
VERTEX
 8
CILINDRO_1
 10
13.0323
 20
-0.2658
 30
154.8999
 70
192
 0
VERTEX
 8
CILINDRO_1
 10
12.8126
 20
-0.5276
 30
154.5863
 70
192
 0
VERTEX
 8
CILINDRO_1
 10
12.8396
 20
-0.5276
 30
154.2421
 70
192
 0
VERTEX
 8
CILINDRO_1
 10
12.9202
 20
-0.5276
 30
153.9064
 70
192
 0
VERTEX
 8
CILINDRO_1
 10
13.0523
 20
-0.5276
 30
153.5875
 70
192
 0
VERTEX
 8
CILINDRO_1
 10
13.2327
 20
-0.5276
 30
153.2932
 70
192
 0
VERTEX
 8
CILINDRO_1
 10
13.4569
 20
-0.5276
 30
153.0307
 70
192
 0
VERTEX
 8
CILINDRO_1
 10
13.7194
 20
-0.5276
 30
152.8065
 70
192
 0
VERTEX
 8
CILINDRO_1
 10
14.0138
 20
-0.5276
 30
152.6261
 70
192
 0
VERTEX
 8
CILINDRO_1
 10
14.3327
 20
-0.5276
 30
152.494
 70
192
 0
VERTEX
 8
CILINDRO_1
 10
14.6684
 20
-0.5276
 30
152.4134
 70
192
 0
VERTEX
 8
CILINDRO_1
 10
15.0125
 20
-0.5276
 30
152.3863
 70
192
 0
VERTEX
 8
CILINDRO_1
 10
15.3567
 20
-0.5276
 30
152.4134
 70
192
 0
VERTEX
 8
CILINDRO_1
 10
15.6923
 20
-0.5276
 30
152.494
 70
192
 0
VERTEX
 8
CILINDRO_1
 10
16.0113
 20
-0.5276
 30
152.6261
 70
192
 0
VERTEX
 8
CILINDRO_1
 10
16.3056
 20
-0.5276
 30
152.8065
 70
192
 0
VERTEX
 8
CILINDRO_1
 10
16.5681
 20
-0.5276
 30
153.0307
 70
192
 0
VERTEX
 8
CILINDRO_1
 10
16.7923
 20
-0.5276
 30
153.2932
 70
192
 0
VERTEX
 8
CILINDRO_1
 10
16.9727
 20
-0.5276
 30
153.5875
 70
192
 0
VERTEX
 8
CILINDRO_1
 10
17.1048
 20
-0.5276
 30
153.9064
 70
192
 0
VERTEX
 8
CILINDRO_1
 10
17.1854
 20
-0.5276
 30
154.2421
 70
192
 0
VERTEX
 8
CILINDRO_1
 10
17.2125
 20
-0.5276
 30
154.5863
 70
192
 0
VERTEX
 8
CILINDRO_1
 10
17.1854
 20
-0.5276
 30
154.9304
 70
192
 0
VERTEX
 8
CILINDRO_1
 10
17.1048
 20
-0.5276
 30
155.2661
 70
192
 0
VERTEX
 8
CILINDRO_1
 10
16.9727
 20
-0.5276
 30
155.585
 70
192
 0
VERTEX
 8
CILINDRO_1
 10
16.7923
 20
-0.5276
 30
155.8794
 70
192
 0
VERTEX
 8
CILINDRO_1
 10
16.5681
 20
-0.5276
 30
156.1419
 70
192
 0
VERTEX
 8
CILINDRO_1
 10
16.3056
 20
-0.5276
 30
156.3661
 70
192
 0
VERTEX
 8
CILINDRO_1
 10
16.0113
 20
-0.5276
 30
156.5464
 70
192
 0
VERTEX
 8
CILINDRO_1
 10
15.6923
 20
-0.5276
 30
156.6785
 70
192
 0
VERTEX
 8
CILINDRO_1
 10
15.3567
 20
-0.5276
 30
156.7591
 70
192
 0
VERTEX
 8
CILINDRO_1
 10
15.0125
 20
-0.5276
 30
156.7862
 70
192
 0
VERTEX
 8
CILINDRO_1
 10
14.6684
 20
-0.5276
 30
156.7591
 70
192
 0
VERTEX
 8
CILINDRO_1
 10
14.3327
 20
-0.5276
 30
156.6785
 70
192
 0
VERTEX
 8
CILINDRO_1
 10
14.0138
 20
-0.5276
 30
156.5464
 70
192
 0
VERTEX
 8
CILINDRO_1
 10
13.7194
 20
-0.5276
 30
156.3661
 70
192
 0
VERTEX
 8
CILINDRO_1
 10
13.4569
 20
-0.5276
 30
156.1419
 70
192
 0
VERTEX
 8
CILINDRO_1
 10
13.2327
 20
-0.5276
 30
155.8794
 70
192
 0
VERTEX
 8
CILINDRO_1
 10
13.0523
 20
-0.5276
 30
155.585
 70
192
 0
VERTEX
 8
CILINDRO_1
 10
12.9202
 20
-0.5276
 30
155.2661
 70
192
 0
VERTEX
 8
CILINDRO_1
 10
12.8396
 20
-0.5276
 30
154.9304
 70
192
 0
VERTEX
 8
CILINDRO_1
 10
12.8126
 20
-0.1336
 30
154.5863
 70
192
 0
VERTEX
 8
CILINDRO_1
 10
12.8396
 20
-0.1336
 30
154.2421
 70
192
 0
VERTEX
 8
CILINDRO_1
 10
12.9202
 20
-0.1336
 30
153.9064
 70
192
 0
VERTEX
 8
CILINDRO_1
 10
13.0523
 20
-0.1336
 30
153.5875
 70
192
 0
VERTEX
 8
CILINDRO_1
 10
13.2327
 20
-0.1336
 30
153.2932
 70
192
 0
VERTEX
 8
CILINDRO_1
 10
13.4569
 20
-0.1336
 30
153.0307
 70
192
 0
VERTEX
 8
CILINDRO_1
 10
13.7194
 20
-0.1336
 30
152.8065
 70
192
 0
VERTEX
 8
CILINDRO_1
 10
14.0138
 20
-0.1336
 30
152.6261
 70
192
 0
VERTEX
 8
CILINDRO_1
 10
14.3327
 20
-0.1336
 30
152.494
 70
192
 0
VERTEX
 8
CILINDRO_1
 10
14.6684
 20
-0.1336
 30
152.4134
 70
192
 0
VERTEX
 8
CILINDRO_1
 10
15.0125
 20
-0.1336
 30
152.3863
 70
192
 0
VERTEX
 8
CILINDRO_1
 10
15.3567
 20
-0.1336
 30
152.4134
 70
192
 0
VERTEX
 8
CILINDRO_1
 10
15.6923
 20
-0.1336
 30
152.494
 70
192
 0
VERTEX
 8
CILINDRO_1
 10
16.0113
 20
-0.1336
 30
152.6261
 70
192
 0
VERTEX
 8
CILINDRO_1
 10
16.3056
 20
-0.1336
 30
152.8065
 70
192
 0
VERTEX
 8
CILINDRO_1
 10
16.5681
 20
-0.1336
 30
153.0307
 70
192
 0
VERTEX
 8
CILINDRO_1
 10
16.7923
 20
-0.1336
 30
153.2932
 70
192
 0
VERTEX
 8
CILINDRO_1
 10
16.9727
 20
-0.1336
 30
153.5875
 70
192
 0
VERTEX
 8
CILINDRO_1
 10
17.1048
 20
-0.1336
 30
153.9064
 70
192
 0
VERTEX
 8
CILINDRO_1
 10
17.1854
 20
-0.1336
 30
154.2421
 70
192
 0
VERTEX
 8
CILINDRO_1
 10
17.2125
 20
-0.1336
 30
154.5863
 70
192
 0
VERTEX
 8
CILINDRO_1
 10
17.1854
 20
-0.1336
 30
154.9304
 70
192
 0
VERTEX
 8
CILINDRO_1
 10
17.1048
 20
-0.1336
 30
155.2661
 70
192
 0
VERTEX
 8
CILINDRO_1
 10
16.9727
 20
-0.1336
 30
155.585
 70
192
 0
VERTEX
 8
CILINDRO_1
 10
16.7923
 20
-0.1336
 30
155.8794
 70
192
 0
VERTEX
 8
CILINDRO_1
 10
16.5681
 20
-0.1336
 30
156.1419
 70
192
 0
VERTEX
 8
CILINDRO_1
 10
16.3056
 20
-0.1336
 30
156.3661
 70
192
 0
VERTEX
 8
CILINDRO_1
 10
16.0113
 20
-0.1336
 30
156.5464
 70
192
 0
VERTEX
 8
CILINDRO_1
 10
15.6923
 20
-0.1336
 30
156.6785
 70
192
 0
VERTEX
 8
CILINDRO_1
 10
15.3567
 20
-0.1336
 30
156.7591
 70
192
 0
VERTEX
 8
CILINDRO_1
 10
15.0125
 20
-0.1336
 30
156.7862
 70
192
 0
VERTEX
 8
CILINDRO_1
 10
14.6684
 20
-0.1336
 30
156.7591
 70
192
 0
VERTEX
 8
CILINDRO_1
 10
14.3327
 20
-0.1336
 30
156.6785
 70
192
 0
VERTEX
 8
CILINDRO_1
 10
14.0138
 20
-0.1336
 30
156.5464
 70
192
 0
VERTEX
 8
CILINDRO_1
 10
13.7194
 20
-0.1336
 30
156.3661
 70
192
 0
VERTEX
 8
CILINDRO_1
 10
13.4569
 20
-0.1336
 30
156.1419
 70
192
 0
VERTEX
 8
CILINDRO_1
 10
13.2327
 20
-0.1336
 30
155.8794
 70
192
 0
VERTEX
 8
CILINDRO_1
 10
13.0523
 20
-0.1336
 30
155.585
 70
192
 0
VERTEX
 8
CILINDRO_1
 10
12.9202
 20
-0.1336
 30
155.2661
 70
192
 0
VERTEX
 8
CILINDRO_1
 10
12.8396
 20
-0.1336
 30
154.9304
 70
192
 0
VERTEX
 8
CILINDRO_1
 10
0
 20
0
 30
0
 70
128
 71
1
 72
203
 73
204
 74
204
 0
VERTEX
 8
CILINDRO_1
 10
0
 20
0
 30
0
 70
128
 71
3
 72
4
 73
6
 74
5
 0
VERTEX
 8
CILINDRO_1
 10
0
 20
0
 30
0
 70
128
 71
4
 72
2
 73
6
 74
6
 0
VERTEX
 8
CILINDRO_1
 10
0
 20
0
 30
0
 70
128
 71
1
 72
204
 73
205
 74
205
 0
VERTEX
 8
CILINDRO_1
 10
0
 20
0
 30
0
 70
128
 71
5
 72
6
 73
8
 74
7
 0
VERTEX
 8
CILINDRO_1
 10
0
 20
0
 30
0
 70
128
 71
6
 72
2
 73
8
 74
8
 0
VERTEX
 8
CILINDRO_1
 10
0
 20
0
 30
0
 70
128
 71
1
 72
205
 73
206
 74
206
 0
VERTEX
 8
CILINDRO_1
 10
0
 20
0
 30
0
 70
128
 71
7
 72
8
 73
10
 74
9
 0
VERTEX
 8
CILINDRO_1
 10
0
 20
0
 30
0
 70
128
 71
8
 72
2
 73
10
 74
10
 0
VERTEX
 8
CILINDRO_1
 10
0
 20
0
 30
0
 70
128
 71
1
 72
206
 73
207
 74
207
 0
VERTEX
 8
CILINDRO_1
 10
0
 20
0
 30
0
 70
128
 71
9
 72
10
 73
12
 74
11
 0
VERTEX
 8
CILINDRO_1
 10
0
 20
0
 30
0
 70
128
 71
10
 72
2
 73
12
 74
12
 0
VERTEX
 8
CILINDRO_1
 10
0
 20
0
 30
0
 70
128
 71
1
 72
207
 73
208
 74
208
 0
VERTEX
 8
CILINDRO_1
 10
0
 20
0
 30
0
 70
128
 71
11
 72
12
 73
14
 74
13
 0
VERTEX
 8
CILINDRO_1
 10
0
 20
0
 30
0
 70
128
 71
12
 72
2
 73
14
 74
14
 0
VERTEX
 8
CILINDRO_1
 10
0
 20
0
 30
0
 70
128
 71
1
 72
208
 73
209
 74
209
 0
VERTEX
 8
CILINDRO_1
 10
0
 20
0
 30
0
 70
128
 71
13
 72
14
 73
16
 74
15
 0
VERTEX
 8
CILINDRO_1
 10
0
 20
0
 30
0
 70
128
 71
14
 72
2
 73
16
 74
16
 0
VERTEX
 8
CILINDRO_1
 10
0
 20
0
 30
0
 70
128
 71
1
 72
209
 73
210
 74
210
 0
VERTEX
 8
CILINDRO_1
 10
0
 20
0
 30
0
 70
128
 71
15
 72
16
 73
18
 74
17
 0
VERTEX
 8
CILINDRO_1
 10
0
 20
0
 30
0
 70
128
 71
16
 72
2
 73
18
 74
18
 0
VERTEX
 8
CILINDRO_1
 10
0
 20
0
 30
0
 70
128
 71
1
 72
210
 73
211
 74
211
 0
VERTEX
 8
CILINDRO_1
 10
0
 20
0
 30
0
 70
128
 71
17
 72
18
 73
20
 74
19
 0
VERTEX
 8
CILINDRO_1
 10
0
 20
0
 30
0
 70
128
 71
18
 72
2
 73
20
 74
20
 0
VERTEX
 8
CILINDRO_1
 10
0
 20
0
 30
0
 70
128
 71
1
 72
211
 73
212
 74
212
 0
VERTEX
 8
CILINDRO_1
 10
0
 20
0
 30
0
 70
128
 71
19
 72
20
 73
22
 74
21
 0
VERTEX
 8
CILINDRO_1
 10
0
 20
0
 30
0
 70
128
 71
20
 72
2
 73
22
 74
22
 0
VERTEX
 8
CILINDRO_1
 10
0
 20
0
 30
0
 70
128
 71
1
 72
212
 73
213
 74
213
 0
VERTEX
 8
CILINDRO_1
 10
0
 20
0
 30
0
 70
128
 71
21
 72
22
 73
24
 74
23
 0
VERTEX
 8
CILINDRO_1
 10
0
 20
0
 30
0
 70
128
 71
22
 72
2
 73
24
 74
24
 0
VERTEX
 8
CILINDRO_1
 10
0
 20
0
 30
0
 70
128
 71
1
 72
213
 73
214
 74
214
 0
VERTEX
 8
CILINDRO_1
 10
0
 20
0
 30
0
 70
128
 71
23
 72
24
 73
26
 74
25
 0
VERTEX
 8
CILINDRO_1
 10
0
 20
0
 30
0
 70
128
 71
24
 72
2
 73
26
 74
26
 0
VERTEX
 8
CILINDRO_1
 10
0
 20
0
 30
0
 70
128
 71
1
 72
214
 73
215
 74
215
 0
VERTEX
 8
CILINDRO_1
 10
0
 20
0
 30
0
 70
128
 71
25
 72
26
 73
28
 74
27
 0
VERTEX
 8
CILINDRO_1
 10
0
 20
0
 30
0
 70
128
 71
26
 72
2
 73
28
 74
28
 0
VERTEX
 8
CILINDRO_1
 10
0
 20
0
 30
0
 70
128
 71
1
 72
215
 73
216
 74
216
 0
VERTEX
 8
CILINDRO_1
 10
0
 20
0
 30
0
 70
128
 71
27
 72
28
 73
30
 74
29
 0
VERTEX
 8
CILINDRO_1
 10
0
 20
0
 30
0
 70
128
 71
28
 72
2
 73
30
 74
30
 0
VERTEX
 8
CILINDRO_1
 10
0
 20
0
 30
0
 70
128
 71
1
 72
216
 73
217
 74
217
 0
VERTEX
 8
CILINDRO_1
 10
0
 20
0
 30
0
 70
128
 71
29
 72
30
 73
32
 74
31
 0
VERTEX
 8
CILINDRO_1
 10
0
 20
0
 30
0
 70
128
 71
30
 72
2
 73
32
 74
32
 0
VERTEX
 8
CILINDRO_1
 10
0
 20
0
 30
0
 70
128
 71
1
 72
217
 73
218
 74
218
 0
VERTEX
 8
CILINDRO_1
 10
0
 20
0
 30
0
 70
128
 71
31
 72
32
 73
34
 74
33
 0
VERTEX
 8
CILINDRO_1
 10
0
 20
0
 30
0
 70
128
 71
32
 72
2
 73
34
 74
34
 0
VERTEX
 8
CILINDRO_1
 10
0
 20
0
 30
0
 70
128
 71
1
 72
218
 73
219
 74
219
 0
VERTEX
 8
CILINDRO_1
 10
0
 20
0
 30
0
 70
128
 71
33
 72
34
 73
36
 74
35
 0
VERTEX
 8
CILINDRO_1
 10
0
 20
0
 30
0
 70
128
 71
34
 72
2
 73
36
 74
36
 0
VERTEX
 8
CILINDRO_1
 10
0
 20
0
 30
0
 70
128
 71
1
 72
219
 73
220
 74
220
 0
VERTEX
 8
CILINDRO_1
 10
0
 20
0
 30
0
 70
128
 71
35
 72
36
 73
38
 74
37
 0
VERTEX
 8
CILINDRO_1
 10
0
 20
0
 30
0
 70
128
 71
36
 72
2
 73
38
 74
38
 0
VERTEX
 8
CILINDRO_1
 10
0
 20
0
 30
0
 70
128
 71
1
 72
220
 73
221
 74
221
 0
VERTEX
 8
CILINDRO_1
 10
0
 20
0
 30
0
 70
128
 71
37
 72
38
 73
40
 74
39
 0
VERTEX
 8
CILINDRO_1
 10
0
 20
0
 30
0
 70
128
 71
38
 72
2
 73
40
 74
40
 0
VERTEX
 8
CILINDRO_1
 10
0
 20
0
 30
0
 70
128
 71
1
 72
221
 73
222
 74
222
 0
VERTEX
 8
CILINDRO_1
 10
0
 20
0
 30
0
 70
128
 71
39
 72
40
 73
42
 74
41
 0
VERTEX
 8
CILINDRO_1
 10
0
 20
0
 30
0
 70
128
 71
40
 72
2
 73
42
 74
42
 0
VERTEX
 8
CILINDRO_1
 10
0
 20
0
 30
0
 70
128
 71
1
 72
222
 73
223
 74
223
 0
VERTEX
 8
CILINDRO_1
 10
0
 20
0
 30
0
 70
128
 71
41
 72
42
 73
44
 74
43
 0
VERTEX
 8
CILINDRO_1
 10
0
 20
0
 30
0
 70
128
 71
42
 72
2
 73
44
 74
44
 0
VERTEX
 8
CILINDRO_1
 10
0
 20
0
 30
0
 70
128
 71
1
 72
223
 73
224
 74
224
 0
VERTEX
 8
CILINDRO_1
 10
0
 20
0
 30
0
 70
128
 71
43
 72
44
 73
46
 74
45
 0
VERTEX
 8
CILINDRO_1
 10
0
 20
0
 30
0
 70
128
 71
44
 72
2
 73
46
 74
46
 0
VERTEX
 8
CILINDRO_1
 10
0
 20
0
 30
0
 70
128
 71
1
 72
224
 73
225
 74
225
 0
VERTEX
 8
CILINDRO_1
 10
0
 20
0
 30
0
 70
128
 71
45
 72
46
 73
48
 74
47
 0
VERTEX
 8
CILINDRO_1
 10
0
 20
0
 30
0
 70
128
 71
46
 72
2
 73
48
 74
48
 0
VERTEX
 8
CILINDRO_1
 10
0
 20
0
 30
0
 70
128
 71
1
 72
225
 73
226
 74
226
 0
VERTEX
 8
CILINDRO_1
 10
0
 20
0
 30
0
 70
128
 71
47
 72
48
 73
50
 74
49
 0
VERTEX
 8
CILINDRO_1
 10
0
 20
0
 30
0
 70
128
 71
48
 72
2
 73
50
 74
50
 0
VERTEX
 8
CILINDRO_1
 10
0
 20
0
 30
0
 70
128
 71
1
 72
226
 73
227
 74
227
 0
VERTEX
 8
CILINDRO_1
 10
0
 20
0
 30
0
 70
128
 71
49
 72
50
 73
52
 74
51
 0
VERTEX
 8
CILINDRO_1
 10
0
 20
0
 30
0
 70
128
 71
50
 72
2
 73
52
 74
52
 0
VERTEX
 8
CILINDRO_1
 10
0
 20
0
 30
0
 70
128
 71
1
 72
227
 73
228
 74
228
 0
VERTEX
 8
CILINDRO_1
 10
0
 20
0
 30
0
 70
128
 71
51
 72
52
 73
54
 74
53
 0
VERTEX
 8
CILINDRO_1
 10
0
 20
0
 30
0
 70
128
 71
52
 72
2
 73
54
 74
54
 0
VERTEX
 8
CILINDRO_1
 10
0
 20
0
 30
0
 70
128
 71
1
 72
228
 73
229
 74
229
 0
VERTEX
 8
CILINDRO_1
 10
0
 20
0
 30
0
 70
128
 71
53
 72
54
 73
56
 74
55
 0
VERTEX
 8
CILINDRO_1
 10
0
 20
0
 30
0
 70
128
 71
54
 72
2
 73
56
 74
56
 0
VERTEX
 8
CILINDRO_1
 10
0
 20
0
 30
0
 70
128
 71
1
 72
229
 73
230
 74
230
 0
VERTEX
 8
CILINDRO_1
 10
0
 20
0
 30
0
 70
128
 71
55
 72
56
 73
58
 74
57
 0
VERTEX
 8
CILINDRO_1
 10
0
 20
0
 30
0
 70
128
 71
56
 72
2
 73
58
 74
58
 0
VERTEX
 8
CILINDRO_1
 10
0
 20
0
 30
0
 70
128
 71
1
 72
230
 73
231
 74
231
 0
VERTEX
 8
CILINDRO_1
 10
0
 20
0
 30
0
 70
128
 71
57
 72
58
 73
60
 74
59
 0
VERTEX
 8
CILINDRO_1
 10
0
 20
0
 30
0
 70
128
 71
58
 72
2
 73
60
 74
60
 0
VERTEX
 8
CILINDRO_1
 10
0
 20
0
 30
0
 70
128
 71
1
 72
231
 73
232
 74
232
 0
VERTEX
 8
CILINDRO_1
 10
0
 20
0
 30
0
 70
128
 71
59
 72
60
 73
62
 74
61
 0
VERTEX
 8
CILINDRO_1
 10
0
 20
0
 30
0
 70
128
 71
60
 72
2
 73
62
 74
62
 0
VERTEX
 8
CILINDRO_1
 10
0
 20
0
 30
0
 70
128
 71
1
 72
232
 73
233
 74
233
 0
VERTEX
 8
CILINDRO_1
 10
0
 20
0
 30
0
 70
128
 71
61
 72
62
 73
64
 74
63
 0
VERTEX
 8
CILINDRO_1
 10
0
 20
0
 30
0
 70
128
 71
62
 72
2
 73
64
 74
64
 0
VERTEX
 8
CILINDRO_1
 10
0
 20
0
 30
0
 70
128
 71
1
 72
233
 73
234
 74
234
 0
VERTEX
 8
CILINDRO_1
 10
0
 20
0
 30
0
 70
128
 71
63
 72
64
 73
66
 74
65
 0
VERTEX
 8
CILINDRO_1
 10
0
 20
0
 30
0
 70
128
 71
64
 72
2
 73
66
 74
66
 0
VERTEX
 8
CILINDRO_1
 10
0
 20
0
 30
0
 70
128
 71
1
 72
234
 73
235
 74
235
 0
VERTEX
 8
CILINDRO_1
 10
0
 20
0
 30
0
 70
128
 71
65
 72
66
 73
68
 74
67
 0
VERTEX
 8
CILINDRO_1
 10
0
 20
0
 30
0
 70
128
 71
66
 72
2
 73
68
 74
68
 0
VERTEX
 8
CILINDRO_1
 10
0
 20
0
 30
0
 70
128
 71
1
 72
235
 73
236
 74
236
 0
VERTEX
 8
CILINDRO_1
 10
0
 20
0
 30
0
 70
128
 71
67
 72
68
 73
70
 74
69
 0
VERTEX
 8
CILINDRO_1
 10
0
 20
0
 30
0
 70
128
 71
68
 72
2
 73
70
 74
70
 0
VERTEX
 8
CILINDRO_1
 10
0
 20
0
 30
0
 70
128
 71
1
 72
236
 73
237
 74
237
 0
VERTEX
 8
CILINDRO_1
 10
0
 20
0
 30
0
 70
128
 71
69
 72
70
 73
72
 74
71
 0
VERTEX
 8
CILINDRO_1
 10
0
 20
0
 30
0
 70
128
 71
70
 72
2
 73
72
 74
72
 0
VERTEX
 8
CILINDRO_1
 10
0
 20
0
 30
0
 70
128
 71
1
 72
237
 73
238
 74
238
 0
VERTEX
 8
CILINDRO_1
 10
0
 20
0
 30
0
 70
128
 71
71
 72
72
 73
74
 74
73
 0
VERTEX
 8
CILINDRO_1
 10
0
 20
0
 30
0
 70
128
 71
72
 72
2
 73
74
 74
74
 0
VERTEX
 8
CILINDRO_1
 10
0
 20
0
 30
0
 70
128
 71
1
 72
238
 73
239
 74
239
 0
VERTEX
 8
CILINDRO_1
 10
0
 20
0
 30
0
 70
128
 71
73
 72
74
 73
76
 74
75
 0
VERTEX
 8
CILINDRO_1
 10
0
 20
0
 30
0
 70
128
 71
74
 72
2
 73
76
 74
76
 0
VERTEX
 8
CILINDRO_1
 10
0
 20
0
 30
0
 70
128
 71
1
 72
239
 73
240
 74
240
 0
VERTEX
 8
CILINDRO_1
 10
0
 20
0
 30
0
 70
128
 71
75
 72
76
 73
78
 74
77
 0
VERTEX
 8
CILINDRO_1
 10
0
 20
0
 30
0
 70
128
 71
76
 72
2
 73
78
 74
78
 0
VERTEX
 8
CILINDRO_1
 10
0
 20
0
 30
0
 70
128
 71
1
 72
240
 73
241
 74
241
 0
VERTEX
 8
CILINDRO_1
 10
0
 20
0
 30
0
 70
128
 71
77
 72
78
 73
80
 74
79
 0
VERTEX
 8
CILINDRO_1
 10
0
 20
0
 30
0
 70
128
 71
78
 72
2
 73
80
 74
80
 0
VERTEX
 8
CILINDRO_1
 10
0
 20
0
 30
0
 70
128
 71
1
 72
241
 73
242
 74
242
 0
VERTEX
 8
CILINDRO_1
 10
0
 20
0
 30
0
 70
128
 71
79
 72
80
 73
82
 74
81
 0
VERTEX
 8
CILINDRO_1
 10
0
 20
0
 30
0
 70
128
 71
80
 72
2
 73
82
 74
82
 0
VERTEX
 8
CILINDRO_1
 10
0
 20
0
 30
0
 70
128
 71
1
 72
242
 73
203
 74
203
 0
VERTEX
 8
CILINDRO_1
 10
0
 20
0
 30
0
 70
128
 71
81
 72
82
 73
4
 74
3
 0
VERTEX
 8
CILINDRO_1
 10
0
 20
0
 30
0
 70
128
 71
82
 72
2
 73
4
 74
4
 0
VERTEX
 8
CILINDRO_1
 10
0
 20
0
 30
0
 70
128
 71
83
 72
3
 73
5
 74
84
 0
VERTEX
 8
CILINDRO_1
 10
0
 20
0
 30
0
 70
128
 71
84
 72
5
 73
7
 74
85
 0
VERTEX
 8
CILINDRO_1
 10
0
 20
0
 30
0
 70
128
 71
85
 72
7
 73
9
 74
86
 0
VERTEX
 8
CILINDRO_1
 10
0
 20
0
 30
0
 70
128
 71
86
 72
9
 73
11
 74
87
 0
VERTEX
 8
CILINDRO_1
 10
0
 20
0
 30
0
 70
128
 71
87
 72
11
 73
13
 74
88
 0
VERTEX
 8
CILINDRO_1
 10
0
 20
0
 30
0
 70
128
 71
88
 72
13
 73
15
 74
89
 0
VERTEX
 8
CILINDRO_1
 10
0
 20
0
 30
0
 70
128
 71
89
 72
15
 73
17
 74
90
 0
VERTEX
 8
CILINDRO_1
 10
0
 20
0
 30
0
 70
128
 71
90
 72
17
 73
19
 74
91
 0
VERTEX
 8
CILINDRO_1
 10
0
 20
0
 30
0
 70
128
 71
91
 72
19
 73
21
 74
92
 0
VERTEX
 8
CILINDRO_1
 10
0
 20
0
 30
0
 70
128
 71
92
 72
21
 73
23
 74
93
 0
VERTEX
 8
CILINDRO_1
 10
0
 20
0
 30
0
 70
128
 71
93
 72
23
 73
25
 74
94
 0
VERTEX
 8
CILINDRO_1
 10
0
 20
0
 30
0
 70
128
 71
94
 72
25
 73
27
 74
95
 0
VERTEX
 8
CILINDRO_1
 10
0
 20
0
 30
0
 70
128
 71
95
 72
27
 73
29
 74
96
 0
VERTEX
 8
CILINDRO_1
 10
0
 20
0
 30
0
 70
128
 71
96
 72
29
 73
31
 74
97
 0
VERTEX
 8
CILINDRO_1
 10
0
 20
0
 30
0
 70
128
 71
97
 72
31
 73
33
 74
98
 0
VERTEX
 8
CILINDRO_1
 10
0
 20
0
 30
0
 70
128
 71
98
 72
33
 73
35
 74
99
 0
VERTEX
 8
CILINDRO_1
 10
0
 20
0
 30
0
 70
128
 71
99
 72
35
 73
37
 74
100
 0
VERTEX
 8
CILINDRO_1
 10
0
 20
0
 30
0
 70
128
 71
100
 72
37
 73
39
 74
101
 0
VERTEX
 8
CILINDRO_1
 10
0
 20
0
 30
0
 70
128
 71
101
 72
39
 73
41
 74
102
 0
VERTEX
 8
CILINDRO_1
 10
0
 20
0
 30
0
 70
128
 71
102
 72
41
 73
43
 74
103
 0
VERTEX
 8
CILINDRO_1
 10
0
 20
0
 30
0
 70
128
 71
103
 72
43
 73
45
 74
104
 0
VERTEX
 8
CILINDRO_1
 10
0
 20
0
 30
0
 70
128
 71
104
 72
45
 73
47
 74
105
 0
VERTEX
 8
CILINDRO_1
 10
0
 20
0
 30
0
 70
128
 71
105
 72
47
 73
49
 74
106
 0
VERTEX
 8
CILINDRO_1
 10
0
 20
0
 30
0
 70
128
 71
106
 72
49
 73
51
 74
107
 0
VERTEX
 8
CILINDRO_1
 10
0
 20
0
 30
0
 70
128
 71
107
 72
51
 73
53
 74
108
 0
VERTEX
 8
CILINDRO_1
 10
0
 20
0
 30
0
 70
128
 71
108
 72
53
 73
55
 74
109
 0
VERTEX
 8
CILINDRO_1
 10
0
 20
0
 30
0
 70
128
 71
109
 72
55
 73
57
 74
110
 0
VERTEX
 8
CILINDRO_1
 10
0
 20
0
 30
0
 70
128
 71
110
 72
57
 73
59
 74
111
 0
VERTEX
 8
CILINDRO_1
 10
0
 20
0
 30
0
 70
128
 71
111
 72
59
 73
61
 74
112
 0
VERTEX
 8
CILINDRO_1
 10
0
 20
0
 30
0
 70
128
 71
112
 72
61
 73
63
 74
113
 0
VERTEX
 8
CILINDRO_1
 10
0
 20
0
 30
0
 70
128
 71
113
 72
63
 73
65
 74
114
 0
VERTEX
 8
CILINDRO_1
 10
0
 20
0
 30
0
 70
128
 71
114
 72
65
 73
67
 74
115
 0
VERTEX
 8
CILINDRO_1
 10
0
 20
0
 30
0
 70
128
 71
115
 72
67
 73
69
 74
116
 0
VERTEX
 8
CILINDRO_1
 10
0
 20
0
 30
0
 70
128
 71
116
 72
69
 73
71
 74
117
 0
VERTEX
 8
CILINDRO_1
 10
0
 20
0
 30
0
 70
128
 71
117
 72
71
 73
73
 74
118
 0
VERTEX
 8
CILINDRO_1
 10
0
 20
0
 30
0
 70
128
 71
118
 72
73
 73
75
 74
119
 0
VERTEX
 8
CILINDRO_1
 10
0
 20
0
 30
0
 70
128
 71
119
 72
75
 73
77
 74
120
 0
VERTEX
 8
CILINDRO_1
 10
0
 20
0
 30
0
 70
128
 71
120
 72
77
 73
79
 74
121
 0
VERTEX
 8
CILINDRO_1
 10
0
 20
0
 30
0
 70
128
 71
121
 72
79
 73
81
 74
122
 0
VERTEX
 8
CILINDRO_1
 10
0
 20
0
 30
0
 70
128
 71
122
 72
81
 73
3
 74
83
 0
VERTEX
 8
CILINDRO_1
 10
0
 20
0
 30
0
 70
128
 71
123
 72
83
 73
84
 74
124
 0
VERTEX
 8
CILINDRO_1
 10
0
 20
0
 30
0
 70
128
 71
124
 72
84
 73
85
 74
125
 0
VERTEX
 8
CILINDRO_1
 10
0
 20
0
 30
0
 70
128
 71
125
 72
85
 73
86
 74
126
 0
VERTEX
 8
CILINDRO_1
 10
0
 20
0
 30
0
 70
128
 71
126
 72
86
 73
87
 74
127
 0
VERTEX
 8
CILINDRO_1
 10
0
 20
0
 30
0
 70
128
 71
127
 72
87
 73
88
 74
128
 0
VERTEX
 8
CILINDRO_1
 10
0
 20
0
 30
0
 70
128
 71
128
 72
88
 73
89
 74
129
 0
VERTEX
 8
CILINDRO_1
 10
0
 20
0
 30
0
 70
128
 71
129
 72
89
 73
90
 74
130
 0
VERTEX
 8
CILINDRO_1
 10
0
 20
0
 30
0
 70
128
 71
130
 72
90
 73
91
 74
131
 0
VERTEX
 8
CILINDRO_1
 10
0
 20
0
 30
0
 70
128
 71
131
 72
91
 73
92
 74
132
 0
VERTEX
 8
CILINDRO_1
 10
0
 20
0
 30
0
 70
128
 71
132
 72
92
 73
93
 74
133
 0
VERTEX
 8
CILINDRO_1
 10
0
 20
0
 30
0
 70
128
 71
133
 72
93
 73
94
 74
134
 0
VERTEX
 8
CILINDRO_1
 10
0
 20
0
 30
0
 70
128
 71
134
 72
94
 73
95
 74
135
 0
VERTEX
 8
CILINDRO_1
 10
0
 20
0
 30
0
 70
128
 71
135
 72
95
 73
96
 74
136
 0
VERTEX
 8
CILINDRO_1
 10
0
 20
0
 30
0
 70
128
 71
136
 72
96
 73
97
 74
137
 0
VERTEX
 8
CILINDRO_1
 10
0
 20
0
 30
0
 70
128
 71
137
 72
97
 73
98
 74
138
 0
VERTEX
 8
CILINDRO_1
 10
0
 20
0
 30
0
 70
128
 71
138
 72
98
 73
99
 74
139
 0
VERTEX
 8
CILINDRO_1
 10
0
 20
0
 30
0
 70
128
 71
139
 72
99
 73
100
 74
140
 0
VERTEX
 8
CILINDRO_1
 10
0
 20
0
 30
0
 70
128
 71
140
 72
100
 73
101
 74
141
 0
VERTEX
 8
CILINDRO_1
 10
0
 20
0
 30
0
 70
128
 71
141
 72
101
 73
102
 74
142
 0
VERTEX
 8
CILINDRO_1
 10
0
 20
0
 30
0
 70
128
 71
142
 72
102
 73
103
 74
143
 0
VERTEX
 8
CILINDRO_1
 10
0
 20
0
 30
0
 70
128
 71
143
 72
103
 73
104
 74
144
 0
VERTEX
 8
CILINDRO_1
 10
0
 20
0
 30
0
 70
128
 71
144
 72
104
 73
105
 74
145
 0
VERTEX
 8
CILINDRO_1
 10
0
 20
0
 30
0
 70
128
 71
145
 72
105
 73
106
 74
146
 0
VERTEX
 8
CILINDRO_1
 10
0
 20
0
 30
0
 70
128
 71
146
 72
106
 73
107
 74
147
 0
VERTEX
 8
CILINDRO_1
 10
0
 20
0
 30
0
 70
128
 71
147
 72
107
 73
108
 74
148
 0
VERTEX
 8
CILINDRO_1
 10
0
 20
0
 30
0
 70
128
 71
148
 72
108
 73
109
 74
149
 0
VERTEX
 8
CILINDRO_1
 10
0
 20
0
 30
0
 70
128
 71
149
 72
109
 73
110
 74
150
 0
VERTEX
 8
CILINDRO_1
 10
0
 20
0
 30
0
 70
128
 71
150
 72
110
 73
111
 74
151
 0
VERTEX
 8
CILINDRO_1
 10
0
 20
0
 30
0
 70
128
 71
151
 72
111
 73
112
 74
152
 0
VERTEX
 8
CILINDRO_1
 10
0
 20
0
 30
0
 70
128
 71
152
 72
112
 73
113
 74
153
 0
VERTEX
 8
CILINDRO_1
 10
0
 20
0
 30
0
 70
128
 71
153
 72
113
 73
114
 74
154
 0
VERTEX
 8
CILINDRO_1
 10
0
 20
0
 30
0
 70
128
 71
154
 72
114
 73
115
 74
155
 0
VERTEX
 8
CILINDRO_1
 10
0
 20
0
 30
0
 70
128
 71
155
 72
115
 73
116
 74
156
 0
VERTEX
 8
CILINDRO_1
 10
0
 20
0
 30
0
 70
128
 71
156
 72
116
 73
117
 74
157
 0
VERTEX
 8
CILINDRO_1
 10
0
 20
0
 30
0
 70
128
 71
157
 72
117
 73
118
 74
158
 0
VERTEX
 8
CILINDRO_1
 10
0
 20
0
 30
0
 70
128
 71
158
 72
118
 73
119
 74
159
 0
VERTEX
 8
CILINDRO_1
 10
0
 20
0
 30
0
 70
128
 71
159
 72
119
 73
120
 74
160
 0
VERTEX
 8
CILINDRO_1
 10
0
 20
0
 30
0
 70
128
 71
160
 72
120
 73
121
 74
161
 0
VERTEX
 8
CILINDRO_1
 10
0
 20
0
 30
0
 70
128
 71
161
 72
121
 73
122
 74
162
 0
VERTEX
 8
CILINDRO_1
 10
0
 20
0
 30
0
 70
128
 71
162
 72
122
 73
83
 74
123
 0
VERTEX
 8
CILINDRO_1
 10
0
 20
0
 30
0
 70
128
 71
163
 72
123
 73
124
 74
164
 0
VERTEX
 8
CILINDRO_1
 10
0
 20
0
 30
0
 70
128
 71
164
 72
124
 73
125
 74
165
 0
VERTEX
 8
CILINDRO_1
 10
0
 20
0
 30
0
 70
128
 71
165
 72
125
 73
126
 74
166
 0
VERTEX
 8
CILINDRO_1
 10
0
 20
0
 30
0
 70
128
 71
166
 72
126
 73
127
 74
167
 0
VERTEX
 8
CILINDRO_1
 10
0
 20
0
 30
0
 70
128
 71
167
 72
127
 73
128
 74
168
 0
VERTEX
 8
CILINDRO_1
 10
0
 20
0
 30
0
 70
128
 71
168
 72
128
 73
129
 74
169
 0
VERTEX
 8
CILINDRO_1
 10
0
 20
0
 30
0
 70
128
 71
169
 72
129
 73
130
 74
170
 0
VERTEX
 8
CILINDRO_1
 10
0
 20
0
 30
0
 70
128
 71
170
 72
130
 73
131
 74
171
 0
VERTEX
 8
CILINDRO_1
 10
0
 20
0
 30
0
 70
128
 71
171
 72
131
 73
132
 74
172
 0
VERTEX
 8
CILINDRO_1
 10
0
 20
0
 30
0
 70
128
 71
172
 72
132
 73
133
 74
173
 0
VERTEX
 8
CILINDRO_1
 10
0
 20
0
 30
0
 70
128
 71
173
 72
133
 73
134
 74
174
 0
VERTEX
 8
CILINDRO_1
 10
0
 20
0
 30
0
 70
128
 71
174
 72
134
 73
135
 74
175
 0
VERTEX
 8
CILINDRO_1
 10
0
 20
0
 30
0
 70
128
 71
175
 72
135
 73
136
 74
176
 0
VERTEX
 8
CILINDRO_1
 10
0
 20
0
 30
0
 70
128
 71
176
 72
136
 73
137
 74
177
 0
VERTEX
 8
CILINDRO_1
 10
0
 20
0
 30
0
 70
128
 71
177
 72
137
 73
138
 74
178
 0
VERTEX
 8
CILINDRO_1
 10
0
 20
0
 30
0
 70
128
 71
178
 72
138
 73
139
 74
179
 0
VERTEX
 8
CILINDRO_1
 10
0
 20
0
 30
0
 70
128
 71
179
 72
139
 73
140
 74
180
 0
VERTEX
 8
CILINDRO_1
 10
0
 20
0
 30
0
 70
128
 71
180
 72
140
 73
141
 74
181
 0
VERTEX
 8
CILINDRO_1
 10
0
 20
0
 30
0
 70
128
 71
181
 72
141
 73
142
 74
182
 0
VERTEX
 8
CILINDRO_1
 10
0
 20
0
 30
0
 70
128
 71
182
 72
142
 73
143
 74
183
 0
VERTEX
 8
CILINDRO_1
 10
0
 20
0
 30
0
 70
128
 71
183
 72
143
 73
144
 74
184
 0
VERTEX
 8
CILINDRO_1
 10
0
 20
0
 30
0
 70
128
 71
184
 72
144
 73
145
 74
185
 0
VERTEX
 8
CILINDRO_1
 10
0
 20
0
 30
0
 70
128
 71
185
 72
145
 73
146
 74
186
 0
VERTEX
 8
CILINDRO_1
 10
0
 20
0
 30
0
 70
128
 71
186
 72
146
 73
147
 74
187
 0
VERTEX
 8
CILINDRO_1
 10
0
 20
0
 30
0
 70
128
 71
187
 72
147
 73
148
 74
188
 0
VERTEX
 8
CILINDRO_1
 10
0
 20
0
 30
0
 70
128
 71
188
 72
148
 73
149
 74
189
 0
VERTEX
 8
CILINDRO_1
 10
0
 20
0
 30
0
 70
128
 71
189
 72
149
 73
150
 74
190
 0
VERTEX
 8
CILINDRO_1
 10
0
 20
0
 30
0
 70
128
 71
190
 72
150
 73
151
 74
191
 0
VERTEX
 8
CILINDRO_1
 10
0
 20
0
 30
0
 70
128
 71
191
 72
151
 73
152
 74
192
 0
VERTEX
 8
CILINDRO_1
 10
0
 20
0
 30
0
 70
128
 71
192
 72
152
 73
153
 74
193
 0
VERTEX
 8
CILINDRO_1
 10
0
 20
0
 30
0
 70
128
 71
193
 72
153
 73
154
 74
194
 0
VERTEX
 8
CILINDRO_1
 10
0
 20
0
 30
0
 70
128
 71
194
 72
154
 73
155
 74
195
 0
VERTEX
 8
CILINDRO_1
 10
0
 20
0
 30
0
 70
128
 71
195
 72
155
 73
156
 74
196
 0
VERTEX
 8
CILINDRO_1
 10
0
 20
0
 30
0
 70
128
 71
196
 72
156
 73
157
 74
197
 0
VERTEX
 8
CILINDRO_1
 10
0
 20
0
 30
0
 70
128
 71
197
 72
157
 73
158
 74
198
 0
VERTEX
 8
CILINDRO_1
 10
0
 20
0
 30
0
 70
128
 71
198
 72
158
 73
159
 74
199
 0
VERTEX
 8
CILINDRO_1
 10
0
 20
0
 30
0
 70
128
 71
199
 72
159
 73
160
 74
200
 0
VERTEX
 8
CILINDRO_1
 10
0
 20
0
 30
0
 70
128
 71
200
 72
160
 73
161
 74
201
 0
VERTEX
 8
CILINDRO_1
 10
0
 20
0
 30
0
 70
128
 71
201
 72
161
 73
162
 74
202
 0
VERTEX
 8
CILINDRO_1
 10
0
 20
0
 30
0
 70
128
 71
202
 72
162
 73
123
 74
163
 0
VERTEX
 8
CILINDRO_1
 10
0
 20
0
 30
0
 70
128
 71
203
 72
163
 73
164
 74
204
 0
VERTEX
 8
CILINDRO_1
 10
0
 20
0
 30
0
 70
128
 71
204
 72
164
 73
165
 74
205
 0
VERTEX
 8
CILINDRO_1
 10
0
 20
0
 30
0
 70
128
 71
205
 72
165
 73
166
 74
206
 0
VERTEX
 8
CILINDRO_1
 10
0
 20
0
 30
0
 70
128
 71
206
 72
166
 73
167
 74
207
 0
VERTEX
 8
CILINDRO_1
 10
0
 20
0
 30
0
 70
128
 71
207
 72
167
 73
168
 74
208
 0
VERTEX
 8
CILINDRO_1
 10
0
 20
0
 30
0
 70
128
 71
208
 72
168
 73
169
 74
209
 0
VERTEX
 8
CILINDRO_1
 10
0
 20
0
 30
0
 70
128
 71
209
 72
169
 73
170
 74
210
 0
VERTEX
 8
CILINDRO_1
 10
0
 20
0
 30
0
 70
128
 71
210
 72
170
 73
171
 74
211
 0
VERTEX
 8
CILINDRO_1
 10
0
 20
0
 30
0
 70
128
 71
211
 72
171
 73
172
 74
212
 0
VERTEX
 8
CILINDRO_1
 10
0
 20
0
 30
0
 70
128
 71
212
 72
172
 73
173
 74
213
 0
VERTEX
 8
CILINDRO_1
 10
0
 20
0
 30
0
 70
128
 71
213
 72
173
 73
174
 74
214
 0
VERTEX
 8
CILINDRO_1
 10
0
 20
0
 30
0
 70
128
 71
214
 72
174
 73
175
 74
215
 0
VERTEX
 8
CILINDRO_1
 10
0
 20
0
 30
0
 70
128
 71
215
 72
175
 73
176
 74
216
 0
VERTEX
 8
CILINDRO_1
 10
0
 20
0
 30
0
 70
128
 71
216
 72
176
 73
177
 74
217
 0
VERTEX
 8
CILINDRO_1
 10
0
 20
0
 30
0
 70
128
 71
217
 72
177
 73
178
 74
218
 0
VERTEX
 8
CILINDRO_1
 10
0
 20
0
 30
0
 70
128
 71
218
 72
178
 73
179
 74
219
 0
VERTEX
 8
CILINDRO_1
 10
0
 20
0
 30
0
 70
128
 71
219
 72
179
 73
180
 74
220
 0
VERTEX
 8
CILINDRO_1
 10
0
 20
0
 30
0
 70
128
 71
220
 72
180
 73
181
 74
221
 0
VERTEX
 8
CILINDRO_1
 10
0
 20
0
 30
0
 70
128
 71
221
 72
181
 73
182
 74
222
 0
VERTEX
 8
CILINDRO_1
 10
0
 20
0
 30
0
 70
128
 71
222
 72
182
 73
183
 74
223
 0
VERTEX
 8
CILINDRO_1
 10
0
 20
0
 30
0
 70
128
 71
223
 72
183
 73
184
 74
224
 0
VERTEX
 8
CILINDRO_1
 10
0
 20
0
 30
0
 70
128
 71
224
 72
184
 73
185
 74
225
 0
VERTEX
 8
CILINDRO_1
 10
0
 20
0
 30
0
 70
128
 71
225
 72
185
 73
186
 74
226
 0
VERTEX
 8
CILINDRO_1
 10
0
 20
0
 30
0
 70
128
 71
226
 72
186
 73
187
 74
227
 0
VERTEX
 8
CILINDRO_1
 10
0
 20
0
 30
0
 70
128
 71
227
 72
187
 73
188
 74
228
 0
VERTEX
 8
CILINDRO_1
 10
0
 20
0
 30
0
 70
128
 71
228
 72
188
 73
189
 74
229
 0
VERTEX
 8
CILINDRO_1
 10
0
 20
0
 30
0
 70
128
 71
229
 72
189
 73
190
 74
230
 0
VERTEX
 8
CILINDRO_1
 10
0
 20
0
 30
0
 70
128
 71
230
 72
190
 73
191
 74
231
 0
VERTEX
 8
CILINDRO_1
 10
0
 20
0
 30
0
 70
128
 71
231
 72
191
 73
192
 74
232
 0
VERTEX
 8
CILINDRO_1
 10
0
 20
0
 30
0
 70
128
 71
232
 72
192
 73
193
 74
233
 0
VERTEX
 8
CILINDRO_1
 10
0
 20
0
 30
0
 70
128
 71
233
 72
193
 73
194
 74
234
 0
VERTEX
 8
CILINDRO_1
 10
0
 20
0
 30
0
 70
128
 71
234
 72
194
 73
195
 74
235
 0
VERTEX
 8
CILINDRO_1
 10
0
 20
0
 30
0
 70
128
 71
235
 72
195
 73
196
 74
236
 0
VERTEX
 8
CILINDRO_1
 10
0
 20
0
 30
0
 70
128
 71
236
 72
196
 73
197
 74
237
 0
VERTEX
 8
CILINDRO_1
 10
0
 20
0
 30
0
 70
128
 71
237
 72
197
 73
198
 74
238
 0
VERTEX
 8
CILINDRO_1
 10
0
 20
0
 30
0
 70
128
 71
238
 72
198
 73
199
 74
239
 0
VERTEX
 8
CILINDRO_1
 10
0
 20
0
 30
0
 70
128
 71
239
 72
199
 73
200
 74
240
 0
VERTEX
 8
CILINDRO_1
 10
0
 20
0
 30
0
 70
128
 71
240
 72
200
 73
201
 74
241
 0
VERTEX
 8
CILINDRO_1
 10
0
 20
0
 30
0
 70
128
 71
241
 72
201
 73
202
 74
242
 0
VERTEX
 8
CILINDRO_1
 10
0
 20
0
 30
0
 70
128
 71
242
 72
202
 73
163
 74
203
 0
SEQEND
 0
POLYLINE
 8
CILINDRO_2
 66
1
 10
0.0
 20
0.0
 30
0.0
 70
64
 71
80
 72
80
 0
VERTEX
 8
CILINDRO_2
 10
-11.872
 20
-3.3595
 30
142.2039
 70
192
 0
VERTEX
 8
CILINDRO_2
 10
11.8721
 20
-3.3595
 30
142.2039
 70
192
 0
VERTEX
 8
CILINDRO_2
 10
-11.952
 20
-3.3595
 30
142.571
 70
192
 0
VERTEX
 8
CILINDRO_2
 10
11.9521
 20
-3.3595
 30
142.571
 70
192
 0
VERTEX
 8
CILINDRO_2
 10
-11.952
 20
-3.3595
 30
143.3376
 70
192
 0
VERTEX
 8
CILINDRO_2
 10
11.9521
 20
-3.3595
 30
143.3376
 70
192
 0
VERTEX
 8
CILINDRO_2
 10
-11.952
 20
-3.3595
 30
144.0707
 70
192
 0
VERTEX
 8
CILINDRO_2
 10
11.9521
 20
-3.3595
 30
144.0707
 70
192
 0
VERTEX
 8
CILINDRO_2
 10
-11.952
 20
-3.3595
 30
144.8373
 70
192
 0
VERTEX
 8
CILINDRO_2
 10
-11.872
 20
-3.3595
 30
145.2044
 70
192
 0
VERTEX
 8
CILINDRO_2
 10
11.9521
 20
-3.3595
 30
144.8373
 70
192
 0
VERTEX
 8
CILINDRO_2
 10
11.8721
 20
-3.3595
 30
145.2044
 70
192
 0
VERTEX
 8
CILINDRO_2
 10
-11.872
 20
-3.2167
 30
142.5246
 70
192
 0
VERTEX
 8
CILINDRO_2
 10
11.8721
 20
-3.2167
 30
142.5246
 70
192
 0
VERTEX
 8
CILINDRO_2
 10
11.8721
 20
-3.2167
 30
144.8837
 70
192
 0
VERTEX
 8
CILINDRO_2
 10
-11.872
 20
-3.2167
 30
144.8837
 70
192
 0
VERTEX
 8
CILINDRO_2
 10
11.8721
 20
-3.0508
 30
144.1032
 70
192
 0
VERTEX
 8
CILINDRO_2
 10
-11.872
 20
-3.0508
 30
144.1032
 70
192
 0
VERTEX
 8
CILINDRO_2
 10
11.8721
 20
-3.0508
 30
143.3052
 70
192
 0
VERTEX
 8
CILINDRO_2
 10
-11.872
 20
-3.0508
 30
143.3052
 70
192
 0
VERTEX
 8
CILINDRO_2
 10
-11.872
 20
-4.2099
 30
142.2039
 70
192
 0
VERTEX
 8
CILINDRO_2
 10
11.8721
 20
-4.2099
 30
142.2039
 70
192
 0
VERTEX
 8
CILINDRO_2
 10
-11.872
 20
-4.2099
 30
142.571
 70
192
 0
VERTEX
 8
CILINDRO_2
 10
11.8721
 20
-4.2099
 30
142.571
 70
192
 0
VERTEX
 8
CILINDRO_2
 10
-11.872
 20
-4.2099
 30
143.3376
 70
192
 0
VERTEX
 8
CILINDRO_2
 10
11.8721
 20
-4.2099
 30
143.3376
 70
192
 0
VERTEX
 8
CILINDRO_2
 10
-11.872
 20
-4.2099
 30
144.0707
 70
192
 0
VERTEX
 8
CILINDRO_2
 10
11.8721
 20
-4.2099
 30
144.0707
 70
192
 0
VERTEX
 8
CILINDRO_2
 10
-11.872
 20
-4.2099
 30
144.8373
 70
192
 0
VERTEX
 8
CILINDRO_2
 10
-11.872
 20
-4.2099
 30
145.2044
 70
192
 0
VERTEX
 8
CILINDRO_2
 10
11.8721
 20
-4.2099
 30
144.8373
 70
192
 0
VERTEX
 8
CILINDRO_2
 10
11.8721
 20
-4.2099
 30
145.2044
 70
192
 0
VERTEX
 8
CILINDRO_2
 10
-11.872
 20
-3.379
 30
142.2339
 70
192
 0
VERTEX
 8
CILINDRO_2
 10
-11.872
 20
-3.379
 30
145.1744
 70
192
 0
VERTEX
 8
CILINDRO_2
 10
-11.872
 20
-3.2454
 30
142.5339
 70
192
 0
VERTEX
 8
CILINDRO_2
 10
-11.872
 20
-3.2454
 30
144.8744
 70
192
 0
VERTEX
 8
CILINDRO_2
 10
-11.872
 20
-3.0808
 30
144.1
 70
192
 0
VERTEX
 8
CILINDRO_2
 10
-11.872
 20
-3.0808
 30
143.3083
 70
192
 0
VERTEX
 8
CILINDRO_2
 10
-11.872
 20
-4.1799
 30
142.2339
 70
192
 0
VERTEX
 8
CILINDRO_2
 10
-11.872
 20
-4.1799
 30
142.571
 70
192
 0
VERTEX
 8
CILINDRO_2
 10
-11.872
 20
-4.1799
 30
143.3376
 70
192
 0
VERTEX
 8
CILINDRO_2
 10
-11.872
 20
-4.1799
 30
144.0707
 70
192
 0
VERTEX
 8
CILINDRO_2
 10
-11.872
 20
-4.1799
 30
144.8373
 70
192
 0
VERTEX
 8
CILINDRO_2
 10
-11.872
 20
-4.1799
 30
145.1744
 70
192
 0
VERTEX
 8
CILINDRO_2
 10
11.8721
 20
-3.379
 30
142.2339
 70
192
 0
VERTEX
 8
CILINDRO_2
 10
11.8721
 20
-3.379
 30
145.1744
 70
192
 0
VERTEX
 8
CILINDRO_2
 10
11.8721
 20
-3.2454
 30
142.5339
 70
192
 0
VERTEX
 8
CILINDRO_2
 10
11.8721
 20
-3.2454
 30
144.8744
 70
192
 0
VERTEX
 8
CILINDRO_2
 10
11.8721
 20
-3.0808
 30
144.1
 70
192
 0
VERTEX
 8
CILINDRO_2
 10
11.8721
 20
-3.0808
 30
143.3083
 70
192
 0
VERTEX
 8
CILINDRO_2
 10
11.8721
 20
-4.1799
 30
142.2339
 70
192
 0
VERTEX
 8
CILINDRO_2
 10
11.8721
 20
-4.1799
 30
142.571
 70
192
 0
VERTEX
 8
CILINDRO_2
 10
11.8721
 20
-4.1799
 30
143.3376
 70
192
 0
VERTEX
 8
CILINDRO_2
 10
11.8721
 20
-4.1799
 30
144.0707
 70
192
 0
VERTEX
 8
CILINDRO_2
 10
11.8721
 20
-4.1799
 30
144.8373
 70
192
 0
VERTEX
 8
CILINDRO_2
 10
11.8721
 20
-4.1799
 30
145.1744
 70
192
 0
VERTEX
 8
CILINDRO_2
 10
-11.952
 20
-3.379
 30
142.2339
 70
192
 0
VERTEX
 8
CILINDRO_2
 10
-11.952
 20
-3.379
 30
145.1744
 70
192
 0
VERTEX
 8
CILINDRO_2
 10
-11.952
 20
-3.2454
 30
142.5339
 70
192
 0
VERTEX
 8
CILINDRO_2
 10
-11.952
 20
-3.2454
 30
144.8744
 70
192
 0
VERTEX
 8
CILINDRO_2
 10
-11.952
 20
-3.0808
 30
144.1
 70
192
 0
VERTEX
 8
CILINDRO_2
 10
-11.952
 20
-3.0808
 30
143.3083
 70
192
 0
VERTEX
 8
CILINDRO_2
 10
-11.952
 20
-4.1799
 30
142.2339
 70
192
 0
VERTEX
 8
CILINDRO_2
 10
-11.952
 20
-4.1799
 30
142.571
 70
192
 0
VERTEX
 8
CILINDRO_2
 10
-11.952
 20
-4.1799
 30
143.3376
 70
192
 0
VERTEX
 8
CILINDRO_2
 10
-11.952
 20
-4.1799
 30
144.0707
 70
192
 0
VERTEX
 8
CILINDRO_2
 10
-11.952
 20
-4.1799
 30
144.8373
 70
192
 0
VERTEX
 8
CILINDRO_2
 10
-11.952
 20
-4.1799
 30
145.1744
 70
192
 0
VERTEX
 8
CILINDRO_2
 10
11.9521
 20
-3.379
 30
142.2339
 70
192
 0
VERTEX
 8
CILINDRO_2
 10
11.9521
 20
-3.379
 30
145.1744
 70
192
 0
VERTEX
 8
CILINDRO_2
 10
11.9521
 20
-3.2454
 30
142.5339
 70
192
 0
VERTEX
 8
CILINDRO_2
 10
11.9521
 20
-3.2454
 30
144.8744
 70
192
 0
VERTEX
 8
CILINDRO_2
 10
11.9521
 20
-3.0808
 30
144.1
 70
192
 0
VERTEX
 8
CILINDRO_2
 10
11.9521
 20
-3.0808
 30
143.3083
 70
192
 0
VERTEX
 8
CILINDRO_2
 10
11.9521
 20
-4.1799
 30
142.2339
 70
192
 0
VERTEX
 8
CILINDRO_2
 10
11.9521
 20
-4.1799
 30
142.571
 70
192
 0
VERTEX
 8
CILINDRO_2
 10
11.9521
 20
-4.1799
 30
143.3376
 70
192
 0
VERTEX
 8
CILINDRO_2
 10
11.9521
 20
-4.1799
 30
144.0707
 70
192
 0
VERTEX
 8
CILINDRO_2
 10
11.9521
 20
-4.1799
 30
144.8373
 70
192
 0
VERTEX
 8
CILINDRO_2
 10
11.9521
 20
-4.1799
 30
145.1744
 70
192
 0
VERTEX
 8
CILINDRO_2
 10
0
 20
0
 30
0
 70
128
 71
3
 72
59
 73
62
 74
5
 0
VERTEX
 8
CILINDRO_2
 10
0
 20
0
 30
0
 70
128
 71
6
 72
74
 73
71
 74
4
 0
VERTEX
 8
CILINDRO_2
 10
0
 20
0
 30
0
 70
128
 71
5
 72
62
 73
61
 74
7
 0
VERTEX
 8
CILINDRO_2
 10
0
 20
0
 30
0
 70
128
 71
8
 72
73
 73
74
 74
6
 0
VERTEX
 8
CILINDRO_2
 10
0
 20
0
 30
0
 70
128
 71
7
 72
61
 73
60
 74
9
 0
VERTEX
 8
CILINDRO_2
 10
0
 20
0
 30
0
 70
128
 71
11
 72
72
 73
73
 74
8
 0
VERTEX
 8
CILINDRO_2
 10
0
 20
0
 30
0
 70
128
 71
10
 72
16
 73
15
 74
12
 0
VERTEX
 8
CILINDRO_2
 10
0
 20
0
 30
0
 70
128
 71
59
 72
3
 73
57
 74
57
 0
VERTEX
 8
CILINDRO_2
 10
0
 20
0
 30
0
 70
128
 71
14
 72
13
 73
1
 74
2
 0
VERTEX
 8
CILINDRO_2
 10
0
 20
0
 30
0
 70
128
 71
4
 72
71
 73
69
 74
69
 0
VERTEX
 8
CILINDRO_2
 10
0
 20
0
 30
0
 70
128
 71
19
 72
20
 73
13
 74
14
 0
VERTEX
 8
CILINDRO_2
 10
0
 20
0
 30
0
 70
128
 71
17
 72
18
 73
20
 74
19
 0
VERTEX
 8
CILINDRO_2
 10
0
 20
0
 30
0
 70
128
 71
15
 72
16
 73
18
 74
17
 0
VERTEX
 8
CILINDRO_2
 10
0
 20
0
 30
0
 70
128
 71
9
 72
60
 73
58
 74
58
 0
VERTEX
 8
CILINDRO_2
 10
0
 20
0
 30
0
 70
128
 71
70
 72
72
 73
11
 74
11
 0
VERTEX
 8
CILINDRO_2
 10
0
 20
0
 30
0
 70
128
 71
30
 72
32
 73
31
 74
29
 0
VERTEX
 8
CILINDRO_2
 10
0
 20
0
 30
0
 70
128
 71
24
 72
22
 73
21
 74
23
 0
VERTEX
 8
CILINDRO_2
 10
0
 20
0
 30
0
 70
128
 71
29
 72
31
 73
28
 74
27
 0
VERTEX
 8
CILINDRO_2
 10
0
 20
0
 30
0
 70
128
 71
24
 72
23
 73
25
 74
26
 0
VERTEX
 8
CILINDRO_2
 10
0
 20
0
 30
0
 70
128
 71
27
 72
28
 73
26
 74
25
 0
VERTEX
 8
CILINDRO_2
 10
0
 20
0
 30
0
 70
128
 71
30
 72
10
 73
12
 74
32
 0
VERTEX
 8
CILINDRO_2
 10
0
 20
0
 30
0
 70
128
 71
80
 72
70
 73
11
 74
79
 0
VERTEX
 8
CILINDRO_2
 10
0
 20
0
 30
0
 70
128
 71
67
 72
9
 73
58
 74
68
 0
VERTEX
 8
CILINDRO_2
 10
0
 20
0
 30
0
 70
128
 71
76
 72
4
 73
69
 74
75
 0
VERTEX
 8
CILINDRO_2
 10
0
 20
0
 30
0
 70
128
 71
22
 72
2
 73
1
 74
21
 0
VERTEX
 8
CILINDRO_2
 10
0
 20
0
 30
0
 70
128
 71
63
 72
57
 73
3
 74
64
 0
VERTEX
 8
CILINDRO_2
 10
0
 20
0
 30
0
 70
128
 71
79
 72
11
 73
8
 74
78
 0
VERTEX
 8
CILINDRO_2
 10
0
 20
0
 30
0
 70
128
 71
66
 72
7
 73
9
 74
67
 0
VERTEX
 8
CILINDRO_2
 10
0
 20
0
 30
0
 70
128
 71
64
 72
3
 73
5
 74
65
 0
VERTEX
 8
CILINDRO_2
 10
0
 20
0
 30
0
 70
128
 71
77
 72
6
 73
4
 74
76
 0
VERTEX
 8
CILINDRO_2
 10
0
 20
0
 30
0
 70
128
 71
78
 72
8
 73
6
 74
77
 0
VERTEX
 8
CILINDRO_2
 10
0
 20
0
 30
0
 70
128
 71
65
 72
5
 73
7
 74
66
 0
VERTEX
 8
CILINDRO_2
 10
0
 20
0
 30
0
 70
128
 71
35
 72
13
 73
20
 74
38
 0
VERTEX
 8
CILINDRO_2
 10
0
 20
0
 30
0
 70
128
 71
38
 72
20
 73
18
 74
37
 0
VERTEX
 8
CILINDRO_2
 10
0
 20
0
 30
0
 70
128
 71
37
 72
18
 73
16
 74
36
 0
VERTEX
 8
CILINDRO_2
 10
0
 20
0
 30
0
 70
128
 71
33
 72
1
 73
13
 74
35
 0
VERTEX
 8
CILINDRO_2
 10
0
 20
0
 30
0
 70
128
 71
36
 72
16
 73
10
 74
34
 0
VERTEX
 8
CILINDRO_2
 10
0
 20
0
 30
0
 70
128
 71
34
 72
10
 73
30
 74
44
 0
VERTEX
 8
CILINDRO_2
 10
0
 20
0
 30
0
 70
128
 71
44
 72
30
 73
29
 74
43
 0
VERTEX
 8
CILINDRO_2
 10
0
 20
0
 30
0
 70
128
 71
39
 72
21
 73
1
 74
33
 0
VERTEX
 8
CILINDRO_2
 10
0
 20
0
 30
0
 70
128
 71
40
 72
23
 73
21
 74
39
 0
VERTEX
 8
CILINDRO_2
 10
0
 20
0
 30
0
 70
128
 71
43
 72
29
 73
27
 74
42
 0
VERTEX
 8
CILINDRO_2
 10
0
 20
0
 30
0
 70
128
 71
41
 72
25
 73
23
 74
40
 0
VERTEX
 8
CILINDRO_2
 10
0
 20
0
 30
0
 70
128
 71
42
 72
27
 73
25
 74
41
 0
VERTEX
 8
CILINDRO_2
 10
0
 20
0
 30
0
 70
128
 71
50
 72
19
 73
14
 74
47
 0
VERTEX
 8
CILINDRO_2
 10
0
 20
0
 30
0
 70
128
 71
49
 72
17
 73
19
 74
50
 0
VERTEX
 8
CILINDRO_2
 10
0
 20
0
 30
0
 70
128
 71
48
 72
15
 73
17
 74
49
 0
VERTEX
 8
CILINDRO_2
 10
0
 20
0
 30
0
 70
128
 71
47
 72
14
 73
2
 74
45
 0
VERTEX
 8
CILINDRO_2
 10
0
 20
0
 30
0
 70
128
 71
46
 72
12
 73
15
 74
48
 0
VERTEX
 8
CILINDRO_2
 10
0
 20
0
 30
0
 70
128
 71
56
 72
32
 73
12
 74
46
 0
VERTEX
 8
CILINDRO_2
 10
0
 20
0
 30
0
 70
128
 71
55
 72
31
 73
32
 74
56
 0
VERTEX
 8
CILINDRO_2
 10
0
 20
0
 30
0
 70
128
 71
45
 72
2
 73
22
 74
51
 0
VERTEX
 8
CILINDRO_2
 10
0
 20
0
 30
0
 70
128
 71
51
 72
22
 73
24
 74
52
 0
VERTEX
 8
CILINDRO_2
 10
0
 20
0
 30
0
 70
128
 71
54
 72
28
 73
31
 74
55
 0
VERTEX
 8
CILINDRO_2
 10
0
 20
0
 30
0
 70
128
 71
52
 72
24
 73
26
 74
53
 0
VERTEX
 8
CILINDRO_2
 10
0
 20
0
 30
0
 70
128
 71
53
 72
26
 73
28
 74
54
 0
VERTEX
 8
CILINDRO_2
 10
0
 20
0
 30
0
 70
128
 71
59
 72
35
 73
38
 74
62
 0
VERTEX
 8
CILINDRO_2
 10
0
 20
0
 30
0
 70
128
 71
62
 72
38
 73
37
 74
61
 0
VERTEX
 8
CILINDRO_2
 10
0
 20
0
 30
0
 70
128
 71
61
 72
37
 73
36
 74
60
 0
VERTEX
 8
CILINDRO_2
 10
0
 20
0
 30
0
 70
128
 71
57
 72
33
 73
35
 74
59
 0
VERTEX
 8
CILINDRO_2
 10
0
 20
0
 30
0
 70
128
 71
60
 72
36
 73
34
 74
58
 0
VERTEX
 8
CILINDRO_2
 10
0
 20
0
 30
0
 70
128
 71
58
 72
34
 73
44
 74
68
 0
VERTEX
 8
CILINDRO_2
 10
0
 20
0
 30
0
 70
128
 71
68
 72
44
 73
43
 74
67
 0
VERTEX
 8
CILINDRO_2
 10
0
 20
0
 30
0
 70
128
 71
63
 72
39
 73
33
 74
57
 0
VERTEX
 8
CILINDRO_2
 10
0
 20
0
 30
0
 70
128
 71
64
 72
40
 73
39
 74
63
 0
VERTEX
 8
CILINDRO_2
 10
0
 20
0
 30
0
 70
128
 71
67
 72
43
 73
42
 74
66
 0
VERTEX
 8
CILINDRO_2
 10
0
 20
0
 30
0
 70
128
 71
65
 72
41
 73
40
 74
64
 0
VERTEX
 8
CILINDRO_2
 10
0
 20
0
 30
0
 70
128
 71
66
 72
42
 73
41
 74
65
 0
VERTEX
 8
CILINDRO_2
 10
0
 20
0
 30
0
 70
128
 71
74
 72
50
 73
47
 74
71
 0
VERTEX
 8
CILINDRO_2
 10
0
 20
0
 30
0
 70
128
 71
73
 72
49
 73
50
 74
74
 0
VERTEX
 8
CILINDRO_2
 10
0
 20
0
 30
0
 70
128
 71
72
 72
48
 73
49
 74
73
 0
VERTEX
 8
CILINDRO_2
 10
0
 20
0
 30
0
 70
128
 71
71
 72
47
 73
45
 74
69
 0
VERTEX
 8
CILINDRO_2
 10
0
 20
0
 30
0
 70
128
 71
70
 72
46
 73
48
 74
72
 0
VERTEX
 8
CILINDRO_2
 10
0
 20
0
 30
0
 70
128
 71
80
 72
56
 73
46
 74
70
 0
VERTEX
 8
CILINDRO_2
 10
0
 20
0
 30
0
 70
128
 71
79
 72
55
 73
56
 74
80
 0
VERTEX
 8
CILINDRO_2
 10
0
 20
0
 30
0
 70
128
 71
69
 72
45
 73
51
 74
75
 0
VERTEX
 8
CILINDRO_2
 10
0
 20
0
 30
0
 70
128
 71
75
 72
51
 73
52
 74
76
 0
VERTEX
 8
CILINDRO_2
 10
0
 20
0
 30
0
 70
128
 71
78
 72
54
 73
55
 74
79
 0
VERTEX
 8
CILINDRO_2
 10
0
 20
0
 30
0
 70
128
 71
76
 72
52
 73
53
 74
77
 0
VERTEX
 8
CILINDRO_2
 10
0
 20
0
 30
0
 70
128
 71
77
 72
53
 73
54
 74
78
 0
SEQEND
 0
POLYLINE
 8
CUBO_5
 66
1
 10
0.0
 20
0.0
 30
0.0
 70
64
 71
8
 72
6
 0
VERTEX
 8
CUBO_5
 10
-11.9183
 20
-4.21
 30
142.2044
 70
192
 0
VERTEX
 8
CUBO_5
 10
-11.9183
 20
-4.21
 30
145.2042
 70
192
 0
VERTEX
 8
CUBO_5
 10
-19.9997
 20
-4.21
 30
142.2044
 70
192
 0
VERTEX
 8
CUBO_5
 10
-19.9997
 20
-4.21
 30
145.2042
 70
192
 0
VERTEX
 8
CUBO_5
 10
-19.9997
 20
-0.51
 30
142.2044
 70
192
 0
VERTEX
 8
CUBO_5
 10
-19.9997
 20
-0.51
 30
145.2042
 70
192
 0
VERTEX
 8
CUBO_5
 10
-11.9995
 20
-0.51
 30
142.2044
 70
192
 0
VERTEX
 8
CUBO_5
 10
-11.9995
 20
-0.51
 30
145.2042
 70
192
 0
VERTEX
 8
CUBO_5
 10
0
 20
0
 30
0
 70
128
 71
1
 72
3
 73
4
 74
2
 0
VERTEX
 8
CUBO_5
 10
0
 20
0
 30
0
 70
128
 71
3
 72
5
 73
6
 74
4
 0
VERTEX
 8
CUBO_5
 10
0
 20
0
 30
0
 70
128
 71
5
 72
7
 73
8
 74
6
 0
VERTEX
 8
CUBO_5
 10
0
 20
0
 30
0
 70
128
 71
7
 72
1
 73
2
 74
8
 0
VERTEX
 8
CUBO_5
 10
0
 20
0
 30
0
 70
128
 71
2
 72
4
 73
6
 74
8
 0
VERTEX
 8
CUBO_5
 10
0
 20
0
 30
0
 70
128
 71
7
 72
5
 73
3
 74
1
 0
SEQEND
 0
POLYLINE
 8
CUBO_4
 66
1
 10
0.0
 20
0.0
 30
0.0
 70
64
 71
8
 72
6
 0
VERTEX
 8
CUBO_4
 10
11.9186
 20
-4.21
 30
142.2044
 70
192
 0
VERTEX
 8
CUBO_4
 10
11.9186
 20
-4.21
 30
145.2042
 70
192
 0
VERTEX
 8
CUBO_4
 10
20
 20
-4.21
 30
142.2044
 70
192
 0
VERTEX
 8
CUBO_4
 10
20
 20
-4.21
 30
145.2042
 70
192
 0
VERTEX
 8
CUBO_4
 10
20
 20
-0.51
 30
142.2044
 70
192
 0
VERTEX
 8
CUBO_4
 10
20
 20
-0.51
 30
145.2042
 70
192
 0
VERTEX
 8
CUBO_4
 10
11.9997
 20
-0.51
 30
142.2044
 70
192
 0
VERTEX
 8
CUBO_4
 10
11.9997
 20
-0.51
 30
145.2042
 70
192
 0
VERTEX
 8
CUBO_4
 10
0
 20
0
 30
0
 70
128
 71
1
 72
2
 73
4
 74
3
 0
VERTEX
 8
CUBO_4
 10
0
 20
0
 30
0
 70
128
 71
3
 72
4
 73
6
 74
5
 0
VERTEX
 8
CUBO_4
 10
0
 20
0
 30
0
 70
128
 71
5
 72
6
 73
8
 74
7
 0
VERTEX
 8
CUBO_4
 10
0
 20
0
 30
0
 70
128
 71
7
 72
8
 73
2
 74
1
 0
VERTEX
 8
CUBO_4
 10
0
 20
0
 30
0
 70
128
 71
2
 72
8
 73
6
 74
4
 0
VERTEX
 8
CUBO_4
 10
0
 20
0
 30
0
 70
128
 71
7
 72
1
 73
3
 74
5
 0
SEQEND
 0
POLYLINE
 8
CUBO_3
 66
1
 10
0.0
 20
0.0
 30
0.0
 70
64
 71
8
 72
6
 0
VERTEX
 8
CUBO_3
 10
-20
 20
-0.5099
 30
138.5042
 70
192
 0
VERTEX
 8
CUBO_3
 10
-20
 20
-0.5099
 30
145.2042
 70
192
 0
VERTEX
 8
CUBO_3
 10
20
 20
-0.5099
 30
138.5042
 70
192
 0
VERTEX
 8
CUBO_3
 10
20
 20
-0.5099
 30
145.2042
 70
192
 0
VERTEX
 8
CUBO_3
 10
20
 20
-0.1299
 30
138.5042
 70
192
 0
VERTEX
 8
CUBO_3
 10
20
 20
-0.1299
 30
145.2042
 70
192
 0
VERTEX
 8
CUBO_3
 10
-20
 20
-0.1299
 30
138.5042
 70
192
 0
VERTEX
 8
CUBO_3
 10
-20
 20
-0.1299
 30
145.2042
 70
192
 0
VERTEX
 8
CUBO_3
 10
0
 20
0
 30
0
 70
128
 71
1
 72
2
 73
4
 74
3
 0
VERTEX
 8
CUBO_3
 10
0
 20
0
 30
0
 70
128
 71
3
 72
4
 73
6
 74
5
 0
VERTEX
 8
CUBO_3
 10
0
 20
0
 30
0
 70
128
 71
5
 72
6
 73
8
 74
7
 0
VERTEX
 8
CUBO_3
 10
0
 20
0
 30
0
 70
128
 71
7
 72
8
 73
2
 74
1
 0
VERTEX
 8
CUBO_3
 10
0
 20
0
 30
0
 70
128
 71
2
 72
8
 73
6
 74
4
 0
VERTEX
 8
CUBO_3
 10
0
 20
0
 30
0
 70
128
 71
7
 72
1
 73
3
 74
5
 0
SEQEND
 0
POLYLINE
 8
FULGOR
 66
1
 10
0.0
 20
0.0
 30
0.0
 70
64
 71
363
 72
183
 0
VERTEX
 8
FULGOR
 10
0.219
 20
-0.1373
 30
120.3389
 70
192
 0
VERTEX
 8
FULGOR
 10
-2.5005
 20
-0.1373
 30
120.2361
 70
192
 0
VERTEX
 8
FULGOR
 10
1.3399
 20
-0.1373
 30
120.2622
 70
192
 0
VERTEX
 8
FULGOR
 10
-2.3458
 20
-0.1373
 30
120.533
 70
192
 0
VERTEX
 8
FULGOR
 10
-2.3458
 20
-0.1373
 30
120.6265
 70
192
 0
VERTEX
 8
FULGOR
 10
-1.966
 20
-0.1373
 30
120.6265
 70
192
 0
VERTEX
 8
FULGOR
 10
-1.966
 20
-0.1373
 30
120.7373
 70
192
 0
VERTEX
 8
FULGOR
 10
-2.5005
 20
-0.1373
 30
120.7373
 70
192
 0
VERTEX
 8
FULGOR
 10
-1.8089
 20
-0.1373
 30
120.454
 70
192
 0
VERTEX
 8
FULGOR
 10
-1.8076
 20
-0.1373
 30
120.4306
 70
192
 0
VERTEX
 8
FULGOR
 10
-1.8041
 20
-0.1373
 30
120.4089
 70
192
 0
VERTEX
 8
FULGOR
 10
-2.3458
 20
-0.1373
 30
120.2361
 70
192
 0
VERTEX
 8
FULGOR
 10
-2.3458
 20
-0.1373
 30
120.4438
 70
192
 0
VERTEX
 8
FULGOR
 10
-1.966
 20
-0.1373
 30
120.4438
 70
192
 0
VERTEX
 8
FULGOR
 10
-1.966
 20
-0.1373
 30
120.533
 70
192
 0
VERTEX
 8
FULGOR
 10
-1.8089
 20
-0.1373
 30
120.7373
 70
192
 0
VERTEX
 8
FULGOR
 10
-1.7983
 20
-0.1373
 30
120.389
 70
192
 0
VERTEX
 8
FULGOR
 10
-1.7906
 20
-0.1373
 30
120.3707
 70
192
 0
VERTEX
 8
FULGOR
 10
-1.781
 20
-0.1373
 30
120.354
 70
192
 0
VERTEX
 8
FULGOR
 10
-1.7696
 20
-0.1373
 30
120.3388
 70
192
 0
VERTEX
 8
FULGOR
 10
-1.6322
 20
-0.1373
 30
120.2622
 70
192
 0
VERTEX
 8
FULGOR
 10
-1.5791
 20
-0.1373
 30
120.2513
 70
192
 0
VERTEX
 8
FULGOR
 10
-1.4929
 20
-0.1373
 30
120.2421
 70
192
 0
VERTEX
 8
FULGOR
 10
-1.4035
 20
-0.1373
 30
120.2393
 70
192
 0
VERTEX
 8
FULGOR
 10
-1.3036
 20
-0.1373
 30
120.2429
 70
192
 0
VERTEX
 8
FULGOR
 10
-1.2281
 20
-0.1373
 30
120.2529
 70
192
 0
VERTEX
 8
FULGOR
 10
-1.7566
 20
-0.1373
 30
120.325
 70
192
 0
VERTEX
 8
FULGOR
 10
-1.1352
 20
-0.1373
 30
120.2782
 70
192
 0
VERTEX
 8
FULGOR
 10
-1.7422
 20
-0.1373
 30
120.3125
 70
192
 0
VERTEX
 8
FULGOR
 10
-1.7264
 20
-0.1373
 30
120.3013
 70
192
 0
VERTEX
 8
FULGOR
 10
-1.7005
 20
-0.1373
 30
120.2868
 70
192
 0
VERTEX
 8
FULGOR
 10
-1.6724
 20
-0.1373
 30
120.2748
 70
192
 0
VERTEX
 8
FULGOR
 10
-1.0325
 20
-0.1373
 30
120.3475
 70
192
 0
VERTEX
 8
FULGOR
 10
-1.1753
 20
-0.1373
 30
120.265
 70
192
 0
VERTEX
 8
FULGOR
 10
-1.1072
 20
-0.1373
 30
120.2905
 70
192
 0
VERTEX
 8
FULGOR
 10
-1.0814
 20
-0.1373
 30
120.3048
 70
192
 0
VERTEX
 8
FULGOR
 10
-1.0583
 20
-0.1373
 30
120.3215
 70
192
 0
VERTEX
 8
FULGOR
 10
-1.0006
 20
-0.1373
 30
120.4238
 70
192
 0
VERTEX
 8
FULGOR
 10
-0.9994
 20
-0.1373
 30
120.4444
 70
192
 0
VERTEX
 8
FULGOR
 10
-0.9992
 20
-0.1373
 30
120.7373
 70
192
 0
VERTEX
 8
FULGOR
 10
-1.0446
 20
-0.1373
 30
120.3339
 70
192
 0
VERTEX
 8
FULGOR
 10
-1.022
 20
-0.1373
 30
120.3623
 70
192
 0
VERTEX
 8
FULGOR
 10
-1.154
 20
-0.1373
 30
120.4459
 70
192
 0
VERTEX
 8
FULGOR
 10
-1.1548
 20
-0.1373
 30
120.4389
 70
192
 0
VERTEX
 8
FULGOR
 10
-1.1564
 20
-0.1373
 30
120.4319
 70
192
 0
VERTEX
 8
FULGOR
 10
-1.1587
 20
-0.1373
 30
120.4249
 70
192
 0
VERTEX
 8
FULGOR
 10
-1.1618
 20
-0.1373
 30
120.4181
 70
192
 0
VERTEX
 8
FULGOR
 10
-1.1656
 20
-0.1373
 30
120.4114
 70
192
 0
VERTEX
 8
FULGOR
 10
-1.1702
 20
-0.1373
 30
120.4048
 70
192
 0
VERTEX
 8
FULGOR
 10
-1.1786
 20
-0.1373
 30
120.3952
 70
192
 0
VERTEX
 8
FULGOR
 10
-1.1888
 20
-0.1373
 30
120.3861
 70
192
 0
VERTEX
 8
FULGOR
 10
-1.2009
 20
-0.1373
 30
120.3775
 70
192
 0
VERTEX
 8
FULGOR
 10
-1.2149
 20
-0.1373
 30
120.3694
 70
192
 0
VERTEX
 8
FULGOR
 10
-1.0134
 20
-0.1373
 30
120.3782
 70
192
 0
VERTEX
 8
FULGOR
 10
-1.0067
 20
-0.1373
 30
120.3955
 70
192
 0
VERTEX
 8
FULGOR
 10
-1.0021
 20
-0.1373
 30
120.414
 70
192
 0
VERTEX
 8
FULGOR
 10
-1.1538
 20
-0.1373
 30
120.7373
 70
192
 0
VERTEX
 8
FULGOR
 10
-1.1538
 20
-0.1373
 30
120.453
 70
192
 0
VERTEX
 8
FULGOR
 10
-1.4916
 20
-0.1373
 30
120.34
 70
192
 0
VERTEX
 8
FULGOR
 10
-1.2368
 20
-0.1373
 30
120.3598
 70
192
 0
VERTEX
 8
FULGOR
 10
-1.5649
 20
-0.1373
 30
120.3537
 70
192
 0
VERTEX
 8
FULGOR
 10
-1.5875
 20
-0.1373
 30
120.3618
 70
192
 0
VERTEX
 8
FULGOR
 10
-1.2624
 20
-0.1373
 30
120.3515
 70
192
 0
VERTEX
 8
FULGOR
 10
-1.2997
 20
-0.1373
 30
120.3434
 70
192
 0
VERTEX
 8
FULGOR
 10
-1.3432
 20
-0.1373
 30
120.338
 70
192
 0
VERTEX
 8
FULGOR
 10
-1.6319
 20
-0.1373
 30
120.3921
 70
192
 0
VERTEX
 8
FULGOR
 10
-1.6373
 20
-0.1373
 30
120.3989
 70
192
 0
VERTEX
 8
FULGOR
 10
-1.6419
 20
-0.1373
 30
120.406
 70
192
 0
VERTEX
 8
FULGOR
 10
-1.6457
 20
-0.1373
 30
120.4135
 70
192
 0
VERTEX
 8
FULGOR
 10
-1.6489
 20
-0.1373
 30
120.4214
 70
192
 0
VERTEX
 8
FULGOR
 10
-1.404
 20
-0.1373
 30
120.3358
 70
192
 0
VERTEX
 8
FULGOR
 10
-1.6535
 20
-0.1373
 30
120.4428
 70
192
 0
VERTEX
 8
FULGOR
 10
-1.6543
 20
-0.1373
 30
120.4568
 70
192
 0
VERTEX
 8
FULGOR
 10
-1.6543
 20
-0.1373
 30
120.7373
 70
192
 0
VERTEX
 8
FULGOR
 10
-1.5385
 20
-0.1373
 30
120.3471
 70
192
 0
VERTEX
 8
FULGOR
 10
-1.6022
 20
-0.1373
 30
120.3689
 70
192
 0
VERTEX
 8
FULGOR
 10
-1.6149
 20
-0.1373
 30
120.3769
 70
192
 0
VERTEX
 8
FULGOR
 10
-1.6257
 20
-0.1373
 30
120.3857
 70
192
 0
VERTEX
 8
FULGOR
 10
-0.6878
 20
-0.1373
 30
120.3469
 70
192
 0
VERTEX
 8
FULGOR
 10
-0.6878
 20
-0.1373
 30
120.7373
 70
192
 0
VERTEX
 8
FULGOR
 10
0.5411
 20
-0.1373
 30
120.6911
 70
192
 0
VERTEX
 8
FULGOR
 10
-1.6513
 20
-0.1373
 30
120.4297
 70
192
 0
VERTEX
 8
FULGOR
 10
-0.8426
 20
-0.1373
 30
120.7373
 70
192
 0
VERTEX
 8
FULGOR
 10
0.2351
 20
-0.1373
 30
120.7368
 70
192
 0
VERTEX
 8
FULGOR
 10
-0.8426
 20
-0.1373
 30
120.2361
 70
192
 0
VERTEX
 8
FULGOR
 10
-0.3081
 20
-0.1373
 30
120.2361
 70
192
 0
VERTEX
 8
FULGOR
 10
-0.3081
 20
-0.1373
 30
120.3469
 70
192
 0
VERTEX
 8
FULGOR
 10
0.4538
 20
-0.1373
 30
120.7109
 70
192
 0
VERTEX
 8
FULGOR
 10
0.3612
 20
-0.1373
 30
120.7256
 70
192
 0
VERTEX
 8
FULGOR
 10
0.1647
 20
-0.1373
 30
120.7367
 70
192
 0
VERTEX
 8
FULGOR
 10
-0.1068
 20
-0.1373
 30
120.6609
 70
192
 0
VERTEX
 8
FULGOR
 10
-0.1331
 20
-0.1373
 30
120.6437
 70
192
 0
VERTEX
 8
FULGOR
 10
-0.1553
 20
-0.1373
 30
120.6259
 70
192
 0
VERTEX
 8
FULGOR
 10
-0.1742
 20
-0.1373
 30
120.6075
 70
192
 0
VERTEX
 8
FULGOR
 10
0.101
 20
-0.1373
 30
120.7303
 70
192
 0
VERTEX
 8
FULGOR
 10
0.0442
 20
-0.1373
 30
120.7194
 70
192
 0
VERTEX
 8
FULGOR
 10
-0.0115
 20
-0.1373
 30
120.7033
 70
192
 0
VERTEX
 8
FULGOR
 10
-0.2167
 20
-0.1373
 30
120.5396
 70
192
 0
VERTEX
 8
FULGOR
 10
-0.2211
 20
-0.1373
 30
120.5252
 70
192
 0
VERTEX
 8
FULGOR
 10
-0.0617
 20
-0.1373
 30
120.6838
 70
192
 0
VERTEX
 8
FULGOR
 10
-0.0875
 20
-0.1373
 30
120.6714
 70
192
 0
VERTEX
 8
FULGOR
 10
-0.189
 20
-0.1373
 30
120.59
 70
192
 0
VERTEX
 8
FULGOR
 10
-0.2255
 20
-0.1373
 30
120.4665
 70
192
 0
VERTEX
 8
FULGOR
 10
-0.1996
 20
-0.1373
 30
120.5745
 70
192
 0
VERTEX
 8
FULGOR
 10
-0.209
 20
-0.1373
 30
120.5577
 70
192
 0
VERTEX
 8
FULGOR
 10
-0.2243
 20
-0.1373
 30
120.51
 70
192
 0
VERTEX
 8
FULGOR
 10
-0.2257
 20
-0.1373
 30
120.4995
 70
192
 0
VERTEX
 8
FULGOR
 10
-0.2265
 20
-0.1373
 30
120.4831
 70
192
 0
VERTEX
 8
FULGOR
 10
-0.2226
 20
-0.1373
 30
120.4503
 70
192
 0
VERTEX
 8
FULGOR
 10
-0.1575
 20
-0.1373
 30
120.3501
 70
192
 0
VERTEX
 8
FULGOR
 10
-0.133
 20
-0.1373
 30
120.3303
 70
192
 0
VERTEX
 8
FULGOR
 10
-0.2178
 20
-0.1373
 30
120.4345
 70
192
 0
VERTEX
 8
FULGOR
 10
-0.065
 20
-0.1373
 30
120.2903
 70
192
 0
VERTEX
 8
FULGOR
 10
-0.0278
 20
-0.1373
 30
120.2748
 70
192
 0
VERTEX
 8
FULGOR
 10
-0.2114
 20
-0.1373
 30
120.4192
 70
192
 0
VERTEX
 8
FULGOR
 10
-0.2034
 20
-0.1373
 30
120.4043
 70
192
 0
VERTEX
 8
FULGOR
 10
0.1472
 20
-0.1373
 30
120.2387
 70
192
 0
VERTEX
 8
FULGOR
 10
0.1955
 20
-0.1373
 30
120.2364
 70
192
 0
VERTEX
 8
FULGOR
 10
0.2351
 20
-0.1373
 30
120.2366
 70
192
 0
VERTEX
 8
FULGOR
 10
0.2979
 20
-0.1373
 30
120.2402
 70
192
 0
VERTEX
 8
FULGOR
 10
-0.1904
 20
-0.1373
 30
120.3853
 70
192
 0
VERTEX
 8
FULGOR
 10
-0.175
 20
-0.1373
 30
120.3672
 70
192
 0
VERTEX
 8
FULGOR
 10
-0.1003
 20
-0.1373
 30
120.3089
 70
192
 0
VERTEX
 8
FULGOR
 10
0.3634
 20
-0.1373
 30
120.4963
 70
192
 0
VERTEX
 8
FULGOR
 10
0.0227
 20
-0.1373
 30
120.2591
 70
192
 0
VERTEX
 8
FULGOR
 10
0.0786
 20
-0.1373
 30
120.2471
 70
192
 0
VERTEX
 8
FULGOR
 10
0.3758
 20
-0.1373
 30
120.2505
 70
192
 0
VERTEX
 8
FULGOR
 10
0.5411
 20
-0.1373
 30
120.2823
 70
192
 0
VERTEX
 8
FULGOR
 10
0.1899
 20
-0.1373
 30
120.3392
 70
192
 0
VERTEX
 8
FULGOR
 10
0.1559
 20
-0.1373
 30
120.3419
 70
192
 0
VERTEX
 8
FULGOR
 10
0.5411
 20
-0.1373
 30
120.4963
 70
192
 0
VERTEX
 8
FULGOR
 10
0.0923
 20
-0.1373
 30
120.3561
 70
192
 0
VERTEX
 8
FULGOR
 10
0.0692
 20
-0.1373
 30
120.3651
 70
192
 0
VERTEX
 8
FULGOR
 10
0.3633
 20
-0.1373
 30
120.3496
 70
192
 0
VERTEX
 8
FULGOR
 10
0.3431
 20
-0.1373
 30
120.3459
 70
192
 0
VERTEX
 8
FULGOR
 10
0.0158
 20
-0.1373
 30
120.399
 70
192
 0
VERTEX
 8
FULGOR
 10
0.2874
 20
-0.1373
 30
120.3402
 70
192
 0
VERTEX
 8
FULGOR
 10
0.2464
 20
-0.1373
 30
120.3386
 70
192
 0
VERTEX
 8
FULGOR
 10
0.1232
 20
-0.1373
 30
120.3475
 70
192
 0
VERTEX
 8
FULGOR
 10
0.0479
 20
-0.1373
 30
120.3759
 70
192
 0
VERTEX
 8
FULGOR
 10
-0.0234
 20
-0.1373
 30
120.4613
 70
192
 0
VERTEX
 8
FULGOR
 10
-0.0258
 20
-0.1373
 30
120.4718
 70
192
 0
VERTEX
 8
FULGOR
 10
-0.0272
 20
-0.1373
 30
120.4828
 70
192
 0
VERTEX
 8
FULGOR
 10
-0.0277
 20
-0.1373
 30
120.4942
 70
192
 0
VERTEX
 8
FULGOR
 10
-0.0271
 20
-0.1373
 30
120.5056
 70
192
 0
VERTEX
 8
FULGOR
 10
0.0287
 20
-0.1373
 30
120.3884
 70
192
 0
VERTEX
 8
FULGOR
 10
0.0044
 20
-0.1373
 30
120.4106
 70
192
 0
VERTEX
 8
FULGOR
 10
-0.0055
 20
-0.1373
 30
120.4231
 70
192
 0
VERTEX
 8
FULGOR
 10
-0.013
 20
-0.1373
 30
120.5459
 70
192
 0
VERTEX
 8
FULGOR
 10
-0.007
 20
-0.1373
 30
120.5547
 70
192
 0
VERTEX
 8
FULGOR
 10
-0.0001
 20
-0.1373
 30
120.563
 70
192
 0
VERTEX
 8
FULGOR
 10
-0.0138
 20
-0.1373
 30
120.4366
 70
192
 0
VERTEX
 8
FULGOR
 10
0.0251
 20
-0.1373
 30
120.5851
 70
192
 0
VERTEX
 8
FULGOR
 10
0.0398
 20
-0.1373
 30
120.5945
 70
192
 0
VERTEX
 8
FULGOR
 10
-0.0202
 20
-0.1373
 30
120.4511
 70
192
 0
VERTEX
 8
FULGOR
 10
0.0891
 20
-0.1373
 30
120.6165
 70
192
 0
VERTEX
 8
FULGOR
 10
0.1181
 20
-0.1373
 30
120.6248
 70
192
 0
VERTEX
 8
FULGOR
 10
-0.0252
 20
-0.1373
 30
120.5164
 70
192
 0
VERTEX
 8
FULGOR
 10
0.1691
 20
-0.1373
 30
120.6328
 70
192
 0
VERTEX
 8
FULGOR
 10
-0.0222
 20
-0.1373
 30
120.5268
 70
192
 0
VERTEX
 8
FULGOR
 10
0.2937
 20
-0.1373
 30
120.6287
 70
192
 0
VERTEX
 8
FULGOR
 10
-0.0181
 20
-0.1373
 30
120.5366
 70
192
 0
VERTEX
 8
FULGOR
 10
0.5411
 20
-0.1373
 30
120.5842
 70
192
 0
VERTEX
 8
FULGOR
 10
0.6982
 20
-0.1373
 30
120.4867
 70
192
 0
VERTEX
 8
FULGOR
 10
0.6996
 20
-0.1373
 30
120.4644
 70
192
 0
VERTEX
 8
FULGOR
 10
0.0117
 20
-0.1373
 30
120.5746
 70
192
 0
VERTEX
 8
FULGOR
 10
0.0609
 20
-0.1373
 30
120.6055
 70
192
 0
VERTEX
 8
FULGOR
 10
0.7179
 20
-0.1373
 30
120.4049
 70
192
 0
VERTEX
 8
FULGOR
 10
0.7284
 20
-0.1373
 30
120.3874
 70
192
 0
VERTEX
 8
FULGOR
 10
0.7407
 20
-0.1373
 30
120.3711
 70
192
 0
VERTEX
 8
FULGOR
 10
0.7549
 20
-0.1373
 30
120.3558
 70
192
 0
VERTEX
 8
FULGOR
 10
0.779
 20
-0.1373
 30
120.335
 70
192
 0
VERTEX
 8
FULGOR
 10
0.1526
 20
-0.1373
 30
120.6311
 70
192
 0
VERTEX
 8
FULGOR
 10
0.1899
 20
-0.1373
 30
120.6337
 70
192
 0
VERTEX
 8
FULGOR
 10
0.3901
 20
-0.1373
 30
120.6149
 70
192
 0
VERTEX
 8
FULGOR
 10
0.7034
 20
-0.1373
 30
120.4434
 70
192
 0
VERTEX
 8
FULGOR
 10
0.7096
 20
-0.1373
 30
120.4235
 70
192
 0
VERTEX
 8
FULGOR
 10
1.0786
 20
-0.1373
 30
120.2402
 70
192
 0
VERTEX
 8
FULGOR
 10
1.1433
 20
-0.1373
 30
120.2376
 70
192
 0
VERTEX
 8
FULGOR
 10
0.8064
 20
-0.1373
 30
120.3165
 70
192
 0
VERTEX
 8
FULGOR
 10
1.3019
 20
-0.1373
 30
120.2529
 70
192
 0
VERTEX
 8
FULGOR
 10
0.8363
 20
-0.1373
 30
120.3002
 70
192
 0
VERTEX
 8
FULGOR
 10
0.8795
 20
-0.1373
 30
120.2817
 70
192
 0
VERTEX
 8
FULGOR
 10
0.9371
 20
-0.1373
 30
120.2637
 70
192
 0
VERTEX
 8
FULGOR
 10
1.0085
 20
-0.1373
 30
120.2487
 70
192
 0
VERTEX
 8
FULGOR
 10
1.2195
 20
-0.1373
 30
120.2412
 70
192
 0
VERTEX
 8
FULGOR
 10
1.5389
 20
-0.1373
 30
120.3633
 70
192
 0
VERTEX
 8
FULGOR
 10
1.3728
 20
-0.1373
 30
120.2703
 70
192
 0
VERTEX
 8
FULGOR
 10
1.429
 20
-0.1373
 30
120.2905
 70
192
 0
VERTEX
 8
FULGOR
 10
1.4704
 20
-0.1373
 30
120.3108
 70
192
 0
VERTEX
 8
FULGOR
 10
1.4987
 20
-0.1373
 30
120.3286
 70
192
 0
VERTEX
 8
FULGOR
 10
1.5239
 20
-0.1373
 30
120.3487
 70
192
 0
VERTEX
 8
FULGOR
 10
1.5869
 20
-0.1373
 30
120.4643
 70
192
 0
VERTEX
 8
FULGOR
 10
1.5883
 20
-0.1373
 30
120.4865
 70
192
 0
VERTEX
 8
FULGOR
 10
1.587
 20
-0.1373
 30
120.5088
 70
192
 0
VERTEX
 8
FULGOR
 10
1.5832
 20
-0.1373
 30
120.5298
 70
192
 0
VERTEX
 8
FULGOR
 10
1.5521
 20
-0.1373
 30
120.3791
 70
192
 0
VERTEX
 8
FULGOR
 10
1.5636
 20
-0.1373
 30
120.396
 70
192
 0
VERTEX
 8
FULGOR
 10
1.573
 20
-0.1373
 30
120.414
 70
192
 0
VERTEX
 8
FULGOR
 10
1.546
 20
-0.1373
 30
120.602
 70
192
 0
VERTEX
 8
FULGOR
 10
1.5319
 20
-0.1373
 30
120.6173
 70
192
 0
VERTEX
 8
FULGOR
 10
1.5077
 20
-0.1373
 30
120.6381
 70
192
 0
VERTEX
 8
FULGOR
 10
1.4804
 20
-0.1373
 30
120.6567
 70
192
 0
VERTEX
 8
FULGOR
 10
1.4504
 20
-0.1373
 30
120.673
 70
192
 0
VERTEX
 8
FULGOR
 10
1.4072
 20
-0.1373
 30
120.6915
 70
192
 0
VERTEX
 8
FULGOR
 10
1.5803
 20
-0.1373
 30
120.4332
 70
192
 0
VERTEX
 8
FULGOR
 10
1.5853
 20
-0.1373
 30
120.4536
 70
192
 0
VERTEX
 8
FULGOR
 10
1.5771
 20
-0.1373
 30
120.5496
 70
192
 0
VERTEX
 8
FULGOR
 10
1.5687
 20
-0.1373
 30
120.5682
 70
192
 0
VERTEX
 8
FULGOR
 10
1.0671
 20
-0.1373
 30
120.7322
 70
192
 0
VERTEX
 8
FULGOR
 10
1.5583
 20
-0.1373
 30
120.5857
 70
192
 0
VERTEX
 8
FULGOR
 10
1.3495
 20
-0.1373
 30
120.7096
 70
192
 0
VERTEX
 8
FULGOR
 10
1.2781
 20
-0.1373
 30
120.7247
 70
192
 0
VERTEX
 8
FULGOR
 10
1.2081
 20
-0.1373
 30
120.7331
 70
192
 0
VERTEX
 8
FULGOR
 10
0.7877
 20
-0.1373
 30
120.6448
 70
192
 0
VERTEX
 8
FULGOR
 10
0.7624
 20
-0.1373
 30
120.6248
 70
192
 0
VERTEX
 8
FULGOR
 10
0.7474
 20
-0.1373
 30
120.6101
 70
192
 0
VERTEX
 8
FULGOR
 10
0.7342
 20
-0.1373
 30
120.5943
 70
192
 0
VERTEX
 8
FULGOR
 10
0.7228
 20
-0.1373
 30
120.5774
 70
192
 0
VERTEX
 8
FULGOR
 10
0.7134
 20
-0.1373
 30
120.5593
 70
192
 0
VERTEX
 8
FULGOR
 10
0.7061
 20
-0.1373
 30
120.5401
 70
192
 0
VERTEX
 8
FULGOR
 10
1.1433
 20
-0.1373
 30
120.7358
 70
192
 0
VERTEX
 8
FULGOR
 10
0.6995
 20
-0.1373
 30
120.509
 70
192
 0
VERTEX
 8
FULGOR
 10
0.8982
 20
-0.1373
 30
120.4865
 70
192
 0
VERTEX
 8
FULGOR
 10
0.8987
 20
-0.1373
 30
120.4745
 70
192
 0
VERTEX
 8
FULGOR
 10
0.9846
 20
-0.1373
 30
120.7205
 70
192
 0
VERTEX
 8
FULGOR
 10
0.9137
 20
-0.1373
 30
120.7031
 70
192
 0
VERTEX
 8
FULGOR
 10
0.8574
 20
-0.1373
 30
120.6829
 70
192
 0
VERTEX
 8
FULGOR
 10
0.8159
 20
-0.1373
 30
120.6626
 70
192
 0
VERTEX
 8
FULGOR
 10
0.7011
 20
-0.1373
 30
120.5197
 70
192
 0
VERTEX
 8
FULGOR
 10
0.9227
 20
-0.1373
 30
120.4135
 70
192
 0
VERTEX
 8
FULGOR
 10
0.9298
 20
-0.1373
 30
120.4053
 70
192
 0
VERTEX
 8
FULGOR
 10
0.9003
 20
-0.1373
 30
120.4629
 70
192
 0
VERTEX
 8
FULGOR
 10
0.9029
 20
-0.1373
 30
120.452
 70
192
 0
VERTEX
 8
FULGOR
 10
0.9065
 20
-0.1373
 30
120.4416
 70
192
 0
VERTEX
 8
FULGOR
 10
0.911
 20
-0.1373
 30
120.4317
 70
192
 0
VERTEX
 8
FULGOR
 10
1.0189
 20
-0.1373
 30
120.3552
 70
192
 0
VERTEX
 8
FULGOR
 10
1.0528
 20
-0.1373
 30
120.3472
 70
192
 0
VERTEX
 8
FULGOR
 10
0.9164
 20
-0.1373
 30
120.4224
 70
192
 0
VERTEX
 8
FULGOR
 10
1.1433
 20
-0.1373
 30
120.3393
 70
192
 0
VERTEX
 8
FULGOR
 10
1.1974
 20
-0.1373
 30
120.342
 70
192
 0
VERTEX
 8
FULGOR
 10
0.942
 20
-0.1373
 30
120.3938
 70
192
 0
VERTEX
 8
FULGOR
 10
1.2742
 20
-0.1373
 30
120.3573
 70
192
 0
VERTEX
 8
FULGOR
 10
1.2986
 20
-0.1373
 30
120.3663
 70
192
 0
VERTEX
 8
FULGOR
 10
1.3207
 20
-0.1373
 30
120.3773
 70
192
 0
VERTEX
 8
FULGOR
 10
0.9558
 20
-0.1373
 30
120.3835
 70
192
 0
VERTEX
 8
FULGOR
 10
1.3489
 20
-0.1373
 30
120.3976
 70
192
 0
VERTEX
 8
FULGOR
 10
0.9712
 20
-0.1373
 30
120.3743
 70
192
 0
VERTEX
 8
FULGOR
 10
0.9939
 20
-0.1373
 30
120.3638
 70
192
 0
VERTEX
 8
FULGOR
 10
1.3731
 20
-0.1373
 30
120.427
 70
192
 0
VERTEX
 8
FULGOR
 10
1.0967
 20
-0.1373
 30
120.3413
 70
192
 0
VERTEX
 8
FULGOR
 10
1.2408
 20
-0.1373
 30
120.3486
 70
192
 0
VERTEX
 8
FULGOR
 10
1.3356
 20
-0.1373
 30
120.3869
 70
192
 0
VERTEX
 8
FULGOR
 10
1.3873
 20
-0.1373
 30
120.4687
 70
192
 0
VERTEX
 8
FULGOR
 10
1.388
 20
-0.1373
 30
120.4745
 70
192
 0
VERTEX
 8
FULGOR
 10
1.3885
 20
-0.1373
 30
120.4865
 70
192
 0
VERTEX
 8
FULGOR
 10
1.388
 20
-0.1373
 30
120.4986
 70
192
 0
VERTEX
 8
FULGOR
 10
1.3605
 20
-0.1373
 30
120.4094
 70
192
 0
VERTEX
 8
FULGOR
 10
1.3672
 20
-0.1373
 30
120.418
 70
192
 0
VERTEX
 8
FULGOR
 10
1.3802
 20
-0.1373
 30
120.5314
 70
192
 0
VERTEX
 8
FULGOR
 10
1.3757
 20
-0.1373
 30
120.5413
 70
192
 0
VERTEX
 8
FULGOR
 10
1.3781
 20
-0.1373
 30
120.4366
 70
192
 0
VERTEX
 8
FULGOR
 10
1.3821
 20
-0.1373
 30
120.4468
 70
192
 0
VERTEX
 8
FULGOR
 10
1.3568
 20
-0.1373
 30
120.5676
 70
192
 0
VERTEX
 8
FULGOR
 10
1.3852
 20
-0.1373
 30
120.4574
 70
192
 0
VERTEX
 8
FULGOR
 10
1.3864
 20
-0.1373
 30
120.5101
 70
192
 0
VERTEX
 8
FULGOR
 10
1.3154
 20
-0.1373
 30
120.5985
 70
192
 0
VERTEX
 8
FULGOR
 10
1.2926
 20
-0.1373
 30
120.6089
 70
192
 0
VERTEX
 8
FULGOR
 10
1.3838
 20
-0.1373
 30
120.521
 70
192
 0
VERTEX
 8
FULGOR
 10
1.3703
 20
-0.1373
 30
120.5506
 70
192
 0
VERTEX
 8
FULGOR
 10
1.364
 20
-0.1373
 30
120.5594
 70
192
 0
VERTEX
 8
FULGOR
 10
1.3446
 20
-0.1373
 30
120.579
 70
192
 0
VERTEX
 8
FULGOR
 10
1.0893
 20
-0.1373
 30
120.6307
 70
192
 0
VERTEX
 8
FULGOR
 10
1.0459
 20
-0.1373
 30
120.6242
 70
192
 0
VERTEX
 8
FULGOR
 10
1.0125
 20
-0.1373
 30
120.6156
 70
192
 0
VERTEX
 8
FULGOR
 10
1.3308
 20
-0.1373
 30
120.5893
 70
192
 0
VERTEX
 8
FULGOR
 10
1.2677
 20
-0.1373
 30
120.6175
 70
192
 0
VERTEX
 8
FULGOR
 10
1.2337
 20
-0.1373
 30
120.6255
 70
192
 0
VERTEX
 8
FULGOR
 10
1.1898
 20
-0.1373
 30
120.6314
 70
192
 0
VERTEX
 8
FULGOR
 10
1.1433
 20
-0.1373
 30
120.6333
 70
192
 0
VERTEX
 8
FULGOR
 10
0.9881
 20
-0.1373
 30
120.6066
 70
192
 0
VERTEX
 8
FULGOR
 10
0.966
 20
-0.1373
 30
120.5956
 70
192
 0
VERTEX
 8
FULGOR
 10
0.9511
 20
-0.1373
 30
120.5861
 70
192
 0
VERTEX
 8
FULGOR
 10
0.9378
 20
-0.1373
 30
120.5755
 70
192
 0
VERTEX
 8
FULGOR
 10
0.9262
 20
-0.1373
 30
120.5636
 70
192
 0
VERTEX
 8
FULGOR
 10
0.9195
 20
-0.1373
 30
120.5551
 70
192
 0
VERTEX
 8
FULGOR
 10
0.9136
 20
-0.1373
 30
120.5461
 70
192
 0
VERTEX
 8
FULGOR
 10
0.9086
 20
-0.1373
 30
120.5365
 70
192
 0
VERTEX
 8
FULGOR
 10
0.9046
 20
-0.1373
 30
120.5263
 70
192
 0
VERTEX
 8
FULGOR
 10
0.9015
 20
-0.1373
 30
120.5157
 70
192
 0
VERTEX
 8
FULGOR
 10
1.9943
 20
-0.1373
 30
120.448
 70
192
 0
VERTEX
 8
FULGOR
 10
0.8994
 20
-0.1373
 30
120.5044
 70
192
 0
VERTEX
 8
FULGOR
 10
0.8987
 20
-0.1373
 30
120.4986
 70
192
 0
VERTEX
 8
FULGOR
 10
1.7453
 20
-0.1373
 30
120.2361
 70
192
 0
VERTEX
 8
FULGOR
 10
1.9001
 20
-0.1373
 30
120.2361
 70
192
 0
VERTEX
 8
FULGOR
 10
1.9001
 20
-0.1373
 30
120.448
 70
192
 0
VERTEX
 8
FULGOR
 10
2.1035
 20
-0.1373
 30
120.3978
 70
192
 0
VERTEX
 8
FULGOR
 10
2.1155
 20
-0.1373
 30
120.385
 70
192
 0
VERTEX
 8
FULGOR
 10
2.2241
 20
-0.1373
 30
120.2361
 70
192
 0
VERTEX
 8
FULGOR
 10
2.5002
 20
-0.1373
 30
120.2361
 70
192
 0
VERTEX
 8
FULGOR
 10
2.4632
 20
-0.1373
 30
120.2555
 70
192
 0
VERTEX
 8
FULGOR
 10
2.0454
 20
-0.1373
 30
120.4376
 70
192
 0
VERTEX
 8
FULGOR
 10
2.0581
 20
-0.1373
 30
120.4317
 70
192
 0
VERTEX
 8
FULGOR
 10
2.4094
 20
-0.1373
 30
120.2926
 70
192
 0
VERTEX
 8
FULGOR
 10
2.3691
 20
-0.1373
 30
120.3302
 70
192
 0
VERTEX
 8
FULGOR
 10
1.7453
 20
-0.1373
 30
120.537
 70
192
 0
VERTEX
 8
FULGOR
 10
2.3178
 20
-0.1373
 30
120.3993
 70
192
 0
VERTEX
 8
FULGOR
 10
2.2929
 20
-0.1373
 30
120.4274
 70
192
 0
VERTEX
 8
FULGOR
 10
2.2693
 20
-0.1373
 30
120.4476
 70
192
 0
VERTEX
 8
FULGOR
 10
2.0882
 20
-0.1373
 30
120.4115
 70
192
 0
VERTEX
 8
FULGOR
 10
1.2618
 20
-0.1373
 30
120.2472
 70
192
 0
VERTEX
 8
FULGOR
 10
2.2126
 20
-0.1373
 30
120.4781
 70
192
 0
VERTEX
 8
FULGOR
 10
2.432
 20
-0.1373
 30
120.275
 70
192
 0
VERTEX
 8
FULGOR
 10
2.2875
 20
-0.1373
 30
120.5096
 70
192
 0
VERTEX
 8
FULGOR
 10
2.2465
 20
-0.1373
 30
120.4625
 70
192
 0
VERTEX
 8
FULGOR
 10
2.3139
 20
-0.1373
 30
120.5313
 70
192
 0
VERTEX
 8
FULGOR
 10
2.229
 20
-0.1373
 30
120.4717
 70
192
 0
VERTEX
 8
FULGOR
 10
2.3388
 20
-0.1373
 30
120.5698
 70
192
 0
VERTEX
 8
FULGOR
 10
2.3443
 20
-0.1373
 30
120.5911
 70
192
 0
VERTEX
 8
FULGOR
 10
2.2485
 20
-0.1373
 30
120.4895
 70
192
 0
VERTEX
 8
FULGOR
 10
2.342
 20
-0.1373
 30
120.6324
 70
192
 0
VERTEX
 8
FULGOR
 10
2.3328
 20
-0.1373
 30
120.6529
 70
192
 0
VERTEX
 8
FULGOR
 10
2.3186
 20
-0.1373
 30
120.6707
 70
192
 0
VERTEX
 8
FULGOR
 10
2.2952
 20
-0.1373
 30
120.6894
 70
192
 0
VERTEX
 8
FULGOR
 10
2.3295
 20
-0.1373
 30
120.5511
 70
192
 0
VERTEX
 8
FULGOR
 10
2.1818
 20
-0.1373
 30
120.729
 70
192
 0
VERTEX
 8
FULGOR
 10
2.1364
 20
-0.1373
 30
120.735
 70
192
 0
VERTEX
 8
FULGOR
 10
2.3455
 20
-0.1373
 30
120.609
 70
192
 0
VERTEX
 8
FULGOR
 10
1.9001
 20
-0.1373
 30
120.6481
 70
192
 0
VERTEX
 8
FULGOR
 10
2.2546
 20
-0.1373
 30
120.7096
 70
192
 0
VERTEX
 8
FULGOR
 10
2.092
 20
-0.1373
 30
120.7372
 70
192
 0
VERTEX
 8
FULGOR
 10
1.7453
 20
-0.1373
 30
120.7373
 70
192
 0
VERTEX
 8
FULGOR
 10
1.9001
 20
-0.1373
 30
120.5372
 70
192
 0
VERTEX
 8
FULGOR
 10
2.0412
 20
-0.1373
 30
120.537
 70
192
 0
VERTEX
 8
FULGOR
 10
2.0814
 20
-0.1373
 30
120.5403
 70
192
 0
VERTEX
 8
FULGOR
 10
2.1267
 20
-0.1373
 30
120.5566
 70
192
 0
VERTEX
 8
FULGOR
 10
2.1367
 20
-0.1373
 30
120.5647
 70
192
 0
VERTEX
 8
FULGOR
 10
2.1428
 20
-0.1373
 30
120.5725
 70
192
 0
VERTEX
 8
FULGOR
 10
2.1484
 20
-0.1373
 30
120.5998
 70
192
 0
VERTEX
 8
FULGOR
 10
2.1458
 20
-0.1373
 30
120.6096
 70
192
 0
VERTEX
 8
FULGOR
 10
2.0731
 20
-0.1373
 30
120.6463
 70
192
 0
VERTEX
 8
FULGOR
 10
2.1235
 20
-0.1373
 30
120.6324
 70
192
 0
VERTEX
 8
FULGOR
 10
2.0555
 20
-0.1373
 30
120.6478
 70
192
 0
VERTEX
 8
FULGOR
 10
2.1054
 20
-0.1373
 30
120.6399
 70
192
 0
VERTEX
 8
FULGOR
 10
2.091
 20
-0.1373
 30
120.6435
 70
192
 0
VERTEX
 8
FULGOR
 10
0.9723
 20
-0.1373
 30
120.2563
 70
192
 0
VERTEX
 8
FULGOR
 10
0.9113
 20
-0.1373
 30
120.2718
 70
192
 0
VERTEX
 8
FULGOR
 10
2.0365
 20
-0.1373
 30
120.6481
 70
192
 0
VERTEX
 8
FULGOR
 10
2.0334
 20
-0.1373
 30
120.7372
 70
192
 0
VERTEX
 8
FULGOR
 10
2.1406
 20
-0.1373
 30
120.618
 70
192
 0
VERTEX
 8
FULGOR
 10
2.1338
 20
-0.1373
 30
120.6251
 70
192
 0
VERTEX
 8
FULGOR
 10
2.1487
 20
-0.1373
 30
120.5903
 70
192
 0
VERTEX
 8
FULGOR
 10
2.1469
 20
-0.1373
 30
120.5813
 70
192
 0
VERTEX
 8
FULGOR
 10
1.9941
 20
-0.1373
 30
120.5371
 70
192
 0
VERTEX
 8
FULGOR
 10
2.2185
 20
-0.1373
 30
120.2439
 70
192
 0
VERTEX
 8
FULGOR
 10
2.2106
 20
-0.1373
 30
120.2549
 70
192
 0
VERTEX
 8
FULGOR
 10
0.1391
 20
-0.1373
 30
120.3448
 70
192
 0
VERTEX
 8
FULGOR
 10
2.1964
 20
-0.1373
 30
120.2745
 70
192
 0
VERTEX
 8
FULGOR
 10
2.1831
 20
-0.1373
 30
120.2928
 70
192
 0
VERTEX
 8
FULGOR
 10
0.1723
 20
-0.1373
 30
120.3406
 70
192
 0
VERTEX
 8
FULGOR
 10
1.7453
 20
-0.1373
 30
120.4478
 70
192
 0
VERTEX
 8
FULGOR
 10
2.1477
 20
-0.1373
 30
120.3418
 70
192
 0
VERTEX
 8
FULGOR
 10
2.1344
 20
-0.1373
 30
120.3602
 70
192
 0
VERTEX
 8
FULGOR
 10
0
 20
0
 30
0
 70
128
 71
5
 72
8
 73
7
 74
6
 0
VERTEX
 8
FULGOR
 10
0
 20
0
 30
0
 70
128
 71
8
 72
5
 73
4
 74
4
 0
VERTEX
 8
FULGOR
 10
0
 20
0
 30
0
 70
128
 71
13
 72
4
 73
15
 74
14
 0
VERTEX
 8
FULGOR
 10
0
 20
0
 30
0
 70
128
 71
13
 72
12
 73
2
 74
2
 0
VERTEX
 8
FULGOR
 10
0
 20
0
 30
0
 70
128
 71
8
 72
4
 73
13
 74
2
 0
VERTEX
 8
FULGOR
 10
0
 20
0
 30
0
 70
128
 71
16
 72
74
 73
73
 74
9
 0
VERTEX
 8
FULGOR
 10
0
 20
0
 30
0
 70
128
 71
73
 72
72
 73
10
 74
9
 0
VERTEX
 8
FULGOR
 10
0
 20
0
 30
0
 70
128
 71
72
 72
82
 73
11
 74
10
 0
VERTEX
 8
FULGOR
 10
0
 20
0
 30
0
 70
128
 71
82
 72
70
 73
18
 74
17
 0
VERTEX
 8
FULGOR
 10
0
 20
0
 30
0
 70
128
 71
70
 72
69
 73
20
 74
19
 0
VERTEX
 8
FULGOR
 10
0
 20
0
 30
0
 70
128
 71
69
 72
68
 73
27
 74
20
 0
VERTEX
 8
FULGOR
 10
0
 20
0
 30
0
 70
128
 71
68
 72
67
 73
29
 74
27
 0
VERTEX
 8
FULGOR
 10
0
 20
0
 30
0
 70
128
 71
67
 72
66
 73
30
 74
29
 0
VERTEX
 8
FULGOR
 10
0
 20
0
 30
0
 70
128
 71
66
 72
78
 73
31
 74
30
 0
VERTEX
 8
FULGOR
 10
0
 20
0
 30
0
 70
128
 71
78
 72
77
 73
32
 74
31
 0
VERTEX
 8
FULGOR
 10
0
 20
0
 30
0
 70
128
 71
32
 72
77
 73
76
 74
21
 0
VERTEX
 8
FULGOR
 10
0
 20
0
 30
0
 70
128
 71
76
 72
62
 73
21
 74
21
 0
VERTEX
 8
FULGOR
 10
0
 20
0
 30
0
 70
128
 71
62
 72
61
 73
22
 74
21
 0
VERTEX
 8
FULGOR
 10
0
 20
0
 30
0
 70
128
 71
61
 72
75
 73
22
 74
22
 0
VERTEX
 8
FULGOR
 10
0
 20
0
 30
0
 70
128
 71
75
 72
59
 73
23
 74
22
 0
VERTEX
 8
FULGOR
 10
0
 20
0
 30
0
 70
128
 71
23
 72
59
 73
71
 74
24
 0
VERTEX
 8
FULGOR
 10
0
 20
0
 30
0
 70
128
 71
24
 72
71
 73
65
 74
25
 0
VERTEX
 8
FULGOR
 10
0
 20
0
 30
0
 70
128
 71
65
 72
64
 73
25
 74
25
 0
VERTEX
 8
FULGOR
 10
0
 20
0
 30
0
 70
128
 71
64
 72
63
 73
26
 74
25
 0
VERTEX
 8
FULGOR
 10
0
 20
0
 30
0
 70
128
 71
63
 72
60
 73
26
 74
26
 0
VERTEX
 8
FULGOR
 10
0
 20
0
 30
0
 70
128
 71
60
 72
53
 73
34
 74
26
 0
VERTEX
 8
FULGOR
 10
0
 20
0
 30
0
 70
128
 71
53
 72
52
 73
34
 74
34
 0
VERTEX
 8
FULGOR
 10
0
 20
0
 30
0
 70
128
 71
52
 72
51
 73
28
 74
34
 0
VERTEX
 8
FULGOR
 10
0
 20
0
 30
0
 70
128
 71
51
 72
50
 73
35
 74
28
 0
VERTEX
 8
FULGOR
 10
0
 20
0
 30
0
 70
128
 71
50
 72
49
 73
36
 74
35
 0
VERTEX
 8
FULGOR
 10
0
 20
0
 30
0
 70
128
 71
36
 72
49
 73
48
 74
37
 0
VERTEX
 8
FULGOR
 10
0
 20
0
 30
0
 70
128
 71
37
 72
48
 73
47
 74
41
 0
VERTEX
 8
FULGOR
 10
0
 20
0
 30
0
 70
128
 71
33
 72
47
 73
46
 74
42
 0
VERTEX
 8
FULGOR
 10
0
 20
0
 30
0
 70
128
 71
42
 72
46
 73
45
 74
54
 0
VERTEX
 8
FULGOR
 10
0
 20
0
 30
0
 70
128
 71
55
 72
45
 73
44
 74
56
 0
VERTEX
 8
FULGOR
 10
0
 20
0
 30
0
 70
128
 71
44
 72
43
 73
38
 74
56
 0
VERTEX
 8
FULGOR
 10
0
 20
0
 30
0
 70
128
 71
43
 72
58
 73
39
 74
38
 0
VERTEX
 8
FULGOR
 10
0
 20
0
 30
0
 70
128
 71
58
 72
57
 73
40
 74
39
 0
VERTEX
 8
FULGOR
 10
0
 20
0
 30
0
 70
128
 71
45
 72
55
 73
54
 74
54
 0
VERTEX
 8
FULGOR
 10
0
 20
0
 30
0
 70
128
 71
47
 72
33
 73
41
 74
41
 0
VERTEX
 8
FULGOR
 10
0
 20
0
 30
0
 70
128
 71
70
 72
19
 73
18
 74
18
 0
VERTEX
 8
FULGOR
 10
0
 20
0
 30
0
 70
128
 71
82
 72
17
 73
11
 74
11
 0
VERTEX
 8
FULGOR
 10
0
 20
0
 30
0
 70
128
 71
83
 72
80
 73
79
 74
85
 0
VERTEX
 8
FULGOR
 10
0
 20
0
 30
0
 70
128
 71
79
 72
87
 73
86
 74
85
 0
VERTEX
 8
FULGOR
 10
0
 20
0
 30
0
 70
128
 71
244
 72
245
 73
188
 74
3
 0
VERTEX
 8
FULGOR
 10
0
 20
0
 30
0
 70
128
 71
137
 72
135
 73
127
 74
120
 0
VERTEX
 8
FULGOR
 10
0
 20
0
 30
0
 70
128
 71
287
 72
288
 73
220
 74
219
 0
VERTEX
 8
FULGOR
 10
0
 20
0
 30
0
 70
128
 71
135
 72
134
 73
128
 74
127
 0
VERTEX
 8
FULGOR
 10
0
 20
0
 30
0
 70
128
 71
145
 72
144
 73
106
 74
99
 0
VERTEX
 8
FULGOR
 10
0
 20
0
 30
0
 70
128
 71
152
 72
148
 73
115
 74
112
 0
VERTEX
 8
FULGOR
 10
0
 20
0
 30
0
 70
128
 71
288
 72
289
 73
221
 74
220
 0
VERTEX
 8
FULGOR
 10
0
 20
0
 30
0
 70
128
 71
155
 72
152
 73
112
 74
109
 0
VERTEX
 8
FULGOR
 10
0
 20
0
 30
0
 70
128
 71
141
 72
155
 73
109
 74
103
 0
VERTEX
 8
FULGOR
 10
0
 20
0
 30
0
 70
128
 71
289
 72
290
 73
230
 74
221
 0
VERTEX
 8
FULGOR
 10
0
 20
0
 30
0
 70
128
 71
290
 72
292
 73
223
 74
230
 0
VERTEX
 8
FULGOR
 10
0
 20
0
 30
0
 70
128
 71
142
 72
141
 73
103
 74
108
 0
VERTEX
 8
FULGOR
 10
0
 20
0
 30
0
 70
128
 71
143
 72
142
 73
108
 74
107
 0
VERTEX
 8
FULGOR
 10
0
 20
0
 30
0
 70
128
 71
144
 72
143
 73
107
 74
106
 0
VERTEX
 8
FULGOR
 10
0
 20
0
 30
0
 70
128
 71
254
 72
255
 73
207
 74
206
 0
VERTEX
 8
FULGOR
 10
0
 20
0
 30
0
 70
128
 71
265
 72
254
 73
206
 74
199
 0
VERTEX
 8
FULGOR
 10
0
 20
0
 30
0
 70
128
 71
263
 72
265
 73
199
 74
198
 0
VERTEX
 8
FULGOR
 10
0
 20
0
 30
0
 70
128
 71
251
 72
240
 73
179
 74
178
 0
VERTEX
 8
FULGOR
 10
0
 20
0
 30
0
 70
128
 71
237
 72
238
 73
185
 74
346
 0
VERTEX
 8
FULGOR
 10
0
 20
0
 30
0
 70
128
 71
339
 72
340
 73
321
 74
328
 0
VERTEX
 8
FULGOR
 10
0
 20
0
 30
0
 70
128
 71
161
 72
174
 73
84
 74
89
 0
VERTEX
 8
FULGOR
 10
0
 20
0
 30
0
 70
128
 71
174
 72
159
 73
90
 74
84
 0
VERTEX
 8
FULGOR
 10
0
 20
0
 30
0
 70
128
 71
249
 72
237
 73
346
 74
184
 0
VERTEX
 8
FULGOR
 10
0
 20
0
 30
0
 70
128
 71
248
 72
249
 73
184
 74
347
 0
VERTEX
 8
FULGOR
 10
0
 20
0
 30
0
 70
128
 71
159
 72
173
 73
95
 74
90
 0
VERTEX
 8
FULGOR
 10
0
 20
0
 30
0
 70
128
 71
173
 72
157
 73
96
 74
95
 0
VERTEX
 8
FULGOR
 10
0
 20
0
 30
0
 70
128
 71
246
 72
248
 73
347
 74
183
 0
VERTEX
 8
FULGOR
 10
0
 20
0
 30
0
 70
128
 71
362
 72
307
 73
305
 74
359
 0
VERTEX
 8
FULGOR
 10
0
 20
0
 30
0
 70
128
 71
151
 72
150
 73
94
 74
93
 0
VERTEX
 8
FULGOR
 10
0
 20
0
 30
0
 70
128
 71
353
 72
352
 73
319
 74
318
 0
VERTEX
 8
FULGOR
 10
0
 20
0
 30
0
 70
128
 71
175
 72
161
 73
89
 74
88
 0
VERTEX
 8
FULGOR
 10
0
 20
0
 30
0
 70
128
 71
253
 72
247
 73
190
 74
189
 0
VERTEX
 8
FULGOR
 10
0
 20
0
 30
0
 70
128
 71
153
 72
166
 73
92
 74
91
 0
VERTEX
 8
FULGOR
 10
0
 20
0
 30
0
 70
128
 71
166
 72
151
 73
93
 74
92
 0
VERTEX
 8
FULGOR
 10
0
 20
0
 30
0
 70
128
 71
273
 72
274
 73
226
 74
210
 0
VERTEX
 8
FULGOR
 10
0
 20
0
 30
0
 70
128
 71
163
 72
175
 73
88
 74
81
 0
VERTEX
 8
FULGOR
 10
0
 20
0
 30
0
 70
128
 71
167
 72
154
 73
101
 74
100
 0
VERTEX
 8
FULGOR
 10
0
 20
0
 30
0
 70
128
 71
154
 72
153
 73
91
 74
101
 0
VERTEX
 8
FULGOR
 10
0
 20
0
 30
0
 70
128
 71
274
 72
275
 73
227
 74
226
 0
VERTEX
 8
FULGOR
 10
0
 20
0
 30
0
 70
128
 71
275
 72
281
 73
228
 74
227
 0
VERTEX
 8
FULGOR
 10
0
 20
0
 30
0
 70
128
 71
157
 72
156
 73
97
 74
96
 0
VERTEX
 8
FULGOR
 10
0
 20
0
 30
0
 70
128
 71
291
 72
296
 73
333
 74
354
 0
VERTEX
 8
FULGOR
 10
0
 20
0
 30
0
 70
128
 71
281
 72
282
 73
229
 74
228
 0
VERTEX
 8
FULGOR
 10
0
 20
0
 30
0
 70
128
 71
282
 72
283
 73
215
 74
229
 0
VERTEX
 8
FULGOR
 10
0
 20
0
 30
0
 70
128
 71
283
 72
284
 73
216
 74
215
 0
VERTEX
 8
FULGOR
 10
0
 20
0
 30
0
 70
128
 71
129
 72
1
 73
118
 74
117
 0
VERTEX
 8
FULGOR
 10
0
 20
0
 30
0
 70
128
 71
238
 72
251
 73
178
 74
185
 0
VERTEX
 8
FULGOR
 10
0
 20
0
 30
0
 70
128
 71
245
 72
253
 73
189
 74
188
 0
VERTEX
 8
FULGOR
 10
0
 20
0
 30
0
 70
128
 71
337
 72
338
 73
325
 74
316
 0
VERTEX
 8
FULGOR
 10
0
 20
0
 30
0
 70
128
 71
336
 72
337
 73
316
 74
314
 0
VERTEX
 8
FULGOR
 10
0
 20
0
 30
0
 70
128
 71
241
 72
252
 73
311
 74
186
 0
VERTEX
 8
FULGOR
 10
0
 20
0
 30
0
 70
128
 71
156
 72
167
 73
100
 74
97
 0
VERTEX
 8
FULGOR
 10
0
 20
0
 30
0
 70
128
 71
149
 72
162
 73
104
 74
102
 0
VERTEX
 8
FULGOR
 10
0
 20
0
 30
0
 70
128
 71
162
 72
160
 73
105
 74
104
 0
VERTEX
 8
FULGOR
 10
0
 20
0
 30
0
 70
128
 71
266
 72
269
 73
196
 74
195
 0
VERTEX
 8
FULGOR
 10
0
 20
0
 30
0
 70
128
 71
360
 72
129
 73
117
 74
126
 0
VERTEX
 8
FULGOR
 10
0
 20
0
 30
0
 70
128
 71
134
 72
124
 73
131
 74
128
 0
VERTEX
 8
FULGOR
 10
0
 20
0
 30
0
 70
128
 71
334
 72
335
 73
320
 74
312
 0
VERTEX
 8
FULGOR
 10
0
 20
0
 30
0
 70
128
 71
308
 72
307
 73
362
 74
363
 0
VERTEX
 8
FULGOR
 10
0
 20
0
 30
0
 70
128
 71
139
 72
357
 73
114
 74
113
 0
VERTEX
 8
FULGOR
 10
0
 20
0
 30
0
 70
128
 71
305
 72
304
 73
358
 74
359
 0
VERTEX
 8
FULGOR
 10
0
 20
0
 30
0
 70
128
 71
335
 72
336
 73
314
 74
320
 0
VERTEX
 8
FULGOR
 10
0
 20
0
 30
0
 70
128
 71
355
 72
356
 73
313
 74
301
 0
VERTEX
 8
FULGOR
 10
0
 20
0
 30
0
 70
128
 71
301
 72
300
 73
299
 74
355
 0
VERTEX
 8
FULGOR
 10
0
 20
0
 30
0
 70
128
 71
352
 72
339
 73
328
 74
319
 0
VERTEX
 8
FULGOR
 10
0
 20
0
 30
0
 70
128
 71
343
 72
348
 73
349
 74
331
 0
VERTEX
 8
FULGOR
 10
0
 20
0
 30
0
 70
128
 71
342
 72
344
 73
330
 74
324
 0
VERTEX
 8
FULGOR
 10
0
 20
0
 30
0
 70
128
 71
262
 72
263
 73
198
 74
197
 0
VERTEX
 8
FULGOR
 10
0
 20
0
 30
0
 70
128
 71
303
 72
312
 73
317
 74
310
 0
VERTEX
 8
FULGOR
 10
0
 20
0
 30
0
 70
128
 71
250
 72
262
 73
197
 74
187
 0
VERTEX
 8
FULGOR
 10
0
 20
0
 30
0
 70
128
 71
291
 72
354
 73
334
 74
302
 0
VERTEX
 8
FULGOR
 10
0
 20
0
 30
0
 70
128
 71
341
 72
343
 73
331
 74
327
 0
VERTEX
 8
FULGOR
 10
0
 20
0
 30
0
 70
128
 71
150
 72
149
 73
102
 74
94
 0
VERTEX
 8
FULGOR
 10
0
 20
0
 30
0
 70
128
 71
1
 72
138
 73
119
 74
118
 0
VERTEX
 8
FULGOR
 10
0
 20
0
 30
0
 70
128
 71
338
 72
353
 73
318
 74
325
 0
VERTEX
 8
FULGOR
 10
0
 20
0
 30
0
 70
128
 71
280
 72
273
 73
210
 74
222
 0
VERTEX
 8
FULGOR
 10
0
 20
0
 30
0
 70
128
 71
285
 72
286
 73
218
 74
217
 0
VERTEX
 8
FULGOR
 10
0
 20
0
 30
0
 70
128
 71
160
 72
158
 73
98
 74
105
 0
VERTEX
 8
FULGOR
 10
0
 20
0
 30
0
 70
128
 71
138
 72
137
 73
120
 74
119
 0
VERTEX
 8
FULGOR
 10
0
 20
0
 30
0
 70
128
 71
286
 72
287
 73
219
 74
218
 0
VERTEX
 8
FULGOR
 10
0
 20
0
 30
0
 70
128
 71
261
 72
270
 73
211
 74
209
 0
VERTEX
 8
FULGOR
 10
0
 20
0
 30
0
 70
128
 71
348
 72
329
 73
332
 74
349
 0
VERTEX
 8
FULGOR
 10
0
 20
0
 30
0
 70
128
 71
329
 72
333
 73
306
 74
332
 0
VERTEX
 8
FULGOR
 10
0
 20
0
 30
0
 70
128
 71
333
 72
296
 73
361
 74
306
 0
VERTEX
 8
FULGOR
 10
0
 20
0
 30
0
 70
128
 71
296
 72
295
 73
294
 74
361
 0
VERTEX
 8
FULGOR
 10
0
 20
0
 30
0
 70
128
 71
358
 72
304
 73
313
 74
356
 0
VERTEX
 8
FULGOR
 10
0
 20
0
 30
0
 70
128
 71
148
 72
147
 73
116
 74
115
 0
VERTEX
 8
FULGOR
 10
0
 20
0
 30
0
 70
128
 71
158
 72
145
 73
99
 74
98
 0
VERTEX
 8
FULGOR
 10
0
 20
0
 30
0
 70
128
 71
260
 72
261
 73
209
 74
208
 0
VERTEX
 8
FULGOR
 10
0
 20
0
 30
0
 70
128
 71
269
 72
260
 73
208
 74
196
 0
VERTEX
 8
FULGOR
 10
0
 20
0
 30
0
 70
128
 71
276
 72
267
 73
204
 74
203
 0
VERTEX
 8
FULGOR
 10
0
 20
0
 30
0
 70
128
 71
232
 72
242
 73
182
 74
180
 0
VERTEX
 8
FULGOR
 10
0
 20
0
 30
0
 70
128
 71
242
 72
246
 73
183
 74
182
 0
VERTEX
 8
FULGOR
 10
0
 20
0
 30
0
 70
128
 71
272
 72
276
 73
203
 74
202
 0
VERTEX
 8
FULGOR
 10
0
 20
0
 30
0
 70
128
 71
264
 72
272
 73
202
 74
201
 0
VERTEX
 8
FULGOR
 10
0
 20
0
 30
0
 70
128
 71
240
 72
241
 73
186
 74
179
 0
VERTEX
 8
FULGOR
 10
0
 20
0
 30
0
 70
128
 71
147
 72
136
 73
121
 74
116
 0
VERTEX
 8
FULGOR
 10
0
 20
0
 30
0
 70
128
 71
340
 72
350
 73
322
 74
321
 0
VERTEX
 8
FULGOR
 10
0
 20
0
 30
0
 70
128
 71
303
 72
302
 73
334
 74
312
 0
VERTEX
 8
FULGOR
 10
0
 20
0
 30
0
 70
128
 71
345
 72
341
 73
327
 74
326
 0
VERTEX
 8
FULGOR
 10
0
 20
0
 30
0
 70
128
 71
252
 72
243
 73
181
 74
311
 0
VERTEX
 8
FULGOR
 10
0
 20
0
 30
0
 70
128
 71
344
 72
345
 73
326
 74
330
 0
VERTEX
 8
FULGOR
 10
0
 20
0
 30
0
 70
128
 71
231
 72
232
 73
180
 74
172
 0
VERTEX
 8
FULGOR
 10
0
 20
0
 30
0
 70
128
 71
257
 72
266
 73
195
 74
194
 0
VERTEX
 8
FULGOR
 10
0
 20
0
 30
0
 70
128
 71
256
 72
257
 73
194
 74
193
 0
VERTEX
 8
FULGOR
 10
0
 20
0
 30
0
 70
128
 71
297
 72
310
 73
317
 74
315
 0
VERTEX
 8
FULGOR
 10
0
 20
0
 30
0
 70
128
 71
357
 72
130
 73
125
 74
114
 0
VERTEX
 8
FULGOR
 10
0
 20
0
 30
0
 70
128
 71
255
 72
256
 73
193
 74
207
 0
VERTEX
 8
FULGOR
 10
0
 20
0
 30
0
 70
128
 71
298
 72
297
 73
315
 74
309
 0
VERTEX
 8
FULGOR
 10
0
 20
0
 30
0
 70
128
 71
298
 72
309
 73
308
 74
363
 0
VERTEX
 8
FULGOR
 10
0
 20
0
 30
0
 70
128
 71
243
 72
244
 73
3
 74
181
 0
VERTEX
 8
FULGOR
 10
0
 20
0
 30
0
 70
128
 71
259
 72
250
 73
187
 74
192
 0
VERTEX
 8
FULGOR
 10
0
 20
0
 30
0
 70
128
 71
279
 72
280
 73
222
 74
214
 0
VERTEX
 8
FULGOR
 10
0
 20
0
 30
0
 70
128
 71
278
 72
279
 73
214
 74
213
 0
VERTEX
 8
FULGOR
 10
0
 20
0
 30
0
 70
128
 71
258
 72
259
 73
192
 74
191
 0
VERTEX
 8
FULGOR
 10
0
 20
0
 30
0
 70
128
 71
247
 72
258
 73
191
 74
190
 0
VERTEX
 8
FULGOR
 10
0
 20
0
 30
0
 70
128
 71
351
 72
342
 73
324
 74
323
 0
VERTEX
 8
FULGOR
 10
0
 20
0
 30
0
 70
128
 71
350
 72
351
 73
323
 74
322
 0
VERTEX
 8
FULGOR
 10
0
 20
0
 30
0
 70
128
 71
284
 72
285
 73
217
 74
216
 0
VERTEX
 8
FULGOR
 10
0
 20
0
 30
0
 70
128
 71
136
 72
146
 73
122
 74
121
 0
VERTEX
 8
FULGOR
 10
0
 20
0
 30
0
 70
128
 71
146
 72
140
 73
110
 74
122
 0
VERTEX
 8
FULGOR
 10
0
 20
0
 30
0
 70
128
 71
130
 72
360
 73
126
 74
125
 0
VERTEX
 8
FULGOR
 10
0
 20
0
 30
0
 70
128
 71
140
 72
133
 73
111
 74
110
 0
VERTEX
 8
FULGOR
 10
0
 20
0
 30
0
 70
128
 71
133
 72
132
 73
123
 74
111
 0
VERTEX
 8
FULGOR
 10
0
 20
0
 30
0
 70
128
 71
132
 72
139
 73
113
 74
123
 0
VERTEX
 8
FULGOR
 10
0
 20
0
 30
0
 70
128
 71
292
 72
293
 73
164
 74
223
 0
VERTEX
 8
FULGOR
 10
0
 20
0
 30
0
 70
128
 71
293
 72
224
 73
165
 74
164
 0
VERTEX
 8
FULGOR
 10
0
 20
0
 30
0
 70
128
 71
224
 72
225
 73
176
 74
165
 0
VERTEX
 8
FULGOR
 10
0
 20
0
 30
0
 70
128
 71
225
 72
233
 73
177
 74
176
 0
VERTEX
 8
FULGOR
 10
0
 20
0
 30
0
 70
128
 71
233
 72
234
 73
168
 74
177
 0
VERTEX
 8
FULGOR
 10
0
 20
0
 30
0
 70
128
 71
234
 72
235
 73
169
 74
168
 0
VERTEX
 8
FULGOR
 10
0
 20
0
 30
0
 70
128
 71
235
 72
236
 73
170
 74
169
 0
VERTEX
 8
FULGOR
 10
0
 20
0
 30
0
 70
128
 71
236
 72
239
 73
171
 74
170
 0
VERTEX
 8
FULGOR
 10
0
 20
0
 30
0
 70
128
 71
239
 72
231
 73
172
 74
171
 0
VERTEX
 8
FULGOR
 10
0
 20
0
 30
0
 70
128
 71
213
 72
212
 73
277
 74
278
 0
VERTEX
 8
FULGOR
 10
0
 20
0
 30
0
 70
128
 71
212
 72
205
 73
268
 74
277
 0
VERTEX
 8
FULGOR
 10
0
 20
0
 30
0
 70
128
 71
267
 72
268
 73
205
 74
204
 0
VERTEX
 8
FULGOR
 10
0
 20
0
 30
0
 70
128
 71
270
 72
271
 73
200
 74
211
 0
VERTEX
 8
FULGOR
 10
0
 20
0
 30
0
 70
128
 71
271
 72
264
 73
201
 74
200
 0
SEQEND
 0
POLYLINE
 8
MILANO
 66
1
 10
0.0
 20
0.0
 30
0.0
 70
64
 71
93
 72
47
 0
VERTEX
 8
MILANO
 10
0.2468
 20
-0.1373
 30
119.901
 70
192
 0
VERTEX
 8
MILANO
 10
0.6788
 20
-0.1373
 30
119.7315
 70
192
 0
VERTEX
 8
MILANO
 10
0.6833
 20
-0.1373
 30
119.6925
 70
192
 0
VERTEX
 8
MILANO
 10
0.6997
 20
-0.1373
 30
119.6571
 70
192
 0
VERTEX
 8
MILANO
 10
0.7272
 20
-0.1373
 30
119.6294
 70
192
 0
VERTEX
 8
MILANO
 10
0.7614
 20
-0.1373
 30
119.6105
 70
192
 0
VERTEX
 8
MILANO
 10
0.7989
 20
-0.1373
 30
119.5995
 70
192
 0
VERTEX
 8
MILANO
 10
0.8377
 20
-0.1373
 30
119.5953
 70
192
 0
VERTEX
 8
MILANO
 10
0.5157
 20
-0.1373
 30
119.6472
 70
192
 0
VERTEX
 8
MILANO
 10
0.8767
 20
-0.1373
 30
119.5983
 70
192
 0
VERTEX
 8
MILANO
 10
0.9143
 20
-0.1373
 30
119.6087
 70
192
 0
VERTEX
 8
MILANO
 10
0.9483
 20
-0.1373
 30
119.6278
 70
192
 0
VERTEX
 8
MILANO
 10
0.0833
 20
-0.1373
 30
119.6696
 70
192
 0
VERTEX
 8
MILANO
 10
0.1447
 20
-0.1373
 30
119.5591
 70
192
 0
VERTEX
 8
MILANO
 10
0.1951
 20
-0.1373
 30
119.5591
 70
192
 0
VERTEX
 8
MILANO
 10
0.9749
 20
-0.1373
 30
119.6564
 70
192
 0
VERTEX
 8
MILANO
 10
0.9921
 20
-0.1373
 30
119.6915
 70
192
 0
VERTEX
 8
MILANO
 10
-0.195
 20
-0.1373
 30
119.5591
 70
192
 0
VERTEX
 8
MILANO
 10
-0.06
 20
-0.1373
 30
119.7076
 70
192
 0
VERTEX
 8
MILANO
 10
0.0627
 20
-0.1373
 30
119.7076
 70
192
 0
VERTEX
 8
MILANO
 10
0.9977
 20
-0.1373
 30
119.7302
 70
192
 0
VERTEX
 8
MILANO
 10
0.9927
 20
-0.1373
 30
119.7691
 70
192
 0
VERTEX
 8
MILANO
 10
0.9761
 20
-0.1373
 30
119.8045
 70
192
 0
VERTEX
 8
MILANO
 10
-0.3634
 20
-0.1373
 30
119.901
 70
192
 0
VERTEX
 8
MILANO
 10
-0.3634
 20
-0.1373
 30
119.5963
 70
192
 0
VERTEX
 8
MILANO
 10
0.9494
 20
-0.1373
 30
119.8329
 70
192
 0
VERTEX
 8
MILANO
 10
0.9153
 20
-0.1373
 30
119.852
 70
192
 0
VERTEX
 8
MILANO
 10
0.8777
 20
-0.1373
 30
119.8624
 70
192
 0
VERTEX
 8
MILANO
 10
-0.5348
 20
-0.1373
 30
119.901
 70
192
 0
VERTEX
 8
MILANO
 10
-0.4922
 20
-0.1373
 30
119.901
 70
192
 0
VERTEX
 8
MILANO
 10
-0.4922
 20
-0.1373
 30
119.5591
 70
192
 0
VERTEX
 8
MILANO
 10
-0.5348
 20
-0.1373
 30
119.5591
 70
192
 0
VERTEX
 8
MILANO
 10
-1.0466
 20
-0.1373
 30
119.5591
 70
192
 0
VERTEX
 8
MILANO
 10
-0.9936
 20
-0.1373
 30
119.9031
 70
192
 0
VERTEX
 8
MILANO
 10
-0.6709
 20
-0.1373
 30
119.9031
 70
192
 0
VERTEX
 8
MILANO
 10
-0.6551
 20
-0.1373
 30
119.9031
 70
192
 0
VERTEX
 8
MILANO
 10
-0.5992
 20
-0.1373
 30
119.5591
 70
192
 0
VERTEX
 8
MILANO
 10
-0.6454
 20
-0.1373
 30
119.5591
 70
192
 0
VERTEX
 8
MILANO
 10
-0.8326
 20
-0.1373
 30
119.5591
 70
192
 0
VERTEX
 8
MILANO
 10
-0.9675
 20
-0.1373
 30
119.7899
 70
192
 0
VERTEX
 8
MILANO
 10
-0.212
 20
-0.1373
 30
119.5963
 70
192
 0
VERTEX
 8
MILANO
 10
-0.212
 20
-0.1373
 30
119.5591
 70
192
 0
VERTEX
 8
MILANO
 10
-0.4053
 20
-0.1373
 30
119.5591
 70
192
 0
VERTEX
 8
MILANO
 10
-0.9833
 20
-0.1373
 30
119.9031
 70
192
 0
VERTEX
 8
MILANO
 10
-0.8241
 20
-0.1373
 30
119.6293
 70
192
 0
VERTEX
 8
MILANO
 10
-0.6824
 20
-0.1373
 30
119.7899
 70
192
 0
VERTEX
 8
MILANO
 10
-0.8119
 20
-0.1373
 30
119.5591
 70
192
 0
VERTEX
 8
MILANO
 10
-1.0009
 20
-0.1373
 30
119.5591
 70
192
 0
VERTEX
 8
MILANO
 10
0.8389
 20
-0.1373
 30
119.9068
 70
192
 0
VERTEX
 8
MILANO
 10
0.7879
 20
-0.1373
 30
119.904
 70
192
 0
VERTEX
 8
MILANO
 10
0.7384
 20
-0.1373
 30
119.8916
 70
192
 0
VERTEX
 8
MILANO
 10
0.6947
 20
-0.1373
 30
119.8655
 70
192
 0
VERTEX
 8
MILANO
 10
0.6596
 20
-0.1373
 30
119.8282
 70
192
 0
VERTEX
 8
MILANO
 10
0.6368
 20
-0.1373
 30
119.7825
 70
192
 0
VERTEX
 8
MILANO
 10
0.6297
 20
-0.1373
 30
119.7318
 70
192
 0
VERTEX
 8
MILANO
 10
0.6357
 20
-0.1373
 30
119.6809
 70
192
 0
VERTEX
 8
MILANO
 10
0.6571
 20
-0.1373
 30
119.6346
 70
192
 0
VERTEX
 8
MILANO
 10
0.6931
 20
-0.1373
 30
119.5983
 70
192
 0
VERTEX
 8
MILANO
 10
0.7378
 20
-0.1373
 30
119.5737
 70
192
 0
VERTEX
 8
MILANO
 10
0.7868
 20
-0.1373
 30
119.5593
 70
192
 0
VERTEX
 8
MILANO
 10
0.8376
 20
-0.1373
 30
119.5537
 70
192
 0
VERTEX
 8
MILANO
 10
0.8885
 20
-0.1373
 30
119.5576
 70
192
 0
VERTEX
 8
MILANO
 10
0.9377
 20
-0.1373
 30
119.5713
 70
192
 0
VERTEX
 8
MILANO
 10
0.9822
 20
-0.1373
 30
119.5963
 70
192
 0
VERTEX
 8
MILANO
 10
1.017
 20
-0.1373
 30
119.6336
 70
192
 0
VERTEX
 8
MILANO
 10
1.0395
 20
-0.1373
 30
119.6795
 70
192
 0
VERTEX
 8
MILANO
 10
1.0468
 20
-0.1373
 30
119.7302
 70
192
 0
VERTEX
 8
MILANO
 10
1.0402
 20
-0.1373
 30
119.781
 70
192
 0
VERTEX
 8
MILANO
 10
1.0186
 20
-0.1373
 30
119.8273
 70
192
 0
VERTEX
 8
MILANO
 10
0.9836
 20
-0.1373
 30
119.8645
 70
192
 0
VERTEX
 8
MILANO
 10
0.2468
 20
-0.1373
 30
119.5591
 70
192
 0
VERTEX
 8
MILANO
 10
0.2915
 20
-0.1373
 30
119.5591
 70
192
 0
VERTEX
 8
MILANO
 10
0.2915
 20
-0.1373
 30
119.8083
 70
192
 0
VERTEX
 8
MILANO
 10
0.5454
 20
-0.1373
 30
119.5591
 70
192
 0
VERTEX
 8
MILANO
 10
0.5599
 20
-0.1373
 30
119.5591
 70
192
 0
VERTEX
 8
MILANO
 10
0.5599
 20
-0.1373
 30
119.901
 70
192
 0
VERTEX
 8
MILANO
 10
0.5152
 20
-0.1373
 30
119.901
 70
192
 0
VERTEX
 8
MILANO
 10
0.9391
 20
-0.1373
 30
119.8894
 70
192
 0
VERTEX
 8
MILANO
 10
0.2634
 20
-0.1373
 30
119.901
 70
192
 0
VERTEX
 8
MILANO
 10
-0.1389
 20
-0.1373
 30
119.5591
 70
192
 0
VERTEX
 8
MILANO
 10
-0.082
 20
-0.1373
 30
119.6696
 70
192
 0
VERTEX
 8
MILANO
 10
0.8898
 20
-0.1373
 30
119.903
 70
192
 0
VERTEX
 8
MILANO
 10
0.8387
 20
-0.1373
 30
119.8652
 70
192
 0
VERTEX
 8
MILANO
 10
0.7997
 20
-0.1373
 30
119.8631
 70
192
 0
VERTEX
 8
MILANO
 10
0.0082
 20
-0.1373
 30
119.901
 70
192
 0
VERTEX
 8
MILANO
 10
-0.0062
 20
-0.1373
 30
119.901
 70
192
 0
VERTEX
 8
MILANO
 10
0.7619
 20
-0.1373
 30
119.8536
 70
192
 0
VERTEX
 8
MILANO
 10
0.7285
 20
-0.1373
 30
119.8337
 70
192
 0
VERTEX
 8
MILANO
 10
0.7016
 20
-0.1373
 30
119.8052
 70
192
 0
VERTEX
 8
MILANO
 10
0.0057
 20
-0.1373
 30
119.817
 70
192
 0
VERTEX
 8
MILANO
 10
-0.0043
 20
-0.1373
 30
119.817
 70
192
 0
VERTEX
 8
MILANO
 10
-0.409
 20
-0.1373
 30
119.901
 70
192
 0
VERTEX
 8
MILANO
 10
0.6842
 20
-0.1373
 30
119.7702
 70
192
 0
VERTEX
 8
MILANO
 10
0
 20
0
 30
0
 70
128
 71
1
 72
79
 73
73
 74
73
 0
VERTEX
 8
MILANO
 10
0
 20
0
 30
0
 70
128
 71
73
 72
79
 73
9
 74
74
 0
VERTEX
 8
MILANO
 10
0
 20
0
 30
0
 70
128
 71
76
 72
75
 73
9
 74
77
 0
VERTEX
 8
MILANO
 10
0
 20
0
 30
0
 70
128
 71
9
 72
75
 73
74
 74
74
 0
VERTEX
 8
MILANO
 10
0
 20
0
 30
0
 70
128
 71
71
 72
1
 73
73
 74
72
 0
VERTEX
 8
MILANO
 10
0
 20
0
 30
0
 70
128
 71
80
 72
18
 73
81
 74
81
 0
VERTEX
 8
MILANO
 10
0
 20
0
 30
0
 70
128
 71
18
 72
86
 73
19
 74
81
 0
VERTEX
 8
MILANO
 10
0
 20
0
 30
0
 70
128
 71
86
 72
85
 73
90
 74
91
 0
VERTEX
 8
MILANO
 10
0
 20
0
 30
0
 70
128
 71
85
 72
15
 73
20
 74
90
 0
VERTEX
 8
MILANO
 10
0
 20
0
 30
0
 70
128
 71
15
 72
14
 73
13
 74
13
 0
VERTEX
 8
MILANO
 10
0
 20
0
 30
0
 70
128
 71
13
 72
81
 73
19
 74
20
 0
VERTEX
 8
MILANO
 10
0
 20
0
 30
0
 70
128
 71
86
 72
91
 73
19
 74
19
 0
VERTEX
 8
MILANO
 10
0
 20
0
 30
0
 70
128
 71
15
 72
13
 73
20
 74
20
 0
VERTEX
 8
MILANO
 10
0
 20
0
 30
0
 70
128
 71
92
 72
24
 73
25
 74
43
 0
VERTEX
 8
MILANO
 10
0
 20
0
 30
0
 70
128
 71
25
 72
41
 73
42
 74
43
 0
VERTEX
 8
MILANO
 10
0
 20
0
 30
0
 70
128
 71
33
 72
34
 73
40
 74
48
 0
VERTEX
 8
MILANO
 10
0
 20
0
 30
0
 70
128
 71
34
 72
44
 73
40
 74
40
 0
VERTEX
 8
MILANO
 10
0
 20
0
 30
0
 70
128
 71
40
 72
44
 73
45
 74
39
 0
VERTEX
 8
MILANO
 10
0
 20
0
 30
0
 70
128
 71
45
 72
35
 73
46
 74
47
 0
VERTEX
 8
MILANO
 10
0
 20
0
 30
0
 70
128
 71
35
 72
36
 73
46
 74
46
 0
VERTEX
 8
MILANO
 10
0
 20
0
 30
0
 70
128
 71
46
 72
36
 73
37
 74
38
 0
VERTEX
 8
MILANO
 10
0
 20
0
 30
0
 70
128
 71
45
 72
47
 73
39
 74
39
 0
VERTEX
 8
MILANO
 10
0
 20
0
 30
0
 70
128
 71
29
 72
30
 73
31
 74
32
 0
VERTEX
 8
MILANO
 10
0
 20
0
 30
0
 70
128
 71
50
 72
49
 73
83
 74
84
 0
VERTEX
 8
MILANO
 10
0
 20
0
 30
0
 70
128
 71
51
 72
50
 73
84
 74
87
 0
VERTEX
 8
MILANO
 10
0
 20
0
 30
0
 70
128
 71
5
 72
6
 73
59
 74
58
 0
VERTEX
 8
MILANO
 10
0
 20
0
 30
0
 70
128
 71
28
 72
83
 73
49
 74
82
 0
VERTEX
 8
MILANO
 10
0
 20
0
 30
0
 70
128
 71
27
 72
28
 73
82
 74
78
 0
VERTEX
 8
MILANO
 10
0
 20
0
 30
0
 70
128
 71
26
 72
27
 73
78
 74
70
 0
VERTEX
 8
MILANO
 10
0
 20
0
 30
0
 70
128
 71
23
 72
26
 73
70
 74
69
 0
VERTEX
 8
MILANO
 10
0
 20
0
 30
0
 70
128
 71
6
 72
7
 73
60
 74
59
 0
VERTEX
 8
MILANO
 10
0
 20
0
 30
0
 70
128
 71
7
 72
8
 73
61
 74
60
 0
VERTEX
 8
MILANO
 10
0
 20
0
 30
0
 70
128
 71
22
 72
23
 73
69
 74
68
 0
VERTEX
 8
MILANO
 10
0
 20
0
 30
0
 70
128
 71
21
 72
22
 73
68
 74
67
 0
VERTEX
 8
MILANO
 10
0
 20
0
 30
0
 70
128
 71
17
 72
21
 73
67
 74
66
 0
VERTEX
 8
MILANO
 10
0
 20
0
 30
0
 70
128
 71
16
 72
17
 73
66
 74
65
 0
VERTEX
 8
MILANO
 10
0
 20
0
 30
0
 70
128
 71
12
 72
16
 73
65
 74
64
 0
VERTEX
 8
MILANO
 10
0
 20
0
 30
0
 70
128
 71
11
 72
12
 73
64
 74
63
 0
VERTEX
 8
MILANO
 10
0
 20
0
 30
0
 70
128
 71
10
 72
11
 73
63
 74
62
 0
VERTEX
 8
MILANO
 10
0
 20
0
 30
0
 70
128
 71
4
 72
5
 73
58
 74
57
 0
VERTEX
 8
MILANO
 10
0
 20
0
 30
0
 70
128
 71
57
 72
56
 73
3
 74
4
 0
VERTEX
 8
MILANO
 10
0
 20
0
 30
0
 70
128
 71
56
 72
55
 73
2
 74
3
 0
VERTEX
 8
MILANO
 10
0
 20
0
 30
0
 70
128
 71
55
 72
54
 73
93
 74
2
 0
VERTEX
 8
MILANO
 10
0
 20
0
 30
0
 70
128
 71
54
 72
53
 73
89
 74
93
 0
VERTEX
 8
MILANO
 10
0
 20
0
 30
0
 70
128
 71
53
 72
52
 73
88
 74
89
 0
VERTEX
 8
MILANO
 10
0
 20
0
 30
0
 70
128
 71
52
 72
51
 73
87
 74
88
 0
VERTEX
 8
MILANO
 10
0
 20
0
 30
0
 70
128
 71
8
 72
10
 73
62
 74
61
 0
SEQEND
 0
POLYLINE
 8
CORNICE_DISPLAY
 66
1
 10
0.0
 20
0.0
 30
0.0
 70
64
 71
32
 72
32
 0
VERTEX
 8
CORNICE_DISPLAY
 10
-8.5027
 20
-0.2099
 30
151.0873
 70
192
 0
VERTEX
 8
CORNICE_DISPLAY
 10
-8.5027
 20
-0.2099
 30
158.0926
 70
192
 0
VERTEX
 8
CORNICE_DISPLAY
 10
8.5027
 20
-0.2099
 30
151.0873
 70
192
 0
VERTEX
 8
CORNICE_DISPLAY
 10
8.5027
 20
-0.2099
 30
158.0926
 70
192
 0
VERTEX
 8
CORNICE_DISPLAY
 10
8.5027
 20
0.3701
 30
151.0873
 70
192
 0
VERTEX
 8
CORNICE_DISPLAY
 10
8.5027
 20
0.3701
 30
158.0926
 70
192
 0
VERTEX
 8
CORNICE_DISPLAY
 10
-8.5027
 20
0.3701
 30
151.0873
 70
192
 0
VERTEX
 8
CORNICE_DISPLAY
 10
-8.5027
 20
0.3701
 30
158.0926
 70
192
 0
VERTEX
 8
CORNICE_DISPLAY
 10
-8.199
 20
-0.2099
 30
158.0926
 70
192
 0
VERTEX
 8
CORNICE_DISPLAY
 10
-8.199
 20
-0.2099
 30
151.0873
 70
192
 0
VERTEX
 8
CORNICE_DISPLAY
 10
-8.199
 20
0.3701
 30
158.0926
 70
192
 0
VERTEX
 8
CORNICE_DISPLAY
 10
-8.199
 20
0.3701
 30
151.0873
 70
192
 0
VERTEX
 8
CORNICE_DISPLAY
 10
-8.5027
 20
-0.2099
 30
151.3872
 70
192
 0
VERTEX
 8
CORNICE_DISPLAY
 10
-8.199
 20
-0.2099
 30
151.3872
 70
192
 0
VERTEX
 8
CORNICE_DISPLAY
 10
8.5027
 20
-0.2099
 30
151.3872
 70
192
 0
VERTEX
 8
CORNICE_DISPLAY
 10
8.5027
 20
0.3701
 30
151.3872
 70
192
 0
VERTEX
 8
CORNICE_DISPLAY
 10
-8.199
 20
0.3701
 30
151.3872
 70
192
 0
VERTEX
 8
CORNICE_DISPLAY
 10
-8.5027
 20
0.3701
 30
151.3872
 70
192
 0
VERTEX
 8
CORNICE_DISPLAY
 10
8.1989
 20
0.3701
 30
151.3872
 70
192
 0
VERTEX
 8
CORNICE_DISPLAY
 10
8.1989
 20
0.3701
 30
151.0873
 70
192
 0
VERTEX
 8
CORNICE_DISPLAY
 10
8.1989
 20
-0.2099
 30
158.0926
 70
192
 0
VERTEX
 8
CORNICE_DISPLAY
 10
8.1989
 20
-0.2099
 30
151.3872
 70
192
 0
VERTEX
 8
CORNICE_DISPLAY
 10
8.1989
 20
0.3701
 30
158.0926
 70
192
 0
VERTEX
 8
CORNICE_DISPLAY
 10
8.1989
 20
-0.2099
 30
151.0873
 70
192
 0
VERTEX
 8
CORNICE_DISPLAY
 10
8.1989
 20
-0.2099
 30
157.7924
 70
192
 0
VERTEX
 8
CORNICE_DISPLAY
 10
-8.199
 20
-0.2099
 30
157.7924
 70
192
 0
VERTEX
 8
CORNICE_DISPLAY
 10
-8.5027
 20
0.3701
 30
157.7924
 70
192
 0
VERTEX
 8
CORNICE_DISPLAY
 10
-8.199
 20
0.3701
 30
157.7924
 70
192
 0
VERTEX
 8
CORNICE_DISPLAY
 10
-8.5027
 20
-0.2099
 30
157.7924
 70
192
 0
VERTEX
 8
CORNICE_DISPLAY
 10
8.5027
 20
-0.2099
 30
157.7924
 70
192
 0
VERTEX
 8
CORNICE_DISPLAY
 10
8.5027
 20
0.3701
 30
157.7924
 70
192
 0
VERTEX
 8
CORNICE_DISPLAY
 10
8.1989
 20
0.3701
 30
157.7924
 70
192
 0
VERTEX
 8
CORNICE_DISPLAY
 10
0
 20
0
 30
0
 70
128
 71
1
 72
13
 73
14
 74
10
 0
VERTEX
 8
CORNICE_DISPLAY
 10
0
 20
0
 30
0
 70
128
 71
3
 72
15
 73
16
 74
5
 0
VERTEX
 8
CORNICE_DISPLAY
 10
0
 20
0
 30
0
 70
128
 71
5
 72
16
 73
19
 74
20
 0
VERTEX
 8
CORNICE_DISPLAY
 10
0
 20
0
 30
0
 70
128
 71
7
 72
18
 73
13
 74
1
 0
VERTEX
 8
CORNICE_DISPLAY
 10
0
 20
0
 30
0
 70
128
 71
2
 72
8
 73
11
 74
9
 0
VERTEX
 8
CORNICE_DISPLAY
 10
0
 20
0
 30
0
 70
128
 71
7
 72
1
 73
10
 74
12
 0
VERTEX
 8
CORNICE_DISPLAY
 10
0
 20
0
 30
0
 70
128
 71
9
 72
21
 73
25
 74
26
 0
VERTEX
 8
CORNICE_DISPLAY
 10
0
 20
0
 30
0
 70
128
 71
11
 72
8
 73
27
 74
28
 0
VERTEX
 8
CORNICE_DISPLAY
 10
0
 20
0
 30
0
 70
128
 71
11
 72
23
 73
21
 74
9
 0
VERTEX
 8
CORNICE_DISPLAY
 10
0
 20
0
 30
0
 70
128
 71
10
 72
24
 73
20
 74
12
 0
VERTEX
 8
CORNICE_DISPLAY
 10
0
 20
0
 30
0
 70
128
 71
13
 72
29
 73
26
 74
14
 0
VERTEX
 8
CORNICE_DISPLAY
 10
0
 20
0
 30
0
 70
128
 71
15
 72
30
 73
31
 74
16
 0
VERTEX
 8
CORNICE_DISPLAY
 10
0
 20
0
 30
0
 70
128
 71
16
 72
31
 73
32
 74
19
 0
VERTEX
 8
CORNICE_DISPLAY
 10
0
 20
0
 30
0
 70
128
 71
18
 72
27
 73
29
 74
13
 0
VERTEX
 8
CORNICE_DISPLAY
 10
0
 20
0
 30
0
 70
128
 71
15
 72
3
 73
24
 74
22
 0
VERTEX
 8
CORNICE_DISPLAY
 10
0
 20
0
 30
0
 70
128
 71
18
 72
7
 73
12
 74
17
 0
VERTEX
 8
CORNICE_DISPLAY
 10
0
 20
0
 30
0
 70
128
 71
19
 72
17
 73
12
 74
20
 0
VERTEX
 8
CORNICE_DISPLAY
 10
0
 20
0
 30
0
 70
128
 71
21
 72
4
 73
30
 74
25
 0
VERTEX
 8
CORNICE_DISPLAY
 10
0
 20
0
 30
0
 70
128
 71
23
 72
6
 73
4
 74
21
 0
VERTEX
 8
CORNICE_DISPLAY
 10
0
 20
0
 30
0
 70
128
 71
24
 72
3
 73
5
 74
20
 0
VERTEX
 8
CORNICE_DISPLAY
 10
0
 20
0
 30
0
 70
128
 71
23
 72
11
 73
28
 74
32
 0
VERTEX
 8
CORNICE_DISPLAY
 10
0
 20
0
 30
0
 70
128
 71
24
 72
10
 73
14
 74
22
 0
VERTEX
 8
CORNICE_DISPLAY
 10
0
 20
0
 30
0
 70
128
 71
30
 72
15
 73
22
 74
25
 0
VERTEX
 8
CORNICE_DISPLAY
 10
0
 20
0
 30
0
 70
128
 71
27
 72
18
 73
17
 74
28
 0
VERTEX
 8
CORNICE_DISPLAY
 10
0
 20
0
 30
0
 70
128
 71
29
 72
2
 73
9
 74
26
 0
VERTEX
 8
CORNICE_DISPLAY
 10
0
 20
0
 30
0
 70
128
 71
30
 72
4
 73
6
 74
31
 0
VERTEX
 8
CORNICE_DISPLAY
 10
0
 20
0
 30
0
 70
128
 71
31
 72
6
 73
23
 74
32
 0
VERTEX
 8
CORNICE_DISPLAY
 10
0
 20
0
 30
0
 70
128
 71
27
 72
8
 73
2
 74
29
 0
VERTEX
 8
CORNICE_DISPLAY
 10
0
 20
0
 30
0
 70
128
 71
28
 72
17
 73
14
 74
26
 0
VERTEX
 8
CORNICE_DISPLAY
 10
0
 20
0
 30
0
 70
128
 71
17
 72
19
 73
22
 74
14
 0
VERTEX
 8
CORNICE_DISPLAY
 10
0
 20
0
 30
0
 70
128
 71
19
 72
32
 73
25
 74
22
 0
VERTEX
 8
CORNICE_DISPLAY
 10
0
 20
0
 30
0
 70
128
 71
32
 72
28
 73
26
 74
25
 0
SEQEND
 0
POLYLINE
 8
PANNELLO_DISPLAY
 66
1
 10
0.0
 20
0.0
 30
0.0
 70
64
 71
40
 72
40
 0
VERTEX
 8
PANNELLO_DISPLAY
 10
-29.6931
 20
-0.1631
 30
148.83
 70
192
 0
VERTEX
 8
PANNELLO_DISPLAY
 10
-29.6931
 20
-0.1631
 30
160.31
 70
192
 0
VERTEX
 8
PANNELLO_DISPLAY
 10
29.6929
 20
-0.1631
 30
148.83
 70
192
 0
VERTEX
 8
PANNELLO_DISPLAY
 10
29.6929
 20
-0.1631
 30
160.31
 70
192
 0
VERTEX
 8
PANNELLO_DISPLAY
 10
29.6929
 20
2.0169
 30
148.83
 70
192
 0
VERTEX
 8
PANNELLO_DISPLAY
 10
29.6929
 20
2.0169
 30
160.31
 70
192
 0
VERTEX
 8
PANNELLO_DISPLAY
 10
-29.6931
 20
2.0169
 30
148.83
 70
192
 0
VERTEX
 8
PANNELLO_DISPLAY
 10
-29.6931
 20
2.0169
 30
160.31
 70
192
 0
VERTEX
 8
PANNELLO_DISPLAY
 10
8.1988
 20
-0.1631
 30
160.31
 70
192
 0
VERTEX
 8
PANNELLO_DISPLAY
 10
8.1988
 20
-0.1631
 30
148.83
 70
192
 0
VERTEX
 8
PANNELLO_DISPLAY
 10
8.1988
 20
2.0169
 30
160.31
 70
192
 0
VERTEX
 8
PANNELLO_DISPLAY
 10
8.1988
 20
2.0169
 30
148.83
 70
192
 0
VERTEX
 8
PANNELLO_DISPLAY
 10
-29.6931
 20
-0.1631
 30
157.7924
 70
192
 0
VERTEX
 8
PANNELLO_DISPLAY
 10
8.1988
 20
-0.1631
 30
157.7924
 70
192
 0
VERTEX
 8
PANNELLO_DISPLAY
 10
29.6929
 20
-0.1631
 30
157.7924
 70
192
 0
VERTEX
 8
PANNELLO_DISPLAY
 10
29.6929
 20
2.0169
 30
157.7924
 70
192
 0
VERTEX
 8
PANNELLO_DISPLAY
 10
8.1988
 20
2.0169
 30
157.7924
 70
192
 0
VERTEX
 8
PANNELLO_DISPLAY
 10
-29.6931
 20
2.0169
 30
157.7924
 70
192
 0
VERTEX
 8
PANNELLO_DISPLAY
 10
-8.199
 20
-0.1631
 30
157.7924
 70
192
 0
VERTEX
 8
PANNELLO_DISPLAY
 10
-8.199
 20
-0.1631
 30
148.83
 70
192
 0
VERTEX
 8
PANNELLO_DISPLAY
 10
-8.199
 20
2.0169
 30
160.31
 70
192
 0
VERTEX
 8
PANNELLO_DISPLAY
 10
-8.199
 20
-0.1631
 30
160.31
 70
192
 0
VERTEX
 8
PANNELLO_DISPLAY
 10
-8.199
 20
2.0169
 30
148.83
 70
192
 0
VERTEX
 8
PANNELLO_DISPLAY
 10
-8.199
 20
2.0169
 30
157.7924
 70
192
 0
VERTEX
 8
PANNELLO_DISPLAY
 10
-29.6931
 20
-0.1631
 30
151.3873
 70
192
 0
VERTEX
 8
PANNELLO_DISPLAY
 10
-8.199
 20
-0.1631
 30
151.3873
 70
192
 0
VERTEX
 8
PANNELLO_DISPLAY
 10
29.6929
 20
-0.1631
 30
151.3873
 70
192
 0
VERTEX
 8
PANNELLO_DISPLAY
 10
29.6929
 20
2.0169
 30
151.3873
 70
192
 0
VERTEX
 8
PANNELLO_DISPLAY
 10
8.1988
 20
2.0169
 30
151.3873
 70
192
 0
VERTEX
 8
PANNELLO_DISPLAY
 10
-29.6931
 20
2.0169
 30
151.3873
 70
192
 0
VERTEX
 8
PANNELLO_DISPLAY
 10
8.1988
 20
-0.1631
 30
151.3873
 70
192
 0
VERTEX
 8
PANNELLO_DISPLAY
 10
-8.199
 20
2.0169
 30
151.3873
 70
192
 0
VERTEX
 8
PANNELLO_DISPLAY
 10
29.6929
 20
-0.1631
 30
153.9999
 70
192
 0
VERTEX
 8
PANNELLO_DISPLAY
 10
8.1988
 20
-0.1631
 30
153.9999
 70
192
 0
VERTEX
 8
PANNELLO_DISPLAY
 10
-29.6931
 20
2.0169
 30
153.9999
 70
192
 0
VERTEX
 8
PANNELLO_DISPLAY
 10
-8.199
 20
2.0169
 30
153.9999
 70
192
 0
VERTEX
 8
PANNELLO_DISPLAY
 10
-8.199
 20
-0.1631
 30
153.9999
 70
192
 0
VERTEX
 8
PANNELLO_DISPLAY
 10
-29.6931
 20
-0.1631
 30
153.9999
 70
192
 0
VERTEX
 8
PANNELLO_DISPLAY
 10
29.6929
 20
2.0169
 30
153.9999
 70
192
 0
VERTEX
 8
PANNELLO_DISPLAY
 10
8.1988
 20
2.0169
 30
153.9999
 70
192
 0
VERTEX
 8
PANNELLO_DISPLAY
 10
0
 20
0
 30
0
 70
128
 71
1
 72
25
 73
26
 74
20
 0
VERTEX
 8
PANNELLO_DISPLAY
 10
0
 20
0
 30
0
 70
128
 71
3
 72
27
 73
28
 74
5
 0
VERTEX
 8
PANNELLO_DISPLAY
 10
0
 20
0
 30
0
 70
128
 71
5
 72
28
 73
29
 74
12
 0
VERTEX
 8
PANNELLO_DISPLAY
 10
0
 20
0
 30
0
 70
128
 71
7
 72
30
 73
25
 74
1
 0
VERTEX
 8
PANNELLO_DISPLAY
 10
0
 20
0
 30
0
 70
128
 71
2
 72
8
 73
21
 74
22
 0
VERTEX
 8
PANNELLO_DISPLAY
 10
0
 20
0
 30
0
 70
128
 71
7
 72
1
 73
20
 74
23
 0
VERTEX
 8
PANNELLO_DISPLAY
 10
0
 20
0
 30
0
 70
128
 71
9
 72
4
 73
15
 74
14
 0
VERTEX
 8
PANNELLO_DISPLAY
 10
0
 20
0
 30
0
 70
128
 71
11
 72
21
 73
24
 74
17
 0
VERTEX
 8
PANNELLO_DISPLAY
 10
0
 20
0
 30
0
 70
128
 71
11
 72
6
 73
4
 74
9
 0
VERTEX
 8
PANNELLO_DISPLAY
 10
0
 20
0
 30
0
 70
128
 71
10
 72
3
 73
5
 74
12
 0
VERTEX
 8
PANNELLO_DISPLAY
 10
0
 20
0
 30
0
 70
128
 71
13
 72
2
 73
22
 74
19
 0
VERTEX
 8
PANNELLO_DISPLAY
 10
0
 20
0
 30
0
 70
128
 71
15
 72
4
 73
6
 74
16
 0
VERTEX
 8
PANNELLO_DISPLAY
 10
0
 20
0
 30
0
 70
128
 71
16
 72
6
 73
11
 74
17
 0
VERTEX
 8
PANNELLO_DISPLAY
 10
0
 20
0
 30
0
 70
128
 71
18
 72
8
 73
2
 74
13
 0
VERTEX
 8
PANNELLO_DISPLAY
 10
0
 20
0
 30
0
 70
128
 71
15
 72
33
 73
34
 74
14
 0
VERTEX
 8
PANNELLO_DISPLAY
 10
0
 20
0
 30
0
 70
128
 71
18
 72
35
 73
36
 74
24
 0
VERTEX
 8
PANNELLO_DISPLAY
 10
0
 20
0
 30
0
 70
128
 71
35
 72
18
 73
13
 74
38
 0
VERTEX
 8
PANNELLO_DISPLAY
 10
0
 20
0
 30
0
 70
128
 71
21
 72
11
 73
9
 74
22
 0
VERTEX
 8
PANNELLO_DISPLAY
 10
0
 20
0
 30
0
 70
128
 71
20
 72
10
 73
12
 74
23
 0
VERTEX
 8
PANNELLO_DISPLAY
 10
0
 20
0
 30
0
 70
128
 71
21
 72
8
 73
18
 74
24
 0
VERTEX
 8
PANNELLO_DISPLAY
 10
0
 20
0
 30
0
 70
128
 71
22
 72
9
 73
14
 74
19
 0
VERTEX
 8
PANNELLO_DISPLAY
 10
0
 20
0
 30
0
 70
128
 71
23
 72
12
 73
29
 74
32
 0
VERTEX
 8
PANNELLO_DISPLAY
 10
0
 20
0
 30
0
 70
128
 71
25
 72
38
 73
37
 74
26
 0
VERTEX
 8
PANNELLO_DISPLAY
 10
0
 20
0
 30
0
 70
128
 71
27
 72
33
 73
39
 74
28
 0
VERTEX
 8
PANNELLO_DISPLAY
 10
0
 20
0
 30
0
 70
128
 71
28
 72
39
 73
40
 74
29
 0
VERTEX
 8
PANNELLO_DISPLAY
 10
0
 20
0
 30
0
 70
128
 71
30
 72
35
 73
38
 74
25
 0
VERTEX
 8
PANNELLO_DISPLAY
 10
0
 20
0
 30
0
 70
128
 71
27
 72
3
 73
10
 74
31
 0
VERTEX
 8
PANNELLO_DISPLAY
 10
0
 20
0
 30
0
 70
128
 71
30
 72
7
 73
23
 74
32
 0
VERTEX
 8
PANNELLO_DISPLAY
 10
0
 20
0
 30
0
 70
128
 71
31
 72
10
 73
20
 74
26
 0
VERTEX
 8
PANNELLO_DISPLAY
 10
0
 20
0
 30
0
 70
128
 71
39
 72
16
 73
17
 74
40
 0
VERTEX
 8
PANNELLO_DISPLAY
 10
0
 20
0
 30
0
 70
128
 71
33
 72
27
 73
31
 74
34
 0
VERTEX
 8
PANNELLO_DISPLAY
 10
0
 20
0
 30
0
 70
128
 71
35
 72
30
 73
32
 74
36
 0
VERTEX
 8
PANNELLO_DISPLAY
 10
0
 20
0
 30
0
 70
128
 71
33
 72
15
 73
16
 74
39
 0
VERTEX
 8
PANNELLO_DISPLAY
 10
0
 20
0
 30
0
 70
128
 71
38
 72
13
 73
19
 74
37
 0
VERTEX
 8
PANNELLO_DISPLAY
 10
0
 20
0
 30
0
 70
128
 71
24
 72
36
 73
37
 74
19
 0
VERTEX
 8
PANNELLO_DISPLAY
 10
0
 20
0
 30
0
 70
128
 71
36
 72
32
 73
26
 74
37
 0
VERTEX
 8
PANNELLO_DISPLAY
 10
0
 20
0
 30
0
 70
128
 71
32
 72
29
 73
31
 74
26
 0
VERTEX
 8
PANNELLO_DISPLAY
 10
0
 20
0
 30
0
 70
128
 71
29
 72
40
 73
34
 74
31
 0
VERTEX
 8
PANNELLO_DISPLAY
 10
0
 20
0
 30
0
 70
128
 71
40
 72
17
 73
14
 74
34
 0
VERTEX
 8
PANNELLO_DISPLAY
 10
0
 20
0
 30
0
 70
128
 71
17
 72
24
 73
19
 74
14
 0
SEQEND
 0
POLYLINE
 8
DISPLAY_2
 66
1
 10
0.0
 20
0.0
 30
0.0
 70
64
 71
8
 72
6
 0
VERTEX
 8
DISPLAY_2
 10
-8.199
 20
-0.0102
 30
151.3873
 70
192
 0
VERTEX
 8
DISPLAY_2
 10
8.1988
 20
2.0169
 30
151.3873
 70
192
 0
VERTEX
 8
DISPLAY_2
 10
8.1988
 20
-0.0102
 30
151.3873
 70
192
 0
VERTEX
 8
DISPLAY_2
 10
-8.199
 20
2.0169
 30
151.3873
 70
192
 0
VERTEX
 8
DISPLAY_2
 10
8.1988
 20
-0.0102
 30
153.9999
 70
192
 0
VERTEX
 8
DISPLAY_2
 10
-8.199
 20
2.0169
 30
153.9999
 70
192
 0
VERTEX
 8
DISPLAY_2
 10
-8.199
 20
-0.0102
 30
153.9999
 70
192
 0
VERTEX
 8
DISPLAY_2
 10
8.1988
 20
2.0169
 30
153.9999
 70
192
 0
VERTEX
 8
DISPLAY_2
 10
0
 20
0
 30
0
 70
128
 71
2
 72
8
 73
6
 74
4
 0
VERTEX
 8
DISPLAY_2
 10
0
 20
0
 30
0
 70
128
 71
5
 72
3
 73
1
 74
7
 0
VERTEX
 8
DISPLAY_2
 10
0
 20
0
 30
0
 70
128
 71
8
 72
2
 73
3
 74
5
 0
VERTEX
 8
DISPLAY_2
 10
0
 20
0
 30
0
 70
128
 71
6
 72
8
 73
5
 74
7
 0
VERTEX
 8
DISPLAY_2
 10
0
 20
0
 30
0
 70
128
 71
1
 72
3
 73
2
 74
4
 0
VERTEX
 8
DISPLAY_2
 10
0
 20
0
 30
0
 70
128
 71
7
 72
1
 73
4
 74
6
 0
SEQEND
 0
POLYLINE
 8
DISPLAY_1
 66
1
 10
0.0
 20
0.0
 30
0.0
 70
64
 71
8
 72
6
 0
VERTEX
 8
DISPLAY_1
 10
8.1988
 20
-0.0102
 30
157.7924
 70
192
 0
VERTEX
 8
DISPLAY_1
 10
8.1988
 20
2.0169
 30
157.7924
 70
192
 0
VERTEX
 8
DISPLAY_1
 10
-8.199
 20
-0.0102
 30
157.7924
 70
192
 0
VERTEX
 8
DISPLAY_1
 10
-8.199
 20
2.0169
 30
157.7924
 70
192
 0
VERTEX
 8
DISPLAY_1
 10
8.1988
 20
-0.0102
 30
153.9999
 70
192
 0
VERTEX
 8
DISPLAY_1
 10
-8.199
 20
2.0169
 30
153.9999
 70
192
 0
VERTEX
 8
DISPLAY_1
 10
-8.199
 20
-0.0102
 30
153.9999
 70
192
 0
VERTEX
 8
DISPLAY_1
 10
8.1988
 20
2.0169
 30
153.9999
 70
192
 0
VERTEX
 8
DISPLAY_1
 10
0
 20
0
 30
0
 70
128
 71
1
 72
2
 73
8
 74
5
 0
VERTEX
 8
DISPLAY_1
 10
0
 20
0
 30
0
 70
128
 71
5
 72
8
 73
6
 74
7
 0
VERTEX
 8
DISPLAY_1
 10
0
 20
0
 30
0
 70
128
 71
7
 72
6
 73
4
 74
3
 0
VERTEX
 8
DISPLAY_1
 10
0
 20
0
 30
0
 70
128
 71
3
 72
4
 73
2
 74
1
 0
VERTEX
 8
DISPLAY_1
 10
0
 20
0
 30
0
 70
128
 71
1
 72
5
 73
7
 74
3
 0
VERTEX
 8
DISPLAY_1
 10
0
 20
0
 30
0
 70
128
 71
4
 72
6
 73
8
 74
2
 0
SEQEND
 0
POLYLINE
 8
VETRO_ANTA
 66
1
 10
0.0
 20
0.0
 30
0.0
 70
64
 71
32
 72
32
 0
VERTEX
 8
VETRO_ANTA
 10
29.6931
 20
0.3848
 30
115.8809
 70
192
 0
VERTEX
 8
VETRO_ANTA
 10
29.6931
 20
0.3848
 30
148.1609
 70
192
 0
VERTEX
 8
VETRO_ANTA
 10
-29.693
 20
0.3848
 30
115.8809
 70
192
 0
VERTEX
 8
VETRO_ANTA
 10
-29.693
 20
0.3848
 30
148.1609
 70
192
 0
VERTEX
 8
VETRO_ANTA
 10
-29.693
 20
-0.1365
 30
115.8809
 70
192
 0
VERTEX
 8
VETRO_ANTA
 10
-29.693
 20
-0.1365
 30
148.1609
 70
192
 0
VERTEX
 8
VETRO_ANTA
 10
29.6931
 20
-0.1365
 30
115.8809
 70
192
 0
VERTEX
 8
VETRO_ANTA
 10
29.6931
 20
-0.1365
 30
148.1609
 70
192
 0
VERTEX
 8
VETRO_ANTA
 10
20
 20
0.3848
 30
148.1609
 70
192
 0
VERTEX
 8
VETRO_ANTA
 10
20
 20
0.3848
 30
115.8809
 70
192
 0
VERTEX
 8
VETRO_ANTA
 10
20
 20
-0.1365
 30
148.1609
 70
192
 0
VERTEX
 8
VETRO_ANTA
 10
20
 20
-0.1365
 30
115.8809
 70
192
 0
VERTEX
 8
VETRO_ANTA
 10
29.6931
 20
0.3848
 30
138.5042
 70
192
 0
VERTEX
 8
VETRO_ANTA
 10
20
 20
0.3848
 30
138.5042
 70
192
 0
VERTEX
 8
VETRO_ANTA
 10
-29.693
 20
0.3848
 30
138.5042
 70
192
 0
VERTEX
 8
VETRO_ANTA
 10
-29.693
 20
-0.1365
 30
138.5042
 70
192
 0
VERTEX
 8
VETRO_ANTA
 10
20
 20
-0.1365
 30
138.5042
 70
192
 0
VERTEX
 8
VETRO_ANTA
 10
29.6931
 20
-0.1365
 30
138.5042
 70
192
 0
VERTEX
 8
VETRO_ANTA
 10
-20
 20
-0.1365
 30
138.5042
 70
192
 0
VERTEX
 8
VETRO_ANTA
 10
-20
 20
-0.1365
 30
115.8809
 70
192
 0
VERTEX
 8
VETRO_ANTA
 10
-20
 20
0.3848
 30
148.1609
 70
192
 0
VERTEX
 8
VETRO_ANTA
 10
-20
 20
0.3848
 30
138.5042
 70
192
 0
VERTEX
 8
VETRO_ANTA
 10
-20
 20
-0.1365
 30
148.1609
 70
192
 0
VERTEX
 8
VETRO_ANTA
 10
-20
 20
0.3848
 30
115.8809
 70
192
 0
VERTEX
 8
VETRO_ANTA
 10
29.6931
 20
0.3848
 30
124.3041
 70
192
 0
VERTEX
 8
VETRO_ANTA
 10
20
 20
0.3848
 30
124.3041
 70
192
 0
VERTEX
 8
VETRO_ANTA
 10
-29.693
 20
0.3848
 30
124.3041
 70
192
 0
VERTEX
 8
VETRO_ANTA
 10
-29.693
 20
-0.1365
 30
124.3041
 70
192
 0
VERTEX
 8
VETRO_ANTA
 10
-20
 20
-0.1365
 30
124.3041
 70
192
 0
VERTEX
 8
VETRO_ANTA
 10
29.6931
 20
-0.1365
 30
124.3041
 70
192
 0
VERTEX
 8
VETRO_ANTA
 10
-20
 20
0.3848
 30
124.3041
 70
192
 0
VERTEX
 8
VETRO_ANTA
 10
20
 20
-0.1365
 30
124.3041
 70
192
 0
VERTEX
 8
VETRO_ANTA
 10
0
 20
0
 30
0
 70
128
 71
1
 72
25
 73
26
 74
10
 0
VERTEX
 8
VETRO_ANTA
 10
0
 20
0
 30
0
 70
128
 71
3
 72
27
 73
28
 74
5
 0
VERTEX
 8
VETRO_ANTA
 10
0
 20
0
 30
0
 70
128
 71
5
 72
28
 73
29
 74
20
 0
VERTEX
 8
VETRO_ANTA
 10
0
 20
0
 30
0
 70
128
 71
7
 72
30
 73
25
 74
1
 0
VERTEX
 8
VETRO_ANTA
 10
0
 20
0
 30
0
 70
128
 71
2
 72
8
 73
11
 74
9
 0
VERTEX
 8
VETRO_ANTA
 10
0
 20
0
 30
0
 70
128
 71
7
 72
1
 73
10
 74
12
 0
VERTEX
 8
VETRO_ANTA
 10
0
 20
0
 30
0
 70
128
 71
9
 72
21
 73
22
 74
14
 0
VERTEX
 8
VETRO_ANTA
 10
0
 20
0
 30
0
 70
128
 71
11
 72
8
 73
18
 74
17
 0
VERTEX
 8
VETRO_ANTA
 10
0
 20
0
 30
0
 70
128
 71
11
 72
23
 73
21
 74
9
 0
VERTEX
 8
VETRO_ANTA
 10
0
 20
0
 30
0
 70
128
 71
10
 72
24
 73
20
 74
12
 0
VERTEX
 8
VETRO_ANTA
 10
0
 20
0
 30
0
 70
128
 71
13
 72
2
 73
9
 74
14
 0
VERTEX
 8
VETRO_ANTA
 10
0
 20
0
 30
0
 70
128
 71
15
 72
4
 73
6
 74
16
 0
VERTEX
 8
VETRO_ANTA
 10
0
 20
0
 30
0
 70
128
 71
16
 72
6
 73
23
 74
19
 0
VERTEX
 8
VETRO_ANTA
 10
0
 20
0
 30
0
 70
128
 71
18
 72
8
 73
2
 74
13
 0
VERTEX
 8
VETRO_ANTA
 10
0
 20
0
 30
0
 70
128
 71
15
 72
27
 73
31
 74
22
 0
VERTEX
 8
VETRO_ANTA
 10
0
 20
0
 30
0
 70
128
 71
18
 72
30
 73
32
 74
17
 0
VERTEX
 8
VETRO_ANTA
 10
0
 20
0
 30
0
 70
128
 71
32
 72
12
 73
20
 74
29
 0
VERTEX
 8
VETRO_ANTA
 10
0
 20
0
 30
0
 70
128
 71
21
 72
4
 73
15
 74
22
 0
VERTEX
 8
VETRO_ANTA
 10
0
 20
0
 30
0
 70
128
 71
23
 72
6
 73
4
 74
21
 0
VERTEX
 8
VETRO_ANTA
 10
0
 20
0
 30
0
 70
128
 71
24
 72
3
 73
5
 74
20
 0
VERTEX
 8
VETRO_ANTA
 10
0
 20
0
 30
0
 70
128
 71
23
 72
11
 73
17
 74
19
 0
VERTEX
 8
VETRO_ANTA
 10
0
 20
0
 30
0
 70
128
 71
24
 72
10
 73
26
 74
31
 0
VERTEX
 8
VETRO_ANTA
 10
0
 20
0
 30
0
 70
128
 71
25
 72
13
 73
14
 74
26
 0
VERTEX
 8
VETRO_ANTA
 10
0
 20
0
 30
0
 70
128
 71
27
 72
15
 73
16
 74
28
 0
VERTEX
 8
VETRO_ANTA
 10
0
 20
0
 30
0
 70
128
 71
28
 72
16
 73
19
 74
29
 0
VERTEX
 8
VETRO_ANTA
 10
0
 20
0
 30
0
 70
128
 71
30
 72
18
 73
13
 74
25
 0
VERTEX
 8
VETRO_ANTA
 10
0
 20
0
 30
0
 70
128
 71
27
 72
3
 73
24
 74
31
 0
VERTEX
 8
VETRO_ANTA
 10
0
 20
0
 30
0
 70
128
 71
30
 72
7
 73
12
 74
32
 0
VERTEX
 8
VETRO_ANTA
 10
0
 20
0
 30
0
 70
128
 71
29
 72
19
 73
22
 74
31
 0
VERTEX
 8
VETRO_ANTA
 10
0
 20
0
 30
0
 70
128
 71
32
 72
29
 73
31
 74
26
 0
VERTEX
 8
VETRO_ANTA
 10
0
 20
0
 30
0
 70
128
 71
19
 72
17
 73
14
 74
22
 0
VERTEX
 8
VETRO_ANTA
 10
0
 20
0
 30
0
 70
128
 71
17
 72
32
 73
26
 74
14
 0
SEQEND
 0
POLYLINE
 8
VETRO_ANTA_1
 66
1
 10
0.0
 20
0.0
 30
0.0
 70
64
 71
8
 72
6
 0
VERTEX
 8
VETRO_ANTA_1
 10
20
 20
0.3848
 30
138.5042
 70
192
 0
VERTEX
 8
VETRO_ANTA_1
 10
20
 20
-0.1365
 30
138.5042
 70
192
 0
VERTEX
 8
VETRO_ANTA_1
 10
-20
 20
-0.1365
 30
138.5042
 70
192
 0
VERTEX
 8
VETRO_ANTA_1
 10
-20
 20
0.3848
 30
138.5042
 70
192
 0
VERTEX
 8
VETRO_ANTA_1
 10
20
 20
0.3848
 30
124.3041
 70
192
 0
VERTEX
 8
VETRO_ANTA_1
 10
-20
 20
-0.1365
 30
124.3041
 70
192
 0
VERTEX
 8
VETRO_ANTA_1
 10
-20
 20
0.3848
 30
124.3041
 70
192
 0
VERTEX
 8
VETRO_ANTA_1
 10
20
 20
-0.1365
 30
124.3041
 70
192
 0
VERTEX
 8
VETRO_ANTA_1
 10
0
 20
0
 30
0
 70
128
 71
3
 72
2
 73
8
 74
6
 0
VERTEX
 8
VETRO_ANTA_1
 10
0
 20
0
 30
0
 70
128
 71
5
 72
1
 73
4
 74
7
 0
VERTEX
 8
VETRO_ANTA_1
 10
0
 20
0
 30
0
 70
128
 71
1
 72
5
 73
8
 74
2
 0
VERTEX
 8
VETRO_ANTA_1
 10
0
 20
0
 30
0
 70
128
 71
5
 72
7
 73
6
 74
8
 0
VERTEX
 8
VETRO_ANTA_1
 10
0
 20
0
 30
0
 70
128
 71
3
 72
6
 73
7
 74
4
 0
VERTEX
 8
VETRO_ANTA_1
 10
0
 20
0
 30
0
 70
128
 71
4
 72
1
 73
2
 74
3
 0
SEQEND
 0
POLYLINE
 8
CUBO
 66
1
 10
0.0
 20
0.0
 30
0.0
 70
64
 71
28
 72
26
 0
VERTEX
 8
CUBO
 10
-29.597
 20
1.1441
 30
115.6753
 70
192
 0
VERTEX
 8
CUBO
 10
-29.597
 20
1.1441
 30
148.8099
 70
192
 0
VERTEX
 8
CUBO
 10
29.6103
 20
1.1441
 30
115.6753
 70
192
 0
VERTEX
 8
CUBO
 10
29.6103
 20
1.1441
 30
148.8099
 70
192
 0
VERTEX
 8
CUBO
 10
29.6103
 20
3.9002
 30
115.6753
 70
192
 0
VERTEX
 8
CUBO
 10
29.6103
 20
3.9002
 30
148.8099
 70
192
 0
VERTEX
 8
CUBO
 10
-29.597
 20
3.9002
 30
115.6753
 70
192
 0
VERTEX
 8
CUBO
 10
-29.597
 20
3.9002
 30
148.8099
 70
192
 0
VERTEX
 8
CUBO
 10
-29.597
 20
1.1441
 30
147.8809
 70
192
 0
VERTEX
 8
CUBO
 10
29.6103
 20
1.1441
 30
147.8809
 70
192
 0
VERTEX
 8
CUBO
 10
29.6103
 20
3.9002
 30
147.8809
 70
192
 0
VERTEX
 8
CUBO
 10
-29.597
 20
3.9002
 30
147.8809
 70
192
 0
VERTEX
 8
CUBO
 10
-27.3067
 20
1.1441
 30
147.8809
 70
192
 0
VERTEX
 8
CUBO
 10
-27.3067
 20
1.1441
 30
115.6753
 70
192
 0
VERTEX
 8
CUBO
 10
-27.3067
 20
3.9002
 30
147.8809
 70
192
 0
VERTEX
 8
CUBO
 10
-27.3067
 20
3.9002
 30
115.6753
 70
192
 0
VERTEX
 8
CUBO
 10
-27.3067
 20
3.9002
 30
148.8099
 70
192
 0
VERTEX
 8
CUBO
 10
-27.3067
 20
1.1441
 30
148.8099
 70
192
 0
VERTEX
 8
CUBO
 10
27.2925
 20
3.9002
 30
147.8809
 70
192
 0
VERTEX
 8
CUBO
 10
27.2925
 20
3.9002
 30
115.6753
 70
192
 0
VERTEX
 8
CUBO
 10
27.2925
 20
3.9002
 30
148.8099
 70
192
 0
VERTEX
 8
CUBO
 10
27.2925
 20
1.1441
 30
147.8809
 70
192
 0
VERTEX
 8
CUBO
 10
27.2925
 20
1.1441
 30
115.6753
 70
192
 0
VERTEX
 8
CUBO
 10
27.2925
 20
1.1441
 30
148.8099
 70
192
 0
VERTEX
 8
CUBO
 10
-27.3067
 20
0.3848
 30
147.8809
 70
192
 0
VERTEX
 8
CUBO
 10
-27.3067
 20
0.3848
 30
115.6753
 70
192
 0
VERTEX
 8
CUBO
 10
27.2925
 20
0.3848
 30
147.8809
 70
192
 0
VERTEX
 8
CUBO
 10
27.2925
 20
0.3848
 30
115.6753
 70
192
 0
VERTEX
 8
CUBO
 10
0
 20
0
 30
0
 70
128
 71
1
 72
9
 73
13
 74
14
 0
VERTEX
 8
CUBO
 10
0
 20
0
 30
0
 70
128
 71
3
 72
10
 73
11
 74
5
 0
VERTEX
 8
CUBO
 10
0
 20
0
 30
0
 70
128
 71
5
 72
11
 73
19
 74
20
 0
VERTEX
 8
CUBO
 10
0
 20
0
 30
0
 70
128
 71
7
 72
12
 73
9
 74
1
 0
VERTEX
 8
CUBO
 10
0
 20
0
 30
0
 70
128
 71
2
 72
8
 73
17
 74
18
 0
VERTEX
 8
CUBO
 10
0
 20
0
 30
0
 70
128
 71
7
 72
1
 73
14
 74
16
 0
VERTEX
 8
CUBO
 10
0
 20
0
 30
0
 70
128
 71
9
 72
2
 73
18
 74
13
 0
VERTEX
 8
CUBO
 10
0
 20
0
 30
0
 70
128
 71
10
 72
4
 73
6
 74
11
 0
VERTEX
 8
CUBO
 10
0
 20
0
 30
0
 70
128
 71
11
 72
6
 73
21
 74
19
 0
VERTEX
 8
CUBO
 10
0
 20
0
 30
0
 70
128
 71
12
 72
8
 73
2
 74
9
 0
VERTEX
 8
CUBO
 10
0
 20
0
 30
0
 70
128
 71
25
 72
27
 73
28
 74
26
 0
VERTEX
 8
CUBO
 10
0
 20
0
 30
0
 70
128
 71
15
 72
12
 73
7
 74
16
 0
VERTEX
 8
CUBO
 10
0
 20
0
 30
0
 70
128
 71
17
 72
21
 73
24
 74
18
 0
VERTEX
 8
CUBO
 10
0
 20
0
 30
0
 70
128
 71
14
 72
23
 73
20
 74
16
 0
VERTEX
 8
CUBO
 10
0
 20
0
 30
0
 70
128
 71
18
 72
24
 73
22
 74
13
 0
VERTEX
 8
CUBO
 10
0
 20
0
 30
0
 70
128
 71
17
 72
8
 73
12
 74
15
 0
VERTEX
 8
CUBO
 10
0
 20
0
 30
0
 70
128
 71
19
 72
15
 73
16
 74
20
 0
VERTEX
 8
CUBO
 10
0
 20
0
 30
0
 70
128
 71
21
 72
17
 73
15
 74
19
 0
VERTEX
 8
CUBO
 10
0
 20
0
 30
0
 70
128
 71
22
 72
10
 73
3
 74
23
 0
VERTEX
 8
CUBO
 10
0
 20
0
 30
0
 70
128
 71
21
 72
6
 73
4
 74
24
 0
VERTEX
 8
CUBO
 10
0
 20
0
 30
0
 70
128
 71
23
 72
3
 73
5
 74
20
 0
VERTEX
 8
CUBO
 10
0
 20
0
 30
0
 70
128
 71
24
 72
4
 73
10
 74
22
 0
VERTEX
 8
CUBO
 10
0
 20
0
 30
0
 70
128
 71
25
 72
13
 73
22
 74
27
 0
VERTEX
 8
CUBO
 10
0
 20
0
 30
0
 70
128
 71
27
 72
22
 73
23
 74
28
 0
VERTEX
 8
CUBO
 10
0
 20
0
 30
0
 70
128
 71
28
 72
23
 73
14
 74
26
 0
VERTEX
 8
CUBO
 10
0
 20
0
 30
0
 70
128
 71
26
 72
14
 73
13
 74
25
 0
SEQEND
 0
POLYLINE
 8
FORNO
 66
1
 10
0.0
 20
0.0
 30
0.0
 70
64
 71
54
 72
52
 0
VERTEX
 8
FORNO
 10
-26.9201
 20
3.9002
 30
115
 70
192
 0
VERTEX
 8
FORNO
 10
-26.9201
 20
1.9769
 30
159.53
 70
192
 0
VERTEX
 8
FORNO
 10
26.9201
 20
3.9002
 30
115
 70
192
 0
VERTEX
 8
FORNO
 10
26.9201
 20
1.9769
 30
159.53
 70
192
 0
VERTEX
 8
FORNO
 10
26.9201
 20
54.823
 30
115
 70
192
 0
VERTEX
 8
FORNO
 10
26.9201
 20
54.823
 30
150.7255
 70
192
 0
VERTEX
 8
FORNO
 10
-26.9201
 20
54.823
 30
115
 70
192
 0
VERTEX
 8
FORNO
 10
-26.9201
 20
54.823
 30
150.7255
 70
192
 0
VERTEX
 8
FORNO
 10
-26.9201
 20
1.9769
 30
150.2619
 70
192
 0
VERTEX
 8
FORNO
 10
26.9201
 20
1.9769
 30
150.2619
 70
192
 0
VERTEX
 8
FORNO
 10
-26.9201
 20
3.9003
 30
150.2601
 70
192
 0
VERTEX
 8
FORNO
 10
26.9201
 20
3.9003
 30
150.2601
 70
192
 0
VERTEX
 8
FORNO
 10
26.9201
 20
42.1906
 30
115
 70
192
 0
VERTEX
 8
FORNO
 10
26.9201
 20
42.1906
 30
158.3233
 70
192
 0
VERTEX
 8
FORNO
 10
-26.9201
 20
42.1906
 30
158.3233
 70
192
 0
VERTEX
 8
FORNO
 10
-26.9201
 20
42.1906
 30
115
 70
192
 0
VERTEX
 8
FORNO
 10
-26.9201
 20
3.0173
 30
159.5106
 70
192
 0
VERTEX
 8
FORNO
 10
26.9201
 20
3.0173
 30
159.5106
 70
192
 0
VERTEX
 8
FORNO
 10
26.9201
 20
3.0173
 30
150.2606
 70
192
 0
VERTEX
 8
FORNO
 10
-26.9201
 20
3.0173
 30
150.2606
 70
192
 0
VERTEX
 8
FORNO
 10
-26.9201
 20
5.0999
 30
158.3116
 70
192
 0
VERTEX
 8
FORNO
 10
26.9201
 20
5.0999
 30
158.3116
 70
192
 0
VERTEX
 8
FORNO
 10
26.9201
 20
5.0999
 30
115
 70
192
 0
VERTEX
 8
FORNO
 10
-26.9201
 20
5.0999
 30
115
 70
192
 0
VERTEX
 8
FORNO
 10
26.9201
 20
4.4533
 30
115
 70
192
 0
VERTEX
 8
FORNO
 10
26.9201
 20
4.4533
 30
158.6838
 70
192
 0
VERTEX
 8
FORNO
 10
-26.9201
 20
4.4533
 30
158.6838
 70
192
 0
VERTEX
 8
FORNO
 10
-26.9201
 20
4.4533
 30
115
 70
192
 0
VERTEX
 8
FORNO
 10
26.9201
 20
4.4533
 30
115.6754
 70
192
 0
VERTEX
 8
FORNO
 10
26.9201
 20
5.0999
 30
115.6754
 70
192
 0
VERTEX
 8
FORNO
 10
26.9201
 20
3.9002
 30
115.6754
 70
192
 0
VERTEX
 8
FORNO
 10
-26.9201
 20
4.4533
 30
115.6754
 70
192
 0
VERTEX
 8
FORNO
 10
-26.9201
 20
5.0999
 30
115.6754
 70
192
 0
VERTEX
 8
FORNO
 10
-26.9201
 20
3.9002
 30
115.6754
 70
192
 0
VERTEX
 8
FORNO
 10
26.9201
 20
54.823
 30
115.6754
 70
192
 0
VERTEX
 8
FORNO
 10
26.9201
 20
42.1906
 30
115.6754
 70
192
 0
VERTEX
 8
FORNO
 10
-26.9201
 20
54.823
 30
115.6754
 70
192
 0
VERTEX
 8
FORNO
 10
-26.9201
 20
42.1906
 30
115.6754
 70
192
 0
VERTEX
 8
FORNO
 10
27.6566
 20
3.9002
 30
115
 70
192
 0
VERTEX
 8
FORNO
 10
27.6566
 20
4.4533
 30
115
 70
192
 0
VERTEX
 8
FORNO
 10
27.6566
 20
4.4533
 30
115.6754
 70
192
 0
VERTEX
 8
FORNO
 10
27.6566
 20
3.9002
 30
115.6754
 70
192
 0
VERTEX
 8
FORNO
 10
-27.6708
 20
3.9002
 30
115
 70
192
 0
VERTEX
 8
FORNO
 10
-27.6708
 20
4.4533
 30
115
 70
192
 0
VERTEX
 8
FORNO
 10
-27.6708
 20
4.4533
 30
115.6754
 70
192
 0
VERTEX
 8
FORNO
 10
-27.6708
 20
3.9002
 30
115.6754
 70
192
 0
VERTEX
 8
FORNO
 10
-26.9201
 20
2.365
 30
115
 70
192
 0
VERTEX
 8
FORNO
 10
26.9201
 20
2.365
 30
115
 70
192
 0
VERTEX
 8
FORNO
 10
26.9201
 20
2.365
 30
115.6754
 70
192
 0
VERTEX
 8
FORNO
 10
-26.9201
 20
2.365
 30
115.6754
 70
192
 0
VERTEX
 8
FORNO
 10
27.6566
 20
2.365
 30
115
 70
192
 0
VERTEX
 8
FORNO
 10
27.6566
 20
2.365
 30
115.6754
 70
192
 0
VERTEX
 8
FORNO
 10
-27.6708
 20
2.365
 30
115
 70
192
 0
VERTEX
 8
FORNO
 10
-27.6708
 20
2.365
 30
115.6754
 70
192
 0
VERTEX
 8
FORNO
 10
0
 20
0
 30
0
 70
128
 71
29
 72
31
 73
12
 74
26
 0
VERTEX
 8
FORNO
 10
0
 20
0
 30
0
 70
128
 71
26
 72
12
 73
19
 74
18
 0
VERTEX
 8
FORNO
 10
0
 20
0
 30
0
 70
128
 71
32
 72
27
 73
11
 74
34
 0
VERTEX
 8
FORNO
 10
0
 20
0
 30
0
 70
128
 71
27
 72
17
 73
20
 74
11
 0
VERTEX
 8
FORNO
 10
0
 20
0
 30
0
 70
128
 71
23
 72
25
 73
29
 74
30
 0
VERTEX
 8
FORNO
 10
0
 20
0
 30
0
 70
128
 71
40
 72
39
 73
42
 74
41
 0
VERTEX
 8
FORNO
 10
0
 20
0
 30
0
 70
128
 71
21
 72
27
 73
32
 74
33
 0
VERTEX
 8
FORNO
 10
0
 20
0
 30
0
 70
128
 71
29
 72
26
 73
22
 74
30
 0
VERTEX
 8
FORNO
 10
0
 20
0
 30
0
 70
128
 71
47
 72
50
 73
49
 74
48
 0
VERTEX
 8
FORNO
 10
0
 20
0
 30
0
 70
128
 71
14
 72
6
 73
35
 74
36
 0
VERTEX
 8
FORNO
 10
0
 20
0
 30
0
 70
128
 71
5
 72
35
 73
37
 74
7
 0
VERTEX
 8
FORNO
 10
0
 20
0
 30
0
 70
128
 71
7
 72
37
 73
38
 74
16
 0
VERTEX
 8
FORNO
 10
0
 20
0
 30
0
 70
128
 71
2
 72
17
 73
18
 74
4
 0
VERTEX
 8
FORNO
 10
0
 20
0
 30
0
 70
128
 71
7
 72
16
 73
13
 74
5
 0
VERTEX
 8
FORNO
 10
0
 20
0
 30
0
 70
128
 71
19
 72
10
 73
4
 74
18
 0
VERTEX
 8
FORNO
 10
0
 20
0
 30
0
 70
128
 71
17
 72
27
 73
26
 74
18
 0
VERTEX
 8
FORNO
 10
0
 20
0
 30
0
 70
128
 71
9
 72
2
 73
4
 74
10
 0
VERTEX
 8
FORNO
 10
0
 20
0
 30
0
 70
128
 71
17
 72
2
 73
9
 74
20
 0
VERTEX
 8
FORNO
 10
0
 20
0
 30
0
 70
128
 71
22
 72
14
 73
36
 74
30
 0
VERTEX
 8
FORNO
 10
0
 20
0
 30
0
 70
128
 71
11
 72
20
 73
19
 74
12
 0
VERTEX
 8
FORNO
 10
0
 20
0
 30
0
 70
128
 71
15
 72
8
 73
6
 74
14
 0
VERTEX
 8
FORNO
 10
0
 20
0
 30
0
 70
128
 71
16
 72
24
 73
23
 74
13
 0
VERTEX
 8
FORNO
 10
0
 20
0
 30
0
 70
128
 71
21
 72
15
 73
14
 74
22
 0
VERTEX
 8
FORNO
 10
0
 20
0
 30
0
 70
128
 71
24
 72
16
 73
38
 74
33
 0
VERTEX
 8
FORNO
 10
0
 20
0
 30
0
 70
128
 71
24
 72
28
 73
25
 74
23
 0
VERTEX
 8
FORNO
 10
0
 20
0
 30
0
 70
128
 71
20
 72
9
 73
10
 74
19
 0
VERTEX
 8
FORNO
 10
0
 20
0
 30
0
 70
128
 71
46
 72
43
 73
44
 74
45
 0
VERTEX
 8
FORNO
 10
0
 20
0
 30
0
 70
128
 71
27
 72
21
 73
22
 74
26
 0
VERTEX
 8
FORNO
 10
0
 20
0
 30
0
 70
128
 71
28
 72
1
 73
3
 74
25
 0
VERTEX
 8
FORNO
 10
0
 20
0
 30
0
 70
128
 71
32
 72
28
 73
24
 74
33
 0
VERTEX
 8
FORNO
 10
0
 20
0
 30
0
 70
128
 71
34
 72
11
 73
12
 74
31
 0
VERTEX
 8
FORNO
 10
0
 20
0
 30
0
 70
128
 71
35
 72
5
 73
13
 74
36
 0
VERTEX
 8
FORNO
 10
0
 20
0
 30
0
 70
128
 71
35
 72
6
 73
8
 74
37
 0
VERTEX
 8
FORNO
 10
0
 20
0
 30
0
 70
128
 71
37
 72
8
 73
15
 74
38
 0
VERTEX
 8
FORNO
 10
0
 20
0
 30
0
 70
128
 71
36
 72
13
 73
23
 74
30
 0
VERTEX
 8
FORNO
 10
0
 20
0
 30
0
 70
128
 71
38
 72
15
 73
21
 74
33
 0
VERTEX
 8
FORNO
 10
0
 20
0
 30
0
 70
128
 71
40
 72
25
 73
3
 74
39
 0
VERTEX
 8
FORNO
 10
0
 20
0
 30
0
 70
128
 71
51
 72
48
 73
49
 74
52
 0
VERTEX
 8
FORNO
 10
0
 20
0
 30
0
 70
128
 71
42
 72
31
 73
29
 74
41
 0
VERTEX
 8
FORNO
 10
0
 20
0
 30
0
 70
128
 71
41
 72
29
 73
25
 74
40
 0
VERTEX
 8
FORNO
 10
0
 20
0
 30
0
 70
128
 71
54
 72
50
 73
47
 74
53
 0
VERTEX
 8
FORNO
 10
0
 20
0
 30
0
 70
128
 71
43
 72
1
 73
28
 74
44
 0
VERTEX
 8
FORNO
 10
0
 20
0
 30
0
 70
128
 71
44
 72
28
 73
32
 74
45
 0
VERTEX
 8
FORNO
 10
0
 20
0
 30
0
 70
128
 71
45
 72
32
 73
34
 74
46
 0
VERTEX
 8
FORNO
 10
0
 20
0
 30
0
 70
128
 71
50
 72
34
 73
31
 74
49
 0
VERTEX
 8
FORNO
 10
0
 20
0
 30
0
 70
128
 71
48
 72
3
 73
1
 74
47
 0
VERTEX
 8
FORNO
 10
0
 20
0
 30
0
 70
128
 71
51
 72
39
 73
3
 74
48
 0
VERTEX
 8
FORNO
 10
0
 20
0
 30
0
 70
128
 71
49
 72
31
 73
42
 74
52
 0
VERTEX
 8
FORNO
 10
0
 20
0
 30
0
 70
128
 71
52
 72
42
 73
39
 74
51
 0
VERTEX
 8
FORNO
 10
0
 20
0
 30
0
 70
128
 71
54
 72
46
 73
34
 74
50
 0
VERTEX
 8
FORNO
 10
0
 20
0
 30
0
 70
128
 71
47
 72
1
 73
43
 74
53
 0
VERTEX
 8
FORNO
 10
0
 20
0
 30
0
 70
128
 71
53
 72
43
 73
46
 74
54
 0
SEQEND
 0
ENDSEC
 0
EOF
