 0
SECTION
 2
HEADER
 9
$ACADVER
 1
AC1009
 0
ENDSEC
 0
SECTION
 2
TABLES
 0
TABLE
 2
LTYPE
 70
1
 0
LTYPE
 2
CONTINUOUS
 70
64
 3
solid line
 72
65
 73
0
 40
0.0
 0
ENDTAB
 0
TABLE
 2
LAYER
 70
6
 0
LAYER
 2
0
 70
0
 62
7
 6
CONTINUOUS
 0
LAYER
 2
FBGHD_800_PT_X
 70
64
 62
7
 6
CONTINUOUS
 0
LAYER
 2
PULSANTI
 70
64
 62
7
 6
CONTINUOUS
 0
LAYER
 2
CUBO
 70
64
 62
39
 6
CONTINUOUS
 0
LAYER
 2
CUBO_6
 70
64
 62
253
 6
CONTINUOUS
 0
LAYER
 2
CUBO_1
 70
64
 62
39
 6
CONTINUOUS
 0
LAYER
 2
CUBO_7
 70
64
 62
253
 6
CONTINUOUS
 0
LAYER
 2
CUBO_2
 70
64
 62
39
 6
CONTINUOUS
 0
LAYER
 2
CUBO_8
 70
64
 62
253
 6
CONTINUOUS
 0
LAYER
 2
CUBO_3
 70
64
 62
39
 6
CONTINUOUS
 0
LAYER
 2
CUBO_9
 70
64
 62
253
 6
CONTINUOUS
 0
LAYER
 2
CUBO_4
 70
64
 62
39
 6
CONTINUOUS
 0
LAYER
 2
CUBO_10
 70
64
 62
253
 6
CONTINUOUS
 0
LAYER
 2
CUBO_5
 70
64
 62
39
 6
CONTINUOUS
 0
LAYER
 2
CUBO_11
 70
64
 62
253
 6
CONTINUOUS
 0
LAYER
 2
MFO-B470
 70
64
 62
253
 6
CONTINUOUS
 0
LAYER
 2
MMA-B684
 70
64
 62
253
 6
CONTINUOUS
 0
LAYER
 2
MTU-B144
 70
64
 62
253
 6
CONTINUOUS
 0
LAYER
 2
MTU-B143
 70
64
 62
253
 6
CONTINUOUS
 0
LAYER
 2
CMA-A214
 70
64
 62
253
 6
CONTINUOUS
 0
LAYER
 2
LVT-B421
 70
64
 62
7
 6
CONTINUOUS
 0
ENDTAB
 0
ENDSEC
 0
SECTION
 2
BLOCKS
 0
ENDSEC
 0
SECTION
 2
ENTITIES
 0
POLYLINE
 8
CUBO
 66
1
 10
0.0
 20
0.0
 30
0.0
 70
64
 71
8
 72
6
 0
VERTEX
 8
CUBO
 10
3.4915
 20
-11.995
 30
80.5978
 70
192
 0
VERTEX
 8
CUBO
 10
3.4915
 20
-11.995
 30
80.6478
 70
192
 0
VERTEX
 8
CUBO
 10
4.4796
 20
-11.995
 30
80.5978
 70
192
 0
VERTEX
 8
CUBO
 10
4.4796
 20
-11.995
 30
80.6478
 70
192
 0
VERTEX
 8
CUBO
 10
4.4796
 20
-11.0068
 30
80.5978
 70
192
 0
VERTEX
 8
CUBO
 10
4.4796
 20
-11.0068
 30
80.6478
 70
192
 0
VERTEX
 8
CUBO
 10
3.4915
 20
-11.0068
 30
80.5978
 70
192
 0
VERTEX
 8
CUBO
 10
3.4915
 20
-11.0068
 30
80.6478
 70
192
 0
VERTEX
 8
CUBO
 10
0
 20
0
 30
0
 70
128
 71
1
 72
2
 73
4
 74
3
 0
VERTEX
 8
CUBO
 10
0
 20
0
 30
0
 70
128
 71
3
 72
4
 73
6
 74
5
 0
VERTEX
 8
CUBO
 10
0
 20
0
 30
0
 70
128
 71
5
 72
6
 73
8
 74
7
 0
VERTEX
 8
CUBO
 10
0
 20
0
 30
0
 70
128
 71
7
 72
8
 73
2
 74
1
 0
VERTEX
 8
CUBO
 10
0
 20
0
 30
0
 70
128
 71
2
 72
8
 73
6
 74
4
 0
VERTEX
 8
CUBO
 10
0
 20
0
 30
0
 70
128
 71
7
 72
1
 73
3
 74
5
 0
SEQEND
 0
POLYLINE
 8
CUBO_6
 66
1
 10
0.0
 20
0.0
 30
0.0
 70
64
 71
8
 72
6
 0
VERTEX
 8
CUBO_6
 10
3.5857
 20
-11.9005
 30
80.4867
 70
192
 0
VERTEX
 8
CUBO_6
 10
3.5857
 20
-11.9005
 30
80.5979
 70
192
 0
VERTEX
 8
CUBO_6
 10
4.385
 20
-11.9005
 30
80.4867
 70
192
 0
VERTEX
 8
CUBO_6
 10
4.385
 20
-11.9005
 30
80.5979
 70
192
 0
VERTEX
 8
CUBO_6
 10
4.385
 20
-11.1013
 30
80.4867
 70
192
 0
VERTEX
 8
CUBO_6
 10
4.385
 20
-11.1013
 30
80.5979
 70
192
 0
VERTEX
 8
CUBO_6
 10
3.5857
 20
-11.1013
 30
80.4867
 70
192
 0
VERTEX
 8
CUBO_6
 10
3.5857
 20
-11.1013
 30
80.5979
 70
192
 0
VERTEX
 8
CUBO_6
 10
0
 20
0
 30
0
 70
128
 71
1
 72
2
 73
4
 74
3
 0
VERTEX
 8
CUBO_6
 10
0
 20
0
 30
0
 70
128
 71
3
 72
4
 73
6
 74
5
 0
VERTEX
 8
CUBO_6
 10
0
 20
0
 30
0
 70
128
 71
5
 72
6
 73
8
 74
7
 0
VERTEX
 8
CUBO_6
 10
0
 20
0
 30
0
 70
128
 71
7
 72
8
 73
2
 74
1
 0
VERTEX
 8
CUBO_6
 10
0
 20
0
 30
0
 70
128
 71
2
 72
8
 73
6
 74
4
 0
VERTEX
 8
CUBO_6
 10
0
 20
0
 30
0
 70
128
 71
7
 72
1
 73
3
 74
5
 0
SEQEND
 0
POLYLINE
 8
CUBO_1
 66
1
 10
0.0
 20
0.0
 30
0.0
 70
64
 71
8
 72
6
 0
VERTEX
 8
CUBO_1
 10
1.8912
 20
-11.995
 30
80.5978
 70
192
 0
VERTEX
 8
CUBO_1
 10
1.8912
 20
-11.995
 30
80.6478
 70
192
 0
VERTEX
 8
CUBO_1
 10
2.8794
 20
-11.995
 30
80.5978
 70
192
 0
VERTEX
 8
CUBO_1
 10
2.8794
 20
-11.995
 30
80.6478
 70
192
 0
VERTEX
 8
CUBO_1
 10
2.8794
 20
-11.0068
 30
80.5978
 70
192
 0
VERTEX
 8
CUBO_1
 10
2.8794
 20
-11.0068
 30
80.6478
 70
192
 0
VERTEX
 8
CUBO_1
 10
1.8912
 20
-11.0068
 30
80.5978
 70
192
 0
VERTEX
 8
CUBO_1
 10
1.8912
 20
-11.0068
 30
80.6478
 70
192
 0
VERTEX
 8
CUBO_1
 10
0
 20
0
 30
0
 70
128
 71
1
 72
2
 73
4
 74
3
 0
VERTEX
 8
CUBO_1
 10
0
 20
0
 30
0
 70
128
 71
3
 72
4
 73
6
 74
5
 0
VERTEX
 8
CUBO_1
 10
0
 20
0
 30
0
 70
128
 71
5
 72
6
 73
8
 74
7
 0
VERTEX
 8
CUBO_1
 10
0
 20
0
 30
0
 70
128
 71
7
 72
8
 73
2
 74
1
 0
VERTEX
 8
CUBO_1
 10
0
 20
0
 30
0
 70
128
 71
2
 72
8
 73
6
 74
4
 0
VERTEX
 8
CUBO_1
 10
0
 20
0
 30
0
 70
128
 71
7
 72
1
 73
3
 74
5
 0
SEQEND
 0
POLYLINE
 8
CUBO_7
 66
1
 10
0.0
 20
0.0
 30
0.0
 70
64
 71
8
 72
6
 0
VERTEX
 8
CUBO_7
 10
1.9861
 20
-11.9005
 30
80.4867
 70
192
 0
VERTEX
 8
CUBO_7
 10
1.9861
 20
-11.9005
 30
80.5979
 70
192
 0
VERTEX
 8
CUBO_7
 10
2.7853
 20
-11.9005
 30
80.4867
 70
192
 0
VERTEX
 8
CUBO_7
 10
2.7853
 20
-11.9005
 30
80.5979
 70
192
 0
VERTEX
 8
CUBO_7
 10
2.7853
 20
-11.1013
 30
80.4867
 70
192
 0
VERTEX
 8
CUBO_7
 10
2.7853
 20
-11.1013
 30
80.5979
 70
192
 0
VERTEX
 8
CUBO_7
 10
1.9861
 20
-11.1013
 30
80.4867
 70
192
 0
VERTEX
 8
CUBO_7
 10
1.9861
 20
-11.1013
 30
80.5979
 70
192
 0
VERTEX
 8
CUBO_7
 10
0
 20
0
 30
0
 70
128
 71
1
 72
2
 73
4
 74
3
 0
VERTEX
 8
CUBO_7
 10
0
 20
0
 30
0
 70
128
 71
3
 72
4
 73
6
 74
5
 0
VERTEX
 8
CUBO_7
 10
0
 20
0
 30
0
 70
128
 71
5
 72
6
 73
8
 74
7
 0
VERTEX
 8
CUBO_7
 10
0
 20
0
 30
0
 70
128
 71
7
 72
8
 73
2
 74
1
 0
VERTEX
 8
CUBO_7
 10
0
 20
0
 30
0
 70
128
 71
2
 72
8
 73
6
 74
4
 0
VERTEX
 8
CUBO_7
 10
0
 20
0
 30
0
 70
128
 71
7
 72
1
 73
3
 74
5
 0
SEQEND
 0
POLYLINE
 8
CUBO_2
 66
1
 10
0.0
 20
0.0
 30
0.0
 70
64
 71
8
 72
6
 0
VERTEX
 8
CUBO_2
 10
0.2908
 20
-11.995
 30
80.5978
 70
192
 0
VERTEX
 8
CUBO_2
 10
0.2908
 20
-11.995
 30
80.6478
 70
192
 0
VERTEX
 8
CUBO_2
 10
1.279
 20
-11.995
 30
80.5978
 70
192
 0
VERTEX
 8
CUBO_2
 10
1.279
 20
-11.995
 30
80.6478
 70
192
 0
VERTEX
 8
CUBO_2
 10
1.279
 20
-11.0068
 30
80.5978
 70
192
 0
VERTEX
 8
CUBO_2
 10
1.279
 20
-11.0068
 30
80.6478
 70
192
 0
VERTEX
 8
CUBO_2
 10
0.2908
 20
-11.0068
 30
80.5978
 70
192
 0
VERTEX
 8
CUBO_2
 10
0.2908
 20
-11.0068
 30
80.6478
 70
192
 0
VERTEX
 8
CUBO_2
 10
0
 20
0
 30
0
 70
128
 71
1
 72
2
 73
4
 74
3
 0
VERTEX
 8
CUBO_2
 10
0
 20
0
 30
0
 70
128
 71
3
 72
4
 73
6
 74
5
 0
VERTEX
 8
CUBO_2
 10
0
 20
0
 30
0
 70
128
 71
5
 72
6
 73
8
 74
7
 0
VERTEX
 8
CUBO_2
 10
0
 20
0
 30
0
 70
128
 71
7
 72
8
 73
2
 74
1
 0
VERTEX
 8
CUBO_2
 10
0
 20
0
 30
0
 70
128
 71
2
 72
8
 73
6
 74
4
 0
VERTEX
 8
CUBO_2
 10
0
 20
0
 30
0
 70
128
 71
7
 72
1
 73
3
 74
5
 0
SEQEND
 0
POLYLINE
 8
CUBO_8
 66
1
 10
0.0
 20
0.0
 30
0.0
 70
64
 71
8
 72
6
 0
VERTEX
 8
CUBO_8
 10
0.3864
 20
-11.9005
 30
80.4867
 70
192
 0
VERTEX
 8
CUBO_8
 10
0.3864
 20
-11.9005
 30
80.5979
 70
192
 0
VERTEX
 8
CUBO_8
 10
1.1856
 20
-11.9005
 30
80.4867
 70
192
 0
VERTEX
 8
CUBO_8
 10
1.1856
 20
-11.9005
 30
80.5979
 70
192
 0
VERTEX
 8
CUBO_8
 10
1.1856
 20
-11.1013
 30
80.4867
 70
192
 0
VERTEX
 8
CUBO_8
 10
1.1856
 20
-11.1013
 30
80.5979
 70
192
 0
VERTEX
 8
CUBO_8
 10
0.3864
 20
-11.1013
 30
80.4867
 70
192
 0
VERTEX
 8
CUBO_8
 10
0.3864
 20
-11.1013
 30
80.5979
 70
192
 0
VERTEX
 8
CUBO_8
 10
0
 20
0
 30
0
 70
128
 71
1
 72
2
 73
4
 74
3
 0
VERTEX
 8
CUBO_8
 10
0
 20
0
 30
0
 70
128
 71
3
 72
4
 73
6
 74
5
 0
VERTEX
 8
CUBO_8
 10
0
 20
0
 30
0
 70
128
 71
5
 72
6
 73
8
 74
7
 0
VERTEX
 8
CUBO_8
 10
0
 20
0
 30
0
 70
128
 71
7
 72
8
 73
2
 74
1
 0
VERTEX
 8
CUBO_8
 10
0
 20
0
 30
0
 70
128
 71
2
 72
8
 73
6
 74
4
 0
VERTEX
 8
CUBO_8
 10
0
 20
0
 30
0
 70
128
 71
7
 72
1
 73
3
 74
5
 0
SEQEND
 0
POLYLINE
 8
CUBO_3
 66
1
 10
0.0
 20
0.0
 30
0.0
 70
64
 71
8
 72
6
 0
VERTEX
 8
CUBO_3
 10
-1.3092
 20
-11.995
 30
80.5978
 70
192
 0
VERTEX
 8
CUBO_3
 10
-1.3092
 20
-11.995
 30
80.6478
 70
192
 0
VERTEX
 8
CUBO_3
 10
-0.321
 20
-11.995
 30
80.5978
 70
192
 0
VERTEX
 8
CUBO_3
 10
-0.321
 20
-11.995
 30
80.6478
 70
192
 0
VERTEX
 8
CUBO_3
 10
-0.321
 20
-11.0068
 30
80.5978
 70
192
 0
VERTEX
 8
CUBO_3
 10
-0.321
 20
-11.0068
 30
80.6478
 70
192
 0
VERTEX
 8
CUBO_3
 10
-1.3092
 20
-11.0068
 30
80.5978
 70
192
 0
VERTEX
 8
CUBO_3
 10
-1.3092
 20
-11.0068
 30
80.6478
 70
192
 0
VERTEX
 8
CUBO_3
 10
0
 20
0
 30
0
 70
128
 71
1
 72
2
 73
4
 74
3
 0
VERTEX
 8
CUBO_3
 10
0
 20
0
 30
0
 70
128
 71
3
 72
4
 73
6
 74
5
 0
VERTEX
 8
CUBO_3
 10
0
 20
0
 30
0
 70
128
 71
5
 72
6
 73
8
 74
7
 0
VERTEX
 8
CUBO_3
 10
0
 20
0
 30
0
 70
128
 71
7
 72
8
 73
2
 74
1
 0
VERTEX
 8
CUBO_3
 10
0
 20
0
 30
0
 70
128
 71
2
 72
8
 73
6
 74
4
 0
VERTEX
 8
CUBO_3
 10
0
 20
0
 30
0
 70
128
 71
7
 72
1
 73
3
 74
5
 0
SEQEND
 0
POLYLINE
 8
CUBO_9
 66
1
 10
0.0
 20
0.0
 30
0.0
 70
64
 71
8
 72
6
 0
VERTEX
 8
CUBO_9
 10
-1.2136
 20
-11.9005
 30
80.4867
 70
192
 0
VERTEX
 8
CUBO_9
 10
-1.2136
 20
-11.9005
 30
80.5979
 70
192
 0
VERTEX
 8
CUBO_9
 10
-0.4144
 20
-11.9005
 30
80.4867
 70
192
 0
VERTEX
 8
CUBO_9
 10
-0.4144
 20
-11.9005
 30
80.5979
 70
192
 0
VERTEX
 8
CUBO_9
 10
-0.4144
 20
-11.1013
 30
80.4867
 70
192
 0
VERTEX
 8
CUBO_9
 10
-0.4144
 20
-11.1013
 30
80.5979
 70
192
 0
VERTEX
 8
CUBO_9
 10
-1.2136
 20
-11.1013
 30
80.4867
 70
192
 0
VERTEX
 8
CUBO_9
 10
-1.2136
 20
-11.1013
 30
80.5979
 70
192
 0
VERTEX
 8
CUBO_9
 10
0
 20
0
 30
0
 70
128
 71
1
 72
2
 73
4
 74
3
 0
VERTEX
 8
CUBO_9
 10
0
 20
0
 30
0
 70
128
 71
3
 72
4
 73
6
 74
5
 0
VERTEX
 8
CUBO_9
 10
0
 20
0
 30
0
 70
128
 71
5
 72
6
 73
8
 74
7
 0
VERTEX
 8
CUBO_9
 10
0
 20
0
 30
0
 70
128
 71
7
 72
8
 73
2
 74
1
 0
VERTEX
 8
CUBO_9
 10
0
 20
0
 30
0
 70
128
 71
2
 72
8
 73
6
 74
4
 0
VERTEX
 8
CUBO_9
 10
0
 20
0
 30
0
 70
128
 71
7
 72
1
 73
3
 74
5
 0
SEQEND
 0
POLYLINE
 8
CUBO_4
 66
1
 10
0.0
 20
0.0
 30
0.0
 70
64
 71
8
 72
6
 0
VERTEX
 8
CUBO_4
 10
-2.9092
 20
-11.995
 30
80.5978
 70
192
 0
VERTEX
 8
CUBO_4
 10
-2.9092
 20
-11.995
 30
80.6478
 70
192
 0
VERTEX
 8
CUBO_4
 10
-1.921
 20
-11.995
 30
80.5978
 70
192
 0
VERTEX
 8
CUBO_4
 10
-1.921
 20
-11.995
 30
80.6478
 70
192
 0
VERTEX
 8
CUBO_4
 10
-1.921
 20
-11.0068
 30
80.5978
 70
192
 0
VERTEX
 8
CUBO_4
 10
-1.921
 20
-11.0068
 30
80.6478
 70
192
 0
VERTEX
 8
CUBO_4
 10
-2.9092
 20
-11.0068
 30
80.5978
 70
192
 0
VERTEX
 8
CUBO_4
 10
-2.9092
 20
-11.0068
 30
80.6478
 70
192
 0
VERTEX
 8
CUBO_4
 10
0
 20
0
 30
0
 70
128
 71
1
 72
2
 73
4
 74
3
 0
VERTEX
 8
CUBO_4
 10
0
 20
0
 30
0
 70
128
 71
3
 72
4
 73
6
 74
5
 0
VERTEX
 8
CUBO_4
 10
0
 20
0
 30
0
 70
128
 71
5
 72
6
 73
8
 74
7
 0
VERTEX
 8
CUBO_4
 10
0
 20
0
 30
0
 70
128
 71
7
 72
8
 73
2
 74
1
 0
VERTEX
 8
CUBO_4
 10
0
 20
0
 30
0
 70
128
 71
2
 72
8
 73
6
 74
4
 0
VERTEX
 8
CUBO_4
 10
0
 20
0
 30
0
 70
128
 71
7
 72
1
 73
3
 74
5
 0
SEQEND
 0
POLYLINE
 8
CUBO_10
 66
1
 10
0.0
 20
0.0
 30
0.0
 70
64
 71
8
 72
6
 0
VERTEX
 8
CUBO_10
 10
-2.8136
 20
-11.9005
 30
80.4867
 70
192
 0
VERTEX
 8
CUBO_10
 10
-2.8136
 20
-11.9005
 30
80.5979
 70
192
 0
VERTEX
 8
CUBO_10
 10
-2.0144
 20
-11.9005
 30
80.4867
 70
192
 0
VERTEX
 8
CUBO_10
 10
-2.0144
 20
-11.9005
 30
80.5979
 70
192
 0
VERTEX
 8
CUBO_10
 10
-2.0144
 20
-11.1013
 30
80.4867
 70
192
 0
VERTEX
 8
CUBO_10
 10
-2.0144
 20
-11.1013
 30
80.5979
 70
192
 0
VERTEX
 8
CUBO_10
 10
-2.8136
 20
-11.1013
 30
80.4867
 70
192
 0
VERTEX
 8
CUBO_10
 10
-2.8136
 20
-11.1013
 30
80.5979
 70
192
 0
VERTEX
 8
CUBO_10
 10
0
 20
0
 30
0
 70
128
 71
1
 72
2
 73
4
 74
3
 0
VERTEX
 8
CUBO_10
 10
0
 20
0
 30
0
 70
128
 71
3
 72
4
 73
6
 74
5
 0
VERTEX
 8
CUBO_10
 10
0
 20
0
 30
0
 70
128
 71
5
 72
6
 73
8
 74
7
 0
VERTEX
 8
CUBO_10
 10
0
 20
0
 30
0
 70
128
 71
7
 72
8
 73
2
 74
1
 0
VERTEX
 8
CUBO_10
 10
0
 20
0
 30
0
 70
128
 71
2
 72
8
 73
6
 74
4
 0
VERTEX
 8
CUBO_10
 10
0
 20
0
 30
0
 70
128
 71
7
 72
1
 73
3
 74
5
 0
SEQEND
 0
POLYLINE
 8
CUBO_5
 66
1
 10
0.0
 20
0.0
 30
0.0
 70
64
 71
8
 72
6
 0
VERTEX
 8
CUBO_5
 10
-4.5092
 20
-11.995
 30
80.5978
 70
192
 0
VERTEX
 8
CUBO_5
 10
-4.5092
 20
-11.995
 30
80.6478
 70
192
 0
VERTEX
 8
CUBO_5
 10
-3.521
 20
-11.995
 30
80.5978
 70
192
 0
VERTEX
 8
CUBO_5
 10
-3.521
 20
-11.995
 30
80.6478
 70
192
 0
VERTEX
 8
CUBO_5
 10
-3.521
 20
-11.0068
 30
80.5978
 70
192
 0
VERTEX
 8
CUBO_5
 10
-3.521
 20
-11.0068
 30
80.6478
 70
192
 0
VERTEX
 8
CUBO_5
 10
-4.5092
 20
-11.0068
 30
80.5978
 70
192
 0
VERTEX
 8
CUBO_5
 10
-4.5092
 20
-11.0068
 30
80.6478
 70
192
 0
VERTEX
 8
CUBO_5
 10
0
 20
0
 30
0
 70
128
 71
1
 72
2
 73
4
 74
3
 0
VERTEX
 8
CUBO_5
 10
0
 20
0
 30
0
 70
128
 71
3
 72
4
 73
6
 74
5
 0
VERTEX
 8
CUBO_5
 10
0
 20
0
 30
0
 70
128
 71
5
 72
6
 73
8
 74
7
 0
VERTEX
 8
CUBO_5
 10
0
 20
0
 30
0
 70
128
 71
7
 72
8
 73
2
 74
1
 0
VERTEX
 8
CUBO_5
 10
0
 20
0
 30
0
 70
128
 71
2
 72
8
 73
6
 74
4
 0
VERTEX
 8
CUBO_5
 10
0
 20
0
 30
0
 70
128
 71
7
 72
1
 73
3
 74
5
 0
SEQEND
 0
POLYLINE
 8
CUBO_11
 66
1
 10
0.0
 20
0.0
 30
0.0
 70
64
 71
8
 72
6
 0
VERTEX
 8
CUBO_11
 10
-4.4136
 20
-11.9005
 30
80.4867
 70
192
 0
VERTEX
 8
CUBO_11
 10
-4.4136
 20
-11.9005
 30
80.5979
 70
192
 0
VERTEX
 8
CUBO_11
 10
-3.6144
 20
-11.9005
 30
80.4867
 70
192
 0
VERTEX
 8
CUBO_11
 10
-3.6144
 20
-11.9005
 30
80.5979
 70
192
 0
VERTEX
 8
CUBO_11
 10
-3.6144
 20
-11.1013
 30
80.4867
 70
192
 0
VERTEX
 8
CUBO_11
 10
-3.6144
 20
-11.1013
 30
80.5979
 70
192
 0
VERTEX
 8
CUBO_11
 10
-4.4136
 20
-11.1013
 30
80.4867
 70
192
 0
VERTEX
 8
CUBO_11
 10
-4.4136
 20
-11.1013
 30
80.5979
 70
192
 0
VERTEX
 8
CUBO_11
 10
0
 20
0
 30
0
 70
128
 71
1
 72
2
 73
4
 74
3
 0
VERTEX
 8
CUBO_11
 10
0
 20
0
 30
0
 70
128
 71
3
 72
4
 73
6
 74
5
 0
VERTEX
 8
CUBO_11
 10
0
 20
0
 30
0
 70
128
 71
5
 72
6
 73
8
 74
7
 0
VERTEX
 8
CUBO_11
 10
0
 20
0
 30
0
 70
128
 71
7
 72
8
 73
2
 74
1
 0
VERTEX
 8
CUBO_11
 10
0
 20
0
 30
0
 70
128
 71
2
 72
8
 73
6
 74
4
 0
VERTEX
 8
CUBO_11
 10
0
 20
0
 30
0
 70
128
 71
7
 72
1
 73
3
 74
5
 0
SEQEND
 0
POLYLINE
 8
MFO-B470
 66
1
 10
0.0
 20
0.0
 30
0.0
 70
64
 71
8
 72
6
 0
VERTEX
 8
MFO-B470
 10
11.0004
 20
-8.69
 30
80.63
 70
192
 0
VERTEX
 8
MFO-B470
 10
11.0004
 20
-8.69
 30
84.72
 70
192
 0
VERTEX
 8
MFO-B470
 10
-10.9998
 20
-8.69
 30
80.63
 70
192
 0
VERTEX
 8
MFO-B470
 10
-10.9998
 20
-8.69
 30
84.72
 70
192
 0
VERTEX
 8
MFO-B470
 10
-10.9998
 20
-12.95
 30
80.63
 70
192
 0
VERTEX
 8
MFO-B470
 10
-10.9998
 20
-12.95
 30
84.72
 70
192
 0
VERTEX
 8
MFO-B470
 10
11.0004
 20
-12.95
 30
80.63
 70
192
 0
VERTEX
 8
MFO-B470
 10
11.0004
 20
-12.95
 30
84.72
 70
192
 0
VERTEX
 8
MFO-B470
 10
0
 20
0
 30
0
 70
128
 71
1
 72
2
 73
4
 74
3
 0
VERTEX
 8
MFO-B470
 10
0
 20
0
 30
0
 70
128
 71
3
 72
4
 73
6
 74
5
 0
VERTEX
 8
MFO-B470
 10
0
 20
0
 30
0
 70
128
 71
5
 72
6
 73
8
 74
7
 0
VERTEX
 8
MFO-B470
 10
0
 20
0
 30
0
 70
128
 71
7
 72
8
 73
2
 74
1
 0
VERTEX
 8
MFO-B470
 10
0
 20
0
 30
0
 70
128
 71
2
 72
8
 73
6
 74
4
 0
VERTEX
 8
MFO-B470
 10
0
 20
0
 30
0
 70
128
 71
7
 72
1
 73
3
 74
5
 0
SEQEND
 0
POLYLINE
 8
MMA-B684
 66
1
 10
0.0
 20
0.0
 30
0.0
 70
64
 71
28
 72
26
 0
VERTEX
 8
MMA-B684
 10
-37.7
 20
-13.1501
 30
79.94
 70
192
 0
VERTEX
 8
MMA-B684
 10
-37.7
 20
-13.1501
 30
87.86
 70
192
 0
VERTEX
 8
MMA-B684
 10
37.7
 20
-13.1501
 30
79.94
 70
192
 0
VERTEX
 8
MMA-B684
 10
37.7
 20
-13.1501
 30
87.86
 70
192
 0
VERTEX
 8
MMA-B684
 10
37.7
 20
13.1501
 30
79.94
 70
192
 0
VERTEX
 8
MMA-B684
 10
37.7
 20
13.1501
 30
87.86
 70
192
 0
VERTEX
 8
MMA-B684
 10
-37.7
 20
13.1501
 30
79.94
 70
192
 0
VERTEX
 8
MMA-B684
 10
-37.7
 20
13.1501
 30
87.86
 70
192
 0
VERTEX
 8
MMA-B684
 10
-37.7
 20
-13.1501
 30
79.8599
 70
192
 0
VERTEX
 8
MMA-B684
 10
37.7
 20
-13.1501
 30
79.8599
 70
192
 0
VERTEX
 8
MMA-B684
 10
37.7
 20
13.1501
 30
79.8599
 70
192
 0
VERTEX
 8
MMA-B684
 10
-37.7
 20
13.1501
 30
79.8599
 70
192
 0
VERTEX
 8
MMA-B684
 10
-38.95
 20
-14.5
 30
79.94
 70
192
 0
VERTEX
 8
MMA-B684
 10
38.95
 20
-14.5
 30
79.94
 70
192
 0
VERTEX
 8
MMA-B684
 10
38.95
 20
14.5
 30
79.94
 70
192
 0
VERTEX
 8
MMA-B684
 10
-38.95
 20
14.5
 30
79.94
 70
192
 0
VERTEX
 8
MMA-B684
 10
-38.95
 20
-14.5
 30
79.8599
 70
192
 0
VERTEX
 8
MMA-B684
 10
38.95
 20
-14.5
 30
79.8599
 70
192
 0
VERTEX
 8
MMA-B684
 10
38.95
 20
14.5
 30
79.8599
 70
192
 0
VERTEX
 8
MMA-B684
 10
-38.95
 20
14.5
 30
79.8599
 70
192
 0
VERTEX
 8
MMA-B684
 10
-37.52
 20
-12.9701
 30
79.8599
 70
192
 0
VERTEX
 8
MMA-B684
 10
37.52
 20
-12.9701
 30
79.8599
 70
192
 0
VERTEX
 8
MMA-B684
 10
37.52
 20
12.9701
 30
79.8599
 70
192
 0
VERTEX
 8
MMA-B684
 10
-37.52
 20
12.9701
 30
79.8599
 70
192
 0
VERTEX
 8
MMA-B684
 10
-37.52
 20
-12.9701
 30
83.3599
 70
192
 0
VERTEX
 8
MMA-B684
 10
37.52
 20
-12.9701
 30
83.3599
 70
192
 0
VERTEX
 8
MMA-B684
 10
37.52
 20
12.9701
 30
83.3599
 70
192
 0
VERTEX
 8
MMA-B684
 10
-37.52
 20
12.9701
 30
83.3599
 70
192
 0
VERTEX
 8
MMA-B684
 10
0
 20
0
 30
0
 70
128
 71
1
 72
2
 73
4
 74
3
 0
VERTEX
 8
MMA-B684
 10
0
 20
0
 30
0
 70
128
 71
3
 72
4
 73
6
 74
5
 0
VERTEX
 8
MMA-B684
 10
0
 20
0
 30
0
 70
128
 71
5
 72
6
 73
8
 74
7
 0
VERTEX
 8
MMA-B684
 10
0
 20
0
 30
0
 70
128
 71
7
 72
8
 73
2
 74
1
 0
VERTEX
 8
MMA-B684
 10
0
 20
0
 30
0
 70
128
 71
2
 72
8
 73
6
 74
4
 0
VERTEX
 8
MMA-B684
 10
0
 20
0
 30
0
 70
128
 71
28
 72
25
 73
26
 74
27
 0
VERTEX
 8
MMA-B684
 10
0
 20
0
 30
0
 70
128
 71
20
 72
16
 73
13
 74
17
 0
VERTEX
 8
MMA-B684
 10
0
 20
0
 30
0
 70
128
 71
17
 72
13
 73
14
 74
18
 0
VERTEX
 8
MMA-B684
 10
0
 20
0
 30
0
 70
128
 71
18
 72
14
 73
15
 74
19
 0
VERTEX
 8
MMA-B684
 10
0
 20
0
 30
0
 70
128
 71
19
 72
15
 73
16
 74
20
 0
VERTEX
 8
MMA-B684
 10
0
 20
0
 30
0
 70
128
 71
16
 72
7
 73
1
 74
13
 0
VERTEX
 8
MMA-B684
 10
0
 20
0
 30
0
 70
128
 71
17
 72
9
 73
12
 74
20
 0
VERTEX
 8
MMA-B684
 10
0
 20
0
 30
0
 70
128
 71
13
 72
1
 73
3
 74
14
 0
VERTEX
 8
MMA-B684
 10
0
 20
0
 30
0
 70
128
 71
18
 72
10
 73
9
 74
17
 0
VERTEX
 8
MMA-B684
 10
0
 20
0
 30
0
 70
128
 71
14
 72
3
 73
5
 74
15
 0
VERTEX
 8
MMA-B684
 10
0
 20
0
 30
0
 70
128
 71
19
 72
11
 73
10
 74
18
 0
VERTEX
 8
MMA-B684
 10
0
 20
0
 30
0
 70
128
 71
15
 72
5
 73
7
 74
16
 0
VERTEX
 8
MMA-B684
 10
0
 20
0
 30
0
 70
128
 71
20
 72
12
 73
11
 74
19
 0
VERTEX
 8
MMA-B684
 10
0
 20
0
 30
0
 70
128
 71
24
 72
12
 73
9
 74
21
 0
VERTEX
 8
MMA-B684
 10
0
 20
0
 30
0
 70
128
 71
21
 72
9
 73
10
 74
22
 0
VERTEX
 8
MMA-B684
 10
0
 20
0
 30
0
 70
128
 71
22
 72
10
 73
11
 74
23
 0
VERTEX
 8
MMA-B684
 10
0
 20
0
 30
0
 70
128
 71
23
 72
11
 73
12
 74
24
 0
VERTEX
 8
MMA-B684
 10
0
 20
0
 30
0
 70
128
 71
28
 72
24
 73
21
 74
25
 0
VERTEX
 8
MMA-B684
 10
0
 20
0
 30
0
 70
128
 71
25
 72
21
 73
22
 74
26
 0
VERTEX
 8
MMA-B684
 10
0
 20
0
 30
0
 70
128
 71
26
 72
22
 73
23
 74
27
 0
VERTEX
 8
MMA-B684
 10
0
 20
0
 30
0
 70
128
 71
27
 72
23
 73
24
 74
28
 0
SEQEND
 0
POLYLINE
 8
MTU-B144
 66
1
 10
0.0
 20
0.0
 30
0.0
 70
64
 71
8
 72
6
 0
VERTEX
 8
MTU-B144
 10
-12.6
 20
-12.86
 30
119.8599
 70
192
 0
VERTEX
 8
MTU-B144
 10
-12.6
 20
-12.86
 30
150.06
 70
192
 0
VERTEX
 8
MTU-B144
 10
12.6
 20
-12.86
 30
119.8599
 70
192
 0
VERTEX
 8
MTU-B144
 10
12.6
 20
-12.86
 30
150.06
 70
192
 0
VERTEX
 8
MTU-B144
 10
12.6
 20
14.09
 30
119.8599
 70
192
 0
VERTEX
 8
MTU-B144
 10
12.6
 20
14.09
 30
150.06
 70
192
 0
VERTEX
 8
MTU-B144
 10
-12.6
 20
14.09
 30
119.8599
 70
192
 0
VERTEX
 8
MTU-B144
 10
-12.6
 20
14.09
 30
150.06
 70
192
 0
VERTEX
 8
MTU-B144
 10
0
 20
0
 30
0
 70
128
 71
1
 72
2
 73
4
 74
3
 0
VERTEX
 8
MTU-B144
 10
0
 20
0
 30
0
 70
128
 71
3
 72
4
 73
6
 74
5
 0
VERTEX
 8
MTU-B144
 10
0
 20
0
 30
0
 70
128
 71
5
 72
6
 73
8
 74
7
 0
VERTEX
 8
MTU-B144
 10
0
 20
0
 30
0
 70
128
 71
7
 72
8
 73
2
 74
1
 0
VERTEX
 8
MTU-B144
 10
0
 20
0
 30
0
 70
128
 71
2
 72
8
 73
6
 74
4
 0
VERTEX
 8
MTU-B144
 10
0
 20
0
 30
0
 70
128
 71
7
 72
1
 73
3
 74
5
 0
SEQEND
 0
POLYLINE
 8
MTU-B143
 66
1
 10
0.0
 20
0.0
 30
0.0
 70
64
 71
8
 72
6
 0
VERTEX
 8
MTU-B143
 10
-12.725
 20
-12.97
 30
87.86
 70
192
 0
VERTEX
 8
MTU-B143
 10
-12.725
 20
-12.97
 30
119.86
 70
192
 0
VERTEX
 8
MTU-B143
 10
12.725
 20
-12.97
 30
87.86
 70
192
 0
VERTEX
 8
MTU-B143
 10
12.725
 20
-12.97
 30
119.86
 70
192
 0
VERTEX
 8
MTU-B143
 10
12.725
 20
14.23
 30
87.86
 70
192
 0
VERTEX
 8
MTU-B143
 10
12.725
 20
14.23
 30
119.86
 70
192
 0
VERTEX
 8
MTU-B143
 10
-12.725
 20
14.23
 30
87.86
 70
192
 0
VERTEX
 8
MTU-B143
 10
-12.725
 20
14.23
 30
119.86
 70
192
 0
VERTEX
 8
MTU-B143
 10
0
 20
0
 30
0
 70
128
 71
1
 72
2
 73
4
 74
3
 0
VERTEX
 8
MTU-B143
 10
0
 20
0
 30
0
 70
128
 71
3
 72
4
 73
6
 74
5
 0
VERTEX
 8
MTU-B143
 10
0
 20
0
 30
0
 70
128
 71
5
 72
6
 73
8
 74
7
 0
VERTEX
 8
MTU-B143
 10
0
 20
0
 30
0
 70
128
 71
7
 72
8
 73
2
 74
1
 0
VERTEX
 8
MTU-B143
 10
0
 20
0
 30
0
 70
128
 71
2
 72
8
 73
6
 74
4
 0
VERTEX
 8
MTU-B143
 10
0
 20
0
 30
0
 70
128
 71
7
 72
1
 73
3
 74
5
 0
SEQEND
 0
POLYLINE
 8
CMA-A214
 66
1
 10
0.0
 20
0.0
 30
0.0
 70
64
 71
96
 72
94
 0
VERTEX
 8
CMA-A214
 10
-35.6203
 20
-11.1357
 30
80.12
 70
192
 0
VERTEX
 8
CMA-A214
 10
-35.6203
 20
-11.1357
 30
80.62
 70
192
 0
VERTEX
 8
CMA-A214
 10
35.6197
 20
-11.1357
 30
80.12
 70
192
 0
VERTEX
 8
CMA-A214
 10
35.6197
 20
-11.1357
 30
80.62
 70
192
 0
VERTEX
 8
CMA-A214
 10
35.6197
 20
11.2743
 30
80.12
 70
192
 0
VERTEX
 8
CMA-A214
 10
35.6197
 20
11.2743
 30
80.62
 70
192
 0
VERTEX
 8
CMA-A214
 10
-35.6203
 20
11.2743
 30
80.12
 70
192
 0
VERTEX
 8
CMA-A214
 10
-35.6203
 20
11.2743
 30
80.62
 70
192
 0
VERTEX
 8
CMA-A214
 10
34.5249
 20
-11.1357
 30
80.62
 70
192
 0
VERTEX
 8
CMA-A214
 10
34.5249
 20
-11.1357
 30
80.12
 70
192
 0
VERTEX
 8
CMA-A214
 10
34.5249
 20
11.2743
 30
80.62
 70
192
 0
VERTEX
 8
CMA-A214
 10
34.5249
 20
11.2743
 30
80.12
 70
192
 0
VERTEX
 8
CMA-A214
 10
-34.5254
 20
-11.1357
 30
80.62
 70
192
 0
VERTEX
 8
CMA-A214
 10
-34.5254
 20
-11.1357
 30
80.12
 70
192
 0
VERTEX
 8
CMA-A214
 10
-34.5254
 20
11.2743
 30
80.62
 70
192
 0
VERTEX
 8
CMA-A214
 10
-34.5254
 20
11.2743
 30
80.12
 70
192
 0
VERTEX
 8
CMA-A214
 10
35.6197
 20
-10.0107
 30
80.62
 70
192
 0
VERTEX
 8
CMA-A214
 10
35.6197
 20
-10.0107
 30
80.12
 70
192
 0
VERTEX
 8
CMA-A214
 10
-35.6203
 20
-10.0107
 30
80.62
 70
192
 0
VERTEX
 8
CMA-A214
 10
-35.6203
 20
-10.0107
 30
80.12
 70
192
 0
VERTEX
 8
CMA-A214
 10
-34.5254
 20
-10.0107
 30
80.62
 70
192
 0
VERTEX
 8
CMA-A214
 10
-34.5254
 20
-10.0107
 30
80.12
 70
192
 0
VERTEX
 8
CMA-A214
 10
34.5249
 20
-10.0107
 30
80.62
 70
192
 0
VERTEX
 8
CMA-A214
 10
34.5249
 20
-10.0107
 30
80.12
 70
192
 0
VERTEX
 8
CMA-A214
 10
-35.6203
 20
10.1493
 30
80.62
 70
192
 0
VERTEX
 8
CMA-A214
 10
-35.6203
 20
10.1493
 30
80.12
 70
192
 0
VERTEX
 8
CMA-A214
 10
-34.5254
 20
10.1493
 30
80.12
 70
192
 0
VERTEX
 8
CMA-A214
 10
35.6197
 20
10.1493
 30
80.62
 70
192
 0
VERTEX
 8
CMA-A214
 10
34.5249
 20
10.1493
 30
80.62
 70
192
 0
VERTEX
 8
CMA-A214
 10
-34.5254
 20
10.1493
 30
80.62
 70
192
 0
VERTEX
 8
CMA-A214
 10
35.6197
 20
10.1493
 30
80.12
 70
192
 0
VERTEX
 8
CMA-A214
 10
34.5249
 20
10.1493
 30
80.12
 70
192
 0
VERTEX
 8
CMA-A214
 10
-35.6203
 20
-11.1357
 30
80.06
 70
192
 0
VERTEX
 8
CMA-A214
 10
35.6197
 20
-11.1357
 30
80.06
 70
192
 0
VERTEX
 8
CMA-A214
 10
35.6197
 20
11.2743
 30
80.06
 70
192
 0
VERTEX
 8
CMA-A214
 10
-35.6203
 20
11.2743
 30
80.06
 70
192
 0
VERTEX
 8
CMA-A214
 10
34.5249
 20
-11.1357
 30
80.06
 70
192
 0
VERTEX
 8
CMA-A214
 10
34.5249
 20
11.2743
 30
80.06
 70
192
 0
VERTEX
 8
CMA-A214
 10
-34.5254
 20
-11.1357
 30
80.06
 70
192
 0
VERTEX
 8
CMA-A214
 10
-34.5254
 20
11.2743
 30
80.06
 70
192
 0
VERTEX
 8
CMA-A214
 10
35.6197
 20
-10.0107
 30
80.06
 70
192
 0
VERTEX
 8
CMA-A214
 10
-35.6203
 20
-10.0107
 30
80.06
 70
192
 0
VERTEX
 8
CMA-A214
 10
-34.5254
 20
-10.0107
 30
80.06
 70
192
 0
VERTEX
 8
CMA-A214
 10
34.5249
 20
-10.0107
 30
80.06
 70
192
 0
VERTEX
 8
CMA-A214
 10
-35.6203
 20
10.1493
 30
80.06
 70
192
 0
VERTEX
 8
CMA-A214
 10
-34.5254
 20
10.1493
 30
80.06
 70
192
 0
VERTEX
 8
CMA-A214
 10
35.6197
 20
10.1493
 30
80.06
 70
192
 0
VERTEX
 8
CMA-A214
 10
34.5249
 20
10.1493
 30
80.06
 70
192
 0
VERTEX
 8
CMA-A214
 10
11.3727
 20
11.2743
 30
80.62
 70
192
 0
VERTEX
 8
CMA-A214
 10
11.3727
 20
11.2743
 30
80.12
 70
192
 0
VERTEX
 8
CMA-A214
 10
11.3727
 20
-11.1357
 30
80.62
 70
192
 0
VERTEX
 8
CMA-A214
 10
11.3727
 20
-11.1357
 30
80.12
 70
192
 0
VERTEX
 8
CMA-A214
 10
11.3727
 20
10.1493
 30
80.62
 70
192
 0
VERTEX
 8
CMA-A214
 10
11.3727
 20
-11.1357
 30
80.06
 70
192
 0
VERTEX
 8
CMA-A214
 10
11.3727
 20
-10.0107
 30
80.06
 70
192
 0
VERTEX
 8
CMA-A214
 10
11.3727
 20
-10.0107
 30
80.62
 70
192
 0
VERTEX
 8
CMA-A214
 10
11.3727
 20
10.1493
 30
80.12
 70
192
 0
VERTEX
 8
CMA-A214
 10
11.3727
 20
-10.0107
 30
80.12
 70
192
 0
VERTEX
 8
CMA-A214
 10
11.3727
 20
11.2743
 30
80.06
 70
192
 0
VERTEX
 8
CMA-A214
 10
11.3727
 20
10.1493
 30
80.06
 70
192
 0
VERTEX
 8
CMA-A214
 10
9.6267
 20
-10.0102
 30
80.62
 70
192
 0
VERTEX
 8
CMA-A214
 10
9.6267
 20
-10.0102
 30
80.12
 70
192
 0
VERTEX
 8
CMA-A214
 10
9.6267
 20
11.2743
 30
80.62
 70
192
 0
VERTEX
 8
CMA-A214
 10
9.6267
 20
10.1493
 30
80.62
 70
192
 0
VERTEX
 8
CMA-A214
 10
9.6267
 20
-10.0102
 30
80.06
 70
192
 0
VERTEX
 8
CMA-A214
 10
9.6267
 20
-8.8852
 30
80.06
 70
192
 0
VERTEX
 8
CMA-A214
 10
9.6267
 20
10.1493
 30
80.12
 70
192
 0
VERTEX
 8
CMA-A214
 10
9.6267
 20
10.1493
 30
80.06
 70
192
 0
VERTEX
 8
CMA-A214
 10
9.6267
 20
11.2743
 30
80.12
 70
192
 0
VERTEX
 8
CMA-A214
 10
9.6267
 20
-8.8852
 30
80.62
 70
192
 0
VERTEX
 8
CMA-A214
 10
9.6267
 20
-8.8852
 30
80.12
 70
192
 0
VERTEX
 8
CMA-A214
 10
9.6267
 20
11.2743
 30
80.06
 70
192
 0
VERTEX
 8
CMA-A214
 10
-9.6277
 20
-10.0102
 30
80.62
 70
192
 0
VERTEX
 8
CMA-A214
 10
-9.6277
 20
-10.0102
 30
80.12
 70
192
 0
VERTEX
 8
CMA-A214
 10
-9.6277
 20
11.2743
 30
80.62
 70
192
 0
VERTEX
 8
CMA-A214
 10
-9.6277
 20
10.1493
 30
80.62
 70
192
 0
VERTEX
 8
CMA-A214
 10
-9.6277
 20
-10.0102
 30
80.06
 70
192
 0
VERTEX
 8
CMA-A214
 10
-9.6277
 20
-8.8852
 30
80.06
 70
192
 0
VERTEX
 8
CMA-A214
 10
-9.6277
 20
10.1493
 30
80.12
 70
192
 0
VERTEX
 8
CMA-A214
 10
-9.6277
 20
10.1493
 30
80.06
 70
192
 0
VERTEX
 8
CMA-A214
 10
-9.6277
 20
11.2743
 30
80.12
 70
192
 0
VERTEX
 8
CMA-A214
 10
-9.6277
 20
-8.8852
 30
80.62
 70
192
 0
VERTEX
 8
CMA-A214
 10
-9.6277
 20
-8.8852
 30
80.12
 70
192
 0
VERTEX
 8
CMA-A214
 10
-9.6277
 20
11.2743
 30
80.06
 70
192
 0
VERTEX
 8
CMA-A214
 10
-11.3739
 20
-10.0107
 30
80.62
 70
192
 0
VERTEX
 8
CMA-A214
 10
-11.3739
 20
10.1493
 30
80.62
 70
192
 0
VERTEX
 8
CMA-A214
 10
-11.3739
 20
-11.1357
 30
80.62
 70
192
 0
VERTEX
 8
CMA-A214
 10
-11.3739
 20
-11.1357
 30
80.12
 70
192
 0
VERTEX
 8
CMA-A214
 10
-11.3739
 20
11.2743
 30
80.06
 70
192
 0
VERTEX
 8
CMA-A214
 10
-11.3739
 20
10.1493
 30
80.06
 70
192
 0
VERTEX
 8
CMA-A214
 10
-11.3739
 20
11.2743
 30
80.62
 70
192
 0
VERTEX
 8
CMA-A214
 10
-11.3739
 20
-11.1357
 30
80.06
 70
192
 0
VERTEX
 8
CMA-A214
 10
-11.3739
 20
-10.0107
 30
80.06
 70
192
 0
VERTEX
 8
CMA-A214
 10
-11.3739
 20
10.1493
 30
80.12
 70
192
 0
VERTEX
 8
CMA-A214
 10
-11.3739
 20
11.2743
 30
80.12
 70
192
 0
VERTEX
 8
CMA-A214
 10
-11.3739
 20
-10.0107
 30
80.12
 70
192
 0
VERTEX
 8
CMA-A214
 10
0
 20
0
 30
0
 70
128
 71
1
 72
2
 73
13
 74
14
 0
VERTEX
 8
CMA-A214
 10
0
 20
0
 30
0
 70
128
 71
3
 72
4
 73
17
 74
18
 0
VERTEX
 8
CMA-A214
 10
0
 20
0
 30
0
 70
128
 71
5
 72
6
 73
11
 74
12
 0
VERTEX
 8
CMA-A214
 10
0
 20
0
 30
0
 70
128
 71
7
 72
8
 73
25
 74
26
 0
VERTEX
 8
CMA-A214
 10
0
 20
0
 30
0
 70
128
 71
2
 72
19
 73
21
 74
13
 0
VERTEX
 8
CMA-A214
 10
0
 20
0
 30
0
 70
128
 71
36
 72
45
 73
46
 74
40
 0
VERTEX
 8
CMA-A214
 10
0
 20
0
 30
0
 70
128
 71
9
 72
4
 73
3
 74
10
 0
VERTEX
 8
CMA-A214
 10
0
 20
0
 30
0
 70
128
 71
11
 72
49
 73
50
 74
12
 0
VERTEX
 8
CMA-A214
 10
0
 20
0
 30
0
 70
128
 71
11
 72
6
 73
28
 74
29
 0
VERTEX
 8
CMA-A214
 10
0
 20
0
 30
0
 70
128
 71
37
 72
34
 73
41
 74
44
 0
VERTEX
 8
CMA-A214
 10
0
 20
0
 30
0
 70
128
 71
13
 72
87
 73
88
 74
14
 0
VERTEX
 8
CMA-A214
 10
0
 20
0
 30
0
 70
128
 71
15
 72
91
 73
86
 74
30
 0
VERTEX
 8
CMA-A214
 10
0
 20
0
 30
0
 70
128
 71
39
 72
92
 73
93
 74
43
 0
VERTEX
 8
CMA-A214
 10
0
 20
0
 30
0
 70
128
 71
15
 72
8
 73
7
 74
16
 0
VERTEX
 8
CMA-A214
 10
0
 20
0
 30
0
 70
128
 71
17
 72
28
 73
31
 74
18
 0
VERTEX
 8
CMA-A214
 10
0
 20
0
 30
0
 70
128
 71
19
 72
2
 73
1
 74
20
 0
VERTEX
 8
CMA-A214
 10
0
 20
0
 30
0
 70
128
 71
19
 72
25
 73
30
 74
21
 0
VERTEX
 8
CMA-A214
 10
0
 20
0
 30
0
 70
128
 71
42
 72
33
 73
39
 74
43
 0
VERTEX
 8
CMA-A214
 10
0
 20
0
 30
0
 70
128
 71
17
 72
4
 73
9
 74
23
 0
VERTEX
 8
CMA-A214
 10
0
 20
0
 30
0
 70
128
 71
41
 72
47
 73
48
 74
44
 0
VERTEX
 8
CMA-A214
 10
0
 20
0
 30
0
 70
128
 71
23
 72
9
 73
51
 74
56
 0
VERTEX
 8
CMA-A214
 10
0
 20
0
 30
0
 70
128
 71
24
 72
32
 73
57
 74
58
 0
VERTEX
 8
CMA-A214
 10
0
 20
0
 30
0
 70
128
 71
25
 72
19
 73
20
 74
26
 0
VERTEX
 8
CMA-A214
 10
0
 20
0
 30
0
 70
128
 71
45
 72
42
 73
43
 74
46
 0
VERTEX
 8
CMA-A214
 10
0
 20
0
 30
0
 70
128
 71
28
 72
17
 73
23
 74
29
 0
VERTEX
 8
CMA-A214
 10
0
 20
0
 30
0
 70
128
 71
29
 72
23
 73
56
 74
53
 0
VERTEX
 8
CMA-A214
 10
0
 20
0
 30
0
 70
128
 71
28
 72
6
 73
5
 74
31
 0
VERTEX
 8
CMA-A214
 10
0
 20
0
 30
0
 70
128
 71
25
 72
8
 73
15
 74
30
 0
VERTEX
 8
CMA-A214
 10
0
 20
0
 30
0
 70
128
 71
47
 72
35
 73
38
 74
48
 0
VERTEX
 8
CMA-A214
 10
0
 20
0
 30
0
 70
128
 71
48
 72
38
 73
59
 74
60
 0
VERTEX
 8
CMA-A214
 10
0
 20
0
 30
0
 70
128
 71
36
 72
7
 73
26
 74
45
 0
VERTEX
 8
CMA-A214
 10
0
 20
0
 30
0
 70
128
 71
40
 72
16
 73
7
 74
36
 0
VERTEX
 8
CMA-A214
 10
0
 20
0
 30
0
 70
128
 71
37
 72
10
 73
3
 74
34
 0
VERTEX
 8
CMA-A214
 10
0
 20
0
 30
0
 70
128
 71
34
 72
3
 73
18
 74
41
 0
VERTEX
 8
CMA-A214
 10
0
 20
0
 30
0
 70
128
 71
39
 72
14
 73
88
 74
92
 0
VERTEX
 8
CMA-A214
 10
0
 20
0
 30
0
 70
128
 71
44
 72
24
 73
58
 74
55
 0
VERTEX
 8
CMA-A214
 10
0
 20
0
 30
0
 70
128
 71
42
 72
20
 73
1
 74
33
 0
VERTEX
 8
CMA-A214
 10
0
 20
0
 30
0
 70
128
 71
33
 72
1
 73
14
 74
39
 0
VERTEX
 8
CMA-A214
 10
0
 20
0
 30
0
 70
128
 71
41
 72
18
 73
31
 74
47
 0
VERTEX
 8
CMA-A214
 10
0
 20
0
 30
0
 70
128
 71
48
 72
32
 73
24
 74
44
 0
VERTEX
 8
CMA-A214
 10
0
 20
0
 30
0
 70
128
 71
45
 72
26
 73
20
 74
42
 0
VERTEX
 8
CMA-A214
 10
0
 20
0
 30
0
 70
128
 71
43
 72
22
 73
27
 74
46
 0
VERTEX
 8
CMA-A214
 10
0
 20
0
 30
0
 70
128
 71
47
 72
31
 73
5
 74
35
 0
VERTEX
 8
CMA-A214
 10
0
 20
0
 30
0
 70
128
 71
35
 72
5
 73
12
 74
38
 0
VERTEX
 8
CMA-A214
 10
0
 20
0
 30
0
 70
128
 71
38
 72
12
 73
50
 74
59
 0
VERTEX
 8
CMA-A214
 10
0
 20
0
 30
0
 70
128
 71
46
 72
27
 73
94
 74
90
 0
VERTEX
 8
CMA-A214
 10
0
 20
0
 30
0
 70
128
 71
49
 72
63
 73
69
 74
50
 0
VERTEX
 8
CMA-A214
 10
0
 20
0
 30
0
 70
128
 71
51
 72
9
 73
10
 74
52
 0
VERTEX
 8
CMA-A214
 10
0
 20
0
 30
0
 70
128
 71
49
 72
11
 73
29
 74
53
 0
VERTEX
 8
CMA-A214
 10
0
 20
0
 30
0
 70
128
 71
54
 72
37
 73
44
 74
55
 0
VERTEX
 8
CMA-A214
 10
0
 20
0
 30
0
 70
128
 71
51
 72
61
 73
70
 74
56
 0
VERTEX
 8
CMA-A214
 10
0
 20
0
 30
0
 70
128
 71
57
 72
67
 73
71
 74
58
 0
VERTEX
 8
CMA-A214
 10
0
 20
0
 30
0
 70
128
 71
56
 72
70
 73
64
 74
53
 0
VERTEX
 8
CMA-A214
 10
0
 20
0
 30
0
 70
128
 71
59
 72
72
 73
68
 74
60
 0
VERTEX
 8
CMA-A214
 10
0
 20
0
 30
0
 70
128
 71
52
 72
10
 73
37
 74
54
 0
VERTEX
 8
CMA-A214
 10
0
 20
0
 30
0
 70
128
 71
58
 72
71
 73
66
 74
55
 0
VERTEX
 8
CMA-A214
 10
0
 20
0
 30
0
 70
128
 71
50
 72
69
 73
72
 74
59
 0
VERTEX
 8
CMA-A214
 10
0
 20
0
 30
0
 70
128
 71
57
 72
32
 73
48
 74
60
 0
VERTEX
 8
CMA-A214
 10
0
 20
0
 30
0
 70
128
 71
61
 72
51
 73
52
 74
62
 0
VERTEX
 8
CMA-A214
 10
0
 20
0
 30
0
 70
128
 71
63
 72
49
 73
53
 74
64
 0
VERTEX
 8
CMA-A214
 10
0
 20
0
 30
0
 70
128
 71
65
 72
54
 73
55
 74
66
 0
VERTEX
 8
CMA-A214
 10
0
 20
0
 30
0
 70
128
 71
62
 72
52
 73
54
 74
65
 0
VERTEX
 8
CMA-A214
 10
0
 20
0
 30
0
 70
128
 71
67
 72
57
 73
60
 74
68
 0
VERTEX
 8
CMA-A214
 10
0
 20
0
 30
0
 70
128
 71
63
 72
75
 73
81
 74
69
 0
VERTEX
 8
CMA-A214
 10
0
 20
0
 30
0
 70
128
 71
61
 72
73
 73
82
 74
70
 0
VERTEX
 8
CMA-A214
 10
0
 20
0
 30
0
 70
128
 71
67
 72
79
 73
83
 74
71
 0
VERTEX
 8
CMA-A214
 10
0
 20
0
 30
0
 70
128
 71
70
 72
82
 73
76
 74
64
 0
VERTEX
 8
CMA-A214
 10
0
 20
0
 30
0
 70
128
 71
72
 72
84
 73
80
 74
68
 0
VERTEX
 8
CMA-A214
 10
0
 20
0
 30
0
 70
128
 71
71
 72
83
 73
78
 74
66
 0
VERTEX
 8
CMA-A214
 10
0
 20
0
 30
0
 70
128
 71
69
 72
81
 73
84
 74
72
 0
VERTEX
 8
CMA-A214
 10
0
 20
0
 30
0
 70
128
 71
73
 72
61
 73
62
 74
74
 0
VERTEX
 8
CMA-A214
 10
0
 20
0
 30
0
 70
128
 71
75
 72
63
 73
64
 74
76
 0
VERTEX
 8
CMA-A214
 10
0
 20
0
 30
0
 70
128
 71
77
 72
65
 73
66
 74
78
 0
VERTEX
 8
CMA-A214
 10
0
 20
0
 30
0
 70
128
 71
74
 72
62
 73
65
 74
77
 0
VERTEX
 8
CMA-A214
 10
0
 20
0
 30
0
 70
128
 71
79
 72
67
 73
68
 74
80
 0
VERTEX
 8
CMA-A214
 10
0
 20
0
 30
0
 70
128
 71
75
 72
91
 73
95
 74
81
 0
VERTEX
 8
CMA-A214
 10
0
 20
0
 30
0
 70
128
 71
73
 72
87
 73
85
 74
82
 0
VERTEX
 8
CMA-A214
 10
0
 20
0
 30
0
 70
128
 71
79
 72
94
 73
96
 74
83
 0
VERTEX
 8
CMA-A214
 10
0
 20
0
 30
0
 70
128
 71
82
 72
85
 73
86
 74
76
 0
VERTEX
 8
CMA-A214
 10
0
 20
0
 30
0
 70
128
 71
84
 72
89
 73
90
 74
80
 0
VERTEX
 8
CMA-A214
 10
0
 20
0
 30
0
 70
128
 71
83
 72
96
 73
93
 74
78
 0
VERTEX
 8
CMA-A214
 10
0
 20
0
 30
0
 70
128
 71
81
 72
95
 73
89
 74
84
 0
VERTEX
 8
CMA-A214
 10
0
 20
0
 30
0
 70
128
 71
85
 72
21
 73
30
 74
86
 0
VERTEX
 8
CMA-A214
 10
0
 20
0
 30
0
 70
128
 71
87
 72
73
 73
74
 74
88
 0
VERTEX
 8
CMA-A214
 10
0
 20
0
 30
0
 70
128
 71
89
 72
40
 73
46
 74
90
 0
VERTEX
 8
CMA-A214
 10
0
 20
0
 30
0
 70
128
 71
91
 72
75
 73
76
 74
86
 0
VERTEX
 8
CMA-A214
 10
0
 20
0
 30
0
 70
128
 71
92
 72
77
 73
78
 74
93
 0
VERTEX
 8
CMA-A214
 10
0
 20
0
 30
0
 70
128
 71
88
 72
74
 73
77
 74
92
 0
VERTEX
 8
CMA-A214
 10
0
 20
0
 30
0
 70
128
 71
94
 72
79
 73
80
 74
90
 0
VERTEX
 8
CMA-A214
 10
0
 20
0
 30
0
 70
128
 71
91
 72
15
 73
16
 74
95
 0
VERTEX
 8
CMA-A214
 10
0
 20
0
 30
0
 70
128
 71
87
 72
13
 73
21
 74
85
 0
VERTEX
 8
CMA-A214
 10
0
 20
0
 30
0
 70
128
 71
94
 72
27
 73
22
 74
96
 0
VERTEX
 8
CMA-A214
 10
0
 20
0
 30
0
 70
128
 71
96
 72
22
 73
43
 74
93
 0
VERTEX
 8
CMA-A214
 10
0
 20
0
 30
0
 70
128
 71
95
 72
16
 73
40
 74
89
 0
SEQEND
 0
POLYLINE
 8
LVT-B421
 66
1
 10
0.0
 20
0.0
 30
0.0
 70
64
 71
24
 72
22
 0
VERTEX
 8
LVT-B421
 10
-34.5253
 20
-10.0107
 30
80.0702
 70
192
 0
VERTEX
 8
LVT-B421
 10
-34.5253
 20
-10.0107
 30
80.1702
 70
192
 0
VERTEX
 8
LVT-B421
 10
34.5247
 20
-10.0107
 30
80.0702
 70
192
 0
VERTEX
 8
LVT-B421
 10
34.5247
 20
-10.0107
 30
80.1702
 70
192
 0
VERTEX
 8
LVT-B421
 10
34.5247
 20
10.1493
 30
80.0702
 70
192
 0
VERTEX
 8
LVT-B421
 10
34.5247
 20
10.1493
 30
80.1702
 70
192
 0
VERTEX
 8
LVT-B421
 10
-34.5253
 20
10.1493
 30
80.0702
 70
192
 0
VERTEX
 8
LVT-B421
 10
-34.5253
 20
10.1493
 30
80.1702
 70
192
 0
VERTEX
 8
LVT-B421
 10
11.3727
 20
-10.0107
 30
80.1702
 70
192
 0
VERTEX
 8
LVT-B421
 10
11.3727
 20
-10.0107
 30
80.0702
 70
192
 0
VERTEX
 8
LVT-B421
 10
11.3727
 20
10.1493
 30
80.1702
 70
192
 0
VERTEX
 8
LVT-B421
 10
11.3727
 20
10.1493
 30
80.0702
 70
192
 0
VERTEX
 8
LVT-B421
 10
9.6267
 20
-8.8852
 30
80.1702
 70
192
 0
VERTEX
 8
LVT-B421
 10
9.6267
 20
-8.8852
 30
80.0702
 70
192
 0
VERTEX
 8
LVT-B421
 10
9.6267
 20
10.1493
 30
80.1702
 70
192
 0
VERTEX
 8
LVT-B421
 10
9.6267
 20
10.1493
 30
80.0702
 70
192
 0
VERTEX
 8
LVT-B421
 10
-9.6277
 20
-8.8852
 30
80.1702
 70
192
 0
VERTEX
 8
LVT-B421
 10
-9.6277
 20
-8.8852
 30
80.0702
 70
192
 0
VERTEX
 8
LVT-B421
 10
-9.6277
 20
10.1493
 30
80.1702
 70
192
 0
VERTEX
 8
LVT-B421
 10
-9.6277
 20
10.1493
 30
80.0702
 70
192
 0
VERTEX
 8
LVT-B421
 10
-11.3739
 20
-10.0107
 30
80.1702
 70
192
 0
VERTEX
 8
LVT-B421
 10
-11.3739
 20
-10.0107
 30
80.0702
 70
192
 0
VERTEX
 8
LVT-B421
 10
-11.3739
 20
10.1493
 30
80.1702
 70
192
 0
VERTEX
 8
LVT-B421
 10
-11.3739
 20
10.1493
 30
80.0702
 70
192
 0
VERTEX
 8
LVT-B421
 10
0
 20
0
 30
0
 70
128
 71
1
 72
2
 73
21
 74
22
 0
VERTEX
 8
LVT-B421
 10
0
 20
0
 30
0
 70
128
 71
3
 72
4
 73
6
 74
5
 0
VERTEX
 8
LVT-B421
 10
0
 20
0
 30
0
 70
128
 71
5
 72
6
 73
11
 74
12
 0
VERTEX
 8
LVT-B421
 10
0
 20
0
 30
0
 70
128
 71
7
 72
8
 73
2
 74
1
 0
VERTEX
 8
LVT-B421
 10
0
 20
0
 30
0
 70
128
 71
2
 72
8
 73
23
 74
21
 0
VERTEX
 8
LVT-B421
 10
0
 20
0
 30
0
 70
128
 71
7
 72
1
 73
22
 74
24
 0
VERTEX
 8
LVT-B421
 10
0
 20
0
 30
0
 70
128
 71
9
 72
4
 73
3
 74
10
 0
VERTEX
 8
LVT-B421
 10
0
 20
0
 30
0
 70
128
 71
11
 72
15
 73
16
 74
12
 0
VERTEX
 8
LVT-B421
 10
0
 20
0
 30
0
 70
128
 71
11
 72
6
 73
4
 74
9
 0
VERTEX
 8
LVT-B421
 10
0
 20
0
 30
0
 70
128
 71
10
 72
3
 73
5
 74
12
 0
VERTEX
 8
LVT-B421
 10
0
 20
0
 30
0
 70
128
 71
13
 72
9
 73
10
 74
14
 0
VERTEX
 8
LVT-B421
 10
0
 20
0
 30
0
 70
128
 71
15
 72
11
 73
9
 74
13
 0
VERTEX
 8
LVT-B421
 10
0
 20
0
 30
0
 70
128
 71
14
 72
10
 73
12
 74
16
 0
VERTEX
 8
LVT-B421
 10
0
 20
0
 30
0
 70
128
 71
15
 72
19
 73
20
 74
16
 0
VERTEX
 8
LVT-B421
 10
0
 20
0
 30
0
 70
128
 71
17
 72
13
 73
14
 74
18
 0
VERTEX
 8
LVT-B421
 10
0
 20
0
 30
0
 70
128
 71
19
 72
15
 73
13
 74
17
 0
VERTEX
 8
LVT-B421
 10
0
 20
0
 30
0
 70
128
 71
18
 72
14
 73
16
 74
20
 0
VERTEX
 8
LVT-B421
 10
0
 20
0
 30
0
 70
128
 71
19
 72
23
 73
24
 74
20
 0
VERTEX
 8
LVT-B421
 10
0
 20
0
 30
0
 70
128
 71
21
 72
17
 73
18
 74
22
 0
VERTEX
 8
LVT-B421
 10
0
 20
0
 30
0
 70
128
 71
23
 72
19
 73
17
 74
21
 0
VERTEX
 8
LVT-B421
 10
0
 20
0
 30
0
 70
128
 71
22
 72
18
 73
20
 74
24
 0
VERTEX
 8
LVT-B421
 10
0
 20
0
 30
0
 70
128
 71
23
 72
8
 73
7
 74
24
 0
SEQEND
 0
ENDSEC
 0
EOF
