 0
SECTION
 2
HEADER
 9
$ACADVER
 1
AC1009
 0
ENDSEC
 0
SECTION
 2
TABLES
 0
TABLE
 2
LTYPE
 70
1
 0
LTYPE
 2
CONTINUOUS
 70
64
 3
solid line
 72
65
 73
0
 40
0.0
 0
ENDTAB
 0
TABLE
 2
LAYER
 70
6
 0
LAYER
 2
0
 70
0
 62
7
 6
CONTINUOUS
 0
LAYER
 2
FBGHD_850_TC_X
 70
64
 62
7
 6
CONTINUOUS
 0
LAYER
 2
LOGO_FULGOR_MILANO
 70
64
 62
7
 6
CONTINUOUS
 0
LAYER
 2
FULGOR
 70
64
 62
7
 6
CONTINUOUS
 0
LAYER
 2
MILANO
 70
64
 62
7
 6
CONTINUOUS
 0
LAYER
 2
VETRO
 70
64
 62
254
 6
CONTINUOUS
 0
LAYER
 2
SERIGRAFIA
 70
64
 62
39
 6
CONTINUOUS
 0
LAYER
 2
MSU-B715
 70
64
 62
253
 6
CONTINUOUS
 0
LAYER
 2
MSU-B716
 70
64
 62
253
 6
CONTINUOUS
 0
LAYER
 2
MSU-B718
 70
64
 62
253
 6
CONTINUOUS
 0
LAYER
 2
MSU-B717
 70
64
 62
253
 6
CONTINUOUS
 0
LAYER
 2
LED
 70
64
 62
253
 6
CONTINUOUS
 0
LAYER
 2
LED_1
 70
64
 62
7
 6
CONTINUOUS
 0
LAYER
 2
CUBO
 70
64
 62
253
 6
CONTINUOUS
 0
LAYER
 2
CUBO_1
 70
64
 62
253
 6
CONTINUOUS
 0
LAYER
 2
MFO-B394
 70
64
 62
253
 6
CONTINUOUS
 0
LAYER
 2
MTU-B144
 70
64
 62
253
 6
CONTINUOUS
 0
LAYER
 2
MTU-B143
 70
64
 62
253
 6
CONTINUOUS
 0
LAYER
 2
MMA-B684
 70
64
 62
253
 6
CONTINUOUS
 0
ENDTAB
 0
ENDSEC
 0
SECTION
 2
BLOCKS
 0
ENDSEC
 0
SECTION
 2
ENTITIES
 0
POLYLINE
 8
FULGOR
 66
1
 10
0.0
 20
0.0
 30
0.0
 70
64
 71
363
 72
183
 0
VERTEX
 8
FULGOR
 10
0.2192
 20
-13.0142
 30
73.1045
 70
192
 0
VERTEX
 8
FULGOR
 10
-2.5003
 20
-13.0257
 30
73.0024
 70
192
 0
VERTEX
 8
FULGOR
 10
1.3401
 20
-13.0228
 30
73.0283
 70
192
 0
VERTEX
 8
FULGOR
 10
-2.3456
 20
-12.9923
 30
73.2974
 70
192
 0
VERTEX
 8
FULGOR
 10
-2.3456
 20
-12.9818
 30
73.3903
 70
192
 0
VERTEX
 8
FULGOR
 10
-1.9658
 20
-12.9818
 30
73.3903
 70
192
 0
VERTEX
 8
FULGOR
 10
-1.9658
 20
-12.9693
 30
73.5003
 70
192
 0
VERTEX
 8
FULGOR
 10
-2.5003
 20
-12.9693
 30
73.5003
 70
192
 0
VERTEX
 8
FULGOR
 10
-1.8087
 20
-13.0012
 30
73.2188
 70
192
 0
VERTEX
 8
FULGOR
 10
-1.8074
 20
-13.0038
 30
73.1955
 70
192
 0
VERTEX
 8
FULGOR
 10
-1.8038
 20
-13.0063
 30
73.1741
 70
192
 0
VERTEX
 8
FULGOR
 10
-2.3456
 20
-13.0257
 30
73.0024
 70
192
 0
VERTEX
 8
FULGOR
 10
-2.3456
 20
-13.0024
 30
73.2088
 70
192
 0
VERTEX
 8
FULGOR
 10
-1.9658
 20
-13.0024
 30
73.2088
 70
192
 0
VERTEX
 8
FULGOR
 10
-1.9658
 20
-12.9923
 30
73.2974
 70
192
 0
VERTEX
 8
FULGOR
 10
-1.8087
 20
-12.9693
 30
73.5003
 70
192
 0
VERTEX
 8
FULGOR
 10
-1.7981
 20
-13.0085
 30
73.1543
 70
192
 0
VERTEX
 8
FULGOR
 10
-1.7904
 20
-13.0106
 30
73.1361
 70
192
 0
VERTEX
 8
FULGOR
 10
-1.7808
 20
-13.0125
 30
73.1195
 70
192
 0
VERTEX
 8
FULGOR
 10
-1.7694
 20
-13.0142
 30
73.1043
 70
192
 0
VERTEX
 8
FULGOR
 10
-1.632
 20
-13.0228
 30
73.0283
 70
192
 0
VERTEX
 8
FULGOR
 10
-1.5789
 20
-13.024
 30
73.0174
 70
192
 0
VERTEX
 8
FULGOR
 10
-1.4927
 20
-13.0251
 30
73.0083
 70
192
 0
VERTEX
 8
FULGOR
 10
-1.4033
 20
-13.0254
 30
73.0055
 70
192
 0
VERTEX
 8
FULGOR
 10
-1.3034
 20
-13.025
 30
73.0091
 70
192
 0
VERTEX
 8
FULGOR
 10
-1.2279
 20
-13.0239
 30
73.019
 70
192
 0
VERTEX
 8
FULGOR
 10
-1.7564
 20
-13.0157
 30
73.0906
 70
192
 0
VERTEX
 8
FULGOR
 10
-1.135
 20
-13.021
 30
73.0442
 70
192
 0
VERTEX
 8
FULGOR
 10
-1.742
 20
-13.0171
 30
73.0783
 70
192
 0
VERTEX
 8
FULGOR
 10
-1.7262
 20
-13.0184
 30
73.0672
 70
192
 0
VERTEX
 8
FULGOR
 10
-1.7003
 20
-13.02
 30
73.0527
 70
192
 0
VERTEX
 8
FULGOR
 10
-1.6722
 20
-13.0214
 30
73.0408
 70
192
 0
VERTEX
 8
FULGOR
 10
-1.0323
 20
-13.0132
 30
73.113
 70
192
 0
VERTEX
 8
FULGOR
 10
-1.1751
 20
-13.0225
 30
73.031
 70
192
 0
VERTEX
 8
FULGOR
 10
-1.107
 20
-13.0196
 30
73.0563
 70
192
 0
VERTEX
 8
FULGOR
 10
-1.0812
 20
-13.018
 30
73.0706
 70
192
 0
VERTEX
 8
FULGOR
 10
-1.0581
 20
-13.0161
 30
73.0872
 70
192
 0
VERTEX
 8
FULGOR
 10
-1.0004
 20
-13.0046
 30
73.1889
 70
192
 0
VERTEX
 8
FULGOR
 10
-0.9992
 20
-13.0023
 30
73.2093
 70
192
 0
VERTEX
 8
FULGOR
 10
-0.999
 20
-12.9693
 30
73.5003
 70
192
 0
VERTEX
 8
FULGOR
 10
-1.0444
 20
-13.0147
 30
73.0995
 70
192
 0
VERTEX
 8
FULGOR
 10
-1.0218
 20
-13.0115
 30
73.1277
 70
192
 0
VERTEX
 8
FULGOR
 10
-1.1538
 20
-13.0021
 30
73.2108
 70
192
 0
VERTEX
 8
FULGOR
 10
-1.1546
 20
-13.0029
 30
73.2038
 70
192
 0
VERTEX
 8
FULGOR
 10
-1.1562
 20
-13.0037
 30
73.1968
 70
192
 0
VERTEX
 8
FULGOR
 10
-1.1585
 20
-13.0045
 30
73.19
 70
192
 0
VERTEX
 8
FULGOR
 10
-1.1616
 20
-13.0053
 30
73.1832
 70
192
 0
VERTEX
 8
FULGOR
 10
-1.1654
 20
-13.006
 30
73.1765
 70
192
 0
VERTEX
 8
FULGOR
 10
-1.17
 20
-13.0068
 30
73.1699
 70
192
 0
VERTEX
 8
FULGOR
 10
-1.1784
 20
-13.0078
 30
73.1604
 70
192
 0
VERTEX
 8
FULGOR
 10
-1.1886
 20
-13.0089
 30
73.1514
 70
192
 0
VERTEX
 8
FULGOR
 10
-1.2007
 20
-13.0098
 30
73.1428
 70
192
 0
VERTEX
 8
FULGOR
 10
-1.2147
 20
-13.0107
 30
73.1348
 70
192
 0
VERTEX
 8
FULGOR
 10
-1.0132
 20
-13.0097
 30
73.1436
 70
192
 0
VERTEX
 8
FULGOR
 10
-1.0065
 20
-13.0078
 30
73.1607
 70
192
 0
VERTEX
 8
FULGOR
 10
-1.0019
 20
-13.0057
 30
73.1791
 70
192
 0
VERTEX
 8
FULGOR
 10
-1.1536
 20
-12.9693
 30
73.5003
 70
192
 0
VERTEX
 8
FULGOR
 10
-1.1536
 20
-13.0013
 30
73.2178
 70
192
 0
VERTEX
 8
FULGOR
 10
-1.4914
 20
-13.014
 30
73.1056
 70
192
 0
VERTEX
 8
FULGOR
 10
-1.2366
 20
-13.0118
 30
73.1253
 70
192
 0
VERTEX
 8
FULGOR
 10
-1.5647
 20
-13.0125
 30
73.1192
 70
192
 0
VERTEX
 8
FULGOR
 10
-1.5873
 20
-13.0116
 30
73.1273
 70
192
 0
VERTEX
 8
FULGOR
 10
-1.2621
 20
-13.0127
 30
73.117
 70
192
 0
VERTEX
 8
FULGOR
 10
-1.2995
 20
-13.0137
 30
73.1089
 70
192
 0
VERTEX
 8
FULGOR
 10
-1.343
 20
-13.0143
 30
73.1036
 70
192
 0
VERTEX
 8
FULGOR
 10
-1.6317
 20
-13.0082
 30
73.1573
 70
192
 0
VERTEX
 8
FULGOR
 10
-1.6371
 20
-13.0074
 30
73.1641
 70
192
 0
VERTEX
 8
FULGOR
 10
-1.6417
 20
-13.0066
 30
73.1711
 70
192
 0
VERTEX
 8
FULGOR
 10
-1.6455
 20
-13.0058
 30
73.1786
 70
192
 0
VERTEX
 8
FULGOR
 10
-1.6487
 20
-13.0049
 30
73.1864
 70
192
 0
VERTEX
 8
FULGOR
 10
-1.4038
 20
-13.0145
 30
73.1014
 70
192
 0
VERTEX
 8
FULGOR
 10
-1.6533
 20
-13.0025
 30
73.2077
 70
192
 0
VERTEX
 8
FULGOR
 10
-1.6541
 20
-13.0009
 30
73.2216
 70
192
 0
VERTEX
 8
FULGOR
 10
-1.6541
 20
-12.9693
 30
73.5003
 70
192
 0
VERTEX
 8
FULGOR
 10
-1.5383
 20
-13.0132
 30
73.1126
 70
192
 0
VERTEX
 8
FULGOR
 10
-1.602
 20
-13.0108
 30
73.1343
 70
192
 0
VERTEX
 8
FULGOR
 10
-1.6147
 20
-13.0099
 30
73.1422
 70
192
 0
VERTEX
 8
FULGOR
 10
-1.6255
 20
-13.0089
 30
73.151
 70
192
 0
VERTEX
 8
FULGOR
 10
-0.6876
 20
-13.0133
 30
73.1124
 70
192
 0
VERTEX
 8
FULGOR
 10
-0.6876
 20
-12.9693
 30
73.5003
 70
192
 0
VERTEX
 8
FULGOR
 10
0.5413
 20
-12.9745
 30
73.4545
 70
192
 0
VERTEX
 8
FULGOR
 10
-1.651
 20
-13.0039
 30
73.1947
 70
192
 0
VERTEX
 8
FULGOR
 10
-0.8424
 20
-12.9693
 30
73.5003
 70
192
 0
VERTEX
 8
FULGOR
 10
0.2353
 20
-12.9694
 30
73.4999
 70
192
 0
VERTEX
 8
FULGOR
 10
-0.8424
 20
-13.0257
 30
73.0024
 70
192
 0
VERTEX
 8
FULGOR
 10
-0.3079
 20
-13.0257
 30
73.0024
 70
192
 0
VERTEX
 8
FULGOR
 10
-0.3079
 20
-13.0133
 30
73.1124
 70
192
 0
VERTEX
 8
FULGOR
 10
0.454
 20
-12.9723
 30
73.4741
 70
192
 0
VERTEX
 8
FULGOR
 10
0.3614
 20
-12.9706
 30
73.4887
 70
192
 0
VERTEX
 8
FULGOR
 10
0.1649
 20
-12.9694
 30
73.4997
 70
192
 0
VERTEX
 8
FULGOR
 10
-0.1065
 20
-12.9779
 30
73.4244
 70
192
 0
VERTEX
 8
FULGOR
 10
-0.1329
 20
-12.9799
 30
73.4073
 70
192
 0
VERTEX
 8
FULGOR
 10
-0.1551
 20
-12.9819
 30
73.3896
 70
192
 0
VERTEX
 8
FULGOR
 10
-0.174
 20
-12.9839
 30
73.3714
 70
192
 0
VERTEX
 8
FULGOR
 10
0.1012
 20
-12.9701
 30
73.4934
 70
192
 0
VERTEX
 8
FULGOR
 10
0.0444
 20
-12.9713
 30
73.4825
 70
192
 0
VERTEX
 8
FULGOR
 10
-0.0112
 20
-12.9731
 30
73.4666
 70
192
 0
VERTEX
 8
FULGOR
 10
-0.2164
 20
-12.9916
 30
73.3039
 70
192
 0
VERTEX
 8
FULGOR
 10
-0.2209
 20
-12.9932
 30
73.2896
 70
192
 0
VERTEX
 8
FULGOR
 10
-0.0615
 20
-12.9754
 30
73.4471
 70
192
 0
VERTEX
 8
FULGOR
 10
-0.0873
 20
-12.9767
 30
73.4349
 70
192
 0
VERTEX
 8
FULGOR
 10
-0.1888
 20
-12.9859
 30
73.3539
 70
192
 0
VERTEX
 8
FULGOR
 10
-0.2253
 20
-12.9998
 30
73.2313
 70
192
 0
VERTEX
 8
FULGOR
 10
-0.1994
 20
-12.9877
 30
73.3386
 70
192
 0
VERTEX
 8
FULGOR
 10
-0.2088
 20
-12.9895
 30
73.3219
 70
192
 0
VERTEX
 8
FULGOR
 10
-0.2241
 20
-12.9949
 30
73.2745
 70
192
 0
VERTEX
 8
FULGOR
 10
-0.2255
 20
-12.9961
 30
73.2641
 70
192
 0
VERTEX
 8
FULGOR
 10
-0.2263
 20
-12.9979
 30
73.2478
 70
192
 0
VERTEX
 8
FULGOR
 10
-0.2224
 20
-13.0016
 30
73.2152
 70
192
 0
VERTEX
 8
FULGOR
 10
-0.1573
 20
-13.0129
 30
73.1156
 70
192
 0
VERTEX
 8
FULGOR
 10
-0.1328
 20
-13.0151
 30
73.0959
 70
192
 0
VERTEX
 8
FULGOR
 10
-0.2176
 20
-13.0034
 30
73.1995
 70
192
 0
VERTEX
 8
FULGOR
 10
-0.0648
 20
-13.0196
 30
73.0562
 70
192
 0
VERTEX
 8
FULGOR
 10
-0.0276
 20
-13.0214
 30
73.0408
 70
192
 0
VERTEX
 8
FULGOR
 10
-0.2112
 20
-13.0051
 30
73.1843
 70
192
 0
VERTEX
 8
FULGOR
 10
-0.2032
 20
-13.0068
 30
73.1695
 70
192
 0
VERTEX
 8
FULGOR
 10
0.1474
 20
-13.0254
 30
73.0049
 70
192
 0
VERTEX
 8
FULGOR
 10
0.1957
 20
-13.0257
 30
73.0026
 70
192
 0
VERTEX
 8
FULGOR
 10
0.2353
 20
-13.0257
 30
73.0028
 70
192
 0
VERTEX
 8
FULGOR
 10
0.2981
 20
-13.0253
 30
73.0064
 70
192
 0
VERTEX
 8
FULGOR
 10
-0.1902
 20
-13.0089
 30
73.1506
 70
192
 0
VERTEX
 8
FULGOR
 10
-0.1748
 20
-13.011
 30
73.1326
 70
192
 0
VERTEX
 8
FULGOR
 10
-0.1001
 20
-13.0175
 30
73.0747
 70
192
 0
VERTEX
 8
FULGOR
 10
0.3636
 20
-12.9964
 30
73.2609
 70
192
 0
VERTEX
 8
FULGOR
 10
0.023
 20
-13.0232
 30
73.0251
 70
192
 0
VERTEX
 8
FULGOR
 10
0.0788
 20
-13.0245
 30
73.0133
 70
192
 0
VERTEX
 8
FULGOR
 10
0.376
 20
-13.0241
 30
73.0166
 70
192
 0
VERTEX
 8
FULGOR
 10
0.5413
 20
-13.0205
 30
73.0482
 70
192
 0
VERTEX
 8
FULGOR
 10
0.1901
 20
-13.0141
 30
73.1047
 70
192
 0
VERTEX
 8
FULGOR
 10
0.1561
 20
-13.0138
 30
73.1074
 70
192
 0
VERTEX
 8
FULGOR
 10
0.5413
 20
-12.9964
 30
73.2609
 70
192
 0
VERTEX
 8
FULGOR
 10
0.0925
 20
-13.0122
 30
73.1216
 70
192
 0
VERTEX
 8
FULGOR
 10
0.0694
 20
-13.0112
 30
73.1305
 70
192
 0
VERTEX
 8
FULGOR
 10
0.3635
 20
-13.013
 30
73.1151
 70
192
 0
VERTEX
 8
FULGOR
 10
0.3433
 20
-13.0134
 30
73.1114
 70
192
 0
VERTEX
 8
FULGOR
 10
0.016
 20
-13.0074
 30
73.1642
 70
192
 0
VERTEX
 8
FULGOR
 10
0.2876
 20
-13.014
 30
73.1058
 70
192
 0
VERTEX
 8
FULGOR
 10
0.2466
 20
-13.0142
 30
73.1042
 70
192
 0
VERTEX
 8
FULGOR
 10
0.1234
 20
-13.0132
 30
73.1131
 70
192
 0
VERTEX
 8
FULGOR
 10
0.0481
 20
-13.01
 30
73.1412
 70
192
 0
VERTEX
 8
FULGOR
 10
-0.0232
 20
-13.0004
 30
73.2261
 70
192
 0
VERTEX
 8
FULGOR
 10
-0.0256
 20
-12.9992
 30
73.2366
 70
192
 0
VERTEX
 8
FULGOR
 10
-0.027
 20
-12.998
 30
73.2475
 70
192
 0
VERTEX
 8
FULGOR
 10
-0.0275
 20
-12.9967
 30
73.2588
 70
192
 0
VERTEX
 8
FULGOR
 10
-0.0269
 20
-12.9954
 30
73.2701
 70
192
 0
VERTEX
 8
FULGOR
 10
0.0289
 20
-13.0086
 30
73.1537
 70
192
 0
VERTEX
 8
FULGOR
 10
0.0046
 20
-13.0061
 30
73.1757
 70
192
 0
VERTEX
 8
FULGOR
 10
-0.0053
 20
-13.0047
 30
73.1882
 70
192
 0
VERTEX
 8
FULGOR
 10
-0.0128
 20
-12.9909
 30
73.3102
 70
192
 0
VERTEX
 8
FULGOR
 10
-0.0068
 20
-12.9899
 30
73.3189
 70
192
 0
VERTEX
 8
FULGOR
 10
0.0001
 20
-12.9889
 30
73.3272
 70
192
 0
VERTEX
 8
FULGOR
 10
-0.0136
 20
-13.0032
 30
73.2016
 70
192
 0
VERTEX
 8
FULGOR
 10
0.0253
 20
-12.9865
 30
73.3491
 70
192
 0
VERTEX
 8
FULGOR
 10
0.04
 20
-12.9854
 30
73.3585
 70
192
 0
VERTEX
 8
FULGOR
 10
-0.02
 20
-13.0015
 30
73.216
 70
192
 0
VERTEX
 8
FULGOR
 10
0.0893
 20
-12.9829
 30
73.3804
 70
192
 0
VERTEX
 8
FULGOR
 10
0.1183
 20
-12.982
 30
73.3886
 70
192
 0
VERTEX
 8
FULGOR
 10
-0.025
 20
-12.9942
 30
73.2809
 70
192
 0
VERTEX
 8
FULGOR
 10
0.1694
 20
-12.9811
 30
73.3966
 70
192
 0
VERTEX
 8
FULGOR
 10
-0.022
 20
-12.993
 30
73.2911
 70
192
 0
VERTEX
 8
FULGOR
 10
0.2939
 20
-12.9815
 30
73.3924
 70
192
 0
VERTEX
 8
FULGOR
 10
-0.0179
 20
-12.9919
 30
73.3009
 70
192
 0
VERTEX
 8
FULGOR
 10
0.5413
 20
-12.9866
 30
73.3482
 70
192
 0
VERTEX
 8
FULGOR
 10
0.6984
 20
-12.9975
 30
73.2513
 70
192
 0
VERTEX
 8
FULGOR
 10
0.6998
 20
-13
 30
73.2292
 70
192
 0
VERTEX
 8
FULGOR
 10
0.012
 20
-12.9876
 30
73.3387
 70
192
 0
VERTEX
 8
FULGOR
 10
0.0611
 20
-12.9842
 30
73.3693
 70
192
 0
VERTEX
 8
FULGOR
 10
0.7181
 20
-13.0067
 30
73.1701
 70
192
 0
VERTEX
 8
FULGOR
 10
0.7286
 20
-13.0087
 30
73.1527
 70
192
 0
VERTEX
 8
FULGOR
 10
0.7409
 20
-13.0105
 30
73.1365
 70
192
 0
VERTEX
 8
FULGOR
 10
0.7551
 20
-13.0123
 30
73.1213
 70
192
 0
VERTEX
 8
FULGOR
 10
0.7792
 20
-13.0146
 30
73.1006
 70
192
 0
VERTEX
 8
FULGOR
 10
0.1528
 20
-12.9813
 30
73.3948
 70
192
 0
VERTEX
 8
FULGOR
 10
0.1901
 20
-12.981
 30
73.3974
 70
192
 0
VERTEX
 8
FULGOR
 10
0.3903
 20
-12.9831
 30
73.3787
 70
192
 0
VERTEX
 8
FULGOR
 10
0.7036
 20
-13.0024
 30
73.2083
 70
192
 0
VERTEX
 8
FULGOR
 10
0.7098
 20
-13.0046
 30
73.1886
 70
192
 0
VERTEX
 8
FULGOR
 10
1.0788
 20
-13.0253
 30
73.0064
 70
192
 0
VERTEX
 8
FULGOR
 10
1.1435
 20
-13.0256
 30
73.0038
 70
192
 0
VERTEX
 8
FULGOR
 10
0.8066
 20
-13.0167
 30
73.0822
 70
192
 0
VERTEX
 8
FULGOR
 10
1.3021
 20
-13.0238
 30
73.019
 70
192
 0
VERTEX
 8
FULGOR
 10
0.8365
 20
-13.0185
 30
73.066
 70
192
 0
VERTEX
 8
FULGOR
 10
0.8797
 20
-13.0206
 30
73.0477
 70
192
 0
VERTEX
 8
FULGOR
 10
0.9374
 20
-13.0226
 30
73.0297
 70
192
 0
VERTEX
 8
FULGOR
 10
1.0087
 20
-13.0243
 30
73.0148
 70
192
 0
VERTEX
 8
FULGOR
 10
1.2197
 20
-13.0252
 30
73.0074
 70
192
 0
VERTEX
 8
FULGOR
 10
1.5391
 20
-13.0114
 30
73.1288
 70
192
 0
VERTEX
 8
FULGOR
 10
1.373
 20
-13.0219
 30
73.0363
 70
192
 0
VERTEX
 8
FULGOR
 10
1.4292
 20
-13.0196
 30
73.0564
 70
192
 0
VERTEX
 8
FULGOR
 10
1.4706
 20
-13.0173
 30
73.0766
 70
192
 0
VERTEX
 8
FULGOR
 10
1.4989
 20
-13.0153
 30
73.0943
 70
192
 0
VERTEX
 8
FULGOR
 10
1.5241
 20
-13.0131
 30
73.1142
 70
192
 0
VERTEX
 8
FULGOR
 10
1.5871
 20
-13.0001
 30
73.2291
 70
192
 0
VERTEX
 8
FULGOR
 10
1.5885
 20
-12.9976
 30
73.2512
 70
192
 0
VERTEX
 8
FULGOR
 10
1.5872
 20
-12.995
 30
73.2733
 70
192
 0
VERTEX
 8
FULGOR
 10
1.5834
 20
-12.9927
 30
73.2942
 70
192
 0
VERTEX
 8
FULGOR
 10
1.5523
 20
-13.0096
 30
73.1444
 70
192
 0
VERTEX
 8
FULGOR
 10
1.5638
 20
-13.0077
 30
73.1612
 70
192
 0
VERTEX
 8
FULGOR
 10
1.5732
 20
-13.0057
 30
73.1791
 70
192
 0
VERTEX
 8
FULGOR
 10
1.5462
 20
-12.9846
 30
73.3659
 70
192
 0
VERTEX
 8
FULGOR
 10
1.5321
 20
-12.9828
 30
73.3811
 70
192
 0
VERTEX
 8
FULGOR
 10
1.5079
 20
-12.9805
 30
73.4018
 70
192
 0
VERTEX
 8
FULGOR
 10
1.4806
 20
-12.9784
 30
73.4202
 70
192
 0
VERTEX
 8
FULGOR
 10
1.4506
 20
-12.9766
 30
73.4364
 70
192
 0
VERTEX
 8
FULGOR
 10
1.4074
 20
-12.9745
 30
73.4548
 70
192
 0
VERTEX
 8
FULGOR
 10
1.5805
 20
-13.0036
 30
73.1982
 70
192
 0
VERTEX
 8
FULGOR
 10
1.5855
 20
-13.0013
 30
73.2185
 70
192
 0
VERTEX
 8
FULGOR
 10
1.5773
 20
-12.9905
 30
73.3139
 70
192
 0
VERTEX
 8
FULGOR
 10
1.5689
 20
-12.9884
 30
73.3324
 70
192
 0
VERTEX
 8
FULGOR
 10
1.0673
 20
-12.9699
 30
73.4953
 70
192
 0
VERTEX
 8
FULGOR
 10
1.5585
 20
-12.9864
 30
73.3497
 70
192
 0
VERTEX
 8
FULGOR
 10
1.3497
 20
-12.9724
 30
73.4728
 70
192
 0
VERTEX
 8
FULGOR
 10
1.2783
 20
-12.9707
 30
73.4878
 70
192
 0
VERTEX
 8
FULGOR
 10
1.2083
 20
-12.9698
 30
73.4962
 70
192
 0
VERTEX
 8
FULGOR
 10
0.7879
 20
-12.9797
 30
73.4085
 70
192
 0
VERTEX
 8
FULGOR
 10
0.7626
 20
-12.982
 30
73.3885
 70
192
 0
VERTEX
 8
FULGOR
 10
0.7477
 20
-12.9836
 30
73.3739
 70
192
 0
VERTEX
 8
FULGOR
 10
0.7344
 20
-12.9854
 30
73.3582
 70
192
 0
VERTEX
 8
FULGOR
 10
0.723
 20
-12.9873
 30
73.3414
 70
192
 0
VERTEX
 8
FULGOR
 10
0.7136
 20
-12.9894
 30
73.3235
 70
192
 0
VERTEX
 8
FULGOR
 10
0.7063
 20
-12.9915
 30
73.3044
 70
192
 0
VERTEX
 8
FULGOR
 10
1.1435
 20
-12.9695
 30
73.4989
 70
192
 0
VERTEX
 8
FULGOR
 10
0.6997
 20
-12.995
 30
73.2735
 70
192
 0
VERTEX
 8
FULGOR
 10
0.8984
 20
-12.9976
 30
73.2512
 70
192
 0
VERTEX
 8
FULGOR
 10
0.8989
 20
-12.9989
 30
73.2392
 70
192
 0
VERTEX
 8
FULGOR
 10
0.9848
 20
-12.9712
 30
73.4837
 70
192
 0
VERTEX
 8
FULGOR
 10
0.9139
 20
-12.9732
 30
73.4664
 70
192
 0
VERTEX
 8
FULGOR
 10
0.8576
 20
-12.9755
 30
73.4463
 70
192
 0
VERTEX
 8
FULGOR
 10
0.8161
 20
-12.9777
 30
73.4261
 70
192
 0
VERTEX
 8
FULGOR
 10
0.7013
 20
-12.9938
 30
73.2841
 70
192
 0
VERTEX
 8
FULGOR
 10
0.9229
 20
-13.0058
 30
73.1787
 70
192
 0
VERTEX
 8
FULGOR
 10
0.93
 20
-13.0067
 30
73.1704
 70
192
 0
VERTEX
 8
FULGOR
 10
0.9005
 20
-13.0002
 30
73.2277
 70
192
 0
VERTEX
 8
FULGOR
 10
0.9031
 20
-13.0014
 30
73.2168
 70
192
 0
VERTEX
 8
FULGOR
 10
0.9067
 20
-13.0026
 30
73.2065
 70
192
 0
VERTEX
 8
FULGOR
 10
0.9112
 20
-13.0037
 30
73.1967
 70
192
 0
VERTEX
 8
FULGOR
 10
1.0191
 20
-13.0123
 30
73.1207
 70
192
 0
VERTEX
 8
FULGOR
 10
1.053
 20
-13.0132
 30
73.1127
 70
192
 0
VERTEX
 8
FULGOR
 10
0.9166
 20
-13.0048
 30
73.1874
 70
192
 0
VERTEX
 8
FULGOR
 10
1.1435
 20
-13.0141
 30
73.1049
 70
192
 0
VERTEX
 8
FULGOR
 10
1.1976
 20
-13.0138
 30
73.1075
 70
192
 0
VERTEX
 8
FULGOR
 10
0.9422
 20
-13.008
 30
73.159
 70
192
 0
VERTEX
 8
FULGOR
 10
1.2744
 20
-13.0121
 30
73.1227
 70
192
 0
VERTEX
 8
FULGOR
 10
1.2988
 20
-13.0111
 30
73.1317
 70
192
 0
VERTEX
 8
FULGOR
 10
1.3209
 20
-13.0098
 30
73.1427
 70
192
 0
VERTEX
 8
FULGOR
 10
0.956
 20
-13.0091
 30
73.1488
 70
192
 0
VERTEX
 8
FULGOR
 10
1.3491
 20
-13.0076
 30
73.1628
 70
192
 0
VERTEX
 8
FULGOR
 10
0.9714
 20
-13.0102
 30
73.1397
 70
192
 0
VERTEX
 8
FULGOR
 10
0.9941
 20
-13.0114
 30
73.1292
 70
192
 0
VERTEX
 8
FULGOR
 10
1.3733
 20
-13.0042
 30
73.1921
 70
192
 0
VERTEX
 8
FULGOR
 10
1.097
 20
-13.0139
 30
73.1068
 70
192
 0
VERTEX
 8
FULGOR
 10
1.241
 20
-13.0131
 30
73.1141
 70
192
 0
VERTEX
 8
FULGOR
 10
1.3358
 20
-13.0088
 30
73.1522
 70
192
 0
VERTEX
 8
FULGOR
 10
1.3875
 20
-12.9996
 30
73.2334
 70
192
 0
VERTEX
 8
FULGOR
 10
1.3882
 20
-12.9989
 30
73.2392
 70
192
 0
VERTEX
 8
FULGOR
 10
1.3887
 20
-12.9976
 30
73.2512
 70
192
 0
VERTEX
 8
FULGOR
 10
1.3882
 20
-12.9962
 30
73.2632
 70
192
 0
VERTEX
 8
FULGOR
 10
1.3607
 20
-13.0062
 30
73.1746
 70
192
 0
VERTEX
 8
FULGOR
 10
1.3674
 20
-13.0053
 30
73.183
 70
192
 0
VERTEX
 8
FULGOR
 10
1.3804
 20
-12.9925
 30
73.2958
 70
192
 0
VERTEX
 8
FULGOR
 10
1.3759
 20
-12.9914
 30
73.3056
 70
192
 0
VERTEX
 8
FULGOR
 10
1.3783
 20
-13.0032
 30
73.2016
 70
192
 0
VERTEX
 8
FULGOR
 10
1.3823
 20
-13.002
 30
73.2117
 70
192
 0
VERTEX
 8
FULGOR
 10
1.357
 20
-12.9884
 30
73.3318
 70
192
 0
VERTEX
 8
FULGOR
 10
1.3854
 20
-13.0008
 30
73.2223
 70
192
 0
VERTEX
 8
FULGOR
 10
1.3866
 20
-12.9949
 30
73.2746
 70
192
 0
VERTEX
 8
FULGOR
 10
1.3156
 20
-12.985
 30
73.3624
 70
192
 0
VERTEX
 8
FULGOR
 10
1.2928
 20
-12.9838
 30
73.3728
 70
192
 0
VERTEX
 8
FULGOR
 10
1.384
 20
-12.9937
 30
73.2854
 70
192
 0
VERTEX
 8
FULGOR
 10
1.3705
 20
-12.9903
 30
73.3148
 70
192
 0
VERTEX
 8
FULGOR
 10
1.3642
 20
-12.9894
 30
73.3235
 70
192
 0
VERTEX
 8
FULGOR
 10
1.3448
 20
-12.9871
 30
73.3431
 70
192
 0
VERTEX
 8
FULGOR
 10
1.0895
 20
-12.9813
 30
73.3944
 70
192
 0
VERTEX
 8
FULGOR
 10
1.0461
 20
-12.9821
 30
73.3879
 70
192
 0
VERTEX
 8
FULGOR
 10
1.0127
 20
-12.983
 30
73.3794
 70
192
 0
VERTEX
 8
FULGOR
 10
1.331
 20
-12.986
 30
73.3533
 70
192
 0
VERTEX
 8
FULGOR
 10
1.2679
 20
-12.9828
 30
73.3813
 70
192
 0
VERTEX
 8
FULGOR
 10
1.2339
 20
-12.9819
 30
73.3893
 70
192
 0
VERTEX
 8
FULGOR
 10
1.19
 20
-12.9812
 30
73.3951
 70
192
 0
VERTEX
 8
FULGOR
 10
1.1435
 20
-12.981
 30
73.397
 70
192
 0
VERTEX
 8
FULGOR
 10
0.9883
 20
-12.984
 30
73.3704
 70
192
 0
VERTEX
 8
FULGOR
 10
0.9662
 20
-12.9853
 30
73.3596
 70
192
 0
VERTEX
 8
FULGOR
 10
0.9513
 20
-12.9863
 30
73.3501
 70
192
 0
VERTEX
 8
FULGOR
 10
0.938
 20
-12.9875
 30
73.3395
 70
192
 0
VERTEX
 8
FULGOR
 10
0.9264
 20
-12.9889
 30
73.3278
 70
192
 0
VERTEX
 8
FULGOR
 10
0.9197
 20
-12.9898
 30
73.3193
 70
192
 0
VERTEX
 8
FULGOR
 10
0.9138
 20
-12.9909
 30
73.3103
 70
192
 0
VERTEX
 8
FULGOR
 10
0.9088
 20
-12.9919
 30
73.3008
 70
192
 0
VERTEX
 8
FULGOR
 10
0.9048
 20
-12.9931
 30
73.2907
 70
192
 0
VERTEX
 8
FULGOR
 10
0.9017
 20
-12.9943
 30
73.2801
 70
192
 0
VERTEX
 8
FULGOR
 10
1.9945
 20
-13.0019
 30
73.2129
 70
192
 0
VERTEX
 8
FULGOR
 10
0.8996
 20
-12.9955
 30
73.269
 70
192
 0
VERTEX
 8
FULGOR
 10
0.8989
 20
-12.9962
 30
73.2632
 70
192
 0
VERTEX
 8
FULGOR
 10
1.7456
 20
-13.0257
 30
73.0024
 70
192
 0
VERTEX
 8
FULGOR
 10
1.9003
 20
-13.0257
 30
73.0024
 70
192
 0
VERTEX
 8
FULGOR
 10
1.9003
 20
-13.0019
 30
73.2129
 70
192
 0
VERTEX
 8
FULGOR
 10
2.1037
 20
-13.0075
 30
73.163
 70
192
 0
VERTEX
 8
FULGOR
 10
2.1157
 20
-13.009
 30
73.1503
 70
192
 0
VERTEX
 8
FULGOR
 10
2.2244
 20
-13.0257
 30
73.0024
 70
192
 0
VERTEX
 8
FULGOR
 10
2.5004
 20
-13.0257
 30
73.0024
 70
192
 0
VERTEX
 8
FULGOR
 10
2.4634
 20
-13.0236
 30
73.0216
 70
192
 0
VERTEX
 8
FULGOR
 10
2.0456
 20
-13.0031
 30
73.2026
 70
192
 0
VERTEX
 8
FULGOR
 10
2.0583
 20
-13.0037
 30
73.1966
 70
192
 0
VERTEX
 8
FULGOR
 10
2.4096
 20
-13.0194
 30
73.0585
 70
192
 0
VERTEX
 8
FULGOR
 10
2.3693
 20
-13.0151
 30
73.0959
 70
192
 0
VERTEX
 8
FULGOR
 10
1.7456
 20
-12.9919
 30
73.3013
 70
192
 0
VERTEX
 8
FULGOR
 10
2.3181
 20
-13.0074
 30
73.1645
 70
192
 0
VERTEX
 8
FULGOR
 10
2.2931
 20
-13.0042
 30
73.1925
 70
192
 0
VERTEX
 8
FULGOR
 10
2.2695
 20
-13.0019
 30
73.2125
 70
192
 0
VERTEX
 8
FULGOR
 10
2.0884
 20
-13.006
 30
73.1766
 70
192
 0
VERTEX
 8
FULGOR
 10
1.262
 20
-13.0245
 30
73.0134
 70
192
 0
VERTEX
 8
FULGOR
 10
2.2128
 20
-12.9985
 30
73.2428
 70
192
 0
VERTEX
 8
FULGOR
 10
2.4322
 20
-13.0214
 30
73.041
 70
192
 0
VERTEX
 8
FULGOR
 10
2.2877
 20
-12.995
 30
73.2741
 70
192
 0
VERTEX
 8
FULGOR
 10
2.2467
 20
-13.0003
 30
73.2273
 70
192
 0
VERTEX
 8
FULGOR
 10
2.3142
 20
-12.9925
 30
73.2956
 70
192
 0
VERTEX
 8
FULGOR
 10
2.2293
 20
-12.9992
 30
73.2365
 70
192
 0
VERTEX
 8
FULGOR
 10
2.339
 20
-12.9882
 30
73.3339
 70
192
 0
VERTEX
 8
FULGOR
 10
2.3445
 20
-12.9858
 30
73.3551
 70
192
 0
VERTEX
 8
FULGOR
 10
2.2487
 20
-12.9972
 30
73.2541
 70
192
 0
VERTEX
 8
FULGOR
 10
2.3422
 20
-12.9811
 30
73.3961
 70
192
 0
VERTEX
 8
FULGOR
 10
2.333
 20
-12.9788
 30
73.4165
 70
192
 0
VERTEX
 8
FULGOR
 10
2.3189
 20
-12.9768
 30
73.4342
 70
192
 0
VERTEX
 8
FULGOR
 10
2.2954
 20
-12.9747
 30
73.4528
 70
192
 0
VERTEX
 8
FULGOR
 10
2.3297
 20
-12.9903
 30
73.3153
 70
192
 0
VERTEX
 8
FULGOR
 10
2.182
 20
-12.9703
 30
73.4921
 70
192
 0
VERTEX
 8
FULGOR
 10
2.1366
 20
-12.9696
 30
73.4981
 70
192
 0
VERTEX
 8
FULGOR
 10
2.3457
 20
-12.9838
 30
73.3729
 70
192
 0
VERTEX
 8
FULGOR
 10
1.9003
 20
-12.9794
 30
73.4117
 70
192
 0
VERTEX
 8
FULGOR
 10
2.2548
 20
-12.9724
 30
73.4728
 70
192
 0
VERTEX
 8
FULGOR
 10
2.0923
 20
-12.9693
 30
73.5003
 70
192
 0
VERTEX
 8
FULGOR
 10
1.7456
 20
-12.9693
 30
73.5003
 70
192
 0
VERTEX
 8
FULGOR
 10
1.9003
 20
-12.9918
 30
73.3015
 70
192
 0
VERTEX
 8
FULGOR
 10
2.0414
 20
-12.9919
 30
73.3013
 70
192
 0
VERTEX
 8
FULGOR
 10
2.0816
 20
-12.9915
 30
73.3046
 70
192
 0
VERTEX
 8
FULGOR
 10
2.127
 20
-12.9897
 30
73.3208
 70
192
 0
VERTEX
 8
FULGOR
 10
2.1369
 20
-12.9888
 30
73.3289
 70
192
 0
VERTEX
 8
FULGOR
 10
2.1431
 20
-12.9879
 30
73.3366
 70
192
 0
VERTEX
 8
FULGOR
 10
2.1486
 20
-12.9848
 30
73.3637
 70
192
 0
VERTEX
 8
FULGOR
 10
2.146
 20
-12.9837
 30
73.3734
 70
192
 0
VERTEX
 8
FULGOR
 10
2.0733
 20
-12.9796
 30
73.41
 70
192
 0
VERTEX
 8
FULGOR
 10
2.1237
 20
-12.9811
 30
73.3961
 70
192
 0
VERTEX
 8
FULGOR
 10
2.0557
 20
-12.9794
 30
73.4114
 70
192
 0
VERTEX
 8
FULGOR
 10
2.1056
 20
-12.9803
 30
73.4035
 70
192
 0
VERTEX
 8
FULGOR
 10
2.0912
 20
-12.9799
 30
73.4072
 70
192
 0
VERTEX
 8
FULGOR
 10
0.9725
 20
-13.0235
 30
73.0224
 70
192
 0
VERTEX
 8
FULGOR
 10
0.9115
 20
-13.0217
 30
73.0378
 70
192
 0
VERTEX
 8
FULGOR
 10
2.0367
 20
-12.9794
 30
73.4117
 70
192
 0
VERTEX
 8
FULGOR
 10
2.0336
 20
-12.9693
 30
73.5003
 70
192
 0
VERTEX
 8
FULGOR
 10
2.1408
 20
-12.9828
 30
73.3818
 70
192
 0
VERTEX
 8
FULGOR
 10
2.134
 20
-12.982
 30
73.3889
 70
192
 0
VERTEX
 8
FULGOR
 10
2.1489
 20
-12.9859
 30
73.3543
 70
192
 0
VERTEX
 8
FULGOR
 10
2.1471
 20
-12.9869
 30
73.3453
 70
192
 0
VERTEX
 8
FULGOR
 10
1.9943
 20
-12.9919
 30
73.3014
 70
192
 0
VERTEX
 8
FULGOR
 10
2.2187
 20
-13.0249
 30
73.0101
 70
192
 0
VERTEX
 8
FULGOR
 10
2.2108
 20
-13.0236
 30
73.021
 70
192
 0
VERTEX
 8
FULGOR
 10
0.1393
 20
-13.0135
 30
73.1103
 70
192
 0
VERTEX
 8
FULGOR
 10
2.1966
 20
-13.0214
 30
73.0405
 70
192
 0
VERTEX
 8
FULGOR
 10
2.1833
 20
-13.0194
 30
73.0586
 70
192
 0
VERTEX
 8
FULGOR
 10
0.1725
 20
-13.014
 30
73.1061
 70
192
 0
VERTEX
 8
FULGOR
 10
1.7456
 20
-13.0019
 30
73.2127
 70
192
 0
VERTEX
 8
FULGOR
 10
2.1479
 20
-13.0138
 30
73.1074
 70
192
 0
VERTEX
 8
FULGOR
 10
2.1346
 20
-13.0118
 30
73.1256
 70
192
 0
VERTEX
 8
FULGOR
 10
0
 20
0
 30
0
 70
128
 71
244
 72
245
 73
188
 74
3
 0
VERTEX
 8
FULGOR
 10
0
 20
0
 30
0
 70
128
 71
137
 72
135
 73
127
 74
120
 0
VERTEX
 8
FULGOR
 10
0
 20
0
 30
0
 70
128
 71
287
 72
288
 73
220
 74
219
 0
VERTEX
 8
FULGOR
 10
0
 20
0
 30
0
 70
128
 71
135
 72
134
 73
128
 74
127
 0
VERTEX
 8
FULGOR
 10
0
 20
0
 30
0
 70
128
 71
145
 72
144
 73
106
 74
99
 0
VERTEX
 8
FULGOR
 10
0
 20
0
 30
0
 70
128
 71
152
 72
148
 73
115
 74
112
 0
VERTEX
 8
FULGOR
 10
0
 20
0
 30
0
 70
128
 71
288
 72
289
 73
221
 74
220
 0
VERTEX
 8
FULGOR
 10
0
 20
0
 30
0
 70
128
 71
155
 72
152
 73
112
 74
109
 0
VERTEX
 8
FULGOR
 10
0
 20
0
 30
0
 70
128
 71
141
 72
155
 73
109
 74
103
 0
VERTEX
 8
FULGOR
 10
0
 20
0
 30
0
 70
128
 71
289
 72
290
 73
230
 74
221
 0
VERTEX
 8
FULGOR
 10
0
 20
0
 30
0
 70
128
 71
290
 72
292
 73
223
 74
230
 0
VERTEX
 8
FULGOR
 10
0
 20
0
 30
0
 70
128
 71
142
 72
141
 73
103
 74
108
 0
VERTEX
 8
FULGOR
 10
0
 20
0
 30
0
 70
128
 71
143
 72
142
 73
108
 74
107
 0
VERTEX
 8
FULGOR
 10
0
 20
0
 30
0
 70
128
 71
144
 72
143
 73
107
 74
106
 0
VERTEX
 8
FULGOR
 10
0
 20
0
 30
0
 70
128
 71
254
 72
255
 73
207
 74
206
 0
VERTEX
 8
FULGOR
 10
0
 20
0
 30
0
 70
128
 71
265
 72
254
 73
206
 74
199
 0
VERTEX
 8
FULGOR
 10
0
 20
0
 30
0
 70
128
 71
263
 72
265
 73
199
 74
198
 0
VERTEX
 8
FULGOR
 10
0
 20
0
 30
0
 70
128
 71
251
 72
240
 73
179
 74
178
 0
VERTEX
 8
FULGOR
 10
0
 20
0
 30
0
 70
128
 71
5
 72
8
 73
7
 74
6
 0
VERTEX
 8
FULGOR
 10
0
 20
0
 30
0
 70
128
 71
8
 72
5
 73
4
 74
4
 0
VERTEX
 8
FULGOR
 10
0
 20
0
 30
0
 70
128
 71
8
 72
4
 73
13
 74
2
 0
VERTEX
 8
FULGOR
 10
0
 20
0
 30
0
 70
128
 71
237
 72
238
 73
185
 74
346
 0
VERTEX
 8
FULGOR
 10
0
 20
0
 30
0
 70
128
 71
339
 72
340
 73
321
 74
328
 0
VERTEX
 8
FULGOR
 10
0
 20
0
 30
0
 70
128
 71
161
 72
174
 73
84
 74
89
 0
VERTEX
 8
FULGOR
 10
0
 20
0
 30
0
 70
128
 71
174
 72
159
 73
90
 74
84
 0
VERTEX
 8
FULGOR
 10
0
 20
0
 30
0
 70
128
 71
249
 72
237
 73
346
 74
184
 0
VERTEX
 8
FULGOR
 10
0
 20
0
 30
0
 70
128
 71
248
 72
249
 73
184
 74
347
 0
VERTEX
 8
FULGOR
 10
0
 20
0
 30
0
 70
128
 71
159
 72
173
 73
95
 74
90
 0
VERTEX
 8
FULGOR
 10
0
 20
0
 30
0
 70
128
 71
173
 72
157
 73
96
 74
95
 0
VERTEX
 8
FULGOR
 10
0
 20
0
 30
0
 70
128
 71
246
 72
248
 73
347
 74
183
 0
VERTEX
 8
FULGOR
 10
0
 20
0
 30
0
 70
128
 71
362
 72
307
 73
305
 74
359
 0
VERTEX
 8
FULGOR
 10
0
 20
0
 30
0
 70
128
 71
151
 72
150
 73
94
 74
93
 0
VERTEX
 8
FULGOR
 10
0
 20
0
 30
0
 70
128
 71
353
 72
352
 73
319
 74
318
 0
VERTEX
 8
FULGOR
 10
0
 20
0
 30
0
 70
128
 71
175
 72
161
 73
89
 74
88
 0
VERTEX
 8
FULGOR
 10
0
 20
0
 30
0
 70
128
 71
253
 72
247
 73
190
 74
189
 0
VERTEX
 8
FULGOR
 10
0
 20
0
 30
0
 70
128
 71
153
 72
166
 73
92
 74
91
 0
VERTEX
 8
FULGOR
 10
0
 20
0
 30
0
 70
128
 71
166
 72
151
 73
93
 74
92
 0
VERTEX
 8
FULGOR
 10
0
 20
0
 30
0
 70
128
 71
273
 72
274
 73
226
 74
210
 0
VERTEX
 8
FULGOR
 10
0
 20
0
 30
0
 70
128
 71
163
 72
175
 73
88
 74
81
 0
VERTEX
 8
FULGOR
 10
0
 20
0
 30
0
 70
128
 71
167
 72
154
 73
101
 74
100
 0
VERTEX
 8
FULGOR
 10
0
 20
0
 30
0
 70
128
 71
154
 72
153
 73
91
 74
101
 0
VERTEX
 8
FULGOR
 10
0
 20
0
 30
0
 70
128
 71
274
 72
275
 73
227
 74
226
 0
VERTEX
 8
FULGOR
 10
0
 20
0
 30
0
 70
128
 71
13
 72
12
 73
2
 74
2
 0
VERTEX
 8
FULGOR
 10
0
 20
0
 30
0
 70
128
 71
13
 72
4
 73
15
 74
14
 0
VERTEX
 8
FULGOR
 10
0
 20
0
 30
0
 70
128
 71
16
 72
74
 73
73
 74
9
 0
VERTEX
 8
FULGOR
 10
0
 20
0
 30
0
 70
128
 71
73
 72
72
 73
10
 74
9
 0
VERTEX
 8
FULGOR
 10
0
 20
0
 30
0
 70
128
 71
72
 72
82
 73
11
 74
10
 0
VERTEX
 8
FULGOR
 10
0
 20
0
 30
0
 70
128
 71
82
 72
70
 73
18
 74
17
 0
VERTEX
 8
FULGOR
 10
0
 20
0
 30
0
 70
128
 71
58
 72
57
 73
40
 74
39
 0
VERTEX
 8
FULGOR
 10
0
 20
0
 30
0
 70
128
 71
82
 72
17
 73
11
 74
11
 0
VERTEX
 8
FULGOR
 10
0
 20
0
 30
0
 70
128
 71
43
 72
58
 73
39
 74
38
 0
VERTEX
 8
FULGOR
 10
0
 20
0
 30
0
 70
128
 71
70
 72
69
 73
20
 74
19
 0
VERTEX
 8
FULGOR
 10
0
 20
0
 30
0
 70
128
 71
70
 72
19
 73
18
 74
18
 0
VERTEX
 8
FULGOR
 10
0
 20
0
 30
0
 70
128
 71
69
 72
68
 73
27
 74
20
 0
VERTEX
 8
FULGOR
 10
0
 20
0
 30
0
 70
128
 71
68
 72
67
 73
29
 74
27
 0
VERTEX
 8
FULGOR
 10
0
 20
0
 30
0
 70
128
 71
67
 72
66
 73
30
 74
29
 0
VERTEX
 8
FULGOR
 10
0
 20
0
 30
0
 70
128
 71
66
 72
78
 73
31
 74
30
 0
VERTEX
 8
FULGOR
 10
0
 20
0
 30
0
 70
128
 71
78
 72
77
 73
32
 74
31
 0
VERTEX
 8
FULGOR
 10
0
 20
0
 30
0
 70
128
 71
32
 72
77
 73
76
 74
21
 0
VERTEX
 8
FULGOR
 10
0
 20
0
 30
0
 70
128
 71
76
 72
62
 73
21
 74
21
 0
VERTEX
 8
FULGOR
 10
0
 20
0
 30
0
 70
128
 71
62
 72
61
 73
22
 74
21
 0
VERTEX
 8
FULGOR
 10
0
 20
0
 30
0
 70
128
 71
61
 72
75
 73
22
 74
22
 0
VERTEX
 8
FULGOR
 10
0
 20
0
 30
0
 70
128
 71
75
 72
59
 73
23
 74
22
 0
VERTEX
 8
FULGOR
 10
0
 20
0
 30
0
 70
128
 71
23
 72
59
 73
71
 74
24
 0
VERTEX
 8
FULGOR
 10
0
 20
0
 30
0
 70
128
 71
275
 72
281
 73
228
 74
227
 0
VERTEX
 8
FULGOR
 10
0
 20
0
 30
0
 70
128
 71
157
 72
156
 73
97
 74
96
 0
VERTEX
 8
FULGOR
 10
0
 20
0
 30
0
 70
128
 71
291
 72
296
 73
333
 74
354
 0
VERTEX
 8
FULGOR
 10
0
 20
0
 30
0
 70
128
 71
281
 72
282
 73
229
 74
228
 0
VERTEX
 8
FULGOR
 10
0
 20
0
 30
0
 70
128
 71
282
 72
283
 73
215
 74
229
 0
VERTEX
 8
FULGOR
 10
0
 20
0
 30
0
 70
128
 71
283
 72
284
 73
216
 74
215
 0
VERTEX
 8
FULGOR
 10
0
 20
0
 30
0
 70
128
 71
129
 72
1
 73
118
 74
117
 0
VERTEX
 8
FULGOR
 10
0
 20
0
 30
0
 70
128
 71
238
 72
251
 73
178
 74
185
 0
VERTEX
 8
FULGOR
 10
0
 20
0
 30
0
 70
128
 71
245
 72
253
 73
189
 74
188
 0
VERTEX
 8
FULGOR
 10
0
 20
0
 30
0
 70
128
 71
337
 72
338
 73
325
 74
316
 0
VERTEX
 8
FULGOR
 10
0
 20
0
 30
0
 70
128
 71
336
 72
337
 73
316
 74
314
 0
VERTEX
 8
FULGOR
 10
0
 20
0
 30
0
 70
128
 71
241
 72
252
 73
311
 74
186
 0
VERTEX
 8
FULGOR
 10
0
 20
0
 30
0
 70
128
 71
24
 72
71
 73
65
 74
25
 0
VERTEX
 8
FULGOR
 10
0
 20
0
 30
0
 70
128
 71
65
 72
64
 73
25
 74
25
 0
VERTEX
 8
FULGOR
 10
0
 20
0
 30
0
 70
128
 71
156
 72
167
 73
100
 74
97
 0
VERTEX
 8
FULGOR
 10
0
 20
0
 30
0
 70
128
 71
149
 72
162
 73
104
 74
102
 0
VERTEX
 8
FULGOR
 10
0
 20
0
 30
0
 70
128
 71
64
 72
63
 73
26
 74
25
 0
VERTEX
 8
FULGOR
 10
0
 20
0
 30
0
 70
128
 71
162
 72
160
 73
105
 74
104
 0
VERTEX
 8
FULGOR
 10
0
 20
0
 30
0
 70
128
 71
63
 72
60
 73
26
 74
26
 0
VERTEX
 8
FULGOR
 10
0
 20
0
 30
0
 70
128
 71
266
 72
269
 73
196
 74
195
 0
VERTEX
 8
FULGOR
 10
0
 20
0
 30
0
 70
128
 71
360
 72
129
 73
117
 74
126
 0
VERTEX
 8
FULGOR
 10
0
 20
0
 30
0
 70
128
 71
60
 72
53
 73
34
 74
26
 0
VERTEX
 8
FULGOR
 10
0
 20
0
 30
0
 70
128
 71
53
 72
52
 73
34
 74
34
 0
VERTEX
 8
FULGOR
 10
0
 20
0
 30
0
 70
128
 71
52
 72
51
 73
28
 74
34
 0
VERTEX
 8
FULGOR
 10
0
 20
0
 30
0
 70
128
 71
51
 72
50
 73
35
 74
28
 0
VERTEX
 8
FULGOR
 10
0
 20
0
 30
0
 70
128
 71
50
 72
49
 73
36
 74
35
 0
VERTEX
 8
FULGOR
 10
0
 20
0
 30
0
 70
128
 71
36
 72
49
 73
48
 74
37
 0
VERTEX
 8
FULGOR
 10
0
 20
0
 30
0
 70
128
 71
44
 72
43
 73
38
 74
56
 0
VERTEX
 8
FULGOR
 10
0
 20
0
 30
0
 70
128
 71
37
 72
48
 73
47
 74
41
 0
VERTEX
 8
FULGOR
 10
0
 20
0
 30
0
 70
128
 71
33
 72
47
 73
46
 74
42
 0
VERTEX
 8
FULGOR
 10
0
 20
0
 30
0
 70
128
 71
45
 72
55
 73
54
 74
54
 0
VERTEX
 8
FULGOR
 10
0
 20
0
 30
0
 70
128
 71
47
 72
33
 73
41
 74
41
 0
VERTEX
 8
FULGOR
 10
0
 20
0
 30
0
 70
128
 71
42
 72
46
 73
45
 74
54
 0
VERTEX
 8
FULGOR
 10
0
 20
0
 30
0
 70
128
 71
55
 72
45
 73
44
 74
56
 0
VERTEX
 8
FULGOR
 10
0
 20
0
 30
0
 70
128
 71
83
 72
80
 73
79
 74
85
 0
VERTEX
 8
FULGOR
 10
0
 20
0
 30
0
 70
128
 71
79
 72
87
 73
86
 74
85
 0
VERTEX
 8
FULGOR
 10
0
 20
0
 30
0
 70
128
 71
134
 72
124
 73
131
 74
128
 0
VERTEX
 8
FULGOR
 10
0
 20
0
 30
0
 70
128
 71
334
 72
335
 73
320
 74
312
 0
VERTEX
 8
FULGOR
 10
0
 20
0
 30
0
 70
128
 71
308
 72
307
 73
362
 74
363
 0
VERTEX
 8
FULGOR
 10
0
 20
0
 30
0
 70
128
 71
139
 72
357
 73
114
 74
113
 0
VERTEX
 8
FULGOR
 10
0
 20
0
 30
0
 70
128
 71
305
 72
304
 73
358
 74
359
 0
VERTEX
 8
FULGOR
 10
0
 20
0
 30
0
 70
128
 71
335
 72
336
 73
314
 74
320
 0
VERTEX
 8
FULGOR
 10
0
 20
0
 30
0
 70
128
 71
355
 72
356
 73
313
 74
301
 0
VERTEX
 8
FULGOR
 10
0
 20
0
 30
0
 70
128
 71
301
 72
300
 73
299
 74
355
 0
VERTEX
 8
FULGOR
 10
0
 20
0
 30
0
 70
128
 71
352
 72
339
 73
328
 74
319
 0
VERTEX
 8
FULGOR
 10
0
 20
0
 30
0
 70
128
 71
343
 72
348
 73
349
 74
331
 0
VERTEX
 8
FULGOR
 10
0
 20
0
 30
0
 70
128
 71
342
 72
344
 73
330
 74
324
 0
VERTEX
 8
FULGOR
 10
0
 20
0
 30
0
 70
128
 71
262
 72
263
 73
198
 74
197
 0
VERTEX
 8
FULGOR
 10
0
 20
0
 30
0
 70
128
 71
303
 72
312
 73
317
 74
310
 0
VERTEX
 8
FULGOR
 10
0
 20
0
 30
0
 70
128
 71
250
 72
262
 73
197
 74
187
 0
VERTEX
 8
FULGOR
 10
0
 20
0
 30
0
 70
128
 71
291
 72
354
 73
334
 74
302
 0
VERTEX
 8
FULGOR
 10
0
 20
0
 30
0
 70
128
 71
341
 72
343
 73
331
 74
327
 0
VERTEX
 8
FULGOR
 10
0
 20
0
 30
0
 70
128
 71
150
 72
149
 73
102
 74
94
 0
VERTEX
 8
FULGOR
 10
0
 20
0
 30
0
 70
128
 71
1
 72
138
 73
119
 74
118
 0
VERTEX
 8
FULGOR
 10
0
 20
0
 30
0
 70
128
 71
338
 72
353
 73
318
 74
325
 0
VERTEX
 8
FULGOR
 10
0
 20
0
 30
0
 70
128
 71
280
 72
273
 73
210
 74
222
 0
VERTEX
 8
FULGOR
 10
0
 20
0
 30
0
 70
128
 71
285
 72
286
 73
218
 74
217
 0
VERTEX
 8
FULGOR
 10
0
 20
0
 30
0
 70
128
 71
160
 72
158
 73
98
 74
105
 0
VERTEX
 8
FULGOR
 10
0
 20
0
 30
0
 70
128
 71
138
 72
137
 73
120
 74
119
 0
VERTEX
 8
FULGOR
 10
0
 20
0
 30
0
 70
128
 71
286
 72
287
 73
219
 74
218
 0
VERTEX
 8
FULGOR
 10
0
 20
0
 30
0
 70
128
 71
261
 72
270
 73
211
 74
209
 0
VERTEX
 8
FULGOR
 10
0
 20
0
 30
0
 70
128
 71
348
 72
329
 73
332
 74
349
 0
VERTEX
 8
FULGOR
 10
0
 20
0
 30
0
 70
128
 71
329
 72
333
 73
306
 74
332
 0
VERTEX
 8
FULGOR
 10
0
 20
0
 30
0
 70
128
 71
333
 72
296
 73
361
 74
306
 0
VERTEX
 8
FULGOR
 10
0
 20
0
 30
0
 70
128
 71
296
 72
295
 73
294
 74
361
 0
VERTEX
 8
FULGOR
 10
0
 20
0
 30
0
 70
128
 71
358
 72
304
 73
313
 74
356
 0
VERTEX
 8
FULGOR
 10
0
 20
0
 30
0
 70
128
 71
148
 72
147
 73
116
 74
115
 0
VERTEX
 8
FULGOR
 10
0
 20
0
 30
0
 70
128
 71
158
 72
145
 73
99
 74
98
 0
VERTEX
 8
FULGOR
 10
0
 20
0
 30
0
 70
128
 71
260
 72
261
 73
209
 74
208
 0
VERTEX
 8
FULGOR
 10
0
 20
0
 30
0
 70
128
 71
269
 72
260
 73
208
 74
196
 0
VERTEX
 8
FULGOR
 10
0
 20
0
 30
0
 70
128
 71
276
 72
267
 73
204
 74
203
 0
VERTEX
 8
FULGOR
 10
0
 20
0
 30
0
 70
128
 71
232
 72
242
 73
182
 74
180
 0
VERTEX
 8
FULGOR
 10
0
 20
0
 30
0
 70
128
 71
242
 72
246
 73
183
 74
182
 0
VERTEX
 8
FULGOR
 10
0
 20
0
 30
0
 70
128
 71
272
 72
276
 73
203
 74
202
 0
VERTEX
 8
FULGOR
 10
0
 20
0
 30
0
 70
128
 71
264
 72
272
 73
202
 74
201
 0
VERTEX
 8
FULGOR
 10
0
 20
0
 30
0
 70
128
 71
240
 72
241
 73
186
 74
179
 0
VERTEX
 8
FULGOR
 10
0
 20
0
 30
0
 70
128
 71
147
 72
136
 73
121
 74
116
 0
VERTEX
 8
FULGOR
 10
0
 20
0
 30
0
 70
128
 71
340
 72
350
 73
322
 74
321
 0
VERTEX
 8
FULGOR
 10
0
 20
0
 30
0
 70
128
 71
303
 72
302
 73
334
 74
312
 0
VERTEX
 8
FULGOR
 10
0
 20
0
 30
0
 70
128
 71
345
 72
341
 73
327
 74
326
 0
VERTEX
 8
FULGOR
 10
0
 20
0
 30
0
 70
128
 71
252
 72
243
 73
181
 74
311
 0
VERTEX
 8
FULGOR
 10
0
 20
0
 30
0
 70
128
 71
344
 72
345
 73
326
 74
330
 0
VERTEX
 8
FULGOR
 10
0
 20
0
 30
0
 70
128
 71
231
 72
232
 73
180
 74
172
 0
VERTEX
 8
FULGOR
 10
0
 20
0
 30
0
 70
128
 71
257
 72
266
 73
195
 74
194
 0
VERTEX
 8
FULGOR
 10
0
 20
0
 30
0
 70
128
 71
256
 72
257
 73
194
 74
193
 0
VERTEX
 8
FULGOR
 10
0
 20
0
 30
0
 70
128
 71
297
 72
310
 73
317
 74
315
 0
VERTEX
 8
FULGOR
 10
0
 20
0
 30
0
 70
128
 71
357
 72
130
 73
125
 74
114
 0
VERTEX
 8
FULGOR
 10
0
 20
0
 30
0
 70
128
 71
255
 72
256
 73
193
 74
207
 0
VERTEX
 8
FULGOR
 10
0
 20
0
 30
0
 70
128
 71
298
 72
297
 73
315
 74
309
 0
VERTEX
 8
FULGOR
 10
0
 20
0
 30
0
 70
128
 71
298
 72
309
 73
308
 74
363
 0
VERTEX
 8
FULGOR
 10
0
 20
0
 30
0
 70
128
 71
243
 72
244
 73
3
 74
181
 0
VERTEX
 8
FULGOR
 10
0
 20
0
 30
0
 70
128
 71
259
 72
250
 73
187
 74
192
 0
VERTEX
 8
FULGOR
 10
0
 20
0
 30
0
 70
128
 71
279
 72
280
 73
222
 74
214
 0
VERTEX
 8
FULGOR
 10
0
 20
0
 30
0
 70
128
 71
278
 72
279
 73
214
 74
213
 0
VERTEX
 8
FULGOR
 10
0
 20
0
 30
0
 70
128
 71
258
 72
259
 73
192
 74
191
 0
VERTEX
 8
FULGOR
 10
0
 20
0
 30
0
 70
128
 71
247
 72
258
 73
191
 74
190
 0
VERTEX
 8
FULGOR
 10
0
 20
0
 30
0
 70
128
 71
351
 72
342
 73
324
 74
323
 0
VERTEX
 8
FULGOR
 10
0
 20
0
 30
0
 70
128
 71
350
 72
351
 73
323
 74
322
 0
VERTEX
 8
FULGOR
 10
0
 20
0
 30
0
 70
128
 71
284
 72
285
 73
217
 74
216
 0
VERTEX
 8
FULGOR
 10
0
 20
0
 30
0
 70
128
 71
136
 72
146
 73
122
 74
121
 0
VERTEX
 8
FULGOR
 10
0
 20
0
 30
0
 70
128
 71
146
 72
140
 73
110
 74
122
 0
VERTEX
 8
FULGOR
 10
0
 20
0
 30
0
 70
128
 71
130
 72
360
 73
126
 74
125
 0
VERTEX
 8
FULGOR
 10
0
 20
0
 30
0
 70
128
 71
140
 72
133
 73
111
 74
110
 0
VERTEX
 8
FULGOR
 10
0
 20
0
 30
0
 70
128
 71
133
 72
132
 73
123
 74
111
 0
VERTEX
 8
FULGOR
 10
0
 20
0
 30
0
 70
128
 71
132
 72
139
 73
113
 74
123
 0
VERTEX
 8
FULGOR
 10
0
 20
0
 30
0
 70
128
 71
292
 72
293
 73
164
 74
223
 0
VERTEX
 8
FULGOR
 10
0
 20
0
 30
0
 70
128
 71
293
 72
224
 73
165
 74
164
 0
VERTEX
 8
FULGOR
 10
0
 20
0
 30
0
 70
128
 71
224
 72
225
 73
176
 74
165
 0
VERTEX
 8
FULGOR
 10
0
 20
0
 30
0
 70
128
 71
225
 72
233
 73
177
 74
176
 0
VERTEX
 8
FULGOR
 10
0
 20
0
 30
0
 70
128
 71
233
 72
234
 73
168
 74
177
 0
VERTEX
 8
FULGOR
 10
0
 20
0
 30
0
 70
128
 71
234
 72
235
 73
169
 74
168
 0
VERTEX
 8
FULGOR
 10
0
 20
0
 30
0
 70
128
 71
235
 72
236
 73
170
 74
169
 0
VERTEX
 8
FULGOR
 10
0
 20
0
 30
0
 70
128
 71
236
 72
239
 73
171
 74
170
 0
VERTEX
 8
FULGOR
 10
0
 20
0
 30
0
 70
128
 71
239
 72
231
 73
172
 74
171
 0
VERTEX
 8
FULGOR
 10
0
 20
0
 30
0
 70
128
 71
213
 72
212
 73
277
 74
278
 0
VERTEX
 8
FULGOR
 10
0
 20
0
 30
0
 70
128
 71
212
 72
205
 73
268
 74
277
 0
VERTEX
 8
FULGOR
 10
0
 20
0
 30
0
 70
128
 71
267
 72
268
 73
205
 74
204
 0
VERTEX
 8
FULGOR
 10
0
 20
0
 30
0
 70
128
 71
270
 72
271
 73
200
 74
211
 0
VERTEX
 8
FULGOR
 10
0
 20
0
 30
0
 70
128
 71
271
 72
264
 73
201
 74
200
 0
SEQEND
 0
POLYLINE
 8
MILANO
 66
1
 10
0.0
 20
0.0
 30
0.0
 70
64
 71
93
 72
47
 0
VERTEX
 8
MILANO
 10
0.247
 20
-13.0635
 30
72.6694
 70
192
 0
VERTEX
 8
MILANO
 10
0.679
 20
-13.0826
 30
72.5009
 70
192
 0
VERTEX
 8
MILANO
 10
0.6836
 20
-13.087
 30
72.4622
 70
192
 0
VERTEX
 8
MILANO
 10
0.7
 20
-13.091
 30
72.427
 70
192
 0
VERTEX
 8
MILANO
 10
0.7274
 20
-13.0941
 30
72.3995
 70
192
 0
VERTEX
 8
MILANO
 10
0.7616
 20
-13.0962
 30
72.3807
 70
192
 0
VERTEX
 8
MILANO
 10
0.7991
 20
-13.0975
 30
72.3698
 70
192
 0
VERTEX
 8
MILANO
 10
0.8379
 20
-13.0979
 30
72.3656
 70
192
 0
VERTEX
 8
MILANO
 10
0.5159
 20
-13.0921
 30
72.4171
 70
192
 0
VERTEX
 8
MILANO
 10
0.8769
 20
-13.0976
 30
72.3686
 70
192
 0
VERTEX
 8
MILANO
 10
0.9145
 20
-13.0964
 30
72.3789
 70
192
 0
VERTEX
 8
MILANO
 10
0.9485
 20
-13.0943
 30
72.3979
 70
192
 0
VERTEX
 8
MILANO
 10
0.0835
 20
-13.0896
 30
72.4394
 70
192
 0
VERTEX
 8
MILANO
 10
0.1449
 20
-13.102
 30
72.3296
 70
192
 0
VERTEX
 8
MILANO
 10
0.1954
 20
-13.102
 30
72.3296
 70
192
 0
VERTEX
 8
MILANO
 10
0.9751
 20
-13.0911
 30
72.4263
 70
192
 0
VERTEX
 8
MILANO
 10
0.9923
 20
-13.0871
 30
72.4612
 70
192
 0
VERTEX
 8
MILANO
 10
-0.1948
 20
-13.102
 30
72.3296
 70
192
 0
VERTEX
 8
MILANO
 10
-0.0598
 20
-13.0853
 30
72.4772
 70
192
 0
VERTEX
 8
MILANO
 10
0.0629
 20
-13.0853
 30
72.4772
 70
192
 0
VERTEX
 8
MILANO
 10
0.9979
 20
-13.0827
 30
72.4997
 70
192
 0
VERTEX
 8
MILANO
 10
0.9929
 20
-13.0784
 30
72.5383
 70
192
 0
VERTEX
 8
MILANO
 10
0.9764
 20
-13.0744
 30
72.5734
 70
192
 0
VERTEX
 8
MILANO
 10
-0.3632
 20
-13.0635
 30
72.6694
 70
192
 0
VERTEX
 8
MILANO
 10
-0.3632
 20
-13.0978
 30
72.3666
 70
192
 0
VERTEX
 8
MILANO
 10
0.9496
 20
-13.0712
 30
72.6017
 70
192
 0
VERTEX
 8
MILANO
 10
0.9155
 20
-13.069
 30
72.6207
 70
192
 0
VERTEX
 8
MILANO
 10
0.8779
 20
-13.0679
 30
72.631
 70
192
 0
VERTEX
 8
MILANO
 10
-0.5346
 20
-13.0635
 30
72.6694
 70
192
 0
VERTEX
 8
MILANO
 10
-0.492
 20
-13.0635
 30
72.6694
 70
192
 0
VERTEX
 8
MILANO
 10
-0.492
 20
-13.102
 30
72.3296
 70
192
 0
VERTEX
 8
MILANO
 10
-0.5346
 20
-13.102
 30
72.3296
 70
192
 0
VERTEX
 8
MILANO
 10
-1.0464
 20
-13.102
 30
72.3296
 70
192
 0
VERTEX
 8
MILANO
 10
-0.9934
 20
-13.0633
 30
72.6715
 70
192
 0
VERTEX
 8
MILANO
 10
-0.6707
 20
-13.0633
 30
72.6715
 70
192
 0
VERTEX
 8
MILANO
 10
-0.6549
 20
-13.0633
 30
72.6715
 70
192
 0
VERTEX
 8
MILANO
 10
-0.599
 20
-13.102
 30
72.3296
 70
192
 0
VERTEX
 8
MILANO
 10
-0.6452
 20
-13.102
 30
72.3296
 70
192
 0
VERTEX
 8
MILANO
 10
-0.8324
 20
-13.102
 30
72.3296
 70
192
 0
VERTEX
 8
MILANO
 10
-0.9673
 20
-13.076
 30
72.559
 70
192
 0
VERTEX
 8
MILANO
 10
-0.2118
 20
-13.0978
 30
72.3666
 70
192
 0
VERTEX
 8
MILANO
 10
-0.2118
 20
-13.102
 30
72.3296
 70
192
 0
VERTEX
 8
MILANO
 10
-0.4051
 20
-13.102
 30
72.3296
 70
192
 0
VERTEX
 8
MILANO
 10
-0.9831
 20
-13.0633
 30
72.6715
 70
192
 0
VERTEX
 8
MILANO
 10
-0.8238
 20
-13.0941
 30
72.3994
 70
192
 0
VERTEX
 8
MILANO
 10
-0.6822
 20
-13.076
 30
72.559
 70
192
 0
VERTEX
 8
MILANO
 10
-0.8117
 20
-13.102
 30
72.3296
 70
192
 0
VERTEX
 8
MILANO
 10
-1.0007
 20
-13.102
 30
72.3296
 70
192
 0
VERTEX
 8
MILANO
 10
0.8391
 20
-13.0629
 30
72.6751
 70
192
 0
VERTEX
 8
MILANO
 10
0.7881
 20
-13.0632
 30
72.6724
 70
192
 0
VERTEX
 8
MILANO
 10
0.7386
 20
-13.0646
 30
72.66
 70
192
 0
VERTEX
 8
MILANO
 10
0.6949
 20
-13.0675
 30
72.6341
 70
192
 0
VERTEX
 8
MILANO
 10
0.6598
 20
-13.0717
 30
72.597
 70
192
 0
VERTEX
 8
MILANO
 10
0.637
 20
-13.0769
 30
72.5517
 70
192
 0
VERTEX
 8
MILANO
 10
0.6299
 20
-13.0826
 30
72.5013
 70
192
 0
VERTEX
 8
MILANO
 10
0.6359
 20
-13.0883
 30
72.4507
 70
192
 0
VERTEX
 8
MILANO
 10
0.6573
 20
-13.0935
 30
72.4046
 70
192
 0
VERTEX
 8
MILANO
 10
0.6933
 20
-13.0976
 30
72.3686
 70
192
 0
VERTEX
 8
MILANO
 10
0.738
 20
-13.1004
 30
72.3441
 70
192
 0
VERTEX
 8
MILANO
 10
0.787
 20
-13.102
 30
72.3298
 70
192
 0
VERTEX
 8
MILANO
 10
0.8378
 20
-13.1026
 30
72.3243
 70
192
 0
VERTEX
 8
MILANO
 10
0.8887
 20
-13.1022
 30
72.3282
 70
192
 0
VERTEX
 8
MILANO
 10
0.9379
 20
-13.1006
 30
72.3417
 70
192
 0
VERTEX
 8
MILANO
 10
0.9824
 20
-13.0978
 30
72.3666
 70
192
 0
VERTEX
 8
MILANO
 10
1.0172
 20
-13.0936
 30
72.4037
 70
192
 0
VERTEX
 8
MILANO
 10
1.0397
 20
-13.0885
 30
72.4493
 70
192
 0
VERTEX
 8
MILANO
 10
1.047
 20
-13.0827
 30
72.4997
 70
192
 0
VERTEX
 8
MILANO
 10
1.0404
 20
-13.077
 30
72.5501
 70
192
 0
VERTEX
 8
MILANO
 10
1.0188
 20
-13.0718
 30
72.5961
 70
192
 0
VERTEX
 8
MILANO
 10
0.9838
 20
-13.0676
 30
72.6331
 70
192
 0
VERTEX
 8
MILANO
 10
0.247
 20
-13.102
 30
72.3296
 70
192
 0
VERTEX
 8
MILANO
 10
0.2917
 20
-13.102
 30
72.3296
 70
192
 0
VERTEX
 8
MILANO
 10
0.2917
 20
-13.074
 30
72.5773
 70
192
 0
VERTEX
 8
MILANO
 10
0.5456
 20
-13.102
 30
72.3296
 70
192
 0
VERTEX
 8
MILANO
 10
0.5602
 20
-13.102
 30
72.3296
 70
192
 0
VERTEX
 8
MILANO
 10
0.5602
 20
-13.0635
 30
72.6694
 70
192
 0
VERTEX
 8
MILANO
 10
0.5154
 20
-13.0635
 30
72.6694
 70
192
 0
VERTEX
 8
MILANO
 10
0.9393
 20
-13.0648
 30
72.6579
 70
192
 0
VERTEX
 8
MILANO
 10
0.2636
 20
-13.0635
 30
72.6694
 70
192
 0
VERTEX
 8
MILANO
 10
-0.1387
 20
-13.102
 30
72.3296
 70
192
 0
VERTEX
 8
MILANO
 10
-0.0818
 20
-13.0896
 30
72.4394
 70
192
 0
VERTEX
 8
MILANO
 10
0.89
 20
-13.0633
 30
72.6714
 70
192
 0
VERTEX
 8
MILANO
 10
0.839
 20
-13.0675
 30
72.6338
 70
192
 0
VERTEX
 8
MILANO
 10
0.8
 20
-13.0678
 30
72.6317
 70
192
 0
VERTEX
 8
MILANO
 10
0.0084
 20
-13.0635
 30
72.6694
 70
192
 0
VERTEX
 8
MILANO
 10
-0.006
 20
-13.0635
 30
72.6694
 70
192
 0
VERTEX
 8
MILANO
 10
0.7621
 20
-13.0689
 30
72.6223
 70
192
 0
VERTEX
 8
MILANO
 10
0.7287
 20
-13.0711
 30
72.6025
 70
192
 0
VERTEX
 8
MILANO
 10
0.7018
 20
-13.0743
 30
72.5741
 70
192
 0
VERTEX
 8
MILANO
 10
0.0059
 20
-13.073
 30
72.5859
 70
192
 0
VERTEX
 8
MILANO
 10
-0.0041
 20
-13.073
 30
72.5859
 70
192
 0
VERTEX
 8
MILANO
 10
-0.4087
 20
-13.0635
 30
72.6694
 70
192
 0
VERTEX
 8
MILANO
 10
0.6844
 20
-13.0782
 30
72.5394
 70
192
 0
VERTEX
 8
MILANO
 10
0
 20
0
 30
0
 70
128
 71
71
 72
1
 73
73
 74
72
 0
VERTEX
 8
MILANO
 10
0
 20
0
 30
0
 70
128
 71
1
 72
79
 73
73
 74
73
 0
VERTEX
 8
MILANO
 10
0
 20
0
 30
0
 70
128
 71
73
 72
79
 73
9
 74
74
 0
VERTEX
 8
MILANO
 10
0
 20
0
 30
0
 70
128
 71
76
 72
75
 73
9
 74
77
 0
VERTEX
 8
MILANO
 10
0
 20
0
 30
0
 70
128
 71
9
 72
75
 73
74
 74
74
 0
VERTEX
 8
MILANO
 10
0
 20
0
 30
0
 70
128
 71
18
 72
86
 73
19
 74
81
 0
VERTEX
 8
MILANO
 10
0
 20
0
 30
0
 70
128
 71
80
 72
18
 73
81
 74
81
 0
VERTEX
 8
MILANO
 10
0
 20
0
 30
0
 70
128
 71
86
 72
85
 73
90
 74
91
 0
VERTEX
 8
MILANO
 10
0
 20
0
 30
0
 70
128
 71
15
 72
13
 73
20
 74
20
 0
VERTEX
 8
MILANO
 10
0
 20
0
 30
0
 70
128
 71
86
 72
91
 73
19
 74
19
 0
VERTEX
 8
MILANO
 10
0
 20
0
 30
0
 70
128
 71
85
 72
15
 73
20
 74
90
 0
VERTEX
 8
MILANO
 10
0
 20
0
 30
0
 70
128
 71
13
 72
81
 73
19
 74
20
 0
VERTEX
 8
MILANO
 10
0
 20
0
 30
0
 70
128
 71
15
 72
14
 73
13
 74
13
 0
VERTEX
 8
MILANO
 10
0
 20
0
 30
0
 70
128
 71
92
 72
24
 73
25
 74
43
 0
VERTEX
 8
MILANO
 10
0
 20
0
 30
0
 70
128
 71
25
 72
41
 73
42
 74
43
 0
VERTEX
 8
MILANO
 10
0
 20
0
 30
0
 70
128
 71
29
 72
30
 73
31
 74
32
 0
VERTEX
 8
MILANO
 10
0
 20
0
 30
0
 70
128
 71
33
 72
34
 73
40
 74
48
 0
VERTEX
 8
MILANO
 10
0
 20
0
 30
0
 70
128
 71
34
 72
44
 73
40
 74
40
 0
VERTEX
 8
MILANO
 10
0
 20
0
 30
0
 70
128
 71
40
 72
44
 73
45
 74
39
 0
VERTEX
 8
MILANO
 10
0
 20
0
 30
0
 70
128
 71
45
 72
35
 73
46
 74
47
 0
VERTEX
 8
MILANO
 10
0
 20
0
 30
0
 70
128
 71
46
 72
36
 73
37
 74
38
 0
VERTEX
 8
MILANO
 10
0
 20
0
 30
0
 70
128
 71
45
 72
47
 73
39
 74
39
 0
VERTEX
 8
MILANO
 10
0
 20
0
 30
0
 70
128
 71
35
 72
36
 73
46
 74
46
 0
VERTEX
 8
MILANO
 10
0
 20
0
 30
0
 70
128
 71
50
 72
49
 73
83
 74
84
 0
VERTEX
 8
MILANO
 10
0
 20
0
 30
0
 70
128
 71
51
 72
50
 73
84
 74
87
 0
VERTEX
 8
MILANO
 10
0
 20
0
 30
0
 70
128
 71
5
 72
6
 73
59
 74
58
 0
VERTEX
 8
MILANO
 10
0
 20
0
 30
0
 70
128
 71
28
 72
83
 73
49
 74
82
 0
VERTEX
 8
MILANO
 10
0
 20
0
 30
0
 70
128
 71
27
 72
28
 73
82
 74
78
 0
VERTEX
 8
MILANO
 10
0
 20
0
 30
0
 70
128
 71
26
 72
27
 73
78
 74
70
 0
VERTEX
 8
MILANO
 10
0
 20
0
 30
0
 70
128
 71
23
 72
26
 73
70
 74
69
 0
VERTEX
 8
MILANO
 10
0
 20
0
 30
0
 70
128
 71
6
 72
7
 73
60
 74
59
 0
VERTEX
 8
MILANO
 10
0
 20
0
 30
0
 70
128
 71
7
 72
8
 73
61
 74
60
 0
VERTEX
 8
MILANO
 10
0
 20
0
 30
0
 70
128
 71
22
 72
23
 73
69
 74
68
 0
VERTEX
 8
MILANO
 10
0
 20
0
 30
0
 70
128
 71
21
 72
22
 73
68
 74
67
 0
VERTEX
 8
MILANO
 10
0
 20
0
 30
0
 70
128
 71
17
 72
21
 73
67
 74
66
 0
VERTEX
 8
MILANO
 10
0
 20
0
 30
0
 70
128
 71
16
 72
17
 73
66
 74
65
 0
VERTEX
 8
MILANO
 10
0
 20
0
 30
0
 70
128
 71
12
 72
16
 73
65
 74
64
 0
VERTEX
 8
MILANO
 10
0
 20
0
 30
0
 70
128
 71
11
 72
12
 73
64
 74
63
 0
VERTEX
 8
MILANO
 10
0
 20
0
 30
0
 70
128
 71
10
 72
11
 73
63
 74
62
 0
VERTEX
 8
MILANO
 10
0
 20
0
 30
0
 70
128
 71
4
 72
5
 73
58
 74
57
 0
VERTEX
 8
MILANO
 10
0
 20
0
 30
0
 70
128
 71
57
 72
56
 73
3
 74
4
 0
VERTEX
 8
MILANO
 10
0
 20
0
 30
0
 70
128
 71
56
 72
55
 73
2
 74
3
 0
VERTEX
 8
MILANO
 10
0
 20
0
 30
0
 70
128
 71
55
 72
54
 73
93
 74
2
 0
VERTEX
 8
MILANO
 10
0
 20
0
 30
0
 70
128
 71
54
 72
53
 73
89
 74
93
 0
VERTEX
 8
MILANO
 10
0
 20
0
 30
0
 70
128
 71
53
 72
52
 73
88
 74
89
 0
VERTEX
 8
MILANO
 10
0
 20
0
 30
0
 70
128
 71
52
 72
51
 73
87
 74
88
 0
VERTEX
 8
MILANO
 10
0
 20
0
 30
0
 70
128
 71
8
 72
10
 73
62
 74
61
 0
SEQEND
 0
POLYLINE
 8
VETRO
 66
1
 10
0.0
 20
0.0
 30
0.0
 70
64
 71
32
 72
30
 0
VERTEX
 8
VETRO
 10
39.05
 20
-13.2603
 30
70.8696
 70
192
 0
VERTEX
 8
VETRO
 10
39.05
 20
-12.843
 30
70.8218
 70
192
 0
VERTEX
 8
VETRO
 10
-39.05
 20
-13.2603
 30
70.8696
 70
192
 0
VERTEX
 8
VETRO
 10
-39.05
 20
-12.843
 30
70.8218
 70
192
 0
VERTEX
 8
VETRO
 10
-39.05
 20
-12.1692
 30
80.4074
 70
192
 0
VERTEX
 8
VETRO
 10
-39.05
 20
-11.752
 30
80.3596
 70
192
 0
VERTEX
 8
VETRO
 10
39.05
 20
-12.1692
 30
80.4074
 70
192
 0
VERTEX
 8
VETRO
 10
39.05
 20
-11.752
 30
80.3596
 70
192
 0
VERTEX
 8
VETRO
 10
-39.05
 20
-11.917
 30
78.9168
 70
192
 0
VERTEX
 8
VETRO
 10
-39.05
 20
-12.3397
 30
78.9168
 70
192
 0
VERTEX
 8
VETRO
 10
39.05
 20
-11.917
 30
78.9168
 70
192
 0
VERTEX
 8
VETRO
 10
39.05
 20
-12.3397
 30
78.9168
 70
192
 0
VERTEX
 8
VETRO
 10
-40.35
 20
-13.2603
 30
70.8696
 70
192
 0
VERTEX
 8
VETRO
 10
-40.35
 20
-12.843
 30
70.8218
 70
192
 0
VERTEX
 8
VETRO
 10
-40.35
 20
-11.917
 30
78.9168
 70
192
 0
VERTEX
 8
VETRO
 10
-40.35
 20
-12.3397
 30
78.9168
 70
192
 0
VERTEX
 8
VETRO
 10
40.35
 20
-13.2603
 30
70.8696
 70
192
 0
VERTEX
 8
VETRO
 10
40.35
 20
-12.843
 30
70.8218
 70
192
 0
VERTEX
 8
VETRO
 10
40.35
 20
-11.917
 30
78.9168
 70
192
 0
VERTEX
 8
VETRO
 10
40.35
 20
-12.3397
 30
78.9168
 70
192
 0
VERTEX
 8
VETRO
 10
-11.405
 20
-12.843
 30
70.8218
 70
192
 0
VERTEX
 8
VETRO
 10
-11.4051
 20
-13.2603
 30
70.8696
 70
192
 0
VERTEX
 8
VETRO
 10
-20.982
 20
-11.752
 30
80.3596
 70
192
 0
VERTEX
 8
VETRO
 10
-20.982
 20
-12.1692
 30
80.4074
 70
192
 0
VERTEX
 8
VETRO
 10
-19.485
 20
-11.917
 30
78.9168
 70
192
 0
VERTEX
 8
VETRO
 10
-19.4854
 20
-12.3397
 30
78.9168
 70
192
 0
VERTEX
 8
VETRO
 10
11.405
 20
-12.843
 30
70.8218
 70
192
 0
VERTEX
 8
VETRO
 10
11.405
 20
-13.2603
 30
70.8696
 70
192
 0
VERTEX
 8
VETRO
 10
19.485
 20
-11.917
 30
78.9168
 70
192
 0
VERTEX
 8
VETRO
 10
19.485
 20
-12.3397
 30
78.9168
 70
192
 0
VERTEX
 8
VETRO
 10
20.982
 20
-12.1692
 30
80.4074
 70
192
 0
VERTEX
 8
VETRO
 10
20.982
 20
-11.752
 30
80.3596
 70
192
 0
VERTEX
 8
VETRO
 10
0
 20
0
 30
0
 70
128
 71
1
 72
2
 73
27
 74
28
 0
VERTEX
 8
VETRO
 10
0
 20
0
 30
0
 70
128
 71
13
 72
14
 73
15
 74
16
 0
VERTEX
 8
VETRO
 10
0
 20
0
 30
0
 70
128
 71
5
 72
6
 73
23
 74
24
 0
VERTEX
 8
VETRO
 10
0
 20
0
 30
0
 70
128
 71
7
 72
8
 73
11
 74
12
 0
VERTEX
 8
VETRO
 10
0
 20
0
 30
0
 70
128
 71
2
 72
11
 73
29
 74
27
 0
VERTEX
 8
VETRO
 10
0
 20
0
 30
0
 70
128
 71
7
 72
12
 73
30
 74
31
 0
VERTEX
 8
VETRO
 10
0
 20
0
 30
0
 70
128
 71
9
 72
6
 73
5
 74
10
 0
VERTEX
 8
VETRO
 10
0
 20
0
 30
0
 70
128
 71
19
 72
18
 73
17
 74
20
 0
VERTEX
 8
VETRO
 10
0
 20
0
 30
0
 70
128
 71
11
 72
8
 73
32
 74
29
 0
VERTEX
 8
VETRO
 10
0
 20
0
 30
0
 70
128
 71
12
 72
1
 73
28
 74
30
 0
VERTEX
 8
VETRO
 10
0
 20
0
 30
0
 70
128
 71
13
 72
3
 73
4
 74
14
 0
VERTEX
 8
VETRO
 10
0
 20
0
 30
0
 70
128
 71
14
 72
4
 73
9
 74
15
 0
VERTEX
 8
VETRO
 10
0
 20
0
 30
0
 70
128
 71
15
 72
9
 73
10
 74
16
 0
VERTEX
 8
VETRO
 10
0
 20
0
 30
0
 70
128
 71
16
 72
10
 73
3
 74
13
 0
VERTEX
 8
VETRO
 10
0
 20
0
 30
0
 70
128
 71
19
 72
11
 73
2
 74
18
 0
VERTEX
 8
VETRO
 10
0
 20
0
 30
0
 70
128
 71
18
 72
2
 73
1
 74
17
 0
VERTEX
 8
VETRO
 10
0
 20
0
 30
0
 70
128
 71
17
 72
1
 73
12
 74
20
 0
VERTEX
 8
VETRO
 10
0
 20
0
 30
0
 70
128
 71
20
 72
12
 73
11
 74
19
 0
VERTEX
 8
VETRO
 10
0
 20
0
 30
0
 70
128
 71
21
 72
4
 73
3
 74
22
 0
VERTEX
 8
VETRO
 10
0
 20
0
 30
0
 70
128
 71
23
 72
32
 73
31
 74
24
 0
VERTEX
 8
VETRO
 10
0
 20
0
 30
0
 70
128
 71
25
 72
9
 73
4
 74
21
 0
VERTEX
 8
VETRO
 10
0
 20
0
 30
0
 70
128
 71
26
 72
10
 73
5
 74
24
 0
VERTEX
 8
VETRO
 10
0
 20
0
 30
0
 70
128
 71
23
 72
6
 73
9
 74
25
 0
VERTEX
 8
VETRO
 10
0
 20
0
 30
0
 70
128
 71
22
 72
3
 73
10
 74
26
 0
VERTEX
 8
VETRO
 10
0
 20
0
 30
0
 70
128
 71
27
 72
21
 73
22
 74
28
 0
VERTEX
 8
VETRO
 10
0
 20
0
 30
0
 70
128
 71
29
 72
25
 73
21
 74
27
 0
VERTEX
 8
VETRO
 10
0
 20
0
 30
0
 70
128
 71
30
 72
26
 73
24
 74
31
 0
VERTEX
 8
VETRO
 10
0
 20
0
 30
0
 70
128
 71
32
 72
23
 73
25
 74
29
 0
VERTEX
 8
VETRO
 10
0
 20
0
 30
0
 70
128
 71
28
 72
22
 73
26
 74
30
 0
VERTEX
 8
VETRO
 10
0
 20
0
 30
0
 70
128
 71
32
 72
8
 73
7
 74
31
 0
SEQEND
 0
POLYLINE
 8
SERIGRAFIA
 66
1
 10
0.0
 20
0.0
 30
0.0
 70
64
 71
10
 72
4
 0
VERTEX
 8
SERIGRAFIA
 10
-39.05
 20
-12.1742
 30
80.4079
 70
192
 0
VERTEX
 8
SERIGRAFIA
 10
39.05
 20
-12.1742
 30
80.4079
 70
192
 0
VERTEX
 8
SERIGRAFIA
 10
-39.05
 20
-12.3447
 30
78.9174
 70
192
 0
VERTEX
 8
SERIGRAFIA
 10
39.05
 20
-12.3447
 30
78.9174
 70
192
 0
VERTEX
 8
SERIGRAFIA
 10
-11.4051
 20
-13.2652
 30
70.8701
 70
192
 0
VERTEX
 8
SERIGRAFIA
 10
-20.982
 20
-12.1742
 30
80.4079
 70
192
 0
VERTEX
 8
SERIGRAFIA
 10
-19.4854
 20
-12.3447
 30
78.9174
 70
192
 0
VERTEX
 8
SERIGRAFIA
 10
11.405
 20
-13.2652
 30
70.8701
 70
192
 0
VERTEX
 8
SERIGRAFIA
 10
19.485
 20
-12.3447
 30
78.9174
 70
192
 0
VERTEX
 8
SERIGRAFIA
 10
20.982
 20
-12.1742
 30
80.4079
 70
192
 0
VERTEX
 8
SERIGRAFIA
 10
0
 20
0
 30
0
 70
128
 71
2
 72
4
 73
9
 74
10
 0
VERTEX
 8
SERIGRAFIA
 10
0
 20
0
 30
0
 70
128
 71
7
 72
3
 73
1
 74
6
 0
VERTEX
 8
SERIGRAFIA
 10
0
 20
0
 30
0
 70
128
 71
9
 72
7
 73
6
 74
10
 0
VERTEX
 8
SERIGRAFIA
 10
0
 20
0
 30
0
 70
128
 71
8
 72
5
 73
7
 74
9
 0
SEQEND
 0
POLYLINE
 8
MSU-B715
 66
1
 10
0.0
 20
0.0
 30
0.0
 70
64
 71
28
 72
26
 0
VERTEX
 8
MSU-B715
 10
39.5602
 20
-12.4224
 30
79.4354
 70
192
 0
VERTEX
 8
MSU-B715
 10
40.56
 20
-12.4224
 30
79.4354
 70
192
 0
VERTEX
 8
MSU-B715
 10
39.5602
 20
-11.7269
 30
79.3558
 70
192
 0
VERTEX
 8
MSU-B715
 10
40.56
 20
-11.7269
 30
79.3558
 70
192
 0
VERTEX
 8
MSU-B715
 10
39.5602
 20
-12.7276
 30
70.6073
 70
192
 0
VERTEX
 8
MSU-B715
 10
40.56
 20
-12.7276
 30
70.6073
 70
192
 0
VERTEX
 8
MSU-B715
 10
39.5602
 20
-13.4232
 30
70.6869
 70
192
 0
VERTEX
 8
MSU-B715
 10
40.56
 20
-13.4232
 30
70.6869
 70
192
 0
VERTEX
 8
MSU-B715
 10
40.56
 20
-11.7956
 30
78.7546
 70
192
 0
VERTEX
 8
MSU-B715
 10
39.5602
 20
-11.7956
 30
78.7546
 70
192
 0
VERTEX
 8
MSU-B715
 10
40.56
 20
-12.4913
 30
78.8335
 70
192
 0
VERTEX
 8
MSU-B715
 10
39.5602
 20
-12.4913
 30
78.8335
 70
192
 0
VERTEX
 8
MSU-B715
 10
38.758
 20
-12.4224
 30
79.4354
 70
192
 0
VERTEX
 8
MSU-B715
 10
38.758
 20
-11.7269
 30
79.3558
 70
192
 0
VERTEX
 8
MSU-B715
 10
38.758
 20
-11.7956
 30
78.7546
 70
192
 0
VERTEX
 8
MSU-B715
 10
38.758
 20
-12.4913
 30
78.8335
 70
192
 0
VERTEX
 8
MSU-B715
 10
39.5602
 20
-12.3448
 30
80.1137
 70
192
 0
VERTEX
 8
MSU-B715
 10
39.5602
 20
-11.6493
 30
80.0342
 70
192
 0
VERTEX
 8
MSU-B715
 10
38.758
 20
-12.3448
 30
80.1137
 70
192
 0
VERTEX
 8
MSU-B715
 10
38.758
 20
-11.6493
 30
80.0342
 70
192
 0
VERTEX
 8
MSU-B715
 10
39.5602
 20
-12.2412
 30
81.0196
 70
192
 0
VERTEX
 8
MSU-B715
 10
39.5602
 20
-11.5457
 30
80.94
 70
192
 0
VERTEX
 8
MSU-B715
 10
38.758
 20
-12.2412
 30
81.0196
 70
192
 0
VERTEX
 8
MSU-B715
 10
38.758
 20
-11.5457
 30
80.94
 70
192
 0
VERTEX
 8
MSU-B715
 10
39.5602
 20
-13.581
 30
80.2551
 70
192
 0
VERTEX
 8
MSU-B715
 10
38.758
 20
-13.581
 30
80.2551
 70
192
 0
VERTEX
 8
MSU-B715
 10
39.5602
 20
-13.4774
 30
81.161
 70
192
 0
VERTEX
 8
MSU-B715
 10
38.758
 20
-13.4774
 30
81.161
 70
192
 0
VERTEX
 8
MSU-B715
 10
0
 20
0
 30
0
 70
128
 71
1
 72
3
 73
4
 74
2
 0
VERTEX
 8
MSU-B715
 10
0
 20
0
 30
0
 70
128
 71
3
 72
10
 73
9
 74
4
 0
VERTEX
 8
MSU-B715
 10
0
 20
0
 30
0
 70
128
 71
5
 72
7
 73
8
 74
6
 0
VERTEX
 8
MSU-B715
 10
0
 20
0
 30
0
 70
128
 71
7
 72
12
 73
11
 74
8
 0
VERTEX
 8
MSU-B715
 10
0
 20
0
 30
0
 70
128
 71
2
 72
4
 73
9
 74
11
 0
VERTEX
 8
MSU-B715
 10
0
 20
0
 30
0
 70
128
 71
7
 72
5
 73
10
 74
12
 0
VERTEX
 8
MSU-B715
 10
0
 20
0
 30
0
 70
128
 71
9
 72
10
 73
5
 74
6
 0
VERTEX
 8
MSU-B715
 10
0
 20
0
 30
0
 70
128
 71
11
 72
12
 73
1
 74
2
 0
VERTEX
 8
MSU-B715
 10
0
 20
0
 30
0
 70
128
 71
11
 72
9
 73
6
 74
8
 0
VERTEX
 8
MSU-B715
 10
0
 20
0
 30
0
 70
128
 71
16
 72
15
 73
14
 74
13
 0
VERTEX
 8
MSU-B715
 10
0
 20
0
 30
0
 70
128
 71
16
 72
13
 73
1
 74
12
 0
VERTEX
 8
MSU-B715
 10
0
 20
0
 30
0
 70
128
 71
23
 72
24
 73
22
 74
21
 0
VERTEX
 8
MSU-B715
 10
0
 20
0
 30
0
 70
128
 71
14
 72
15
 73
10
 74
3
 0
VERTEX
 8
MSU-B715
 10
0
 20
0
 30
0
 70
128
 71
15
 72
16
 73
12
 74
10
 0
VERTEX
 8
MSU-B715
 10
0
 20
0
 30
0
 70
128
 71
19
 72
17
 73
1
 74
13
 0
VERTEX
 8
MSU-B715
 10
0
 20
0
 30
0
 70
128
 71
17
 72
18
 73
3
 74
1
 0
VERTEX
 8
MSU-B715
 10
0
 20
0
 30
0
 70
128
 71
18
 72
20
 73
14
 74
3
 0
VERTEX
 8
MSU-B715
 10
0
 20
0
 30
0
 70
128
 71
20
 72
19
 73
13
 74
14
 0
VERTEX
 8
MSU-B715
 10
0
 20
0
 30
0
 70
128
 71
28
 72
27
 73
25
 74
26
 0
VERTEX
 8
MSU-B715
 10
0
 20
0
 30
0
 70
128
 71
21
 72
22
 73
18
 74
17
 0
VERTEX
 8
MSU-B715
 10
0
 20
0
 30
0
 70
128
 71
22
 72
24
 73
20
 74
18
 0
VERTEX
 8
MSU-B715
 10
0
 20
0
 30
0
 70
128
 71
24
 72
23
 73
19
 74
20
 0
VERTEX
 8
MSU-B715
 10
0
 20
0
 30
0
 70
128
 71
28
 72
26
 73
19
 74
23
 0
VERTEX
 8
MSU-B715
 10
0
 20
0
 30
0
 70
128
 71
26
 72
25
 73
17
 74
19
 0
VERTEX
 8
MSU-B715
 10
0
 20
0
 30
0
 70
128
 71
25
 72
27
 73
21
 74
17
 0
VERTEX
 8
MSU-B715
 10
0
 20
0
 30
0
 70
128
 71
27
 72
28
 73
23
 74
21
 0
SEQEND
 0
POLYLINE
 8
MSU-B716
 66
1
 10
0.0
 20
0.0
 30
0.0
 70
64
 71
28
 72
26
 0
VERTEX
 8
MSU-B716
 10
-39.5602
 20
-12.4224
 30
79.4354
 70
192
 0
VERTEX
 8
MSU-B716
 10
-40.56
 20
-12.4224
 30
79.4354
 70
192
 0
VERTEX
 8
MSU-B716
 10
-39.5602
 20
-11.7269
 30
79.3558
 70
192
 0
VERTEX
 8
MSU-B716
 10
-40.56
 20
-11.7269
 30
79.3558
 70
192
 0
VERTEX
 8
MSU-B716
 10
-39.5602
 20
-12.7276
 30
70.6073
 70
192
 0
VERTEX
 8
MSU-B716
 10
-40.56
 20
-12.7276
 30
70.6073
 70
192
 0
VERTEX
 8
MSU-B716
 10
-39.5602
 20
-13.4232
 30
70.6869
 70
192
 0
VERTEX
 8
MSU-B716
 10
-40.56
 20
-13.4232
 30
70.6869
 70
192
 0
VERTEX
 8
MSU-B716
 10
-40.56
 20
-11.7956
 30
78.7546
 70
192
 0
VERTEX
 8
MSU-B716
 10
-39.5602
 20
-11.7956
 30
78.7546
 70
192
 0
VERTEX
 8
MSU-B716
 10
-40.56
 20
-12.4913
 30
78.8335
 70
192
 0
VERTEX
 8
MSU-B716
 10
-39.5602
 20
-12.4913
 30
78.8335
 70
192
 0
VERTEX
 8
MSU-B716
 10
-38.758
 20
-12.4224
 30
79.4354
 70
192
 0
VERTEX
 8
MSU-B716
 10
-38.758
 20
-11.7269
 30
79.3558
 70
192
 0
VERTEX
 8
MSU-B716
 10
-38.758
 20
-11.7956
 30
78.7546
 70
192
 0
VERTEX
 8
MSU-B716
 10
-38.758
 20
-12.4913
 30
78.8335
 70
192
 0
VERTEX
 8
MSU-B716
 10
-39.5602
 20
-12.3448
 30
80.1137
 70
192
 0
VERTEX
 8
MSU-B716
 10
-39.5602
 20
-11.6493
 30
80.0342
 70
192
 0
VERTEX
 8
MSU-B716
 10
-38.758
 20
-12.3448
 30
80.1137
 70
192
 0
VERTEX
 8
MSU-B716
 10
-38.758
 20
-11.6493
 30
80.0342
 70
192
 0
VERTEX
 8
MSU-B716
 10
-39.5602
 20
-12.2412
 30
81.0196
 70
192
 0
VERTEX
 8
MSU-B716
 10
-39.5602
 20
-11.5457
 30
80.94
 70
192
 0
VERTEX
 8
MSU-B716
 10
-38.758
 20
-12.2412
 30
81.0196
 70
192
 0
VERTEX
 8
MSU-B716
 10
-38.758
 20
-11.5457
 30
80.94
 70
192
 0
VERTEX
 8
MSU-B716
 10
-39.5602
 20
-13.581
 30
80.2551
 70
192
 0
VERTEX
 8
MSU-B716
 10
-38.758
 20
-13.581
 30
80.2551
 70
192
 0
VERTEX
 8
MSU-B716
 10
-39.5602
 20
-13.4774
 30
81.161
 70
192
 0
VERTEX
 8
MSU-B716
 10
-38.758
 20
-13.4774
 30
81.161
 70
192
 0
VERTEX
 8
MSU-B716
 10
0
 20
0
 30
0
 70
128
 71
1
 72
2
 73
4
 74
3
 0
VERTEX
 8
MSU-B716
 10
0
 20
0
 30
0
 70
128
 71
3
 72
4
 73
9
 74
10
 0
VERTEX
 8
MSU-B716
 10
0
 20
0
 30
0
 70
128
 71
5
 72
6
 73
8
 74
7
 0
VERTEX
 8
MSU-B716
 10
0
 20
0
 30
0
 70
128
 71
7
 72
8
 73
11
 74
12
 0
VERTEX
 8
MSU-B716
 10
0
 20
0
 30
0
 70
128
 71
2
 72
11
 73
9
 74
4
 0
VERTEX
 8
MSU-B716
 10
0
 20
0
 30
0
 70
128
 71
7
 72
12
 73
10
 74
5
 0
VERTEX
 8
MSU-B716
 10
0
 20
0
 30
0
 70
128
 71
9
 72
6
 73
5
 74
10
 0
VERTEX
 8
MSU-B716
 10
0
 20
0
 30
0
 70
128
 71
11
 72
2
 73
1
 74
12
 0
VERTEX
 8
MSU-B716
 10
0
 20
0
 30
0
 70
128
 71
11
 72
8
 73
6
 74
9
 0
VERTEX
 8
MSU-B716
 10
0
 20
0
 30
0
 70
128
 71
16
 72
13
 73
14
 74
15
 0
VERTEX
 8
MSU-B716
 10
0
 20
0
 30
0
 70
128
 71
16
 72
12
 73
1
 74
13
 0
VERTEX
 8
MSU-B716
 10
0
 20
0
 30
0
 70
128
 71
23
 72
21
 73
22
 74
24
 0
VERTEX
 8
MSU-B716
 10
0
 20
0
 30
0
 70
128
 71
14
 72
3
 73
10
 74
15
 0
VERTEX
 8
MSU-B716
 10
0
 20
0
 30
0
 70
128
 71
15
 72
10
 73
12
 74
16
 0
VERTEX
 8
MSU-B716
 10
0
 20
0
 30
0
 70
128
 71
19
 72
13
 73
1
 74
17
 0
VERTEX
 8
MSU-B716
 10
0
 20
0
 30
0
 70
128
 71
17
 72
1
 73
3
 74
18
 0
VERTEX
 8
MSU-B716
 10
0
 20
0
 30
0
 70
128
 71
18
 72
3
 73
14
 74
20
 0
VERTEX
 8
MSU-B716
 10
0
 20
0
 30
0
 70
128
 71
20
 72
14
 73
13
 74
19
 0
VERTEX
 8
MSU-B716
 10
0
 20
0
 30
0
 70
128
 71
28
 72
26
 73
25
 74
27
 0
VERTEX
 8
MSU-B716
 10
0
 20
0
 30
0
 70
128
 71
21
 72
17
 73
18
 74
22
 0
VERTEX
 8
MSU-B716
 10
0
 20
0
 30
0
 70
128
 71
22
 72
18
 73
20
 74
24
 0
VERTEX
 8
MSU-B716
 10
0
 20
0
 30
0
 70
128
 71
24
 72
20
 73
19
 74
23
 0
VERTEX
 8
MSU-B716
 10
0
 20
0
 30
0
 70
128
 71
28
 72
23
 73
19
 74
26
 0
VERTEX
 8
MSU-B716
 10
0
 20
0
 30
0
 70
128
 71
26
 72
19
 73
17
 74
25
 0
VERTEX
 8
MSU-B716
 10
0
 20
0
 30
0
 70
128
 71
25
 72
17
 73
21
 74
27
 0
VERTEX
 8
MSU-B716
 10
0
 20
0
 30
0
 70
128
 71
27
 72
21
 73
23
 74
28
 0
SEQEND
 0
POLYLINE
 8
MSU-B718
 66
1
 10
0.0
 20
0.0
 30
0.0
 70
64
 71
8
 72
6
 0
VERTEX
 8
MSU-B718
 10
-38.86
 20
-11.2154
 30
79.88
 70
192
 0
VERTEX
 8
MSU-B718
 10
-38.86
 20
-11.2154
 30
82.69
 70
192
 0
VERTEX
 8
MSU-B718
 10
-40.86
 20
-11.2154
 30
79.88
 70
192
 0
VERTEX
 8
MSU-B718
 10
-40.86
 20
-11.2154
 30
82.69
 70
192
 0
VERTEX
 8
MSU-B718
 10
-40.86
 20
-14.0154
 30
79.88
 70
192
 0
VERTEX
 8
MSU-B718
 10
-40.86
 20
-14.0154
 30
82.69
 70
192
 0
VERTEX
 8
MSU-B718
 10
-38.86
 20
-14.0154
 30
79.88
 70
192
 0
VERTEX
 8
MSU-B718
 10
-38.86
 20
-14.0154
 30
82.69
 70
192
 0
VERTEX
 8
MSU-B718
 10
0
 20
0
 30
0
 70
128
 71
1
 72
2
 73
4
 74
3
 0
VERTEX
 8
MSU-B718
 10
0
 20
0
 30
0
 70
128
 71
3
 72
4
 73
6
 74
5
 0
VERTEX
 8
MSU-B718
 10
0
 20
0
 30
0
 70
128
 71
5
 72
6
 73
8
 74
7
 0
VERTEX
 8
MSU-B718
 10
0
 20
0
 30
0
 70
128
 71
7
 72
8
 73
2
 74
1
 0
VERTEX
 8
MSU-B718
 10
0
 20
0
 30
0
 70
128
 71
2
 72
8
 73
6
 74
4
 0
VERTEX
 8
MSU-B718
 10
0
 20
0
 30
0
 70
128
 71
7
 72
1
 73
3
 74
5
 0
SEQEND
 0
POLYLINE
 8
MSU-B717
 66
1
 10
0.0
 20
0.0
 30
0.0
 70
64
 71
8
 72
6
 0
VERTEX
 8
MSU-B717
 10
40.84
 20
-11.2154
 30
79.88
 70
192
 0
VERTEX
 8
MSU-B717
 10
40.84
 20
-11.2154
 30
82.69
 70
192
 0
VERTEX
 8
MSU-B717
 10
38.84
 20
-11.2154
 30
79.88
 70
192
 0
VERTEX
 8
MSU-B717
 10
38.84
 20
-11.2154
 30
82.69
 70
192
 0
VERTEX
 8
MSU-B717
 10
38.84
 20
-14.0154
 30
79.88
 70
192
 0
VERTEX
 8
MSU-B717
 10
38.84
 20
-14.0154
 30
82.69
 70
192
 0
VERTEX
 8
MSU-B717
 10
40.84
 20
-14.0154
 30
79.88
 70
192
 0
VERTEX
 8
MSU-B717
 10
40.84
 20
-14.0154
 30
82.69
 70
192
 0
VERTEX
 8
MSU-B717
 10
0
 20
0
 30
0
 70
128
 71
1
 72
2
 73
4
 74
3
 0
VERTEX
 8
MSU-B717
 10
0
 20
0
 30
0
 70
128
 71
3
 72
4
 73
6
 74
5
 0
VERTEX
 8
MSU-B717
 10
0
 20
0
 30
0
 70
128
 71
5
 72
6
 73
8
 74
7
 0
VERTEX
 8
MSU-B717
 10
0
 20
0
 30
0
 70
128
 71
7
 72
8
 73
2
 74
1
 0
VERTEX
 8
MSU-B717
 10
0
 20
0
 30
0
 70
128
 71
2
 72
8
 73
6
 74
4
 0
VERTEX
 8
MSU-B717
 10
0
 20
0
 30
0
 70
128
 71
7
 72
1
 73
3
 74
5
 0
SEQEND
 0
POLYLINE
 8
LED
 66
1
 10
0.0
 20
0.0
 30
0.0
 70
64
 71
12
 72
9
 0
VERTEX
 8
LED
 10
-25.85
 20
9.2837
 30
81.0704
 70
192
 0
VERTEX
 8
LED
 10
-25.85
 20
9.1579
 30
80.7246
 70
192
 0
VERTEX
 8
LED
 10
-25.85
 20
11.1568
 30
80.3886
 70
192
 0
VERTEX
 8
LED
 10
-25.85
 20
11.031
 30
80.0428
 70
192
 0
VERTEX
 8
LED
 10
25.8499
 20
11.1568
 30
80.3886
 70
192
 0
VERTEX
 8
LED
 10
25.8499
 20
11.031
 30
80.0428
 70
192
 0
VERTEX
 8
LED
 10
25.8499
 20
9.2837
 30
81.0704
 70
192
 0
VERTEX
 8
LED
 10
25.8499
 20
9.1579
 30
80.7246
 70
192
 0
VERTEX
 8
LED
 10
-25.55
 20
9.4398
 30
80.622
 70
192
 0
VERTEX
 8
LED
 10
-25.55
 20
10.749
 30
80.1454
 70
192
 0
VERTEX
 8
LED
 10
25.5499
 20
10.749
 30
80.1454
 70
192
 0
VERTEX
 8
LED
 10
25.5499
 20
9.4398
 30
80.622
 70
192
 0
VERTEX
 8
LED
 10
0
 20
0
 30
0
 70
128
 71
1
 72
2
 73
4
 74
3
 0
VERTEX
 8
LED
 10
0
 20
0
 30
0
 70
128
 71
3
 72
4
 73
6
 74
5
 0
VERTEX
 8
LED
 10
0
 20
0
 30
0
 70
128
 71
5
 72
6
 73
8
 74
7
 0
VERTEX
 8
LED
 10
0
 20
0
 30
0
 70
128
 71
7
 72
8
 73
2
 74
1
 0
VERTEX
 8
LED
 10
0
 20
0
 30
0
 70
128
 71
10
 72
4
 73
2
 74
9
 0
VERTEX
 8
LED
 10
0
 20
0
 30
0
 70
128
 71
7
 72
1
 73
3
 74
5
 0
VERTEX
 8
LED
 10
0
 20
0
 30
0
 70
128
 71
9
 72
2
 73
8
 74
12
 0
VERTEX
 8
LED
 10
0
 20
0
 30
0
 70
128
 71
12
 72
8
 73
6
 74
11
 0
VERTEX
 8
LED
 10
0
 20
0
 30
0
 70
128
 71
11
 72
6
 73
4
 74
10
 0
SEQEND
 0
POLYLINE
 8
LED_1
 66
1
 10
0.0
 20
0.0
 30
0.0
 70
64
 71
4
 72
1
 0
VERTEX
 8
LED_1
 10
-25.55
 20
9.4398
 30
80.622
 70
192
 0
VERTEX
 8
LED_1
 10
-25.55
 20
10.749
 30
80.1454
 70
192
 0
VERTEX
 8
LED_1
 10
25.5499
 20
10.749
 30
80.1454
 70
192
 0
VERTEX
 8
LED_1
 10
25.5499
 20
9.4398
 30
80.622
 70
192
 0
VERTEX
 8
LED_1
 10
0
 20
0
 30
0
 70
128
 71
1
 72
4
 73
3
 74
2
 0
SEQEND
 0
POLYLINE
 8
CUBO
 66
1
 10
0.0
 20
0.0
 30
0.0
 70
64
 71
300
 72
298
 0
VERTEX
 8
CUBO
 10
-40.7
 20
-11.4755
 30
84.2163
 70
192
 0
VERTEX
 8
CUBO
 10
-40.7
 20
9.1243
 30
84.2163
 70
192
 0
VERTEX
 8
CUBO
 10
0
 20
-11.4755
 30
84.2163
 70
192
 0
VERTEX
 8
CUBO
 10
0
 20
9.1243
 30
84.2163
 70
192
 0
VERTEX
 8
CUBO
 10
0
 20
-11.4755
 30
83.3763
 70
192
 0
VERTEX
 8
CUBO
 10
0
 20
9.1243
 30
83.3763
 70
192
 0
VERTEX
 8
CUBO
 10
-40.7
 20
-11.4755
 30
83.3763
 70
192
 0
VERTEX
 8
CUBO
 10
-40.7
 20
9.1243
 30
83.3763
 70
192
 0
VERTEX
 8
CUBO
 10
0
 20
8.124
 30
84.2163
 70
192
 0
VERTEX
 8
CUBO
 10
0
 20
8.124
 30
83.3763
 70
192
 0
VERTEX
 8
CUBO
 10
0
 20
-10.4761
 30
84.2163
 70
192
 0
VERTEX
 8
CUBO
 10
0
 20
-10.4761
 30
83.3763
 70
192
 0
VERTEX
 8
CUBO
 10
-39.7002
 20
9.1243
 30
84.2163
 70
192
 0
VERTEX
 8
CUBO
 10
-39.7002
 20
-11.4755
 30
84.2163
 70
192
 0
VERTEX
 8
CUBO
 10
-39.7002
 20
9.1243
 30
83.3763
 70
192
 0
VERTEX
 8
CUBO
 10
-39.7002
 20
-11.4755
 30
83.3763
 70
192
 0
VERTEX
 8
CUBO
 10
-1.0002
 20
-11.4755
 30
84.2163
 70
192
 0
VERTEX
 8
CUBO
 10
-1.0002
 20
9.1243
 30
84.2163
 70
192
 0
VERTEX
 8
CUBO
 10
-1.0002
 20
9.1243
 30
83.3763
 70
192
 0
VERTEX
 8
CUBO
 10
-1.0002
 20
-11.4755
 30
83.3763
 70
192
 0
VERTEX
 8
CUBO
 10
-18.7146
 20
9.1243
 30
84.2163
 70
192
 0
VERTEX
 8
CUBO
 10
-18.7146
 20
-11.4755
 30
84.2163
 70
192
 0
VERTEX
 8
CUBO
 10
-18.7146
 20
-11.4755
 30
83.3763
 70
192
 0
VERTEX
 8
CUBO
 10
-18.7146
 20
9.1243
 30
83.3763
 70
192
 0
VERTEX
 8
CUBO
 10
-21.9888
 20
9.1243
 30
84.2163
 70
192
 0
VERTEX
 8
CUBO
 10
-21.9888
 20
-11.4755
 30
84.2163
 70
192
 0
VERTEX
 8
CUBO
 10
-21.9888
 20
-11.4755
 30
83.3763
 70
192
 0
VERTEX
 8
CUBO
 10
-21.9888
 20
9.1243
 30
83.3763
 70
192
 0
VERTEX
 8
CUBO
 10
-40.7
 20
-6.0467
 30
84.2163
 70
192
 0
VERTEX
 8
CUBO
 10
-39.7002
 20
-6.0467
 30
84.2163
 70
192
 0
VERTEX
 8
CUBO
 10
-40.7
 20
-6.0467
 30
83.3763
 70
192
 0
VERTEX
 8
CUBO
 10
-39.7002
 20
-6.0467
 30
83.3763
 70
192
 0
VERTEX
 8
CUBO
 10
-21.9888
 20
-6.0467
 30
84.2163
 70
192
 0
VERTEX
 8
CUBO
 10
-1.0002
 20
-6.0467
 30
84.2163
 70
192
 0
VERTEX
 8
CUBO
 10
0
 20
-6.0467
 30
84.2163
 70
192
 0
VERTEX
 8
CUBO
 10
0
 20
-6.0467
 30
83.3763
 70
192
 0
VERTEX
 8
CUBO
 10
-21.9888
 20
-6.0467
 30
83.3763
 70
192
 0
VERTEX
 8
CUBO
 10
-1.0002
 20
-6.0467
 30
83.3763
 70
192
 0
VERTEX
 8
CUBO
 10
-18.7146
 20
-6.0467
 30
84.2163
 70
192
 0
VERTEX
 8
CUBO
 10
-18.7146
 20
-6.0467
 30
83.3763
 70
192
 0
VERTEX
 8
CUBO
 10
-40.7
 20
-10.3748
 30
84.2163
 70
192
 0
VERTEX
 8
CUBO
 10
-39.7002
 20
-10.3748
 30
84.2163
 70
192
 0
VERTEX
 8
CUBO
 10
-40.7
 20
-10.3748
 30
83.3763
 70
192
 0
VERTEX
 8
CUBO
 10
0
 20
-10.3748
 30
84.2163
 70
192
 0
VERTEX
 8
CUBO
 10
-1.0002
 20
-10.3748
 30
84.2163
 70
192
 0
VERTEX
 8
CUBO
 10
0
 20
-10.3748
 30
83.3763
 70
192
 0
VERTEX
 8
CUBO
 10
-39.7002
 20
-10.3748
 30
83.3763
 70
192
 0
VERTEX
 8
CUBO
 10
-21.9888
 20
-10.3748
 30
83.3763
 70
192
 0
VERTEX
 8
CUBO
 10
-1.0002
 20
-10.3748
 30
83.3763
 70
192
 0
VERTEX
 8
CUBO
 10
-18.7146
 20
-10.3748
 30
83.3763
 70
192
 0
VERTEX
 8
CUBO
 10
-21.9888
 20
-10.3748
 30
84.2163
 70
192
 0
VERTEX
 8
CUBO
 10
-18.7146
 20
-10.3748
 30
84.2163
 70
192
 0
VERTEX
 8
CUBO
 10
-40.7
 20
-9.7757
 30
84.2163
 70
192
 0
VERTEX
 8
CUBO
 10
-39.7002
 20
-9.7757
 30
84.2163
 70
192
 0
VERTEX
 8
CUBO
 10
0
 20
-9.7757
 30
84.2163
 70
192
 0
VERTEX
 8
CUBO
 10
-1.0002
 20
-9.7757
 30
84.2163
 70
192
 0
VERTEX
 8
CUBO
 10
-40.7
 20
-9.7757
 30
83.3763
 70
192
 0
VERTEX
 8
CUBO
 10
-39.7002
 20
-9.7757
 30
83.3763
 70
192
 0
VERTEX
 8
CUBO
 10
0
 20
-9.7757
 30
83.3763
 70
192
 0
VERTEX
 8
CUBO
 10
-1.0002
 20
-9.7757
 30
83.3763
 70
192
 0
VERTEX
 8
CUBO
 10
-21.9888
 20
-9.7757
 30
84.2163
 70
192
 0
VERTEX
 8
CUBO
 10
-18.7146
 20
-9.7757
 30
84.2163
 70
192
 0
VERTEX
 8
CUBO
 10
-21.9888
 20
-9.7757
 30
83.3763
 70
192
 0
VERTEX
 8
CUBO
 10
-18.7146
 20
-9.7757
 30
83.3763
 70
192
 0
VERTEX
 8
CUBO
 10
-21.3918
 20
9.1243
 30
84.2163
 70
192
 0
VERTEX
 8
CUBO
 10
-21.3918
 20
-6.0467
 30
84.2163
 70
192
 0
VERTEX
 8
CUBO
 10
-21.3918
 20
-11.4755
 30
83.3763
 70
192
 0
VERTEX
 8
CUBO
 10
-21.3918
 20
-10.3748
 30
83.3763
 70
192
 0
VERTEX
 8
CUBO
 10
-21.3918
 20
9.1243
 30
83.3763
 70
192
 0
VERTEX
 8
CUBO
 10
-21.3918
 20
-11.4755
 30
84.2163
 70
192
 0
VERTEX
 8
CUBO
 10
-21.3918
 20
-9.7757
 30
84.2163
 70
192
 0
VERTEX
 8
CUBO
 10
-21.3918
 20
-6.0467
 30
83.3763
 70
192
 0
VERTEX
 8
CUBO
 10
-21.3918
 20
-9.7757
 30
83.3763
 70
192
 0
VERTEX
 8
CUBO
 10
-21.3918
 20
-10.3748
 30
84.2163
 70
192
 0
VERTEX
 8
CUBO
 10
-21.3374
 20
-9.7757
 30
84.2163
 70
192
 0
VERTEX
 8
CUBO
 10
-21.3374
 20
-6.0467
 30
84.2163
 70
192
 0
VERTEX
 8
CUBO
 10
-21.3374
 20
9.1243
 30
83.3763
 70
192
 0
VERTEX
 8
CUBO
 10
-21.3374
 20
-6.0467
 30
83.3763
 70
192
 0
VERTEX
 8
CUBO
 10
-21.3374
 20
-9.7757
 30
83.3763
 70
192
 0
VERTEX
 8
CUBO
 10
-21.3374
 20
-10.3748
 30
83.3763
 70
192
 0
VERTEX
 8
CUBO
 10
-21.3374
 20
-11.4755
 30
84.2163
 70
192
 0
VERTEX
 8
CUBO
 10
-21.3374
 20
-10.3748
 30
84.2163
 70
192
 0
VERTEX
 8
CUBO
 10
-21.3374
 20
9.1243
 30
84.2163
 70
192
 0
VERTEX
 8
CUBO
 10
-21.3374
 20
-11.4755
 30
83.3763
 70
192
 0
VERTEX
 8
CUBO
 10
-19.3664
 20
-9.7757
 30
84.2163
 70
192
 0
VERTEX
 8
CUBO
 10
-19.3664
 20
-6.0467
 30
84.2163
 70
192
 0
VERTEX
 8
CUBO
 10
-19.3664
 20
9.1243
 30
83.3763
 70
192
 0
VERTEX
 8
CUBO
 10
-19.3664
 20
-6.0467
 30
83.3763
 70
192
 0
VERTEX
 8
CUBO
 10
-19.3664
 20
-9.7757
 30
83.3763
 70
192
 0
VERTEX
 8
CUBO
 10
-19.3664
 20
-10.3748
 30
83.3763
 70
192
 0
VERTEX
 8
CUBO
 10
-19.3664
 20
-11.4755
 30
84.2163
 70
192
 0
VERTEX
 8
CUBO
 10
-19.3664
 20
-10.3748
 30
84.2163
 70
192
 0
VERTEX
 8
CUBO
 10
-19.3664
 20
9.1243
 30
84.2163
 70
192
 0
VERTEX
 8
CUBO
 10
-19.3664
 20
-11.4755
 30
83.3763
 70
192
 0
VERTEX
 8
CUBO
 10
-19.312
 20
-9.7757
 30
84.2163
 70
192
 0
VERTEX
 8
CUBO
 10
-19.312
 20
-6.0467
 30
84.2163
 70
192
 0
VERTEX
 8
CUBO
 10
-19.312
 20
9.1243
 30
83.3763
 70
192
 0
VERTEX
 8
CUBO
 10
-19.312
 20
-6.0467
 30
83.3763
 70
192
 0
VERTEX
 8
CUBO
 10
-19.312
 20
-9.7757
 30
83.3763
 70
192
 0
VERTEX
 8
CUBO
 10
-19.312
 20
-10.3748
 30
83.3763
 70
192
 0
VERTEX
 8
CUBO
 10
-19.312
 20
-11.4755
 30
84.2163
 70
192
 0
VERTEX
 8
CUBO
 10
-19.312
 20
-10.3748
 30
84.2163
 70
192
 0
VERTEX
 8
CUBO
 10
-19.312
 20
9.1243
 30
84.2163
 70
192
 0
VERTEX
 8
CUBO
 10
-19.312
 20
-11.4755
 30
83.3763
 70
192
 0
VERTEX
 8
CUBO
 10
0
 20
-9.7248
 30
84.2163
 70
192
 0
VERTEX
 8
CUBO
 10
-1.0002
 20
-9.7248
 30
84.2163
 70
192
 0
VERTEX
 8
CUBO
 10
-40.7
 20
-9.7248
 30
83.3763
 70
192
 0
VERTEX
 8
CUBO
 10
-39.7002
 20
-9.7248
 30
83.3763
 70
192
 0
VERTEX
 8
CUBO
 10
-21.3374
 20
-9.7248
 30
83.3763
 70
192
 0
VERTEX
 8
CUBO
 10
-19.3664
 20
-9.7248
 30
83.3763
 70
192
 0
VERTEX
 8
CUBO
 10
-21.9888
 20
-9.7248
 30
84.2163
 70
192
 0
VERTEX
 8
CUBO
 10
-39.7002
 20
-9.7248
 30
84.2163
 70
192
 0
VERTEX
 8
CUBO
 10
-18.7146
 20
-9.7248
 30
84.2163
 70
192
 0
VERTEX
 8
CUBO
 10
-19.312
 20
-9.7248
 30
84.2163
 70
192
 0
VERTEX
 8
CUBO
 10
-40.7
 20
-9.7248
 30
84.2163
 70
192
 0
VERTEX
 8
CUBO
 10
0
 20
-9.7248
 30
83.3763
 70
192
 0
VERTEX
 8
CUBO
 10
-1.0002
 20
-9.7248
 30
83.3763
 70
192
 0
VERTEX
 8
CUBO
 10
-21.9888
 20
-9.7248
 30
83.3763
 70
192
 0
VERTEX
 8
CUBO
 10
-18.7146
 20
-9.7248
 30
83.3763
 70
192
 0
VERTEX
 8
CUBO
 10
-19.312
 20
-9.7248
 30
83.3763
 70
192
 0
VERTEX
 8
CUBO
 10
-21.3918
 20
-9.7248
 30
84.2163
 70
192
 0
VERTEX
 8
CUBO
 10
-21.3918
 20
-9.7248
 30
83.3763
 70
192
 0
VERTEX
 8
CUBO
 10
-21.3374
 20
-9.7248
 30
84.2163
 70
192
 0
VERTEX
 8
CUBO
 10
-19.3664
 20
-9.7248
 30
84.2163
 70
192
 0
VERTEX
 8
CUBO
 10
0
 20
-7.4925
 30
84.2163
 70
192
 0
VERTEX
 8
CUBO
 10
-1.0002
 20
-7.4925
 30
84.2163
 70
192
 0
VERTEX
 8
CUBO
 10
-40.7
 20
-7.4925
 30
83.3763
 70
192
 0
VERTEX
 8
CUBO
 10
-39.7002
 20
-7.4925
 30
83.3763
 70
192
 0
VERTEX
 8
CUBO
 10
-21.3374
 20
-7.4925
 30
83.3763
 70
192
 0
VERTEX
 8
CUBO
 10
-19.3664
 20
-7.4925
 30
83.3763
 70
192
 0
VERTEX
 8
CUBO
 10
-21.9888
 20
-7.4925
 30
84.2163
 70
192
 0
VERTEX
 8
CUBO
 10
-39.7002
 20
-7.4925
 30
84.2163
 70
192
 0
VERTEX
 8
CUBO
 10
-18.7146
 20
-7.4925
 30
84.2163
 70
192
 0
VERTEX
 8
CUBO
 10
-19.312
 20
-7.4925
 30
84.2163
 70
192
 0
VERTEX
 8
CUBO
 10
-21.9888
 20
-7.4925
 30
83.3763
 70
192
 0
VERTEX
 8
CUBO
 10
-21.3918
 20
-7.4925
 30
83.3763
 70
192
 0
VERTEX
 8
CUBO
 10
-19.312
 20
-7.4925
 30
83.3763
 70
192
 0
VERTEX
 8
CUBO
 10
-40.7
 20
-7.4925
 30
84.2163
 70
192
 0
VERTEX
 8
CUBO
 10
0
 20
-7.4925
 30
83.3763
 70
192
 0
VERTEX
 8
CUBO
 10
-1.0002
 20
-7.4925
 30
83.3763
 70
192
 0
VERTEX
 8
CUBO
 10
-18.7146
 20
-7.4925
 30
83.3763
 70
192
 0
VERTEX
 8
CUBO
 10
-21.3918
 20
-7.4925
 30
84.2163
 70
192
 0
VERTEX
 8
CUBO
 10
-21.3374
 20
-7.4925
 30
84.2163
 70
192
 0
VERTEX
 8
CUBO
 10
-19.3664
 20
-7.4925
 30
84.2163
 70
192
 0
VERTEX
 8
CUBO
 10
0
 20
-6.6457
 30
84.2163
 70
192
 0
VERTEX
 8
CUBO
 10
-1.0002
 20
-6.6457
 30
84.2163
 70
192
 0
VERTEX
 8
CUBO
 10
-40.7
 20
-6.6457
 30
84.2163
 70
192
 0
VERTEX
 8
CUBO
 10
-39.7002
 20
-6.6457
 30
84.2163
 70
192
 0
VERTEX
 8
CUBO
 10
-40.7
 20
-6.6457
 30
83.3763
 70
192
 0
VERTEX
 8
CUBO
 10
-39.7002
 20
-6.6457
 30
83.3763
 70
192
 0
VERTEX
 8
CUBO
 10
-21.3374
 20
-6.6457
 30
83.3763
 70
192
 0
VERTEX
 8
CUBO
 10
-19.3664
 20
-6.6457
 30
83.3763
 70
192
 0
VERTEX
 8
CUBO
 10
-21.9888
 20
-6.6457
 30
84.2163
 70
192
 0
VERTEX
 8
CUBO
 10
-18.7146
 20
-6.6457
 30
84.2163
 70
192
 0
VERTEX
 8
CUBO
 10
-19.312
 20
-6.6457
 30
84.2163
 70
192
 0
VERTEX
 8
CUBO
 10
-21.9888
 20
-6.6457
 30
83.3763
 70
192
 0
VERTEX
 8
CUBO
 10
-21.3918
 20
-6.6457
 30
83.3763
 70
192
 0
VERTEX
 8
CUBO
 10
-19.312
 20
-6.6457
 30
83.3763
 70
192
 0
VERTEX
 8
CUBO
 10
0
 20
-6.6457
 30
83.3763
 70
192
 0
VERTEX
 8
CUBO
 10
-1.0002
 20
-6.6457
 30
83.3763
 70
192
 0
VERTEX
 8
CUBO
 10
-18.7146
 20
-6.6457
 30
83.3763
 70
192
 0
VERTEX
 8
CUBO
 10
-21.3918
 20
-6.6457
 30
84.2163
 70
192
 0
VERTEX
 8
CUBO
 10
-21.3374
 20
-6.6457
 30
84.2163
 70
192
 0
VERTEX
 8
CUBO
 10
-19.3664
 20
-6.6457
 30
84.2163
 70
192
 0
VERTEX
 8
CUBO
 10
-40.7
 20
8.124
 30
83.3763
 70
192
 0
VERTEX
 8
CUBO
 10
-39.7002
 20
8.124
 30
83.3763
 70
192
 0
VERTEX
 8
CUBO
 10
-40.7
 20
8.124
 30
84.2163
 70
192
 0
VERTEX
 8
CUBO
 10
-39.7002
 20
8.124
 30
84.2163
 70
192
 0
VERTEX
 8
CUBO
 10
-21.9888
 20
8.124
 30
84.2163
 70
192
 0
VERTEX
 8
CUBO
 10
-19.3664
 20
8.124
 30
84.2163
 70
192
 0
VERTEX
 8
CUBO
 10
-21.3374
 20
8.124
 30
84.2163
 70
192
 0
VERTEX
 8
CUBO
 10
-1.0002
 20
8.124
 30
84.2163
 70
192
 0
VERTEX
 8
CUBO
 10
-18.7146
 20
8.124
 30
84.2163
 70
192
 0
VERTEX
 8
CUBO
 10
-21.3918
 20
8.124
 30
84.2163
 70
192
 0
VERTEX
 8
CUBO
 10
-19.312
 20
8.124
 30
84.2163
 70
192
 0
VERTEX
 8
CUBO
 10
-21.9888
 20
8.124
 30
83.3763
 70
192
 0
VERTEX
 8
CUBO
 10
-1.0002
 20
8.124
 30
83.3763
 70
192
 0
VERTEX
 8
CUBO
 10
-18.7146
 20
8.124
 30
83.3763
 70
192
 0
VERTEX
 8
CUBO
 10
-19.312
 20
8.124
 30
83.3763
 70
192
 0
VERTEX
 8
CUBO
 10
-21.3918
 20
8.124
 30
83.3763
 70
192
 0
VERTEX
 8
CUBO
 10
-21.3374
 20
8.124
 30
83.3763
 70
192
 0
VERTEX
 8
CUBO
 10
-19.3664
 20
8.124
 30
83.3763
 70
192
 0
VERTEX
 8
CUBO
 10
-40.7
 20
-10.4761
 30
84.2163
 70
192
 0
VERTEX
 8
CUBO
 10
-39.7002
 20
-10.4761
 30
84.2163
 70
192
 0
VERTEX
 8
CUBO
 10
-21.9888
 20
-10.4761
 30
84.2163
 70
192
 0
VERTEX
 8
CUBO
 10
-21.3918
 20
-10.4761
 30
84.2163
 70
192
 0
VERTEX
 8
CUBO
 10
-40.7
 20
-10.4761
 30
83.3763
 70
192
 0
VERTEX
 8
CUBO
 10
-21.9888
 20
-10.4761
 30
83.3763
 70
192
 0
VERTEX
 8
CUBO
 10
-39.7002
 20
-10.4761
 30
83.3763
 70
192
 0
VERTEX
 8
CUBO
 10
-19.3664
 20
-10.4761
 30
83.3763
 70
192
 0
VERTEX
 8
CUBO
 10
-21.3374
 20
-10.4761
 30
83.3763
 70
192
 0
VERTEX
 8
CUBO
 10
-1.0002
 20
-10.4761
 30
83.3763
 70
192
 0
VERTEX
 8
CUBO
 10
-18.7146
 20
-10.4761
 30
83.3763
 70
192
 0
VERTEX
 8
CUBO
 10
-21.3918
 20
-10.4761
 30
83.3763
 70
192
 0
VERTEX
 8
CUBO
 10
-1.0002
 20
-10.4761
 30
84.2163
 70
192
 0
VERTEX
 8
CUBO
 10
-18.7146
 20
-10.4761
 30
84.2163
 70
192
 0
VERTEX
 8
CUBO
 10
-19.312
 20
-10.4761
 30
84.2163
 70
192
 0
VERTEX
 8
CUBO
 10
-21.3374
 20
-10.4761
 30
84.2163
 70
192
 0
VERTEX
 8
CUBO
 10
-19.3664
 20
-10.4761
 30
84.2163
 70
192
 0
VERTEX
 8
CUBO
 10
-19.312
 20
-10.4761
 30
83.3763
 70
192
 0
VERTEX
 8
CUBO
 10
0
 20
-11.4755
 30
83.3164
 70
192
 0
VERTEX
 8
CUBO
 10
0
 20
9.1243
 30
83.3164
 70
192
 0
VERTEX
 8
CUBO
 10
-40.7
 20
-11.4755
 30
83.3164
 70
192
 0
VERTEX
 8
CUBO
 10
-40.7
 20
9.1243
 30
83.3164
 70
192
 0
VERTEX
 8
CUBO
 10
0
 20
8.124
 30
83.3164
 70
192
 0
VERTEX
 8
CUBO
 10
0
 20
-10.4761
 30
83.3164
 70
192
 0
VERTEX
 8
CUBO
 10
-39.7002
 20
9.1243
 30
83.3164
 70
192
 0
VERTEX
 8
CUBO
 10
-39.7002
 20
-11.4755
 30
83.3164
 70
192
 0
VERTEX
 8
CUBO
 10
-1.0002
 20
9.1243
 30
83.3164
 70
192
 0
VERTEX
 8
CUBO
 10
-1.0002
 20
-11.4755
 30
83.3164
 70
192
 0
VERTEX
 8
CUBO
 10
-18.7146
 20
-11.4755
 30
83.3164
 70
192
 0
VERTEX
 8
CUBO
 10
-18.7146
 20
9.1243
 30
83.3164
 70
192
 0
VERTEX
 8
CUBO
 10
-21.9888
 20
-11.4755
 30
83.3164
 70
192
 0
VERTEX
 8
CUBO
 10
-21.9888
 20
9.1243
 30
83.3164
 70
192
 0
VERTEX
 8
CUBO
 10
-40.7
 20
-6.0467
 30
83.3164
 70
192
 0
VERTEX
 8
CUBO
 10
-39.7002
 20
-6.0467
 30
83.3164
 70
192
 0
VERTEX
 8
CUBO
 10
0
 20
-6.0467
 30
83.3164
 70
192
 0
VERTEX
 8
CUBO
 10
-1.0002
 20
-6.0467
 30
83.3164
 70
192
 0
VERTEX
 8
CUBO
 10
-40.7
 20
-10.3748
 30
83.3164
 70
192
 0
VERTEX
 8
CUBO
 10
0
 20
-10.3748
 30
83.3164
 70
192
 0
VERTEX
 8
CUBO
 10
-39.7002
 20
-10.3748
 30
83.3164
 70
192
 0
VERTEX
 8
CUBO
 10
-1.0002
 20
-10.3748
 30
83.3164
 70
192
 0
VERTEX
 8
CUBO
 10
-40.7
 20
-9.7757
 30
83.3164
 70
192
 0
VERTEX
 8
CUBO
 10
-39.7002
 20
-9.7757
 30
83.3164
 70
192
 0
VERTEX
 8
CUBO
 10
0
 20
-9.7757
 30
83.3164
 70
192
 0
VERTEX
 8
CUBO
 10
-1.0002
 20
-9.7757
 30
83.3164
 70
192
 0
VERTEX
 8
CUBO
 10
-21.3918
 20
-11.4755
 30
83.3164
 70
192
 0
VERTEX
 8
CUBO
 10
-21.3918
 20
9.1243
 30
83.3164
 70
192
 0
VERTEX
 8
CUBO
 10
-21.3374
 20
9.1243
 30
83.3164
 70
192
 0
VERTEX
 8
CUBO
 10
-21.3374
 20
-11.4755
 30
83.3164
 70
192
 0
VERTEX
 8
CUBO
 10
-19.3664
 20
9.1243
 30
83.3164
 70
192
 0
VERTEX
 8
CUBO
 10
-19.3664
 20
-11.4755
 30
83.3164
 70
192
 0
VERTEX
 8
CUBO
 10
-19.312
 20
9.1243
 30
83.3164
 70
192
 0
VERTEX
 8
CUBO
 10
-19.312
 20
-11.4755
 30
83.3164
 70
192
 0
VERTEX
 8
CUBO
 10
-40.7
 20
-9.7248
 30
83.3164
 70
192
 0
VERTEX
 8
CUBO
 10
-39.7002
 20
-9.7248
 30
83.3164
 70
192
 0
VERTEX
 8
CUBO
 10
0
 20
-9.7248
 30
83.3164
 70
192
 0
VERTEX
 8
CUBO
 10
-1.0002
 20
-9.7248
 30
83.3164
 70
192
 0
VERTEX
 8
CUBO
 10
-40.7
 20
-7.4925
 30
83.3164
 70
192
 0
VERTEX
 8
CUBO
 10
-39.7002
 20
-7.4925
 30
83.3164
 70
192
 0
VERTEX
 8
CUBO
 10
0
 20
-7.4925
 30
83.3164
 70
192
 0
VERTEX
 8
CUBO
 10
-1.0002
 20
-7.4925
 30
83.3164
 70
192
 0
VERTEX
 8
CUBO
 10
-40.7
 20
-6.6457
 30
83.3164
 70
192
 0
VERTEX
 8
CUBO
 10
-39.7002
 20
-6.6457
 30
83.3164
 70
192
 0
VERTEX
 8
CUBO
 10
0
 20
-6.6457
 30
83.3164
 70
192
 0
VERTEX
 8
CUBO
 10
-1.0002
 20
-6.6457
 30
83.3164
 70
192
 0
VERTEX
 8
CUBO
 10
-40.7
 20
8.124
 30
83.3164
 70
192
 0
VERTEX
 8
CUBO
 10
-39.7002
 20
8.124
 30
83.3164
 70
192
 0
VERTEX
 8
CUBO
 10
-21.9888
 20
8.124
 30
83.3164
 70
192
 0
VERTEX
 8
CUBO
 10
-1.0002
 20
8.124
 30
83.3164
 70
192
 0
VERTEX
 8
CUBO
 10
-18.7146
 20
8.124
 30
83.3164
 70
192
 0
VERTEX
 8
CUBO
 10
-19.312
 20
8.124
 30
83.3164
 70
192
 0
VERTEX
 8
CUBO
 10
-21.3918
 20
8.124
 30
83.3164
 70
192
 0
VERTEX
 8
CUBO
 10
-21.3374
 20
8.124
 30
83.3164
 70
192
 0
VERTEX
 8
CUBO
 10
-19.3664
 20
8.124
 30
83.3164
 70
192
 0
VERTEX
 8
CUBO
 10
-40.7
 20
-10.4761
 30
83.3164
 70
192
 0
VERTEX
 8
CUBO
 10
-21.9888
 20
-10.4761
 30
83.3164
 70
192
 0
VERTEX
 8
CUBO
 10
-39.7002
 20
-10.4761
 30
83.3164
 70
192
 0
VERTEX
 8
CUBO
 10
-19.3664
 20
-10.4761
 30
83.3164
 70
192
 0
VERTEX
 8
CUBO
 10
-21.3374
 20
-10.4761
 30
83.3164
 70
192
 0
VERTEX
 8
CUBO
 10
-1.0002
 20
-10.4761
 30
83.3164
 70
192
 0
VERTEX
 8
CUBO
 10
-18.7146
 20
-10.4761
 30
83.3164
 70
192
 0
VERTEX
 8
CUBO
 10
-21.3918
 20
-10.4761
 30
83.3164
 70
192
 0
VERTEX
 8
CUBO
 10
-19.312
 20
-10.4761
 30
83.3164
 70
192
 0
VERTEX
 8
CUBO
 10
-21.9888
 20
-6.0467
 30
83.3164
 70
192
 0
VERTEX
 8
CUBO
 10
-18.7146
 20
-6.0467
 30
83.3164
 70
192
 0
VERTEX
 8
CUBO
 10
-21.9888
 20
-10.3748
 30
83.3164
 70
192
 0
VERTEX
 8
CUBO
 10
-18.7146
 20
-10.3748
 30
83.3164
 70
192
 0
VERTEX
 8
CUBO
 10
-21.9888
 20
-9.7757
 30
83.3164
 70
192
 0
VERTEX
 8
CUBO
 10
-18.7146
 20
-9.7757
 30
83.3164
 70
192
 0
VERTEX
 8
CUBO
 10
-21.3918
 20
-10.3748
 30
83.3164
 70
192
 0
VERTEX
 8
CUBO
 10
-21.3918
 20
-6.0467
 30
83.3164
 70
192
 0
VERTEX
 8
CUBO
 10
-21.3918
 20
-9.7757
 30
83.3164
 70
192
 0
VERTEX
 8
CUBO
 10
-21.3374
 20
-6.0467
 30
83.3164
 70
192
 0
VERTEX
 8
CUBO
 10
-21.3374
 20
-9.7757
 30
83.3164
 70
192
 0
VERTEX
 8
CUBO
 10
-21.3374
 20
-10.3748
 30
83.3164
 70
192
 0
VERTEX
 8
CUBO
 10
-19.3664
 20
-6.0467
 30
83.3164
 70
192
 0
VERTEX
 8
CUBO
 10
-19.3664
 20
-9.7757
 30
83.3164
 70
192
 0
VERTEX
 8
CUBO
 10
-19.3664
 20
-10.3748
 30
83.3164
 70
192
 0
VERTEX
 8
CUBO
 10
-19.312
 20
-6.0467
 30
83.3164
 70
192
 0
VERTEX
 8
CUBO
 10
-19.312
 20
-9.7757
 30
83.3164
 70
192
 0
VERTEX
 8
CUBO
 10
-19.312
 20
-10.3748
 30
83.3164
 70
192
 0
VERTEX
 8
CUBO
 10
-21.9888
 20
-9.7248
 30
83.3164
 70
192
 0
VERTEX
 8
CUBO
 10
-18.7146
 20
-9.7248
 30
83.3164
 70
192
 0
VERTEX
 8
CUBO
 10
-19.312
 20
-9.7248
 30
83.3164
 70
192
 0
VERTEX
 8
CUBO
 10
-21.3918
 20
-9.7248
 30
83.3164
 70
192
 0
VERTEX
 8
CUBO
 10
-21.9888
 20
-7.4925
 30
83.3164
 70
192
 0
VERTEX
 8
CUBO
 10
-21.3918
 20
-7.4925
 30
83.3164
 70
192
 0
VERTEX
 8
CUBO
 10
-19.312
 20
-7.4925
 30
83.3164
 70
192
 0
VERTEX
 8
CUBO
 10
-18.7146
 20
-7.4925
 30
83.3164
 70
192
 0
VERTEX
 8
CUBO
 10
-21.3374
 20
-6.6457
 30
83.3164
 70
192
 0
VERTEX
 8
CUBO
 10
-19.3664
 20
-6.6457
 30
83.3164
 70
192
 0
VERTEX
 8
CUBO
 10
-21.9888
 20
-6.6457
 30
83.3164
 70
192
 0
VERTEX
 8
CUBO
 10
-21.3918
 20
-6.6457
 30
83.3164
 70
192
 0
VERTEX
 8
CUBO
 10
-19.312
 20
-6.6457
 30
83.3164
 70
192
 0
VERTEX
 8
CUBO
 10
-18.7146
 20
-6.6457
 30
83.3164
 70
192
 0
VERTEX
 8
CUBO
 10
-21.3374
 20
-9.7248
 30
83.3164
 70
192
 0
VERTEX
 8
CUBO
 10
-19.3664
 20
-9.7248
 30
83.3164
 70
192
 0
VERTEX
 8
CUBO
 10
-21.3374
 20
-7.4925
 30
83.3164
 70
192
 0
VERTEX
 8
CUBO
 10
-19.3664
 20
-7.4925
 30
83.3164
 70
192
 0
VERTEX
 8
CUBO
 10
0
 20
0
 30
0
 70
128
 71
1
 72
183
 73
184
 74
14
 0
VERTEX
 8
CUBO
 10
0
 20
0
 30
0
 70
128
 71
3
 72
11
 73
12
 74
5
 0
VERTEX
 8
CUBO
 10
0
 20
0
 30
0
 70
128
 71
207
 72
204
 73
247
 74
248
 0
VERTEX
 8
CUBO
 10
0
 20
0
 30
0
 70
128
 71
7
 72
187
 73
183
 74
1
 0
VERTEX
 8
CUBO
 10
0
 20
0
 30
0
 70
128
 71
2
 72
8
 73
15
 74
13
 0
VERTEX
 8
CUBO
 10
0
 20
0
 30
0
 70
128
 71
7
 72
1
 73
14
 74
16
 0
VERTEX
 8
CUBO
 10
0
 20
0
 30
0
 70
128
 71
29
 72
167
 73
168
 74
30
 0
VERTEX
 8
CUBO
 10
0
 20
0
 30
0
 70
128
 71
13
 72
25
 73
169
 74
168
 0
VERTEX
 8
CUBO
 10
0
 20
0
 30
0
 70
128
 71
9
 72
4
 73
6
 74
10
 0
VERTEX
 8
CUBO
 10
0
 20
0
 30
0
 70
128
 71
41
 72
53
 73
54
 74
42
 0
VERTEX
 8
CUBO
 10
0
 20
0
 30
0
 70
128
 71
35
 72
145
 73
146
 74
34
 0
VERTEX
 8
CUBO
 10
0
 20
0
 30
0
 70
128
 71
11
 72
44
 73
46
 74
12
 0
VERTEX
 8
CUBO
 10
0
 20
0
 30
0
 70
128
 71
215
 72
243
 73
244
 74
216
 0
VERTEX
 8
CUBO
 10
0
 20
0
 30
0
 70
128
 71
208
 72
213
 73
257
 74
258
 0
VERTEX
 8
CUBO
 10
0
 20
0
 30
0
 70
128
 71
15
 72
28
 73
25
 74
13
 0
VERTEX
 8
CUBO
 10
0
 20
0
 30
0
 70
128
 71
14
 72
26
 73
27
 74
16
 0
VERTEX
 8
CUBO
 10
0
 20
0
 30
0
 70
128
 71
43
 72
57
 73
53
 74
41
 0
VERTEX
 8
CUBO
 10
0
 20
0
 30
0
 70
128
 71
220
 72
225
 73
226
 74
222
 0
VERTEX
 8
CUBO
 10
0
 20
0
 30
0
 70
128
 71
19
 72
6
 73
4
 74
18
 0
VERTEX
 8
CUBO
 10
0
 20
0
 30
0
 70
128
 71
17
 72
3
 73
5
 74
20
 0
VERTEX
 8
CUBO
 10
0
 20
0
 30
0
 70
128
 71
21
 72
18
 73
172
 74
173
 0
VERTEX
 8
CUBO
 10
0
 20
0
 30
0
 70
128
 71
211
 72
210
 73
261
 74
262
 0
VERTEX
 8
CUBO
 10
0
 20
0
 30
0
 70
128
 71
24
 72
19
 73
18
 74
21
 0
VERTEX
 8
CUBO
 10
0
 20
0
 30
0
 70
128
 71
22
 72
17
 73
20
 74
23
 0
VERTEX
 8
CUBO
 10
0
 20
0
 30
0
 70
128
 71
25
 72
65
 73
174
 74
169
 0
VERTEX
 8
CUBO
 10
0
 20
0
 30
0
 70
128
 71
213
 72
227
 73
263
 74
257
 0
VERTEX
 8
CUBO
 10
0
 20
0
 30
0
 70
128
 71
28
 72
69
 73
65
 74
25
 0
VERTEX
 8
CUBO
 10
0
 20
0
 30
0
 70
128
 71
26
 72
70
 73
67
 74
27
 0
VERTEX
 8
CUBO
 10
0
 20
0
 30
0
 70
128
 71
31
 72
165
 73
167
 74
29
 0
VERTEX
 8
CUBO
 10
0
 20
0
 30
0
 70
128
 71
33
 72
153
 73
148
 74
30
 0
VERTEX
 8
CUBO
 10
0
 20
0
 30
0
 70
128
 71
172
 72
18
 73
4
 74
9
 0
VERTEX
 8
CUBO
 10
0
 20
0
 30
0
 70
128
 71
247
 72
215
 73
216
 74
248
 0
VERTEX
 8
CUBO
 10
0
 20
0
 30
0
 70
128
 71
35
 72
9
 73
10
 74
36
 0
VERTEX
 8
CUBO
 10
0
 20
0
 30
0
 70
128
 71
37
 72
176
 73
166
 74
32
 0
VERTEX
 8
CUBO
 10
0
 20
0
 30
0
 70
128
 71
167
 72
2
 73
13
 74
168
 0
VERTEX
 8
CUBO
 10
0
 20
0
 30
0
 70
128
 71
217
 72
205
 73
250
 74
218
 0
VERTEX
 8
CUBO
 10
0
 20
0
 30
0
 70
128
 71
34
 72
146
 73
154
 74
39
 0
VERTEX
 8
CUBO
 10
0
 20
0
 30
0
 70
128
 71
38
 72
177
 73
178
 74
40
 0
VERTEX
 8
CUBO
 10
0
 20
0
 30
0
 70
128
 71
39
 72
154
 73
155
 74
96
 0
VERTEX
 8
CUBO
 10
0
 20
0
 30
0
 70
128
 71
40
 72
178
 73
179
 74
98
 0
VERTEX
 8
CUBO
 10
0
 20
0
 30
0
 70
128
 71
44
 72
11
 73
195
 74
45
 0
VERTEX
 8
CUBO
 10
0
 20
0
 30
0
 70
128
 71
183
 72
41
 73
42
 74
184
 0
VERTEX
 8
CUBO
 10
0
 20
0
 30
0
 70
128
 71
44
 72
55
 73
59
 74
46
 0
VERTEX
 8
CUBO
 10
0
 20
0
 30
0
 70
128
 71
219
 72
256
 73
258
 74
221
 0
VERTEX
 8
CUBO
 10
0
 20
0
 30
0
 70
128
 71
48
 72
63
 73
58
 74
47
 0
VERTEX
 8
CUBO
 10
0
 20
0
 30
0
 70
128
 71
261
 72
210
 73
201
 74
206
 0
VERTEX
 8
CUBO
 10
0
 20
0
 30
0
 70
128
 71
185
 72
51
 73
74
 74
186
 0
VERTEX
 8
CUBO
 10
0
 20
0
 30
0
 70
128
 71
49
 72
60
 73
64
 74
50
 0
VERTEX
 8
CUBO
 10
0
 20
0
 30
0
 70
128
 71
268
 72
270
 73
281
 74
282
 0
VERTEX
 8
CUBO
 10
0
 20
0
 30
0
 70
128
 71
51
 72
185
 73
184
 74
42
 0
VERTEX
 8
CUBO
 10
0
 20
0
 30
0
 70
128
 71
45
 72
195
 73
196
 74
52
 0
VERTEX
 8
CUBO
 10
0
 20
0
 30
0
 70
128
 71
52
 72
196
 73
197
 74
102
 0
VERTEX
 8
CUBO
 10
0
 20
0
 30
0
 70
128
 71
53
 72
115
 73
112
 74
54
 0
VERTEX
 8
CUBO
 10
0
 20
0
 30
0
 70
128
 71
55
 72
44
 73
45
 74
56
 0
VERTEX
 8
CUBO
 10
0
 20
0
 30
0
 70
128
 71
223
 72
219
 73
221
 74
224
 0
VERTEX
 8
CUBO
 10
0
 20
0
 30
0
 70
128
 71
57
 72
107
 73
115
 74
53
 0
VERTEX
 8
CUBO
 10
0
 20
0
 30
0
 70
128
 71
225
 72
237
 73
238
 74
226
 0
VERTEX
 8
CUBO
 10
0
 20
0
 30
0
 70
128
 71
61
 72
51
 73
42
 74
54
 0
VERTEX
 8
CUBO
 10
0
 20
0
 30
0
 70
128
 71
56
 72
45
 73
52
 74
62
 0
VERTEX
 8
CUBO
 10
0
 20
0
 30
0
 70
128
 71
62
 72
52
 73
102
 74
95
 0
VERTEX
 8
CUBO
 10
0
 20
0
 30
0
 70
128
 71
55
 72
105
 73
116
 74
59
 0
VERTEX
 8
CUBO
 10
0
 20
0
 30
0
 70
128
 71
63
 72
118
 73
108
 74
58
 0
VERTEX
 8
CUBO
 10
0
 20
0
 30
0
 70
128
 71
60
 72
117
 73
119
 74
64
 0
VERTEX
 8
CUBO
 10
0
 20
0
 30
0
 70
128
 71
270
 72
284
 73
285
 74
281
 0
VERTEX
 8
CUBO
 10
0
 20
0
 30
0
 70
128
 71
65
 72
83
 73
171
 74
174
 0
VERTEX
 8
CUBO
 10
0
 20
0
 30
0
 70
128
 71
227
 72
230
 73
260
 74
263
 0
VERTEX
 8
CUBO
 10
0
 20
0
 30
0
 70
128
 71
69
 72
77
 73
83
 74
65
 0
VERTEX
 8
CUBO
 10
0
 20
0
 30
0
 70
128
 71
70
 72
81
 73
84
 74
67
 0
VERTEX
 8
CUBO
 10
0
 20
0
 30
0
 70
128
 71
71
 72
61
 73
111
 74
121
 0
VERTEX
 8
CUBO
 10
0
 20
0
 30
0
 70
128
 71
228
 72
214
 73
249
 74
253
 0
VERTEX
 8
CUBO
 10
0
 20
0
 30
0
 70
128
 71
273
 72
269
 73
267
 74
271
 0
VERTEX
 8
CUBO
 10
0
 20
0
 30
0
 70
128
 71
70
 72
26
 73
185
 74
186
 0
VERTEX
 8
CUBO
 10
0
 20
0
 30
0
 70
128
 71
74
 72
51
 73
61
 74
71
 0
VERTEX
 8
CUBO
 10
0
 20
0
 30
0
 70
128
 71
272
 72
265
 73
293
 74
294
 0
VERTEX
 8
CUBO
 10
0
 20
0
 30
0
 70
128
 71
75
 72
71
 73
121
 74
123
 0
VERTEX
 8
CUBO
 10
0
 20
0
 30
0
 70
128
 71
298
 72
110
 73
130
 74
300
 0
VERTEX
 8
CUBO
 10
0
 20
0
 30
0
 70
128
 71
275
 72
273
 73
271
 74
276
 0
VERTEX
 8
CUBO
 10
0
 20
0
 30
0
 70
128
 71
81
 72
70
 73
186
 74
198
 0
VERTEX
 8
CUBO
 10
0
 20
0
 30
0
 70
128
 71
82
 72
74
 73
71
 74
75
 0
VERTEX
 8
CUBO
 10
0
 20
0
 30
0
 70
128
 71
274
 72
272
 73
294
 74
291
 0
VERTEX
 8
CUBO
 10
0
 20
0
 30
0
 70
128
 71
83
 72
93
 73
170
 74
171
 0
VERTEX
 8
CUBO
 10
0
 20
0
 30
0
 70
128
 71
230
 72
232
 73
259
 74
260
 0
VERTEX
 8
CUBO
 10
0
 20
0
 30
0
 70
128
 71
77
 72
87
 73
93
 74
83
 0
VERTEX
 8
CUBO
 10
0
 20
0
 30
0
 70
128
 71
81
 72
91
 73
94
 74
84
 0
VERTEX
 8
CUBO
 10
0
 20
0
 30
0
 70
128
 71
85
 72
75
 73
123
 74
124
 0
VERTEX
 8
CUBO
 10
0
 20
0
 30
0
 70
128
 71
231
 72
229
 73
254
 74
255
 0
VERTEX
 8
CUBO
 10
0
 20
0
 30
0
 70
128
 71
278
 72
275
 73
276
 74
279
 0
VERTEX
 8
CUBO
 10
0
 20
0
 30
0
 70
128
 71
91
 72
81
 73
198
 74
199
 0
VERTEX
 8
CUBO
 10
0
 20
0
 30
0
 70
128
 71
92
 72
82
 73
75
 74
85
 0
VERTEX
 8
CUBO
 10
0
 20
0
 30
0
 70
128
 71
277
 72
274
 73
291
 74
292
 0
VERTEX
 8
CUBO
 10
0
 20
0
 30
0
 70
128
 71
93
 72
103
 73
175
 74
170
 0
VERTEX
 8
CUBO
 10
0
 20
0
 30
0
 70
128
 71
232
 72
234
 73
264
 74
259
 0
VERTEX
 8
CUBO
 10
0
 20
0
 30
0
 70
128
 71
87
 72
97
 73
103
 74
93
 0
VERTEX
 8
CUBO
 10
0
 20
0
 30
0
 70
128
 71
91
 72
101
 73
104
 74
94
 0
VERTEX
 8
CUBO
 10
0
 20
0
 30
0
 70
128
 71
95
 72
85
 73
124
 74
114
 0
VERTEX
 8
CUBO
 10
0
 20
0
 30
0
 70
128
 71
233
 72
231
 73
255
 74
252
 0
VERTEX
 8
CUBO
 10
0
 20
0
 30
0
 70
128
 71
281
 72
278
 73
279
 74
282
 0
VERTEX
 8
CUBO
 10
0
 20
0
 30
0
 70
128
 71
101
 72
91
 73
199
 74
197
 0
VERTEX
 8
CUBO
 10
0
 20
0
 30
0
 70
128
 71
102
 72
92
 73
85
 74
95
 0
VERTEX
 8
CUBO
 10
0
 20
0
 30
0
 70
128
 71
280
 72
277
 73
292
 74
295
 0
VERTEX
 8
CUBO
 10
0
 20
0
 30
0
 70
128
 71
103
 72
21
 73
173
 74
175
 0
VERTEX
 8
CUBO
 10
0
 20
0
 30
0
 70
128
 71
234
 72
211
 73
262
 74
264
 0
VERTEX
 8
CUBO
 10
0
 20
0
 30
0
 70
128
 71
97
 72
24
 73
21
 74
103
 0
VERTEX
 8
CUBO
 10
0
 20
0
 30
0
 70
128
 71
101
 72
22
 73
23
 74
104
 0
VERTEX
 8
CUBO
 10
0
 20
0
 30
0
 70
128
 71
105
 72
55
 73
56
 74
106
 0
VERTEX
 8
CUBO
 10
0
 20
0
 30
0
 70
128
 71
235
 72
223
 73
224
 74
236
 0
VERTEX
 8
CUBO
 10
0
 20
0
 30
0
 70
128
 71
109
 72
79
 73
89
 74
110
 0
VERTEX
 8
CUBO
 10
0
 20
0
 30
0
 70
128
 71
111
 72
61
 73
54
 74
112
 0
VERTEX
 8
CUBO
 10
0
 20
0
 30
0
 70
128
 71
106
 72
56
 73
62
 74
113
 0
VERTEX
 8
CUBO
 10
0
 20
0
 30
0
 70
128
 71
113
 72
62
 73
95
 74
114
 0
VERTEX
 8
CUBO
 10
0
 20
0
 30
0
 70
128
 71
115
 72
138
 73
132
 74
112
 0
VERTEX
 8
CUBO
 10
0
 20
0
 30
0
 70
128
 71
107
 72
127
 73
138
 74
115
 0
VERTEX
 8
CUBO
 10
0
 20
0
 30
0
 70
128
 71
237
 72
241
 73
242
 74
238
 0
VERTEX
 8
CUBO
 10
0
 20
0
 30
0
 70
128
 71
105
 72
125
 73
139
 74
116
 0
VERTEX
 8
CUBO
 10
0
 20
0
 30
0
 70
128
 71
118
 72
135
 73
128
 74
108
 0
VERTEX
 8
CUBO
 10
0
 20
0
 30
0
 70
128
 71
117
 72
140
 73
141
 74
119
 0
VERTEX
 8
CUBO
 10
0
 20
0
 30
0
 70
128
 71
284
 72
290
 73
289
 74
285
 0
VERTEX
 8
CUBO
 10
0
 20
0
 30
0
 70
128
 71
111
 72
131
 73
142
 74
121
 0
VERTEX
 8
CUBO
 10
0
 20
0
 30
0
 70
128
 71
283
 72
269
 73
273
 74
286
 0
VERTEX
 8
CUBO
 10
0
 20
0
 30
0
 70
128
 71
121
 72
142
 73
143
 74
123
 0
VERTEX
 8
CUBO
 10
0
 20
0
 30
0
 70
128
 71
122
 72
73
 73
79
 74
109
 0
VERTEX
 8
CUBO
 10
0
 20
0
 30
0
 70
128
 71
123
 72
143
 73
144
 74
124
 0
VERTEX
 8
CUBO
 10
0
 20
0
 30
0
 70
128
 71
124
 72
144
 73
134
 74
114
 0
VERTEX
 8
CUBO
 10
0
 20
0
 30
0
 70
128
 71
110
 72
89
 73
99
 74
120
 0
VERTEX
 8
CUBO
 10
0
 20
0
 30
0
 70
128
 71
125
 72
105
 73
106
 74
126
 0
VERTEX
 8
CUBO
 10
0
 20
0
 30
0
 70
128
 71
239
 72
235
 73
236
 74
240
 0
VERTEX
 8
CUBO
 10
0
 20
0
 30
0
 70
128
 71
299
 72
297
 73
298
 74
300
 0
VERTEX
 8
CUBO
 10
0
 20
0
 30
0
 70
128
 71
131
 72
111
 73
112
 74
132
 0
VERTEX
 8
CUBO
 10
0
 20
0
 30
0
 70
128
 71
126
 72
106
 73
113
 74
133
 0
VERTEX
 8
CUBO
 10
0
 20
0
 30
0
 70
128
 71
133
 72
113
 73
114
 74
134
 0
VERTEX
 8
CUBO
 10
0
 20
0
 30
0
 70
128
 71
287
 72
283
 73
286
 74
288
 0
VERTEX
 8
CUBO
 10
0
 20
0
 30
0
 70
128
 71
136
 72
122
 73
109
 74
129
 0
VERTEX
 8
CUBO
 10
0
 20
0
 30
0
 70
128
 71
130
 72
110
 73
120
 74
137
 0
VERTEX
 8
CUBO
 10
0
 20
0
 30
0
 70
128
 71
138
 72
147
 73
148
 74
132
 0
VERTEX
 8
CUBO
 10
0
 20
0
 30
0
 70
128
 71
127
 72
149
 73
147
 74
138
 0
VERTEX
 8
CUBO
 10
0
 20
0
 30
0
 70
128
 71
241
 72
245
 73
246
 74
242
 0
VERTEX
 8
CUBO
 10
0
 20
0
 30
0
 70
128
 71
125
 72
145
 73
159
 74
139
 0
VERTEX
 8
CUBO
 10
0
 20
0
 30
0
 70
128
 71
135
 72
156
 73
150
 74
128
 0
VERTEX
 8
CUBO
 10
0
 20
0
 30
0
 70
128
 71
140
 72
160
 73
161
 74
141
 0
VERTEX
 8
CUBO
 10
0
 20
0
 30
0
 70
128
 71
290
 72
296
 73
295
 74
289
 0
VERTEX
 8
CUBO
 10
0
 20
0
 30
0
 70
128
 71
131
 72
153
 73
162
 74
142
 0
VERTEX
 8
CUBO
 10
0
 20
0
 30
0
 70
128
 71
142
 72
162
 73
163
 74
143
 0
VERTEX
 8
CUBO
 10
0
 20
0
 30
0
 70
128
 71
143
 72
163
 73
164
 74
144
 0
VERTEX
 8
CUBO
 10
0
 20
0
 30
0
 70
128
 71
144
 72
164
 73
155
 74
134
 0
VERTEX
 8
CUBO
 10
0
 20
0
 30
0
 70
128
 71
145
 72
125
 73
126
 74
146
 0
VERTEX
 8
CUBO
 10
0
 20
0
 30
0
 70
128
 71
147
 72
29
 73
30
 74
148
 0
VERTEX
 8
CUBO
 10
0
 20
0
 30
0
 70
128
 71
243
 72
239
 73
240
 74
244
 0
VERTEX
 8
CUBO
 10
0
 20
0
 30
0
 70
128
 71
151
 72
129
 73
130
 74
152
 0
VERTEX
 8
CUBO
 10
0
 20
0
 30
0
 70
128
 71
153
 72
131
 73
132
 74
148
 0
VERTEX
 8
CUBO
 10
0
 20
0
 30
0
 70
128
 71
146
 72
126
 73
133
 74
154
 0
VERTEX
 8
CUBO
 10
0
 20
0
 30
0
 70
128
 71
154
 72
133
 73
134
 74
155
 0
VERTEX
 8
CUBO
 10
0
 20
0
 30
0
 70
128
 71
293
 72
287
 73
288
 74
294
 0
VERTEX
 8
CUBO
 10
0
 20
0
 30
0
 70
128
 71
157
 72
136
 73
129
 74
151
 0
VERTEX
 8
CUBO
 10
0
 20
0
 30
0
 70
128
 71
152
 72
130
 73
137
 74
158
 0
VERTEX
 8
CUBO
 10
0
 20
0
 30
0
 70
128
 71
149
 72
31
 73
29
 74
147
 0
VERTEX
 8
CUBO
 10
0
 20
0
 30
0
 70
128
 71
245
 72
217
 73
218
 74
246
 0
VERTEX
 8
CUBO
 10
0
 20
0
 30
0
 70
128
 71
145
 72
35
 73
36
 74
159
 0
VERTEX
 8
CUBO
 10
0
 20
0
 30
0
 70
128
 71
156
 72
37
 73
32
 74
150
 0
VERTEX
 8
CUBO
 10
0
 20
0
 30
0
 70
128
 71
160
 72
38
 73
40
 74
161
 0
VERTEX
 8
CUBO
 10
0
 20
0
 30
0
 70
128
 71
296
 72
266
 73
280
 74
295
 0
VERTEX
 8
CUBO
 10
0
 20
0
 30
0
 70
128
 71
153
 72
33
 73
66
 74
162
 0
VERTEX
 8
CUBO
 10
0
 20
0
 30
0
 70
128
 71
162
 72
66
 73
76
 74
163
 0
VERTEX
 8
CUBO
 10
0
 20
0
 30
0
 70
128
 71
163
 72
76
 73
86
 74
164
 0
VERTEX
 8
CUBO
 10
0
 20
0
 30
0
 70
128
 71
164
 72
86
 73
96
 74
155
 0
VERTEX
 8
CUBO
 10
0
 20
0
 30
0
 70
128
 71
169
 72
33
 73
30
 74
168
 0
VERTEX
 8
CUBO
 10
0
 20
0
 30
0
 70
128
 71
170
 72
86
 73
76
 74
171
 0
VERTEX
 8
CUBO
 10
0
 20
0
 30
0
 70
128
 71
172
 72
34
 73
39
 74
173
 0
VERTEX
 8
CUBO
 10
0
 20
0
 30
0
 70
128
 71
174
 72
66
 73
33
 74
169
 0
VERTEX
 8
CUBO
 10
0
 20
0
 30
0
 70
128
 71
165
 72
8
 73
2
 74
167
 0
VERTEX
 8
CUBO
 10
0
 20
0
 30
0
 70
128
 71
175
 72
96
 73
86
 74
170
 0
VERTEX
 8
CUBO
 10
0
 20
0
 30
0
 70
128
 71
9
 72
35
 73
34
 74
172
 0
VERTEX
 8
CUBO
 10
0
 20
0
 30
0
 70
128
 71
173
 72
39
 73
96
 74
175
 0
VERTEX
 8
CUBO
 10
0
 20
0
 30
0
 70
128
 71
249
 72
214
 73
207
 74
248
 0
VERTEX
 8
CUBO
 10
0
 20
0
 30
0
 70
128
 71
205
 72
202
 73
209
 74
250
 0
VERTEX
 8
CUBO
 10
0
 20
0
 30
0
 70
128
 71
250
 72
209
 73
212
 74
251
 0
VERTEX
 8
CUBO
 10
0
 20
0
 30
0
 70
128
 71
251
 72
212
 73
233
 74
252
 0
VERTEX
 8
CUBO
 10
0
 20
0
 30
0
 70
128
 71
171
 72
76
 73
66
 74
174
 0
VERTEX
 8
CUBO
 10
0
 20
0
 30
0
 70
128
 71
176
 72
37
 73
72
 74
180
 0
VERTEX
 8
CUBO
 10
0
 20
0
 30
0
 70
128
 71
180
 72
72
 73
78
 74
181
 0
VERTEX
 8
CUBO
 10
0
 20
0
 30
0
 70
128
 71
181
 72
78
 73
88
 74
182
 0
VERTEX
 8
CUBO
 10
0
 20
0
 30
0
 70
128
 71
182
 72
88
 73
98
 74
179
 0
VERTEX
 8
CUBO
 10
0
 20
0
 30
0
 70
128
 71
187
 72
43
 73
41
 74
183
 0
VERTEX
 8
CUBO
 10
0
 20
0
 30
0
 70
128
 71
188
 72
48
 73
47
 74
189
 0
VERTEX
 8
CUBO
 10
0
 20
0
 30
0
 70
128
 71
190
 72
90
 73
80
 74
191
 0
VERTEX
 8
CUBO
 10
0
 20
0
 30
0
 70
128
 71
192
 72
49
 73
50
 74
193
 0
VERTEX
 8
CUBO
 10
0
 20
0
 30
0
 70
128
 71
194
 72
68
 73
48
 74
188
 0
VERTEX
 8
CUBO
 10
0
 20
0
 30
0
 70
128
 71
11
 72
3
 73
17
 74
195
 0
VERTEX
 8
CUBO
 10
0
 20
0
 30
0
 70
128
 71
256
 72
203
 73
208
 74
258
 0
VERTEX
 8
CUBO
 10
0
 20
0
 30
0
 70
128
 71
206
 72
220
 73
222
 74
261
 0
VERTEX
 8
CUBO
 10
0
 20
0
 30
0
 70
128
 71
185
 72
26
 73
14
 74
184
 0
VERTEX
 8
CUBO
 10
0
 20
0
 30
0
 70
128
 71
195
 72
17
 73
22
 74
196
 0
VERTEX
 8
CUBO
 10
0
 20
0
 30
0
 70
128
 71
196
 72
22
 73
101
 74
197
 0
VERTEX
 8
CUBO
 10
0
 20
0
 30
0
 70
128
 71
191
 72
80
 73
68
 74
194
 0
VERTEX
 8
CUBO
 10
0
 20
0
 30
0
 70
128
 71
186
 72
74
 73
82
 74
198
 0
VERTEX
 8
CUBO
 10
0
 20
0
 30
0
 70
128
 71
198
 72
82
 73
92
 74
199
 0
VERTEX
 8
CUBO
 10
0
 20
0
 30
0
 70
128
 71
200
 72
100
 73
90
 74
190
 0
VERTEX
 8
CUBO
 10
0
 20
0
 30
0
 70
128
 71
199
 72
92
 73
102
 74
197
 0
VERTEX
 8
CUBO
 10
0
 20
0
 30
0
 70
128
 71
193
 72
50
 73
100
 74
200
 0
VERTEX
 8
CUBO
 10
0
 20
0
 30
0
 70
128
 71
207
 72
15
 73
8
 74
204
 0
VERTEX
 8
CUBO
 10
0
 20
0
 30
0
 70
128
 71
204
 72
8
 73
165
 74
247
 0
VERTEX
 8
CUBO
 10
0
 20
0
 30
0
 70
128
 71
215
 72
31
 73
149
 74
243
 0
VERTEX
 8
CUBO
 10
0
 20
0
 30
0
 70
128
 71
244
 72
150
 73
32
 74
216
 0
VERTEX
 8
CUBO
 10
0
 20
0
 30
0
 70
128
 71
208
 72
16
 73
27
 74
213
 0
VERTEX
 8
CUBO
 10
0
 20
0
 30
0
 70
128
 71
257
 72
188
 73
189
 74
258
 0
VERTEX
 8
CUBO
 10
0
 20
0
 30
0
 70
128
 71
220
 72
46
 73
59
 74
225
 0
VERTEX
 8
CUBO
 10
0
 20
0
 30
0
 70
128
 71
226
 72
60
 73
49
 74
222
 0
VERTEX
 8
CUBO
 10
0
 20
0
 30
0
 70
128
 71
211
 72
23
 73
20
 74
210
 0
VERTEX
 8
CUBO
 10
0
 20
0
 30
0
 70
128
 71
261
 72
192
 73
193
 74
262
 0
VERTEX
 8
CUBO
 10
0
 20
0
 30
0
 70
128
 71
213
 72
27
 73
67
 74
227
 0
VERTEX
 8
CUBO
 10
0
 20
0
 30
0
 70
128
 71
263
 72
194
 73
188
 74
257
 0
VERTEX
 8
CUBO
 10
0
 20
0
 30
0
 70
128
 71
247
 72
165
 73
31
 74
215
 0
VERTEX
 8
CUBO
 10
0
 20
0
 30
0
 70
128
 71
216
 72
32
 73
166
 74
248
 0
VERTEX
 8
CUBO
 10
0
 20
0
 30
0
 70
128
 71
217
 72
36
 73
10
 74
205
 0
VERTEX
 8
CUBO
 10
0
 20
0
 30
0
 70
128
 71
250
 72
177
 73
38
 74
218
 0
VERTEX
 8
CUBO
 10
0
 20
0
 30
0
 70
128
 71
219
 72
43
 73
187
 74
256
 0
VERTEX
 8
CUBO
 10
0
 20
0
 30
0
 70
128
 71
258
 72
189
 73
47
 74
221
 0
VERTEX
 8
CUBO
 10
0
 20
0
 30
0
 70
128
 71
210
 72
20
 73
5
 74
201
 0
VERTEX
 8
CUBO
 10
0
 20
0
 30
0
 70
128
 71
201
 72
5
 73
12
 74
206
 0
VERTEX
 8
CUBO
 10
0
 20
0
 30
0
 70
128
 71
223
 72
57
 73
43
 74
219
 0
VERTEX
 8
CUBO
 10
0
 20
0
 30
0
 70
128
 71
221
 72
47
 73
58
 74
224
 0
VERTEX
 8
CUBO
 10
0
 20
0
 30
0
 70
128
 71
225
 72
59
 73
116
 74
237
 0
VERTEX
 8
CUBO
 10
0
 20
0
 30
0
 70
128
 71
238
 72
117
 73
60
 74
226
 0
VERTEX
 8
CUBO
 10
0
 20
0
 30
0
 70
128
 71
227
 72
67
 73
84
 74
230
 0
VERTEX
 8
CUBO
 10
0
 20
0
 30
0
 70
128
 71
260
 72
191
 73
194
 74
263
 0
VERTEX
 8
CUBO
 10
0
 20
0
 30
0
 70
128
 71
228
 72
69
 73
28
 74
214
 0
VERTEX
 8
CUBO
 10
0
 20
0
 30
0
 70
128
 71
249
 72
176
 73
180
 74
253
 0
VERTEX
 8
CUBO
 10
0
 20
0
 30
0
 70
128
 71
300
 72
130
 73
129
 74
299
 0
VERTEX
 8
CUBO
 10
0
 20
0
 30
0
 70
128
 71
230
 72
84
 73
94
 74
232
 0
VERTEX
 8
CUBO
 10
0
 20
0
 30
0
 70
128
 71
259
 72
190
 73
191
 74
260
 0
VERTEX
 8
CUBO
 10
0
 20
0
 30
0
 70
128
 71
231
 72
87
 73
77
 74
229
 0
VERTEX
 8
CUBO
 10
0
 20
0
 30
0
 70
128
 71
297
 72
109
 73
110
 74
298
 0
VERTEX
 8
CUBO
 10
0
 20
0
 30
0
 70
128
 71
254
 72
181
 73
182
 74
255
 0
VERTEX
 8
CUBO
 10
0
 20
0
 30
0
 70
128
 71
232
 72
94
 73
104
 74
234
 0
VERTEX
 8
CUBO
 10
0
 20
0
 30
0
 70
128
 71
264
 72
200
 73
190
 74
259
 0
VERTEX
 8
CUBO
 10
0
 20
0
 30
0
 70
128
 71
233
 72
97
 73
87
 74
231
 0
VERTEX
 8
CUBO
 10
0
 20
0
 30
0
 70
128
 71
255
 72
182
 73
179
 74
252
 0
VERTEX
 8
CUBO
 10
0
 20
0
 30
0
 70
128
 71
234
 72
104
 73
23
 74
211
 0
VERTEX
 8
CUBO
 10
0
 20
0
 30
0
 70
128
 71
262
 72
193
 73
200
 74
264
 0
VERTEX
 8
CUBO
 10
0
 20
0
 30
0
 70
128
 71
235
 72
107
 73
57
 74
223
 0
VERTEX
 8
CUBO
 10
0
 20
0
 30
0
 70
128
 71
224
 72
58
 73
108
 74
236
 0
VERTEX
 8
CUBO
 10
0
 20
0
 30
0
 70
128
 71
237
 72
116
 73
139
 74
241
 0
VERTEX
 8
CUBO
 10
0
 20
0
 30
0
 70
128
 71
242
 72
140
 73
117
 74
238
 0
VERTEX
 8
CUBO
 10
0
 20
0
 30
0
 70
128
 71
239
 72
127
 73
107
 74
235
 0
VERTEX
 8
CUBO
 10
0
 20
0
 30
0
 70
128
 71
236
 72
108
 73
128
 74
240
 0
VERTEX
 8
CUBO
 10
0
 20
0
 30
0
 70
128
 71
241
 72
139
 73
159
 74
245
 0
VERTEX
 8
CUBO
 10
0
 20
0
 30
0
 70
128
 71
246
 72
160
 73
140
 74
242
 0
VERTEX
 8
CUBO
 10
0
 20
0
 30
0
 70
128
 71
243
 72
149
 73
127
 74
239
 0
VERTEX
 8
CUBO
 10
0
 20
0
 30
0
 70
128
 71
240
 72
128
 73
150
 74
244
 0
VERTEX
 8
CUBO
 10
0
 20
0
 30
0
 70
128
 71
245
 72
159
 73
36
 74
217
 0
VERTEX
 8
CUBO
 10
0
 20
0
 30
0
 70
128
 71
218
 72
38
 73
160
 74
246
 0
VERTEX
 8
CUBO
 10
0
 20
0
 30
0
 70
128
 71
214
 72
28
 73
15
 74
207
 0
VERTEX
 8
CUBO
 10
0
 20
0
 30
0
 70
128
 71
248
 72
166
 73
176
 74
249
 0
VERTEX
 8
CUBO
 10
0
 20
0
 30
0
 70
128
 71
205
 72
10
 73
6
 74
202
 0
VERTEX
 8
CUBO
 10
0
 20
0
 30
0
 70
128
 71
202
 72
6
 73
19
 74
209
 0
VERTEX
 8
CUBO
 10
0
 20
0
 30
0
 70
128
 71
209
 72
19
 73
24
 74
212
 0
VERTEX
 8
CUBO
 10
0
 20
0
 30
0
 70
128
 71
251
 72
178
 73
177
 74
250
 0
VERTEX
 8
CUBO
 10
0
 20
0
 30
0
 70
128
 71
212
 72
24
 73
97
 74
233
 0
VERTEX
 8
CUBO
 10
0
 20
0
 30
0
 70
128
 71
252
 72
179
 73
178
 74
251
 0
VERTEX
 8
CUBO
 10
0
 20
0
 30
0
 70
128
 71
256
 72
187
 73
7
 74
203
 0
VERTEX
 8
CUBO
 10
0
 20
0
 30
0
 70
128
 71
203
 72
7
 73
16
 74
208
 0
VERTEX
 8
CUBO
 10
0
 20
0
 30
0
 70
128
 71
206
 72
12
 73
46
 74
220
 0
VERTEX
 8
CUBO
 10
0
 20
0
 30
0
 70
128
 71
222
 72
49
 73
192
 74
261
 0
VERTEX
 8
CUBO
 10
0
 20
0
 30
0
 70
128
 71
268
 72
50
 73
64
 74
270
 0
VERTEX
 8
CUBO
 10
0
 20
0
 30
0
 70
128
 71
282
 72
100
 73
50
 74
268
 0
VERTEX
 8
CUBO
 10
0
 20
0
 30
0
 70
128
 71
270
 72
64
 73
119
 74
284
 0
VERTEX
 8
CUBO
 10
0
 20
0
 30
0
 70
128
 71
285
 72
120
 73
99
 74
281
 0
VERTEX
 8
CUBO
 10
0
 20
0
 30
0
 70
128
 71
269
 72
63
 73
48
 74
267
 0
VERTEX
 8
CUBO
 10
0
 20
0
 30
0
 70
128
 71
267
 72
48
 73
68
 74
271
 0
VERTEX
 8
CUBO
 10
0
 20
0
 30
0
 70
128
 71
272
 72
72
 73
37
 74
265
 0
VERTEX
 8
CUBO
 10
0
 20
0
 30
0
 70
128
 71
265
 72
37
 73
156
 74
293
 0
VERTEX
 8
CUBO
 10
0
 20
0
 30
0
 70
128
 71
275
 72
79
 73
73
 74
273
 0
VERTEX
 8
CUBO
 10
0
 20
0
 30
0
 70
128
 71
271
 72
68
 73
80
 74
276
 0
VERTEX
 8
CUBO
 10
0
 20
0
 30
0
 70
128
 71
274
 72
78
 73
72
 74
272
 0
VERTEX
 8
CUBO
 10
0
 20
0
 30
0
 70
128
 71
294
 72
157
 73
151
 74
291
 0
VERTEX
 8
CUBO
 10
0
 20
0
 30
0
 70
128
 71
278
 72
89
 73
79
 74
275
 0
VERTEX
 8
CUBO
 10
0
 20
0
 30
0
 70
128
 71
276
 72
80
 73
90
 74
279
 0
VERTEX
 8
CUBO
 10
0
 20
0
 30
0
 70
128
 71
277
 72
88
 73
78
 74
274
 0
VERTEX
 8
CUBO
 10
0
 20
0
 30
0
 70
128
 71
291
 72
151
 73
152
 74
292
 0
VERTEX
 8
CUBO
 10
0
 20
0
 30
0
 70
128
 71
281
 72
99
 73
89
 74
278
 0
VERTEX
 8
CUBO
 10
0
 20
0
 30
0
 70
128
 71
279
 72
90
 73
100
 74
282
 0
VERTEX
 8
CUBO
 10
0
 20
0
 30
0
 70
128
 71
280
 72
98
 73
88
 74
277
 0
VERTEX
 8
CUBO
 10
0
 20
0
 30
0
 70
128
 71
292
 72
152
 73
158
 74
295
 0
VERTEX
 8
CUBO
 10
0
 20
0
 30
0
 70
128
 71
284
 72
119
 73
141
 74
290
 0
VERTEX
 8
CUBO
 10
0
 20
0
 30
0
 70
128
 71
289
 72
137
 73
120
 74
285
 0
VERTEX
 8
CUBO
 10
0
 20
0
 30
0
 70
128
 71
283
 72
118
 73
63
 74
269
 0
VERTEX
 8
CUBO
 10
0
 20
0
 30
0
 70
128
 71
273
 72
73
 73
122
 74
286
 0
VERTEX
 8
CUBO
 10
0
 20
0
 30
0
 70
128
 71
287
 72
135
 73
118
 74
283
 0
VERTEX
 8
CUBO
 10
0
 20
0
 30
0
 70
128
 71
286
 72
122
 73
136
 74
288
 0
VERTEX
 8
CUBO
 10
0
 20
0
 30
0
 70
128
 71
290
 72
141
 73
161
 74
296
 0
VERTEX
 8
CUBO
 10
0
 20
0
 30
0
 70
128
 71
295
 72
158
 73
137
 74
289
 0
VERTEX
 8
CUBO
 10
0
 20
0
 30
0
 70
128
 71
293
 72
156
 73
135
 74
287
 0
VERTEX
 8
CUBO
 10
0
 20
0
 30
0
 70
128
 71
288
 72
136
 73
157
 74
294
 0
VERTEX
 8
CUBO
 10
0
 20
0
 30
0
 70
128
 71
296
 72
161
 73
40
 74
266
 0
VERTEX
 8
CUBO
 10
0
 20
0
 30
0
 70
128
 71
266
 72
40
 73
98
 74
280
 0
VERTEX
 8
CUBO
 10
0
 20
0
 30
0
 70
128
 71
299
 72
129
 73
109
 74
297
 0
VERTEX
 8
CUBO
 10
0
 20
0
 30
0
 70
128
 71
229
 72
77
 73
69
 74
228
 0
VERTEX
 8
CUBO
 10
0
 20
0
 30
0
 70
128
 71
181
 72
254
 73
253
 74
180
 0
VERTEX
 8
CUBO
 10
0
 20
0
 30
0
 70
128
 71
254
 72
229
 73
228
 74
253
 0
SEQEND
 0
POLYLINE
 8
CUBO_1
 66
1
 10
0.0
 20
0.0
 30
0.0
 70
64
 71
300
 72
298
 0
VERTEX
 8
CUBO_1
 10
0
 20
-11.4755
 30
84.2163
 70
192
 0
VERTEX
 8
CUBO_1
 10
0
 20
9.1243
 30
84.2163
 70
192
 0
VERTEX
 8
CUBO_1
 10
40.7
 20
-11.4755
 30
84.2163
 70
192
 0
VERTEX
 8
CUBO_1
 10
40.7
 20
9.1243
 30
84.2163
 70
192
 0
VERTEX
 8
CUBO_1
 10
40.7
 20
-11.4755
 30
83.3763
 70
192
 0
VERTEX
 8
CUBO_1
 10
40.7
 20
9.1243
 30
83.3763
 70
192
 0
VERTEX
 8
CUBO_1
 10
0
 20
-11.4755
 30
83.3763
 70
192
 0
VERTEX
 8
CUBO_1
 10
0
 20
9.1243
 30
83.3763
 70
192
 0
VERTEX
 8
CUBO_1
 10
40.7
 20
8.124
 30
84.2163
 70
192
 0
VERTEX
 8
CUBO_1
 10
40.7
 20
8.124
 30
83.3763
 70
192
 0
VERTEX
 8
CUBO_1
 10
40.7
 20
-10.4761
 30
84.2163
 70
192
 0
VERTEX
 8
CUBO_1
 10
40.7
 20
-10.4761
 30
83.3763
 70
192
 0
VERTEX
 8
CUBO_1
 10
0.9998
 20
9.1243
 30
84.2163
 70
192
 0
VERTEX
 8
CUBO_1
 10
0.9998
 20
-11.4755
 30
84.2163
 70
192
 0
VERTEX
 8
CUBO_1
 10
0.9998
 20
9.1243
 30
83.3763
 70
192
 0
VERTEX
 8
CUBO_1
 10
0.9998
 20
-11.4755
 30
83.3763
 70
192
 0
VERTEX
 8
CUBO_1
 10
39.6998
 20
-11.4755
 30
84.2163
 70
192
 0
VERTEX
 8
CUBO_1
 10
39.6998
 20
9.1243
 30
84.2163
 70
192
 0
VERTEX
 8
CUBO_1
 10
39.6998
 20
9.1243
 30
83.3763
 70
192
 0
VERTEX
 8
CUBO_1
 10
39.6998
 20
-11.4755
 30
83.3763
 70
192
 0
VERTEX
 8
CUBO_1
 10
21.9854
 20
9.1243
 30
84.2163
 70
192
 0
VERTEX
 8
CUBO_1
 10
21.9854
 20
-11.4755
 30
84.2163
 70
192
 0
VERTEX
 8
CUBO_1
 10
21.9854
 20
-11.4755
 30
83.3763
 70
192
 0
VERTEX
 8
CUBO_1
 10
21.9854
 20
9.1243
 30
83.3763
 70
192
 0
VERTEX
 8
CUBO_1
 10
18.7112
 20
9.1243
 30
84.2163
 70
192
 0
VERTEX
 8
CUBO_1
 10
18.7112
 20
-11.4755
 30
84.2163
 70
192
 0
VERTEX
 8
CUBO_1
 10
18.7112
 20
-11.4755
 30
83.3763
 70
192
 0
VERTEX
 8
CUBO_1
 10
18.7112
 20
9.1243
 30
83.3763
 70
192
 0
VERTEX
 8
CUBO_1
 10
0
 20
-6.0467
 30
84.2163
 70
192
 0
VERTEX
 8
CUBO_1
 10
0.9998
 20
-6.0467
 30
84.2163
 70
192
 0
VERTEX
 8
CUBO_1
 10
0
 20
-6.0467
 30
83.3763
 70
192
 0
VERTEX
 8
CUBO_1
 10
0.9998
 20
-6.0467
 30
83.3763
 70
192
 0
VERTEX
 8
CUBO_1
 10
18.7112
 20
-6.0467
 30
84.2163
 70
192
 0
VERTEX
 8
CUBO_1
 10
39.6998
 20
-6.0467
 30
84.2163
 70
192
 0
VERTEX
 8
CUBO_1
 10
40.7
 20
-6.0467
 30
84.2163
 70
192
 0
VERTEX
 8
CUBO_1
 10
40.7
 20
-6.0467
 30
83.3763
 70
192
 0
VERTEX
 8
CUBO_1
 10
18.7112
 20
-6.0467
 30
83.3763
 70
192
 0
VERTEX
 8
CUBO_1
 10
39.6998
 20
-6.0467
 30
83.3763
 70
192
 0
VERTEX
 8
CUBO_1
 10
21.9854
 20
-6.0467
 30
84.2163
 70
192
 0
VERTEX
 8
CUBO_1
 10
21.9854
 20
-6.0467
 30
83.3763
 70
192
 0
VERTEX
 8
CUBO_1
 10
0
 20
-10.3748
 30
84.2163
 70
192
 0
VERTEX
 8
CUBO_1
 10
0.9998
 20
-10.3748
 30
84.2163
 70
192
 0
VERTEX
 8
CUBO_1
 10
0
 20
-10.3748
 30
83.3763
 70
192
 0
VERTEX
 8
CUBO_1
 10
40.7
 20
-10.3748
 30
84.2163
 70
192
 0
VERTEX
 8
CUBO_1
 10
39.6998
 20
-10.3748
 30
84.2163
 70
192
 0
VERTEX
 8
CUBO_1
 10
40.7
 20
-10.3748
 30
83.3763
 70
192
 0
VERTEX
 8
CUBO_1
 10
0.9998
 20
-10.3748
 30
83.3763
 70
192
 0
VERTEX
 8
CUBO_1
 10
18.7112
 20
-10.3748
 30
83.3763
 70
192
 0
VERTEX
 8
CUBO_1
 10
39.6998
 20
-10.3748
 30
83.3763
 70
192
 0
VERTEX
 8
CUBO_1
 10
21.9854
 20
-10.3748
 30
83.3763
 70
192
 0
VERTEX
 8
CUBO_1
 10
18.7112
 20
-10.3748
 30
84.2163
 70
192
 0
VERTEX
 8
CUBO_1
 10
21.9854
 20
-10.3748
 30
84.2163
 70
192
 0
VERTEX
 8
CUBO_1
 10
0
 20
-9.7757
 30
84.2163
 70
192
 0
VERTEX
 8
CUBO_1
 10
0.9998
 20
-9.7757
 30
84.2163
 70
192
 0
VERTEX
 8
CUBO_1
 10
40.7
 20
-9.7757
 30
84.2163
 70
192
 0
VERTEX
 8
CUBO_1
 10
39.6998
 20
-9.7757
 30
84.2163
 70
192
 0
VERTEX
 8
CUBO_1
 10
0
 20
-9.7757
 30
83.3763
 70
192
 0
VERTEX
 8
CUBO_1
 10
0.9998
 20
-9.7757
 30
83.3763
 70
192
 0
VERTEX
 8
CUBO_1
 10
40.7
 20
-9.7757
 30
83.3763
 70
192
 0
VERTEX
 8
CUBO_1
 10
39.6998
 20
-9.7757
 30
83.3763
 70
192
 0
VERTEX
 8
CUBO_1
 10
18.7112
 20
-9.7757
 30
84.2163
 70
192
 0
VERTEX
 8
CUBO_1
 10
21.9854
 20
-9.7757
 30
84.2163
 70
192
 0
VERTEX
 8
CUBO_1
 10
18.7112
 20
-9.7757
 30
83.3763
 70
192
 0
VERTEX
 8
CUBO_1
 10
21.9854
 20
-9.7757
 30
83.3763
 70
192
 0
VERTEX
 8
CUBO_1
 10
19.3082
 20
9.1243
 30
84.2163
 70
192
 0
VERTEX
 8
CUBO_1
 10
19.3082
 20
-6.0467
 30
84.2163
 70
192
 0
VERTEX
 8
CUBO_1
 10
19.3082
 20
-11.4755
 30
83.3763
 70
192
 0
VERTEX
 8
CUBO_1
 10
19.3082
 20
-10.3748
 30
83.3763
 70
192
 0
VERTEX
 8
CUBO_1
 10
19.3082
 20
9.1243
 30
83.3763
 70
192
 0
VERTEX
 8
CUBO_1
 10
19.3082
 20
-11.4755
 30
84.2163
 70
192
 0
VERTEX
 8
CUBO_1
 10
19.3082
 20
-9.7757
 30
84.2163
 70
192
 0
VERTEX
 8
CUBO_1
 10
19.3082
 20
-6.0467
 30
83.3763
 70
192
 0
VERTEX
 8
CUBO_1
 10
19.3082
 20
-9.7757
 30
83.3763
 70
192
 0
VERTEX
 8
CUBO_1
 10
19.3082
 20
-10.3748
 30
84.2163
 70
192
 0
VERTEX
 8
CUBO_1
 10
19.3626
 20
-9.7757
 30
84.2163
 70
192
 0
VERTEX
 8
CUBO_1
 10
19.3626
 20
-6.0467
 30
84.2163
 70
192
 0
VERTEX
 8
CUBO_1
 10
19.3626
 20
9.1243
 30
83.3763
 70
192
 0
VERTEX
 8
CUBO_1
 10
19.3626
 20
-6.0467
 30
83.3763
 70
192
 0
VERTEX
 8
CUBO_1
 10
19.3626
 20
-9.7757
 30
83.3763
 70
192
 0
VERTEX
 8
CUBO_1
 10
19.3626
 20
-10.3748
 30
83.3763
 70
192
 0
VERTEX
 8
CUBO_1
 10
19.3626
 20
-11.4755
 30
84.2163
 70
192
 0
VERTEX
 8
CUBO_1
 10
19.3626
 20
-10.3748
 30
84.2163
 70
192
 0
VERTEX
 8
CUBO_1
 10
19.3626
 20
9.1243
 30
84.2163
 70
192
 0
VERTEX
 8
CUBO_1
 10
19.3626
 20
-11.4755
 30
83.3763
 70
192
 0
VERTEX
 8
CUBO_1
 10
21.3336
 20
-9.7757
 30
84.2163
 70
192
 0
VERTEX
 8
CUBO_1
 10
21.3336
 20
-6.0467
 30
84.2163
 70
192
 0
VERTEX
 8
CUBO_1
 10
21.3336
 20
9.1243
 30
83.3763
 70
192
 0
VERTEX
 8
CUBO_1
 10
21.3336
 20
-6.0467
 30
83.3763
 70
192
 0
VERTEX
 8
CUBO_1
 10
21.3336
 20
-9.7757
 30
83.3763
 70
192
 0
VERTEX
 8
CUBO_1
 10
21.3336
 20
-10.3748
 30
83.3763
 70
192
 0
VERTEX
 8
CUBO_1
 10
21.3336
 20
-11.4755
 30
84.2163
 70
192
 0
VERTEX
 8
CUBO_1
 10
21.3336
 20
-10.3748
 30
84.2163
 70
192
 0
VERTEX
 8
CUBO_1
 10
21.3336
 20
9.1243
 30
84.2163
 70
192
 0
VERTEX
 8
CUBO_1
 10
21.3336
 20
-11.4755
 30
83.3763
 70
192
 0
VERTEX
 8
CUBO_1
 10
21.388
 20
-9.7757
 30
84.2163
 70
192
 0
VERTEX
 8
CUBO_1
 10
21.388
 20
-6.0467
 30
84.2163
 70
192
 0
VERTEX
 8
CUBO_1
 10
21.388
 20
9.1243
 30
83.3763
 70
192
 0
VERTEX
 8
CUBO_1
 10
21.388
 20
-6.0467
 30
83.3763
 70
192
 0
VERTEX
 8
CUBO_1
 10
21.388
 20
-9.7757
 30
83.3763
 70
192
 0
VERTEX
 8
CUBO_1
 10
21.388
 20
-10.3748
 30
83.3763
 70
192
 0
VERTEX
 8
CUBO_1
 10
21.388
 20
-11.4755
 30
84.2163
 70
192
 0
VERTEX
 8
CUBO_1
 10
21.388
 20
-10.3748
 30
84.2163
 70
192
 0
VERTEX
 8
CUBO_1
 10
21.388
 20
9.1243
 30
84.2163
 70
192
 0
VERTEX
 8
CUBO_1
 10
21.388
 20
-11.4755
 30
83.3763
 70
192
 0
VERTEX
 8
CUBO_1
 10
40.7
 20
-9.7248
 30
84.2163
 70
192
 0
VERTEX
 8
CUBO_1
 10
39.6998
 20
-9.7248
 30
84.2163
 70
192
 0
VERTEX
 8
CUBO_1
 10
0
 20
-9.7248
 30
83.3763
 70
192
 0
VERTEX
 8
CUBO_1
 10
0.9998
 20
-9.7248
 30
83.3763
 70
192
 0
VERTEX
 8
CUBO_1
 10
19.3626
 20
-9.7248
 30
83.3763
 70
192
 0
VERTEX
 8
CUBO_1
 10
21.3336
 20
-9.7248
 30
83.3763
 70
192
 0
VERTEX
 8
CUBO_1
 10
18.7112
 20
-9.7248
 30
84.2163
 70
192
 0
VERTEX
 8
CUBO_1
 10
0.9998
 20
-9.7248
 30
84.2163
 70
192
 0
VERTEX
 8
CUBO_1
 10
21.9854
 20
-9.7248
 30
84.2163
 70
192
 0
VERTEX
 8
CUBO_1
 10
21.388
 20
-9.7248
 30
84.2163
 70
192
 0
VERTEX
 8
CUBO_1
 10
0
 20
-9.7248
 30
84.2163
 70
192
 0
VERTEX
 8
CUBO_1
 10
40.7
 20
-9.7248
 30
83.3763
 70
192
 0
VERTEX
 8
CUBO_1
 10
39.6998
 20
-9.7248
 30
83.3763
 70
192
 0
VERTEX
 8
CUBO_1
 10
18.7112
 20
-9.7248
 30
83.3763
 70
192
 0
VERTEX
 8
CUBO_1
 10
21.9854
 20
-9.7248
 30
83.3763
 70
192
 0
VERTEX
 8
CUBO_1
 10
21.388
 20
-9.7248
 30
83.3763
 70
192
 0
VERTEX
 8
CUBO_1
 10
19.3082
 20
-9.7248
 30
84.2163
 70
192
 0
VERTEX
 8
CUBO_1
 10
19.3082
 20
-9.7248
 30
83.3763
 70
192
 0
VERTEX
 8
CUBO_1
 10
19.3626
 20
-9.7248
 30
84.2163
 70
192
 0
VERTEX
 8
CUBO_1
 10
21.3336
 20
-9.7248
 30
84.2163
 70
192
 0
VERTEX
 8
CUBO_1
 10
40.7
 20
-7.4925
 30
84.2163
 70
192
 0
VERTEX
 8
CUBO_1
 10
39.6998
 20
-7.4925
 30
84.2163
 70
192
 0
VERTEX
 8
CUBO_1
 10
0
 20
-7.4925
 30
83.3763
 70
192
 0
VERTEX
 8
CUBO_1
 10
0.9998
 20
-7.4925
 30
83.3763
 70
192
 0
VERTEX
 8
CUBO_1
 10
19.3626
 20
-7.4925
 30
83.3763
 70
192
 0
VERTEX
 8
CUBO_1
 10
21.3336
 20
-7.4925
 30
83.3763
 70
192
 0
VERTEX
 8
CUBO_1
 10
18.7112
 20
-7.4925
 30
84.2163
 70
192
 0
VERTEX
 8
CUBO_1
 10
0.9998
 20
-7.4925
 30
84.2163
 70
192
 0
VERTEX
 8
CUBO_1
 10
21.9854
 20
-7.4925
 30
84.2163
 70
192
 0
VERTEX
 8
CUBO_1
 10
21.388
 20
-7.4925
 30
84.2163
 70
192
 0
VERTEX
 8
CUBO_1
 10
18.7112
 20
-7.4925
 30
83.3763
 70
192
 0
VERTEX
 8
CUBO_1
 10
19.3082
 20
-7.4925
 30
83.3763
 70
192
 0
VERTEX
 8
CUBO_1
 10
21.388
 20
-7.4925
 30
83.3763
 70
192
 0
VERTEX
 8
CUBO_1
 10
0
 20
-7.4925
 30
84.2163
 70
192
 0
VERTEX
 8
CUBO_1
 10
40.7
 20
-7.4925
 30
83.3763
 70
192
 0
VERTEX
 8
CUBO_1
 10
39.6998
 20
-7.4925
 30
83.3763
 70
192
 0
VERTEX
 8
CUBO_1
 10
21.9854
 20
-7.4925
 30
83.3763
 70
192
 0
VERTEX
 8
CUBO_1
 10
19.3082
 20
-7.4925
 30
84.2163
 70
192
 0
VERTEX
 8
CUBO_1
 10
19.3626
 20
-7.4925
 30
84.2163
 70
192
 0
VERTEX
 8
CUBO_1
 10
21.3336
 20
-7.4925
 30
84.2163
 70
192
 0
VERTEX
 8
CUBO_1
 10
40.7
 20
-6.6457
 30
84.2163
 70
192
 0
VERTEX
 8
CUBO_1
 10
39.6998
 20
-6.6457
 30
84.2163
 70
192
 0
VERTEX
 8
CUBO_1
 10
0
 20
-6.6457
 30
84.2163
 70
192
 0
VERTEX
 8
CUBO_1
 10
0.9998
 20
-6.6457
 30
84.2163
 70
192
 0
VERTEX
 8
CUBO_1
 10
0
 20
-6.6457
 30
83.3763
 70
192
 0
VERTEX
 8
CUBO_1
 10
0.9998
 20
-6.6457
 30
83.3763
 70
192
 0
VERTEX
 8
CUBO_1
 10
19.3626
 20
-6.6457
 30
83.3763
 70
192
 0
VERTEX
 8
CUBO_1
 10
21.3336
 20
-6.6457
 30
83.3763
 70
192
 0
VERTEX
 8
CUBO_1
 10
18.7112
 20
-6.6457
 30
84.2163
 70
192
 0
VERTEX
 8
CUBO_1
 10
21.9854
 20
-6.6457
 30
84.2163
 70
192
 0
VERTEX
 8
CUBO_1
 10
21.388
 20
-6.6457
 30
84.2163
 70
192
 0
VERTEX
 8
CUBO_1
 10
18.7112
 20
-6.6457
 30
83.3763
 70
192
 0
VERTEX
 8
CUBO_1
 10
19.3082
 20
-6.6457
 30
83.3763
 70
192
 0
VERTEX
 8
CUBO_1
 10
21.388
 20
-6.6457
 30
83.3763
 70
192
 0
VERTEX
 8
CUBO_1
 10
40.7
 20
-6.6457
 30
83.3763
 70
192
 0
VERTEX
 8
CUBO_1
 10
39.6998
 20
-6.6457
 30
83.3763
 70
192
 0
VERTEX
 8
CUBO_1
 10
21.9854
 20
-6.6457
 30
83.3763
 70
192
 0
VERTEX
 8
CUBO_1
 10
19.3082
 20
-6.6457
 30
84.2163
 70
192
 0
VERTEX
 8
CUBO_1
 10
19.3626
 20
-6.6457
 30
84.2163
 70
192
 0
VERTEX
 8
CUBO_1
 10
21.3336
 20
-6.6457
 30
84.2163
 70
192
 0
VERTEX
 8
CUBO_1
 10
0
 20
8.124
 30
83.3763
 70
192
 0
VERTEX
 8
CUBO_1
 10
0.9998
 20
8.124
 30
83.3763
 70
192
 0
VERTEX
 8
CUBO_1
 10
0
 20
8.124
 30
84.2163
 70
192
 0
VERTEX
 8
CUBO_1
 10
0.9998
 20
8.124
 30
84.2163
 70
192
 0
VERTEX
 8
CUBO_1
 10
18.7112
 20
8.124
 30
84.2163
 70
192
 0
VERTEX
 8
CUBO_1
 10
21.3336
 20
8.124
 30
84.2163
 70
192
 0
VERTEX
 8
CUBO_1
 10
19.3626
 20
8.124
 30
84.2163
 70
192
 0
VERTEX
 8
CUBO_1
 10
39.6998
 20
8.124
 30
84.2163
 70
192
 0
VERTEX
 8
CUBO_1
 10
21.9854
 20
8.124
 30
84.2163
 70
192
 0
VERTEX
 8
CUBO_1
 10
19.3082
 20
8.124
 30
84.2163
 70
192
 0
VERTEX
 8
CUBO_1
 10
21.388
 20
8.124
 30
84.2163
 70
192
 0
VERTEX
 8
CUBO_1
 10
18.7112
 20
8.124
 30
83.3763
 70
192
 0
VERTEX
 8
CUBO_1
 10
39.6998
 20
8.124
 30
83.3763
 70
192
 0
VERTEX
 8
CUBO_1
 10
21.9854
 20
8.124
 30
83.3763
 70
192
 0
VERTEX
 8
CUBO_1
 10
21.388
 20
8.124
 30
83.3763
 70
192
 0
VERTEX
 8
CUBO_1
 10
19.3082
 20
8.124
 30
83.3763
 70
192
 0
VERTEX
 8
CUBO_1
 10
19.3626
 20
8.124
 30
83.3763
 70
192
 0
VERTEX
 8
CUBO_1
 10
21.3336
 20
8.124
 30
83.3763
 70
192
 0
VERTEX
 8
CUBO_1
 10
0
 20
-10.4761
 30
84.2163
 70
192
 0
VERTEX
 8
CUBO_1
 10
0.9998
 20
-10.4761
 30
84.2163
 70
192
 0
VERTEX
 8
CUBO_1
 10
18.7112
 20
-10.4761
 30
84.2163
 70
192
 0
VERTEX
 8
CUBO_1
 10
19.3082
 20
-10.4761
 30
84.2163
 70
192
 0
VERTEX
 8
CUBO_1
 10
0
 20
-10.4761
 30
83.3763
 70
192
 0
VERTEX
 8
CUBO_1
 10
18.7112
 20
-10.4761
 30
83.3763
 70
192
 0
VERTEX
 8
CUBO_1
 10
0.9998
 20
-10.4761
 30
83.3763
 70
192
 0
VERTEX
 8
CUBO_1
 10
21.3336
 20
-10.4761
 30
83.3763
 70
192
 0
VERTEX
 8
CUBO_1
 10
19.3626
 20
-10.4761
 30
83.3763
 70
192
 0
VERTEX
 8
CUBO_1
 10
39.6998
 20
-10.4761
 30
83.3763
 70
192
 0
VERTEX
 8
CUBO_1
 10
21.9854
 20
-10.4761
 30
83.3763
 70
192
 0
VERTEX
 8
CUBO_1
 10
19.3082
 20
-10.4761
 30
83.3763
 70
192
 0
VERTEX
 8
CUBO_1
 10
39.6998
 20
-10.4761
 30
84.2163
 70
192
 0
VERTEX
 8
CUBO_1
 10
21.9854
 20
-10.4761
 30
84.2163
 70
192
 0
VERTEX
 8
CUBO_1
 10
21.388
 20
-10.4761
 30
84.2163
 70
192
 0
VERTEX
 8
CUBO_1
 10
19.3626
 20
-10.4761
 30
84.2163
 70
192
 0
VERTEX
 8
CUBO_1
 10
21.3336
 20
-10.4761
 30
84.2163
 70
192
 0
VERTEX
 8
CUBO_1
 10
21.388
 20
-10.4761
 30
83.3763
 70
192
 0
VERTEX
 8
CUBO_1
 10
40.7
 20
-11.4755
 30
83.3164
 70
192
 0
VERTEX
 8
CUBO_1
 10
40.7
 20
9.1243
 30
83.3164
 70
192
 0
VERTEX
 8
CUBO_1
 10
0
 20
-11.4755
 30
83.3164
 70
192
 0
VERTEX
 8
CUBO_1
 10
0
 20
9.1243
 30
83.3164
 70
192
 0
VERTEX
 8
CUBO_1
 10
40.7
 20
8.124
 30
83.3164
 70
192
 0
VERTEX
 8
CUBO_1
 10
40.7
 20
-10.4761
 30
83.3164
 70
192
 0
VERTEX
 8
CUBO_1
 10
0.9998
 20
9.1243
 30
83.3164
 70
192
 0
VERTEX
 8
CUBO_1
 10
0.9998
 20
-11.4755
 30
83.3164
 70
192
 0
VERTEX
 8
CUBO_1
 10
39.6998
 20
9.1243
 30
83.3164
 70
192
 0
VERTEX
 8
CUBO_1
 10
39.6998
 20
-11.4755
 30
83.3164
 70
192
 0
VERTEX
 8
CUBO_1
 10
21.9854
 20
-11.4755
 30
83.3164
 70
192
 0
VERTEX
 8
CUBO_1
 10
21.9854
 20
9.1243
 30
83.3164
 70
192
 0
VERTEX
 8
CUBO_1
 10
18.7112
 20
-11.4755
 30
83.3164
 70
192
 0
VERTEX
 8
CUBO_1
 10
18.7112
 20
9.1243
 30
83.3164
 70
192
 0
VERTEX
 8
CUBO_1
 10
0
 20
-6.0467
 30
83.3164
 70
192
 0
VERTEX
 8
CUBO_1
 10
0.9998
 20
-6.0467
 30
83.3164
 70
192
 0
VERTEX
 8
CUBO_1
 10
40.7
 20
-6.0467
 30
83.3164
 70
192
 0
VERTEX
 8
CUBO_1
 10
39.6998
 20
-6.0467
 30
83.3164
 70
192
 0
VERTEX
 8
CUBO_1
 10
0
 20
-10.3748
 30
83.3164
 70
192
 0
VERTEX
 8
CUBO_1
 10
40.7
 20
-10.3748
 30
83.3164
 70
192
 0
VERTEX
 8
CUBO_1
 10
0.9998
 20
-10.3748
 30
83.3164
 70
192
 0
VERTEX
 8
CUBO_1
 10
39.6998
 20
-10.3748
 30
83.3164
 70
192
 0
VERTEX
 8
CUBO_1
 10
0
 20
-9.7757
 30
83.3164
 70
192
 0
VERTEX
 8
CUBO_1
 10
0.9998
 20
-9.7757
 30
83.3164
 70
192
 0
VERTEX
 8
CUBO_1
 10
40.7
 20
-9.7757
 30
83.3164
 70
192
 0
VERTEX
 8
CUBO_1
 10
39.6998
 20
-9.7757
 30
83.3164
 70
192
 0
VERTEX
 8
CUBO_1
 10
19.3082
 20
-11.4755
 30
83.3164
 70
192
 0
VERTEX
 8
CUBO_1
 10
19.3082
 20
9.1243
 30
83.3164
 70
192
 0
VERTEX
 8
CUBO_1
 10
19.3626
 20
9.1243
 30
83.3164
 70
192
 0
VERTEX
 8
CUBO_1
 10
19.3626
 20
-11.4755
 30
83.3164
 70
192
 0
VERTEX
 8
CUBO_1
 10
21.3336
 20
9.1243
 30
83.3164
 70
192
 0
VERTEX
 8
CUBO_1
 10
21.3336
 20
-11.4755
 30
83.3164
 70
192
 0
VERTEX
 8
CUBO_1
 10
21.388
 20
9.1243
 30
83.3164
 70
192
 0
VERTEX
 8
CUBO_1
 10
21.388
 20
-11.4755
 30
83.3164
 70
192
 0
VERTEX
 8
CUBO_1
 10
0
 20
-9.7248
 30
83.3164
 70
192
 0
VERTEX
 8
CUBO_1
 10
0.9998
 20
-9.7248
 30
83.3164
 70
192
 0
VERTEX
 8
CUBO_1
 10
40.7
 20
-9.7248
 30
83.3164
 70
192
 0
VERTEX
 8
CUBO_1
 10
39.6998
 20
-9.7248
 30
83.3164
 70
192
 0
VERTEX
 8
CUBO_1
 10
0
 20
-7.4925
 30
83.3164
 70
192
 0
VERTEX
 8
CUBO_1
 10
0.9998
 20
-7.4925
 30
83.3164
 70
192
 0
VERTEX
 8
CUBO_1
 10
40.7
 20
-7.4925
 30
83.3164
 70
192
 0
VERTEX
 8
CUBO_1
 10
39.6998
 20
-7.4925
 30
83.3164
 70
192
 0
VERTEX
 8
CUBO_1
 10
0
 20
-6.6457
 30
83.3164
 70
192
 0
VERTEX
 8
CUBO_1
 10
0.9998
 20
-6.6457
 30
83.3164
 70
192
 0
VERTEX
 8
CUBO_1
 10
40.7
 20
-6.6457
 30
83.3164
 70
192
 0
VERTEX
 8
CUBO_1
 10
39.6998
 20
-6.6457
 30
83.3164
 70
192
 0
VERTEX
 8
CUBO_1
 10
0
 20
8.124
 30
83.3164
 70
192
 0
VERTEX
 8
CUBO_1
 10
0.9998
 20
8.124
 30
83.3164
 70
192
 0
VERTEX
 8
CUBO_1
 10
18.7112
 20
8.124
 30
83.3164
 70
192
 0
VERTEX
 8
CUBO_1
 10
39.6998
 20
8.124
 30
83.3164
 70
192
 0
VERTEX
 8
CUBO_1
 10
21.9854
 20
8.124
 30
83.3164
 70
192
 0
VERTEX
 8
CUBO_1
 10
21.388
 20
8.124
 30
83.3164
 70
192
 0
VERTEX
 8
CUBO_1
 10
19.3082
 20
8.124
 30
83.3164
 70
192
 0
VERTEX
 8
CUBO_1
 10
19.3626
 20
8.124
 30
83.3164
 70
192
 0
VERTEX
 8
CUBO_1
 10
21.3336
 20
8.124
 30
83.3164
 70
192
 0
VERTEX
 8
CUBO_1
 10
0
 20
-10.4761
 30
83.3164
 70
192
 0
VERTEX
 8
CUBO_1
 10
18.7112
 20
-10.4761
 30
83.3164
 70
192
 0
VERTEX
 8
CUBO_1
 10
0.9998
 20
-10.4761
 30
83.3164
 70
192
 0
VERTEX
 8
CUBO_1
 10
21.3336
 20
-10.4761
 30
83.3164
 70
192
 0
VERTEX
 8
CUBO_1
 10
19.3626
 20
-10.4761
 30
83.3164
 70
192
 0
VERTEX
 8
CUBO_1
 10
39.6998
 20
-10.4761
 30
83.3164
 70
192
 0
VERTEX
 8
CUBO_1
 10
21.9854
 20
-10.4761
 30
83.3164
 70
192
 0
VERTEX
 8
CUBO_1
 10
19.3082
 20
-10.4761
 30
83.3164
 70
192
 0
VERTEX
 8
CUBO_1
 10
21.388
 20
-10.4761
 30
83.3164
 70
192
 0
VERTEX
 8
CUBO_1
 10
18.7112
 20
-6.0467
 30
83.3164
 70
192
 0
VERTEX
 8
CUBO_1
 10
21.9854
 20
-6.0467
 30
83.3164
 70
192
 0
VERTEX
 8
CUBO_1
 10
18.7112
 20
-10.3748
 30
83.3164
 70
192
 0
VERTEX
 8
CUBO_1
 10
21.9854
 20
-10.3748
 30
83.3164
 70
192
 0
VERTEX
 8
CUBO_1
 10
18.7112
 20
-9.7757
 30
83.3164
 70
192
 0
VERTEX
 8
CUBO_1
 10
21.9854
 20
-9.7757
 30
83.3164
 70
192
 0
VERTEX
 8
CUBO_1
 10
19.3082
 20
-10.3748
 30
83.3164
 70
192
 0
VERTEX
 8
CUBO_1
 10
19.3082
 20
-6.0467
 30
83.3164
 70
192
 0
VERTEX
 8
CUBO_1
 10
19.3082
 20
-9.7757
 30
83.3164
 70
192
 0
VERTEX
 8
CUBO_1
 10
19.3626
 20
-6.0467
 30
83.3164
 70
192
 0
VERTEX
 8
CUBO_1
 10
19.3626
 20
-9.7757
 30
83.3164
 70
192
 0
VERTEX
 8
CUBO_1
 10
19.3626
 20
-10.3748
 30
83.3164
 70
192
 0
VERTEX
 8
CUBO_1
 10
21.3336
 20
-6.0467
 30
83.3164
 70
192
 0
VERTEX
 8
CUBO_1
 10
21.3336
 20
-9.7757
 30
83.3164
 70
192
 0
VERTEX
 8
CUBO_1
 10
21.3336
 20
-10.3748
 30
83.3164
 70
192
 0
VERTEX
 8
CUBO_1
 10
21.388
 20
-6.0467
 30
83.3164
 70
192
 0
VERTEX
 8
CUBO_1
 10
21.388
 20
-9.7757
 30
83.3164
 70
192
 0
VERTEX
 8
CUBO_1
 10
21.388
 20
-10.3748
 30
83.3164
 70
192
 0
VERTEX
 8
CUBO_1
 10
18.7112
 20
-9.7248
 30
83.3164
 70
192
 0
VERTEX
 8
CUBO_1
 10
21.9854
 20
-9.7248
 30
83.3164
 70
192
 0
VERTEX
 8
CUBO_1
 10
21.388
 20
-9.7248
 30
83.3164
 70
192
 0
VERTEX
 8
CUBO_1
 10
19.3082
 20
-9.7248
 30
83.3164
 70
192
 0
VERTEX
 8
CUBO_1
 10
18.7112
 20
-7.4925
 30
83.3164
 70
192
 0
VERTEX
 8
CUBO_1
 10
19.3082
 20
-7.4925
 30
83.3164
 70
192
 0
VERTEX
 8
CUBO_1
 10
21.388
 20
-7.4925
 30
83.3164
 70
192
 0
VERTEX
 8
CUBO_1
 10
21.9854
 20
-7.4925
 30
83.3164
 70
192
 0
VERTEX
 8
CUBO_1
 10
19.3626
 20
-6.6457
 30
83.3164
 70
192
 0
VERTEX
 8
CUBO_1
 10
21.3336
 20
-6.6457
 30
83.3164
 70
192
 0
VERTEX
 8
CUBO_1
 10
18.7112
 20
-6.6457
 30
83.3164
 70
192
 0
VERTEX
 8
CUBO_1
 10
19.3082
 20
-6.6457
 30
83.3164
 70
192
 0
VERTEX
 8
CUBO_1
 10
21.388
 20
-6.6457
 30
83.3164
 70
192
 0
VERTEX
 8
CUBO_1
 10
21.9854
 20
-6.6457
 30
83.3164
 70
192
 0
VERTEX
 8
CUBO_1
 10
19.3626
 20
-9.7248
 30
83.3164
 70
192
 0
VERTEX
 8
CUBO_1
 10
21.3336
 20
-9.7248
 30
83.3164
 70
192
 0
VERTEX
 8
CUBO_1
 10
19.3626
 20
-7.4925
 30
83.3164
 70
192
 0
VERTEX
 8
CUBO_1
 10
21.3336
 20
-7.4925
 30
83.3164
 70
192
 0
VERTEX
 8
CUBO_1
 10
0
 20
0
 30
0
 70
128
 71
1
 72
183
 73
184
 74
14
 0
VERTEX
 8
CUBO_1
 10
0
 20
0
 30
0
 70
128
 71
3
 72
11
 73
12
 74
5
 0
VERTEX
 8
CUBO_1
 10
0
 20
0
 30
0
 70
128
 71
207
 72
204
 73
247
 74
248
 0
VERTEX
 8
CUBO_1
 10
0
 20
0
 30
0
 70
128
 71
7
 72
187
 73
183
 74
1
 0
VERTEX
 8
CUBO_1
 10
0
 20
0
 30
0
 70
128
 71
2
 72
8
 73
15
 74
13
 0
VERTEX
 8
CUBO_1
 10
0
 20
0
 30
0
 70
128
 71
7
 72
1
 73
14
 74
16
 0
VERTEX
 8
CUBO_1
 10
0
 20
0
 30
0
 70
128
 71
29
 72
167
 73
168
 74
30
 0
VERTEX
 8
CUBO_1
 10
0
 20
0
 30
0
 70
128
 71
13
 72
25
 73
169
 74
168
 0
VERTEX
 8
CUBO_1
 10
0
 20
0
 30
0
 70
128
 71
9
 72
4
 73
6
 74
10
 0
VERTEX
 8
CUBO_1
 10
0
 20
0
 30
0
 70
128
 71
41
 72
53
 73
54
 74
42
 0
VERTEX
 8
CUBO_1
 10
0
 20
0
 30
0
 70
128
 71
35
 72
145
 73
146
 74
34
 0
VERTEX
 8
CUBO_1
 10
0
 20
0
 30
0
 70
128
 71
11
 72
44
 73
46
 74
12
 0
VERTEX
 8
CUBO_1
 10
0
 20
0
 30
0
 70
128
 71
215
 72
243
 73
244
 74
216
 0
VERTEX
 8
CUBO_1
 10
0
 20
0
 30
0
 70
128
 71
208
 72
213
 73
257
 74
258
 0
VERTEX
 8
CUBO_1
 10
0
 20
0
 30
0
 70
128
 71
15
 72
28
 73
25
 74
13
 0
VERTEX
 8
CUBO_1
 10
0
 20
0
 30
0
 70
128
 71
14
 72
26
 73
27
 74
16
 0
VERTEX
 8
CUBO_1
 10
0
 20
0
 30
0
 70
128
 71
43
 72
57
 73
53
 74
41
 0
VERTEX
 8
CUBO_1
 10
0
 20
0
 30
0
 70
128
 71
220
 72
225
 73
226
 74
222
 0
VERTEX
 8
CUBO_1
 10
0
 20
0
 30
0
 70
128
 71
19
 72
6
 73
4
 74
18
 0
VERTEX
 8
CUBO_1
 10
0
 20
0
 30
0
 70
128
 71
17
 72
3
 73
5
 74
20
 0
VERTEX
 8
CUBO_1
 10
0
 20
0
 30
0
 70
128
 71
21
 72
18
 73
172
 74
173
 0
VERTEX
 8
CUBO_1
 10
0
 20
0
 30
0
 70
128
 71
211
 72
210
 73
261
 74
262
 0
VERTEX
 8
CUBO_1
 10
0
 20
0
 30
0
 70
128
 71
24
 72
19
 73
18
 74
21
 0
VERTEX
 8
CUBO_1
 10
0
 20
0
 30
0
 70
128
 71
22
 72
17
 73
20
 74
23
 0
VERTEX
 8
CUBO_1
 10
0
 20
0
 30
0
 70
128
 71
25
 72
65
 73
174
 74
169
 0
VERTEX
 8
CUBO_1
 10
0
 20
0
 30
0
 70
128
 71
213
 72
227
 73
263
 74
257
 0
VERTEX
 8
CUBO_1
 10
0
 20
0
 30
0
 70
128
 71
28
 72
69
 73
65
 74
25
 0
VERTEX
 8
CUBO_1
 10
0
 20
0
 30
0
 70
128
 71
26
 72
70
 73
67
 74
27
 0
VERTEX
 8
CUBO_1
 10
0
 20
0
 30
0
 70
128
 71
31
 72
165
 73
167
 74
29
 0
VERTEX
 8
CUBO_1
 10
0
 20
0
 30
0
 70
128
 71
33
 72
153
 73
148
 74
30
 0
VERTEX
 8
CUBO_1
 10
0
 20
0
 30
0
 70
128
 71
172
 72
18
 73
4
 74
9
 0
VERTEX
 8
CUBO_1
 10
0
 20
0
 30
0
 70
128
 71
247
 72
215
 73
216
 74
248
 0
VERTEX
 8
CUBO_1
 10
0
 20
0
 30
0
 70
128
 71
35
 72
9
 73
10
 74
36
 0
VERTEX
 8
CUBO_1
 10
0
 20
0
 30
0
 70
128
 71
37
 72
176
 73
166
 74
32
 0
VERTEX
 8
CUBO_1
 10
0
 20
0
 30
0
 70
128
 71
167
 72
2
 73
13
 74
168
 0
VERTEX
 8
CUBO_1
 10
0
 20
0
 30
0
 70
128
 71
217
 72
205
 73
250
 74
218
 0
VERTEX
 8
CUBO_1
 10
0
 20
0
 30
0
 70
128
 71
34
 72
146
 73
154
 74
39
 0
VERTEX
 8
CUBO_1
 10
0
 20
0
 30
0
 70
128
 71
38
 72
177
 73
178
 74
40
 0
VERTEX
 8
CUBO_1
 10
0
 20
0
 30
0
 70
128
 71
39
 72
154
 73
155
 74
96
 0
VERTEX
 8
CUBO_1
 10
0
 20
0
 30
0
 70
128
 71
40
 72
178
 73
179
 74
98
 0
VERTEX
 8
CUBO_1
 10
0
 20
0
 30
0
 70
128
 71
44
 72
11
 73
195
 74
45
 0
VERTEX
 8
CUBO_1
 10
0
 20
0
 30
0
 70
128
 71
183
 72
41
 73
42
 74
184
 0
VERTEX
 8
CUBO_1
 10
0
 20
0
 30
0
 70
128
 71
44
 72
55
 73
59
 74
46
 0
VERTEX
 8
CUBO_1
 10
0
 20
0
 30
0
 70
128
 71
219
 72
256
 73
258
 74
221
 0
VERTEX
 8
CUBO_1
 10
0
 20
0
 30
0
 70
128
 71
48
 72
63
 73
58
 74
47
 0
VERTEX
 8
CUBO_1
 10
0
 20
0
 30
0
 70
128
 71
261
 72
210
 73
201
 74
206
 0
VERTEX
 8
CUBO_1
 10
0
 20
0
 30
0
 70
128
 71
185
 72
51
 73
74
 74
186
 0
VERTEX
 8
CUBO_1
 10
0
 20
0
 30
0
 70
128
 71
49
 72
60
 73
64
 74
50
 0
VERTEX
 8
CUBO_1
 10
0
 20
0
 30
0
 70
128
 71
268
 72
270
 73
281
 74
282
 0
VERTEX
 8
CUBO_1
 10
0
 20
0
 30
0
 70
128
 71
51
 72
185
 73
184
 74
42
 0
VERTEX
 8
CUBO_1
 10
0
 20
0
 30
0
 70
128
 71
45
 72
195
 73
196
 74
52
 0
VERTEX
 8
CUBO_1
 10
0
 20
0
 30
0
 70
128
 71
52
 72
196
 73
197
 74
102
 0
VERTEX
 8
CUBO_1
 10
0
 20
0
 30
0
 70
128
 71
53
 72
115
 73
112
 74
54
 0
VERTEX
 8
CUBO_1
 10
0
 20
0
 30
0
 70
128
 71
55
 72
44
 73
45
 74
56
 0
VERTEX
 8
CUBO_1
 10
0
 20
0
 30
0
 70
128
 71
223
 72
219
 73
221
 74
224
 0
VERTEX
 8
CUBO_1
 10
0
 20
0
 30
0
 70
128
 71
57
 72
107
 73
115
 74
53
 0
VERTEX
 8
CUBO_1
 10
0
 20
0
 30
0
 70
128
 71
225
 72
237
 73
238
 74
226
 0
VERTEX
 8
CUBO_1
 10
0
 20
0
 30
0
 70
128
 71
61
 72
51
 73
42
 74
54
 0
VERTEX
 8
CUBO_1
 10
0
 20
0
 30
0
 70
128
 71
56
 72
45
 73
52
 74
62
 0
VERTEX
 8
CUBO_1
 10
0
 20
0
 30
0
 70
128
 71
62
 72
52
 73
102
 74
95
 0
VERTEX
 8
CUBO_1
 10
0
 20
0
 30
0
 70
128
 71
55
 72
105
 73
116
 74
59
 0
VERTEX
 8
CUBO_1
 10
0
 20
0
 30
0
 70
128
 71
63
 72
118
 73
108
 74
58
 0
VERTEX
 8
CUBO_1
 10
0
 20
0
 30
0
 70
128
 71
60
 72
117
 73
119
 74
64
 0
VERTEX
 8
CUBO_1
 10
0
 20
0
 30
0
 70
128
 71
270
 72
284
 73
285
 74
281
 0
VERTEX
 8
CUBO_1
 10
0
 20
0
 30
0
 70
128
 71
65
 72
83
 73
171
 74
174
 0
VERTEX
 8
CUBO_1
 10
0
 20
0
 30
0
 70
128
 71
227
 72
230
 73
260
 74
263
 0
VERTEX
 8
CUBO_1
 10
0
 20
0
 30
0
 70
128
 71
69
 72
77
 73
83
 74
65
 0
VERTEX
 8
CUBO_1
 10
0
 20
0
 30
0
 70
128
 71
70
 72
81
 73
84
 74
67
 0
VERTEX
 8
CUBO_1
 10
0
 20
0
 30
0
 70
128
 71
71
 72
61
 73
111
 74
121
 0
VERTEX
 8
CUBO_1
 10
0
 20
0
 30
0
 70
128
 71
228
 72
214
 73
249
 74
253
 0
VERTEX
 8
CUBO_1
 10
0
 20
0
 30
0
 70
128
 71
273
 72
269
 73
267
 74
271
 0
VERTEX
 8
CUBO_1
 10
0
 20
0
 30
0
 70
128
 71
70
 72
26
 73
185
 74
186
 0
VERTEX
 8
CUBO_1
 10
0
 20
0
 30
0
 70
128
 71
74
 72
51
 73
61
 74
71
 0
VERTEX
 8
CUBO_1
 10
0
 20
0
 30
0
 70
128
 71
272
 72
265
 73
293
 74
294
 0
VERTEX
 8
CUBO_1
 10
0
 20
0
 30
0
 70
128
 71
75
 72
71
 73
121
 74
123
 0
VERTEX
 8
CUBO_1
 10
0
 20
0
 30
0
 70
128
 71
300
 72
130
 73
129
 74
299
 0
VERTEX
 8
CUBO_1
 10
0
 20
0
 30
0
 70
128
 71
275
 72
273
 73
271
 74
276
 0
VERTEX
 8
CUBO_1
 10
0
 20
0
 30
0
 70
128
 71
81
 72
70
 73
186
 74
198
 0
VERTEX
 8
CUBO_1
 10
0
 20
0
 30
0
 70
128
 71
82
 72
74
 73
71
 74
75
 0
VERTEX
 8
CUBO_1
 10
0
 20
0
 30
0
 70
128
 71
274
 72
272
 73
294
 74
291
 0
VERTEX
 8
CUBO_1
 10
0
 20
0
 30
0
 70
128
 71
83
 72
93
 73
170
 74
171
 0
VERTEX
 8
CUBO_1
 10
0
 20
0
 30
0
 70
128
 71
230
 72
232
 73
259
 74
260
 0
VERTEX
 8
CUBO_1
 10
0
 20
0
 30
0
 70
128
 71
77
 72
87
 73
93
 74
83
 0
VERTEX
 8
CUBO_1
 10
0
 20
0
 30
0
 70
128
 71
81
 72
91
 73
94
 74
84
 0
VERTEX
 8
CUBO_1
 10
0
 20
0
 30
0
 70
128
 71
85
 72
75
 73
123
 74
124
 0
VERTEX
 8
CUBO_1
 10
0
 20
0
 30
0
 70
128
 71
231
 72
229
 73
254
 74
255
 0
VERTEX
 8
CUBO_1
 10
0
 20
0
 30
0
 70
128
 71
278
 72
275
 73
276
 74
279
 0
VERTEX
 8
CUBO_1
 10
0
 20
0
 30
0
 70
128
 71
91
 72
81
 73
198
 74
199
 0
VERTEX
 8
CUBO_1
 10
0
 20
0
 30
0
 70
128
 71
92
 72
82
 73
75
 74
85
 0
VERTEX
 8
CUBO_1
 10
0
 20
0
 30
0
 70
128
 71
277
 72
274
 73
291
 74
292
 0
VERTEX
 8
CUBO_1
 10
0
 20
0
 30
0
 70
128
 71
93
 72
103
 73
175
 74
170
 0
VERTEX
 8
CUBO_1
 10
0
 20
0
 30
0
 70
128
 71
232
 72
234
 73
264
 74
259
 0
VERTEX
 8
CUBO_1
 10
0
 20
0
 30
0
 70
128
 71
87
 72
97
 73
103
 74
93
 0
VERTEX
 8
CUBO_1
 10
0
 20
0
 30
0
 70
128
 71
91
 72
101
 73
104
 74
94
 0
VERTEX
 8
CUBO_1
 10
0
 20
0
 30
0
 70
128
 71
95
 72
85
 73
124
 74
114
 0
VERTEX
 8
CUBO_1
 10
0
 20
0
 30
0
 70
128
 71
233
 72
231
 73
255
 74
252
 0
VERTEX
 8
CUBO_1
 10
0
 20
0
 30
0
 70
128
 71
281
 72
278
 73
279
 74
282
 0
VERTEX
 8
CUBO_1
 10
0
 20
0
 30
0
 70
128
 71
101
 72
91
 73
199
 74
197
 0
VERTEX
 8
CUBO_1
 10
0
 20
0
 30
0
 70
128
 71
102
 72
92
 73
85
 74
95
 0
VERTEX
 8
CUBO_1
 10
0
 20
0
 30
0
 70
128
 71
280
 72
277
 73
292
 74
295
 0
VERTEX
 8
CUBO_1
 10
0
 20
0
 30
0
 70
128
 71
103
 72
21
 73
173
 74
175
 0
VERTEX
 8
CUBO_1
 10
0
 20
0
 30
0
 70
128
 71
234
 72
211
 73
262
 74
264
 0
VERTEX
 8
CUBO_1
 10
0
 20
0
 30
0
 70
128
 71
97
 72
24
 73
21
 74
103
 0
VERTEX
 8
CUBO_1
 10
0
 20
0
 30
0
 70
128
 71
101
 72
22
 73
23
 74
104
 0
VERTEX
 8
CUBO_1
 10
0
 20
0
 30
0
 70
128
 71
105
 72
55
 73
56
 74
106
 0
VERTEX
 8
CUBO_1
 10
0
 20
0
 30
0
 70
128
 71
235
 72
223
 73
224
 74
236
 0
VERTEX
 8
CUBO_1
 10
0
 20
0
 30
0
 70
128
 71
109
 72
79
 73
89
 74
110
 0
VERTEX
 8
CUBO_1
 10
0
 20
0
 30
0
 70
128
 71
111
 72
61
 73
54
 74
112
 0
VERTEX
 8
CUBO_1
 10
0
 20
0
 30
0
 70
128
 71
106
 72
56
 73
62
 74
113
 0
VERTEX
 8
CUBO_1
 10
0
 20
0
 30
0
 70
128
 71
113
 72
62
 73
95
 74
114
 0
VERTEX
 8
CUBO_1
 10
0
 20
0
 30
0
 70
128
 71
115
 72
138
 73
132
 74
112
 0
VERTEX
 8
CUBO_1
 10
0
 20
0
 30
0
 70
128
 71
107
 72
127
 73
138
 74
115
 0
VERTEX
 8
CUBO_1
 10
0
 20
0
 30
0
 70
128
 71
237
 72
241
 73
242
 74
238
 0
VERTEX
 8
CUBO_1
 10
0
 20
0
 30
0
 70
128
 71
105
 72
125
 73
139
 74
116
 0
VERTEX
 8
CUBO_1
 10
0
 20
0
 30
0
 70
128
 71
118
 72
135
 73
128
 74
108
 0
VERTEX
 8
CUBO_1
 10
0
 20
0
 30
0
 70
128
 71
117
 72
140
 73
141
 74
119
 0
VERTEX
 8
CUBO_1
 10
0
 20
0
 30
0
 70
128
 71
284
 72
290
 73
289
 74
285
 0
VERTEX
 8
CUBO_1
 10
0
 20
0
 30
0
 70
128
 71
111
 72
131
 73
142
 74
121
 0
VERTEX
 8
CUBO_1
 10
0
 20
0
 30
0
 70
128
 71
283
 72
269
 73
273
 74
286
 0
VERTEX
 8
CUBO_1
 10
0
 20
0
 30
0
 70
128
 71
121
 72
142
 73
143
 74
123
 0
VERTEX
 8
CUBO_1
 10
0
 20
0
 30
0
 70
128
 71
122
 72
73
 73
79
 74
109
 0
VERTEX
 8
CUBO_1
 10
0
 20
0
 30
0
 70
128
 71
123
 72
143
 73
144
 74
124
 0
VERTEX
 8
CUBO_1
 10
0
 20
0
 30
0
 70
128
 71
124
 72
144
 73
134
 74
114
 0
VERTEX
 8
CUBO_1
 10
0
 20
0
 30
0
 70
128
 71
110
 72
89
 73
99
 74
120
 0
VERTEX
 8
CUBO_1
 10
0
 20
0
 30
0
 70
128
 71
125
 72
105
 73
106
 74
126
 0
VERTEX
 8
CUBO_1
 10
0
 20
0
 30
0
 70
128
 71
239
 72
235
 73
236
 74
240
 0
VERTEX
 8
CUBO_1
 10
0
 20
0
 30
0
 70
128
 71
299
 72
297
 73
298
 74
300
 0
VERTEX
 8
CUBO_1
 10
0
 20
0
 30
0
 70
128
 71
131
 72
111
 73
112
 74
132
 0
VERTEX
 8
CUBO_1
 10
0
 20
0
 30
0
 70
128
 71
126
 72
106
 73
113
 74
133
 0
VERTEX
 8
CUBO_1
 10
0
 20
0
 30
0
 70
128
 71
133
 72
113
 73
114
 74
134
 0
VERTEX
 8
CUBO_1
 10
0
 20
0
 30
0
 70
128
 71
287
 72
283
 73
286
 74
288
 0
VERTEX
 8
CUBO_1
 10
0
 20
0
 30
0
 70
128
 71
136
 72
122
 73
109
 74
129
 0
VERTEX
 8
CUBO_1
 10
0
 20
0
 30
0
 70
128
 71
130
 72
110
 73
120
 74
137
 0
VERTEX
 8
CUBO_1
 10
0
 20
0
 30
0
 70
128
 71
138
 72
147
 73
148
 74
132
 0
VERTEX
 8
CUBO_1
 10
0
 20
0
 30
0
 70
128
 71
127
 72
149
 73
147
 74
138
 0
VERTEX
 8
CUBO_1
 10
0
 20
0
 30
0
 70
128
 71
241
 72
245
 73
246
 74
242
 0
VERTEX
 8
CUBO_1
 10
0
 20
0
 30
0
 70
128
 71
125
 72
145
 73
159
 74
139
 0
VERTEX
 8
CUBO_1
 10
0
 20
0
 30
0
 70
128
 71
135
 72
156
 73
150
 74
128
 0
VERTEX
 8
CUBO_1
 10
0
 20
0
 30
0
 70
128
 71
140
 72
160
 73
161
 74
141
 0
VERTEX
 8
CUBO_1
 10
0
 20
0
 30
0
 70
128
 71
290
 72
296
 73
295
 74
289
 0
VERTEX
 8
CUBO_1
 10
0
 20
0
 30
0
 70
128
 71
131
 72
153
 73
162
 74
142
 0
VERTEX
 8
CUBO_1
 10
0
 20
0
 30
0
 70
128
 71
142
 72
162
 73
163
 74
143
 0
VERTEX
 8
CUBO_1
 10
0
 20
0
 30
0
 70
128
 71
143
 72
163
 73
164
 74
144
 0
VERTEX
 8
CUBO_1
 10
0
 20
0
 30
0
 70
128
 71
144
 72
164
 73
155
 74
134
 0
VERTEX
 8
CUBO_1
 10
0
 20
0
 30
0
 70
128
 71
145
 72
125
 73
126
 74
146
 0
VERTEX
 8
CUBO_1
 10
0
 20
0
 30
0
 70
128
 71
147
 72
29
 73
30
 74
148
 0
VERTEX
 8
CUBO_1
 10
0
 20
0
 30
0
 70
128
 71
243
 72
239
 73
240
 74
244
 0
VERTEX
 8
CUBO_1
 10
0
 20
0
 30
0
 70
128
 71
151
 72
129
 73
130
 74
152
 0
VERTEX
 8
CUBO_1
 10
0
 20
0
 30
0
 70
128
 71
153
 72
131
 73
132
 74
148
 0
VERTEX
 8
CUBO_1
 10
0
 20
0
 30
0
 70
128
 71
146
 72
126
 73
133
 74
154
 0
VERTEX
 8
CUBO_1
 10
0
 20
0
 30
0
 70
128
 71
154
 72
133
 73
134
 74
155
 0
VERTEX
 8
CUBO_1
 10
0
 20
0
 30
0
 70
128
 71
293
 72
287
 73
288
 74
294
 0
VERTEX
 8
CUBO_1
 10
0
 20
0
 30
0
 70
128
 71
157
 72
136
 73
129
 74
151
 0
VERTEX
 8
CUBO_1
 10
0
 20
0
 30
0
 70
128
 71
152
 72
130
 73
137
 74
158
 0
VERTEX
 8
CUBO_1
 10
0
 20
0
 30
0
 70
128
 71
149
 72
31
 73
29
 74
147
 0
VERTEX
 8
CUBO_1
 10
0
 20
0
 30
0
 70
128
 71
245
 72
217
 73
218
 74
246
 0
VERTEX
 8
CUBO_1
 10
0
 20
0
 30
0
 70
128
 71
145
 72
35
 73
36
 74
159
 0
VERTEX
 8
CUBO_1
 10
0
 20
0
 30
0
 70
128
 71
156
 72
37
 73
32
 74
150
 0
VERTEX
 8
CUBO_1
 10
0
 20
0
 30
0
 70
128
 71
160
 72
38
 73
40
 74
161
 0
VERTEX
 8
CUBO_1
 10
0
 20
0
 30
0
 70
128
 71
296
 72
266
 73
280
 74
295
 0
VERTEX
 8
CUBO_1
 10
0
 20
0
 30
0
 70
128
 71
153
 72
33
 73
66
 74
162
 0
VERTEX
 8
CUBO_1
 10
0
 20
0
 30
0
 70
128
 71
162
 72
66
 73
76
 74
163
 0
VERTEX
 8
CUBO_1
 10
0
 20
0
 30
0
 70
128
 71
163
 72
76
 73
86
 74
164
 0
VERTEX
 8
CUBO_1
 10
0
 20
0
 30
0
 70
128
 71
164
 72
86
 73
96
 74
155
 0
VERTEX
 8
CUBO_1
 10
0
 20
0
 30
0
 70
128
 71
169
 72
33
 73
30
 74
168
 0
VERTEX
 8
CUBO_1
 10
0
 20
0
 30
0
 70
128
 71
170
 72
86
 73
76
 74
171
 0
VERTEX
 8
CUBO_1
 10
0
 20
0
 30
0
 70
128
 71
172
 72
34
 73
39
 74
173
 0
VERTEX
 8
CUBO_1
 10
0
 20
0
 30
0
 70
128
 71
174
 72
66
 73
33
 74
169
 0
VERTEX
 8
CUBO_1
 10
0
 20
0
 30
0
 70
128
 71
165
 72
8
 73
2
 74
167
 0
VERTEX
 8
CUBO_1
 10
0
 20
0
 30
0
 70
128
 71
175
 72
96
 73
86
 74
170
 0
VERTEX
 8
CUBO_1
 10
0
 20
0
 30
0
 70
128
 71
9
 72
35
 73
34
 74
172
 0
VERTEX
 8
CUBO_1
 10
0
 20
0
 30
0
 70
128
 71
173
 72
39
 73
96
 74
175
 0
VERTEX
 8
CUBO_1
 10
0
 20
0
 30
0
 70
128
 71
249
 72
214
 73
207
 74
248
 0
VERTEX
 8
CUBO_1
 10
0
 20
0
 30
0
 70
128
 71
205
 72
202
 73
209
 74
250
 0
VERTEX
 8
CUBO_1
 10
0
 20
0
 30
0
 70
128
 71
250
 72
209
 73
212
 74
251
 0
VERTEX
 8
CUBO_1
 10
0
 20
0
 30
0
 70
128
 71
251
 72
212
 73
233
 74
252
 0
VERTEX
 8
CUBO_1
 10
0
 20
0
 30
0
 70
128
 71
171
 72
76
 73
66
 74
174
 0
VERTEX
 8
CUBO_1
 10
0
 20
0
 30
0
 70
128
 71
176
 72
37
 73
72
 74
180
 0
VERTEX
 8
CUBO_1
 10
0
 20
0
 30
0
 70
128
 71
180
 72
72
 73
78
 74
181
 0
VERTEX
 8
CUBO_1
 10
0
 20
0
 30
0
 70
128
 71
181
 72
78
 73
88
 74
182
 0
VERTEX
 8
CUBO_1
 10
0
 20
0
 30
0
 70
128
 71
182
 72
88
 73
98
 74
179
 0
VERTEX
 8
CUBO_1
 10
0
 20
0
 30
0
 70
128
 71
187
 72
43
 73
41
 74
183
 0
VERTEX
 8
CUBO_1
 10
0
 20
0
 30
0
 70
128
 71
188
 72
48
 73
47
 74
189
 0
VERTEX
 8
CUBO_1
 10
0
 20
0
 30
0
 70
128
 71
190
 72
90
 73
80
 74
191
 0
VERTEX
 8
CUBO_1
 10
0
 20
0
 30
0
 70
128
 71
192
 72
49
 73
50
 74
193
 0
VERTEX
 8
CUBO_1
 10
0
 20
0
 30
0
 70
128
 71
194
 72
68
 73
48
 74
188
 0
VERTEX
 8
CUBO_1
 10
0
 20
0
 30
0
 70
128
 71
11
 72
3
 73
17
 74
195
 0
VERTEX
 8
CUBO_1
 10
0
 20
0
 30
0
 70
128
 71
256
 72
203
 73
208
 74
258
 0
VERTEX
 8
CUBO_1
 10
0
 20
0
 30
0
 70
128
 71
206
 72
220
 73
222
 74
261
 0
VERTEX
 8
CUBO_1
 10
0
 20
0
 30
0
 70
128
 71
185
 72
26
 73
14
 74
184
 0
VERTEX
 8
CUBO_1
 10
0
 20
0
 30
0
 70
128
 71
195
 72
17
 73
22
 74
196
 0
VERTEX
 8
CUBO_1
 10
0
 20
0
 30
0
 70
128
 71
196
 72
22
 73
101
 74
197
 0
VERTEX
 8
CUBO_1
 10
0
 20
0
 30
0
 70
128
 71
191
 72
80
 73
68
 74
194
 0
VERTEX
 8
CUBO_1
 10
0
 20
0
 30
0
 70
128
 71
186
 72
74
 73
82
 74
198
 0
VERTEX
 8
CUBO_1
 10
0
 20
0
 30
0
 70
128
 71
198
 72
82
 73
92
 74
199
 0
VERTEX
 8
CUBO_1
 10
0
 20
0
 30
0
 70
128
 71
200
 72
100
 73
90
 74
190
 0
VERTEX
 8
CUBO_1
 10
0
 20
0
 30
0
 70
128
 71
199
 72
92
 73
102
 74
197
 0
VERTEX
 8
CUBO_1
 10
0
 20
0
 30
0
 70
128
 71
193
 72
50
 73
100
 74
200
 0
VERTEX
 8
CUBO_1
 10
0
 20
0
 30
0
 70
128
 71
207
 72
15
 73
8
 74
204
 0
VERTEX
 8
CUBO_1
 10
0
 20
0
 30
0
 70
128
 71
204
 72
8
 73
165
 74
247
 0
VERTEX
 8
CUBO_1
 10
0
 20
0
 30
0
 70
128
 71
215
 72
31
 73
149
 74
243
 0
VERTEX
 8
CUBO_1
 10
0
 20
0
 30
0
 70
128
 71
244
 72
150
 73
32
 74
216
 0
VERTEX
 8
CUBO_1
 10
0
 20
0
 30
0
 70
128
 71
208
 72
16
 73
27
 74
213
 0
VERTEX
 8
CUBO_1
 10
0
 20
0
 30
0
 70
128
 71
257
 72
188
 73
189
 74
258
 0
VERTEX
 8
CUBO_1
 10
0
 20
0
 30
0
 70
128
 71
220
 72
46
 73
59
 74
225
 0
VERTEX
 8
CUBO_1
 10
0
 20
0
 30
0
 70
128
 71
226
 72
60
 73
49
 74
222
 0
VERTEX
 8
CUBO_1
 10
0
 20
0
 30
0
 70
128
 71
211
 72
23
 73
20
 74
210
 0
VERTEX
 8
CUBO_1
 10
0
 20
0
 30
0
 70
128
 71
261
 72
192
 73
193
 74
262
 0
VERTEX
 8
CUBO_1
 10
0
 20
0
 30
0
 70
128
 71
213
 72
27
 73
67
 74
227
 0
VERTEX
 8
CUBO_1
 10
0
 20
0
 30
0
 70
128
 71
263
 72
194
 73
188
 74
257
 0
VERTEX
 8
CUBO_1
 10
0
 20
0
 30
0
 70
128
 71
247
 72
165
 73
31
 74
215
 0
VERTEX
 8
CUBO_1
 10
0
 20
0
 30
0
 70
128
 71
216
 72
32
 73
166
 74
248
 0
VERTEX
 8
CUBO_1
 10
0
 20
0
 30
0
 70
128
 71
217
 72
36
 73
10
 74
205
 0
VERTEX
 8
CUBO_1
 10
0
 20
0
 30
0
 70
128
 71
250
 72
177
 73
38
 74
218
 0
VERTEX
 8
CUBO_1
 10
0
 20
0
 30
0
 70
128
 71
219
 72
43
 73
187
 74
256
 0
VERTEX
 8
CUBO_1
 10
0
 20
0
 30
0
 70
128
 71
258
 72
189
 73
47
 74
221
 0
VERTEX
 8
CUBO_1
 10
0
 20
0
 30
0
 70
128
 71
210
 72
20
 73
5
 74
201
 0
VERTEX
 8
CUBO_1
 10
0
 20
0
 30
0
 70
128
 71
201
 72
5
 73
12
 74
206
 0
VERTEX
 8
CUBO_1
 10
0
 20
0
 30
0
 70
128
 71
223
 72
57
 73
43
 74
219
 0
VERTEX
 8
CUBO_1
 10
0
 20
0
 30
0
 70
128
 71
221
 72
47
 73
58
 74
224
 0
VERTEX
 8
CUBO_1
 10
0
 20
0
 30
0
 70
128
 71
225
 72
59
 73
116
 74
237
 0
VERTEX
 8
CUBO_1
 10
0
 20
0
 30
0
 70
128
 71
238
 72
117
 73
60
 74
226
 0
VERTEX
 8
CUBO_1
 10
0
 20
0
 30
0
 70
128
 71
227
 72
67
 73
84
 74
230
 0
VERTEX
 8
CUBO_1
 10
0
 20
0
 30
0
 70
128
 71
260
 72
191
 73
194
 74
263
 0
VERTEX
 8
CUBO_1
 10
0
 20
0
 30
0
 70
128
 71
228
 72
69
 73
28
 74
214
 0
VERTEX
 8
CUBO_1
 10
0
 20
0
 30
0
 70
128
 71
249
 72
176
 73
180
 74
253
 0
VERTEX
 8
CUBO_1
 10
0
 20
0
 30
0
 70
128
 71
298
 72
110
 73
130
 74
300
 0
VERTEX
 8
CUBO_1
 10
0
 20
0
 30
0
 70
128
 71
230
 72
84
 73
94
 74
232
 0
VERTEX
 8
CUBO_1
 10
0
 20
0
 30
0
 70
128
 71
259
 72
190
 73
191
 74
260
 0
VERTEX
 8
CUBO_1
 10
0
 20
0
 30
0
 70
128
 71
231
 72
87
 73
77
 74
229
 0
VERTEX
 8
CUBO_1
 10
0
 20
0
 30
0
 70
128
 71
297
 72
109
 73
110
 74
298
 0
VERTEX
 8
CUBO_1
 10
0
 20
0
 30
0
 70
128
 71
254
 72
181
 73
182
 74
255
 0
VERTEX
 8
CUBO_1
 10
0
 20
0
 30
0
 70
128
 71
232
 72
94
 73
104
 74
234
 0
VERTEX
 8
CUBO_1
 10
0
 20
0
 30
0
 70
128
 71
264
 72
200
 73
190
 74
259
 0
VERTEX
 8
CUBO_1
 10
0
 20
0
 30
0
 70
128
 71
233
 72
97
 73
87
 74
231
 0
VERTEX
 8
CUBO_1
 10
0
 20
0
 30
0
 70
128
 71
255
 72
182
 73
179
 74
252
 0
VERTEX
 8
CUBO_1
 10
0
 20
0
 30
0
 70
128
 71
234
 72
104
 73
23
 74
211
 0
VERTEX
 8
CUBO_1
 10
0
 20
0
 30
0
 70
128
 71
262
 72
193
 73
200
 74
264
 0
VERTEX
 8
CUBO_1
 10
0
 20
0
 30
0
 70
128
 71
235
 72
107
 73
57
 74
223
 0
VERTEX
 8
CUBO_1
 10
0
 20
0
 30
0
 70
128
 71
224
 72
58
 73
108
 74
236
 0
VERTEX
 8
CUBO_1
 10
0
 20
0
 30
0
 70
128
 71
237
 72
116
 73
139
 74
241
 0
VERTEX
 8
CUBO_1
 10
0
 20
0
 30
0
 70
128
 71
242
 72
140
 73
117
 74
238
 0
VERTEX
 8
CUBO_1
 10
0
 20
0
 30
0
 70
128
 71
239
 72
127
 73
107
 74
235
 0
VERTEX
 8
CUBO_1
 10
0
 20
0
 30
0
 70
128
 71
236
 72
108
 73
128
 74
240
 0
VERTEX
 8
CUBO_1
 10
0
 20
0
 30
0
 70
128
 71
241
 72
139
 73
159
 74
245
 0
VERTEX
 8
CUBO_1
 10
0
 20
0
 30
0
 70
128
 71
246
 72
160
 73
140
 74
242
 0
VERTEX
 8
CUBO_1
 10
0
 20
0
 30
0
 70
128
 71
243
 72
149
 73
127
 74
239
 0
VERTEX
 8
CUBO_1
 10
0
 20
0
 30
0
 70
128
 71
240
 72
128
 73
150
 74
244
 0
VERTEX
 8
CUBO_1
 10
0
 20
0
 30
0
 70
128
 71
245
 72
159
 73
36
 74
217
 0
VERTEX
 8
CUBO_1
 10
0
 20
0
 30
0
 70
128
 71
218
 72
38
 73
160
 74
246
 0
VERTEX
 8
CUBO_1
 10
0
 20
0
 30
0
 70
128
 71
214
 72
28
 73
15
 74
207
 0
VERTEX
 8
CUBO_1
 10
0
 20
0
 30
0
 70
128
 71
248
 72
166
 73
176
 74
249
 0
VERTEX
 8
CUBO_1
 10
0
 20
0
 30
0
 70
128
 71
205
 72
10
 73
6
 74
202
 0
VERTEX
 8
CUBO_1
 10
0
 20
0
 30
0
 70
128
 71
202
 72
6
 73
19
 74
209
 0
VERTEX
 8
CUBO_1
 10
0
 20
0
 30
0
 70
128
 71
209
 72
19
 73
24
 74
212
 0
VERTEX
 8
CUBO_1
 10
0
 20
0
 30
0
 70
128
 71
251
 72
178
 73
177
 74
250
 0
VERTEX
 8
CUBO_1
 10
0
 20
0
 30
0
 70
128
 71
212
 72
24
 73
97
 74
233
 0
VERTEX
 8
CUBO_1
 10
0
 20
0
 30
0
 70
128
 71
252
 72
179
 73
178
 74
251
 0
VERTEX
 8
CUBO_1
 10
0
 20
0
 30
0
 70
128
 71
256
 72
187
 73
7
 74
203
 0
VERTEX
 8
CUBO_1
 10
0
 20
0
 30
0
 70
128
 71
203
 72
7
 73
16
 74
208
 0
VERTEX
 8
CUBO_1
 10
0
 20
0
 30
0
 70
128
 71
206
 72
12
 73
46
 74
220
 0
VERTEX
 8
CUBO_1
 10
0
 20
0
 30
0
 70
128
 71
222
 72
49
 73
192
 74
261
 0
VERTEX
 8
CUBO_1
 10
0
 20
0
 30
0
 70
128
 71
268
 72
50
 73
64
 74
270
 0
VERTEX
 8
CUBO_1
 10
0
 20
0
 30
0
 70
128
 71
282
 72
100
 73
50
 74
268
 0
VERTEX
 8
CUBO_1
 10
0
 20
0
 30
0
 70
128
 71
270
 72
64
 73
119
 74
284
 0
VERTEX
 8
CUBO_1
 10
0
 20
0
 30
0
 70
128
 71
285
 72
120
 73
99
 74
281
 0
VERTEX
 8
CUBO_1
 10
0
 20
0
 30
0
 70
128
 71
269
 72
63
 73
48
 74
267
 0
VERTEX
 8
CUBO_1
 10
0
 20
0
 30
0
 70
128
 71
267
 72
48
 73
68
 74
271
 0
VERTEX
 8
CUBO_1
 10
0
 20
0
 30
0
 70
128
 71
272
 72
72
 73
37
 74
265
 0
VERTEX
 8
CUBO_1
 10
0
 20
0
 30
0
 70
128
 71
265
 72
37
 73
156
 74
293
 0
VERTEX
 8
CUBO_1
 10
0
 20
0
 30
0
 70
128
 71
275
 72
79
 73
73
 74
273
 0
VERTEX
 8
CUBO_1
 10
0
 20
0
 30
0
 70
128
 71
271
 72
68
 73
80
 74
276
 0
VERTEX
 8
CUBO_1
 10
0
 20
0
 30
0
 70
128
 71
274
 72
78
 73
72
 74
272
 0
VERTEX
 8
CUBO_1
 10
0
 20
0
 30
0
 70
128
 71
294
 72
157
 73
151
 74
291
 0
VERTEX
 8
CUBO_1
 10
0
 20
0
 30
0
 70
128
 71
278
 72
89
 73
79
 74
275
 0
VERTEX
 8
CUBO_1
 10
0
 20
0
 30
0
 70
128
 71
276
 72
80
 73
90
 74
279
 0
VERTEX
 8
CUBO_1
 10
0
 20
0
 30
0
 70
128
 71
277
 72
88
 73
78
 74
274
 0
VERTEX
 8
CUBO_1
 10
0
 20
0
 30
0
 70
128
 71
291
 72
151
 73
152
 74
292
 0
VERTEX
 8
CUBO_1
 10
0
 20
0
 30
0
 70
128
 71
281
 72
99
 73
89
 74
278
 0
VERTEX
 8
CUBO_1
 10
0
 20
0
 30
0
 70
128
 71
279
 72
90
 73
100
 74
282
 0
VERTEX
 8
CUBO_1
 10
0
 20
0
 30
0
 70
128
 71
280
 72
98
 73
88
 74
277
 0
VERTEX
 8
CUBO_1
 10
0
 20
0
 30
0
 70
128
 71
292
 72
152
 73
158
 74
295
 0
VERTEX
 8
CUBO_1
 10
0
 20
0
 30
0
 70
128
 71
284
 72
119
 73
141
 74
290
 0
VERTEX
 8
CUBO_1
 10
0
 20
0
 30
0
 70
128
 71
289
 72
137
 73
120
 74
285
 0
VERTEX
 8
CUBO_1
 10
0
 20
0
 30
0
 70
128
 71
283
 72
118
 73
63
 74
269
 0
VERTEX
 8
CUBO_1
 10
0
 20
0
 30
0
 70
128
 71
273
 72
73
 73
122
 74
286
 0
VERTEX
 8
CUBO_1
 10
0
 20
0
 30
0
 70
128
 71
287
 72
135
 73
118
 74
283
 0
VERTEX
 8
CUBO_1
 10
0
 20
0
 30
0
 70
128
 71
286
 72
122
 73
136
 74
288
 0
VERTEX
 8
CUBO_1
 10
0
 20
0
 30
0
 70
128
 71
290
 72
141
 73
161
 74
296
 0
VERTEX
 8
CUBO_1
 10
0
 20
0
 30
0
 70
128
 71
295
 72
158
 73
137
 74
289
 0
VERTEX
 8
CUBO_1
 10
0
 20
0
 30
0
 70
128
 71
293
 72
156
 73
135
 74
287
 0
VERTEX
 8
CUBO_1
 10
0
 20
0
 30
0
 70
128
 71
288
 72
136
 73
157
 74
294
 0
VERTEX
 8
CUBO_1
 10
0
 20
0
 30
0
 70
128
 71
296
 72
161
 73
40
 74
266
 0
VERTEX
 8
CUBO_1
 10
0
 20
0
 30
0
 70
128
 71
266
 72
40
 73
98
 74
280
 0
VERTEX
 8
CUBO_1
 10
0
 20
0
 30
0
 70
128
 71
299
 72
129
 73
109
 74
297
 0
VERTEX
 8
CUBO_1
 10
0
 20
0
 30
0
 70
128
 71
229
 72
77
 73
69
 74
228
 0
VERTEX
 8
CUBO_1
 10
0
 20
0
 30
0
 70
128
 71
181
 72
254
 73
253
 74
180
 0
VERTEX
 8
CUBO_1
 10
0
 20
0
 30
0
 70
128
 71
254
 72
229
 73
228
 74
253
 0
SEQEND
 0
POLYLINE
 8
MFO-B394
 66
1
 10
0.0
 20
0.0
 30
0.0
 70
64
 71
20
 72
18
 0
VERTEX
 8
MFO-B394
 10
40.77
 20
11.6646
 30
80.003
 70
192
 0
VERTEX
 8
MFO-B394
 10
40.77
 20
11.6646
 30
84.2219
 70
192
 0
VERTEX
 8
MFO-B394
 10
-40.77
 20
11.6646
 30
80.003
 70
192
 0
VERTEX
 8
MFO-B394
 10
-40.77
 20
11.6646
 30
84.2219
 70
192
 0
VERTEX
 8
MFO-B394
 10
-40.77
 20
8.6046
 30
81.0637
 70
192
 0
VERTEX
 8
MFO-B394
 10
-40.77
 20
9.8056
 30
84.2219
 70
192
 0
VERTEX
 8
MFO-B394
 10
40.77
 20
8.6046
 30
81.0637
 70
192
 0
VERTEX
 8
MFO-B394
 10
40.77
 20
9.8056
 30
84.2219
 70
192
 0
VERTEX
 8
MFO-B394
 10
40.77
 20
11.6646
 30
81.2379
 70
192
 0
VERTEX
 8
MFO-B394
 10
-40.77
 20
11.6646
 30
81.2379
 70
192
 0
VERTEX
 8
MFO-B394
 10
-40.77
 20
8.6046
 30
81.2379
 70
192
 0
VERTEX
 8
MFO-B394
 10
40.77
 20
8.6046
 30
81.2379
 70
192
 0
VERTEX
 8
MFO-B394
 10
40.77
 20
11.6646
 30
82.4376
 70
192
 0
VERTEX
 8
MFO-B394
 10
-40.77
 20
11.6646
 30
82.4376
 70
192
 0
VERTEX
 8
MFO-B394
 10
-40.77
 20
8.6046
 30
82.4376
 70
192
 0
VERTEX
 8
MFO-B394
 10
40.77
 20
8.6046
 30
82.4376
 70
192
 0
VERTEX
 8
MFO-B394
 10
40.77
 20
11.6646
 30
83.6337
 70
192
 0
VERTEX
 8
MFO-B394
 10
-40.77
 20
11.6646
 30
83.6337
 70
192
 0
VERTEX
 8
MFO-B394
 10
-40.77
 20
9.8056
 30
83.6337
 70
192
 0
VERTEX
 8
MFO-B394
 10
40.77
 20
9.8056
 30
83.6337
 70
192
 0
VERTEX
 8
MFO-B394
 10
0
 20
0
 30
0
 70
128
 71
1
 72
9
 73
10
 74
3
 0
VERTEX
 8
MFO-B394
 10
0
 20
0
 30
0
 70
128
 71
3
 72
10
 73
11
 74
5
 0
VERTEX
 8
MFO-B394
 10
0
 20
0
 30
0
 70
128
 71
5
 72
11
 73
12
 74
7
 0
VERTEX
 8
MFO-B394
 10
0
 20
0
 30
0
 70
128
 71
7
 72
12
 73
9
 74
1
 0
VERTEX
 8
MFO-B394
 10
0
 20
0
 30
0
 70
128
 71
2
 72
8
 73
6
 74
4
 0
VERTEX
 8
MFO-B394
 10
0
 20
0
 30
0
 70
128
 71
7
 72
1
 73
3
 74
5
 0
VERTEX
 8
MFO-B394
 10
0
 20
0
 30
0
 70
128
 71
9
 72
13
 73
14
 74
10
 0
VERTEX
 8
MFO-B394
 10
0
 20
0
 30
0
 70
128
 71
10
 72
14
 73
15
 74
11
 0
VERTEX
 8
MFO-B394
 10
0
 20
0
 30
0
 70
128
 71
11
 72
15
 73
16
 74
12
 0
VERTEX
 8
MFO-B394
 10
0
 20
0
 30
0
 70
128
 71
12
 72
16
 73
13
 74
9
 0
VERTEX
 8
MFO-B394
 10
0
 20
0
 30
0
 70
128
 71
13
 72
17
 73
18
 74
14
 0
VERTEX
 8
MFO-B394
 10
0
 20
0
 30
0
 70
128
 71
14
 72
18
 73
19
 74
15
 0
VERTEX
 8
MFO-B394
 10
0
 20
0
 30
0
 70
128
 71
15
 72
19
 73
20
 74
16
 0
VERTEX
 8
MFO-B394
 10
0
 20
0
 30
0
 70
128
 71
16
 72
20
 73
17
 74
13
 0
VERTEX
 8
MFO-B394
 10
0
 20
0
 30
0
 70
128
 71
17
 72
2
 73
4
 74
18
 0
VERTEX
 8
MFO-B394
 10
0
 20
0
 30
0
 70
128
 71
18
 72
4
 73
6
 74
19
 0
VERTEX
 8
MFO-B394
 10
0
 20
0
 30
0
 70
128
 71
19
 72
6
 73
8
 74
20
 0
VERTEX
 8
MFO-B394
 10
0
 20
0
 30
0
 70
128
 71
20
 72
8
 73
2
 74
17
 0
SEQEND
 0
POLYLINE
 8
MTU-B144
 66
1
 10
0.0
 20
0.0
 30
0.0
 70
64
 71
8
 72
6
 0
VERTEX
 8
MTU-B144
 10
-12.6
 20
-13.9254
 30
117.2708
 70
192
 0
VERTEX
 8
MTU-B144
 10
-12.6
 20
-13.9254
 30
150.2708
 70
192
 0
VERTEX
 8
MTU-B144
 10
12.6
 20
-13.9254
 30
117.2708
 70
192
 0
VERTEX
 8
MTU-B144
 10
12.6
 20
-13.9254
 30
150.2708
 70
192
 0
VERTEX
 8
MTU-B144
 10
12.6
 20
13.0246
 30
117.2708
 70
192
 0
VERTEX
 8
MTU-B144
 10
12.6
 20
13.0246
 30
150.2708
 70
192
 0
VERTEX
 8
MTU-B144
 10
-12.6
 20
13.0246
 30
117.2708
 70
192
 0
VERTEX
 8
MTU-B144
 10
-12.6
 20
13.0246
 30
150.2708
 70
192
 0
VERTEX
 8
MTU-B144
 10
0
 20
0
 30
0
 70
128
 71
1
 72
2
 73
4
 74
3
 0
VERTEX
 8
MTU-B144
 10
0
 20
0
 30
0
 70
128
 71
3
 72
4
 73
6
 74
5
 0
VERTEX
 8
MTU-B144
 10
0
 20
0
 30
0
 70
128
 71
5
 72
6
 73
8
 74
7
 0
VERTEX
 8
MTU-B144
 10
0
 20
0
 30
0
 70
128
 71
7
 72
8
 73
2
 74
1
 0
VERTEX
 8
MTU-B144
 10
0
 20
0
 30
0
 70
128
 71
2
 72
8
 73
6
 74
4
 0
VERTEX
 8
MTU-B144
 10
0
 20
0
 30
0
 70
128
 71
7
 72
1
 73
3
 74
5
 0
SEQEND
 0
POLYLINE
 8
MTU-B143
 66
1
 10
0.0
 20
0.0
 30
0.0
 70
64
 71
8
 72
6
 0
VERTEX
 8
MTU-B143
 10
-12.725
 20
-13.9854
 30
88.86
 70
192
 0
VERTEX
 8
MTU-B143
 10
-12.725
 20
-13.9854
 30
120.86
 70
192
 0
VERTEX
 8
MTU-B143
 10
12.725
 20
-13.9854
 30
88.86
 70
192
 0
VERTEX
 8
MTU-B143
 10
12.725
 20
-13.9854
 30
120.86
 70
192
 0
VERTEX
 8
MTU-B143
 10
12.725
 20
13.2146
 30
88.86
 70
192
 0
VERTEX
 8
MTU-B143
 10
12.725
 20
13.2146
 30
120.86
 70
192
 0
VERTEX
 8
MTU-B143
 10
-12.725
 20
13.2146
 30
88.86
 70
192
 0
VERTEX
 8
MTU-B143
 10
-12.725
 20
13.2146
 30
120.86
 70
192
 0
VERTEX
 8
MTU-B143
 10
0
 20
0
 30
0
 70
128
 71
1
 72
2
 73
4
 74
3
 0
VERTEX
 8
MTU-B143
 10
0
 20
0
 30
0
 70
128
 71
3
 72
4
 73
6
 74
5
 0
VERTEX
 8
MTU-B143
 10
0
 20
0
 30
0
 70
128
 71
5
 72
6
 73
8
 74
7
 0
VERTEX
 8
MTU-B143
 10
0
 20
0
 30
0
 70
128
 71
7
 72
8
 73
2
 74
1
 0
VERTEX
 8
MTU-B143
 10
0
 20
0
 30
0
 70
128
 71
2
 72
8
 73
6
 74
4
 0
VERTEX
 8
MTU-B143
 10
0
 20
0
 30
0
 70
128
 71
7
 72
1
 73
3
 74
5
 0
SEQEND
 0
POLYLINE
 8
MMA-B684
 66
1
 10
0.0
 20
0.0
 30
0.0
 70
64
 71
34
 72
33
 0
VERTEX
 8
MMA-B684
 10
-41.25
 20
-14.3255
 30
79.94
 70
192
 0
VERTEX
 8
MMA-B684
 10
-41.25
 20
-14.3255
 30
88.86
 70
192
 0
VERTEX
 8
MMA-B684
 10
41.2499
 20
-14.3255
 30
79.94
 70
192
 0
VERTEX
 8
MMA-B684
 10
41.2499
 20
-14.3255
 30
88.86
 70
192
 0
VERTEX
 8
MMA-B684
 10
41.2499
 20
11.9747
 30
79.94
 70
192
 0
VERTEX
 8
MMA-B684
 10
41.2499
 20
11.9747
 30
88.86
 70
192
 0
VERTEX
 8
MMA-B684
 10
-41.25
 20
11.9747
 30
79.94
 70
192
 0
VERTEX
 8
MMA-B684
 10
-41.25
 20
11.9747
 30
88.86
 70
192
 0
VERTEX
 8
MMA-B684
 10
-41.25
 20
-14.3255
 30
79.8599
 70
192
 0
VERTEX
 8
MMA-B684
 10
41.2499
 20
-14.3255
 30
79.8599
 70
192
 0
VERTEX
 8
MMA-B684
 10
41.2499
 20
11.9747
 30
79.8599
 70
192
 0
VERTEX
 8
MMA-B684
 10
-41.25
 20
11.9747
 30
79.8599
 70
192
 0
VERTEX
 8
MMA-B684
 10
-42.5
 20
-15.6754
 30
79.94
 70
192
 0
VERTEX
 8
MMA-B684
 10
42.4999
 20
-15.6754
 30
79.94
 70
192
 0
VERTEX
 8
MMA-B684
 10
42.4999
 20
13.3246
 30
79.94
 70
192
 0
VERTEX
 8
MMA-B684
 10
-42.5
 20
13.3246
 30
79.94
 70
192
 0
VERTEX
 8
MMA-B684
 10
-42.5
 20
-15.6754
 30
79.8599
 70
192
 0
VERTEX
 8
MMA-B684
 10
42.4999
 20
-15.6754
 30
79.8599
 70
192
 0
VERTEX
 8
MMA-B684
 10
42.4999
 20
13.3246
 30
79.8599
 70
192
 0
VERTEX
 8
MMA-B684
 10
-42.5
 20
13.3246
 30
79.8599
 70
192
 0
VERTEX
 8
MMA-B684
 10
-41.07
 20
-14.1455
 30
79.8599
 70
192
 0
VERTEX
 8
MMA-B684
 10
41.0699
 20
-14.1455
 30
79.8599
 70
192
 0
VERTEX
 8
MMA-B684
 10
41.0699
 20
11.7947
 30
79.8599
 70
192
 0
VERTEX
 8
MMA-B684
 10
-41.07
 20
11.7947
 30
79.8599
 70
192
 0
VERTEX
 8
MMA-B684
 10
-41.07
 20
-14.1455
 30
84.214
 70
192
 0
VERTEX
 8
MMA-B684
 10
41.0699
 20
-14.1455
 30
84.214
 70
192
 0
VERTEX
 8
MMA-B684
 10
41.0699
 20
11.7947
 30
84.214
 70
192
 0
VERTEX
 8
MMA-B684
 10
-41.07
 20
11.7947
 30
84.214
 70
192
 0
VERTEX
 8
MMA-B684
 10
-41.07
 20
-10.9152
 30
84.214
 70
192
 0
VERTEX
 8
MMA-B684
 10
41.0699
 20
-10.9152
 30
84.214
 70
192
 0
VERTEX
 8
MMA-B684
 10
-41.07
 20
-14.1455
 30
82.4399
 70
192
 0
VERTEX
 8
MMA-B684
 10
41.0699
 20
-14.1455
 30
82.4399
 70
192
 0
VERTEX
 8
MMA-B684
 10
-41.07
 20
-10.9152
 30
82.4399
 70
192
 0
VERTEX
 8
MMA-B684
 10
41.0699
 20
-10.9152
 30
82.4399
 70
192
 0
VERTEX
 8
MMA-B684
 10
0
 20
0
 30
0
 70
128
 71
29
 72
28
 73
24
 74
21
 0
VERTEX
 8
MMA-B684
 10
0
 20
0
 30
0
 70
128
 71
21
 72
25
 73
29
 74
29
 0
VERTEX
 8
MMA-B684
 10
0
 20
0
 30
0
 70
128
 71
26
 72
22
 73
30
 74
30
 0
VERTEX
 8
MMA-B684
 10
0
 20
0
 30
0
 70
128
 71
30
 72
22
 73
23
 74
27
 0
VERTEX
 8
MMA-B684
 10
0
 20
0
 30
0
 70
128
 71
1
 72
2
 73
4
 74
3
 0
VERTEX
 8
MMA-B684
 10
0
 20
0
 30
0
 70
128
 71
3
 72
4
 73
6
 74
5
 0
VERTEX
 8
MMA-B684
 10
0
 20
0
 30
0
 70
128
 71
5
 72
6
 73
8
 74
7
 0
VERTEX
 8
MMA-B684
 10
0
 20
0
 30
0
 70
128
 71
7
 72
8
 73
2
 74
1
 0
VERTEX
 8
MMA-B684
 10
0
 20
0
 30
0
 70
128
 71
2
 72
8
 73
6
 74
4
 0
VERTEX
 8
MMA-B684
 10
0
 20
0
 30
0
 70
128
 71
28
 72
29
 73
30
 74
27
 0
VERTEX
 8
MMA-B684
 10
0
 20
0
 30
0
 70
128
 71
20
 72
16
 73
13
 74
17
 0
VERTEX
 8
MMA-B684
 10
0
 20
0
 30
0
 70
128
 71
17
 72
13
 73
14
 74
18
 0
VERTEX
 8
MMA-B684
 10
0
 20
0
 30
0
 70
128
 71
18
 72
14
 73
15
 74
19
 0
VERTEX
 8
MMA-B684
 10
0
 20
0
 30
0
 70
128
 71
19
 72
15
 73
16
 74
20
 0
VERTEX
 8
MMA-B684
 10
0
 20
0
 30
0
 70
128
 71
16
 72
7
 73
1
 74
13
 0
VERTEX
 8
MMA-B684
 10
0
 20
0
 30
0
 70
128
 71
17
 72
9
 73
12
 74
20
 0
VERTEX
 8
MMA-B684
 10
0
 20
0
 30
0
 70
128
 71
13
 72
1
 73
3
 74
14
 0
VERTEX
 8
MMA-B684
 10
0
 20
0
 30
0
 70
128
 71
18
 72
10
 73
9
 74
17
 0
VERTEX
 8
MMA-B684
 10
0
 20
0
 30
0
 70
128
 71
14
 72
3
 73
5
 74
15
 0
VERTEX
 8
MMA-B684
 10
0
 20
0
 30
0
 70
128
 71
19
 72
11
 73
10
 74
18
 0
VERTEX
 8
MMA-B684
 10
0
 20
0
 30
0
 70
128
 71
15
 72
5
 73
7
 74
16
 0
VERTEX
 8
MMA-B684
 10
0
 20
0
 30
0
 70
128
 71
20
 72
12
 73
11
 74
19
 0
VERTEX
 8
MMA-B684
 10
0
 20
0
 30
0
 70
128
 71
24
 72
12
 73
9
 74
21
 0
VERTEX
 8
MMA-B684
 10
0
 20
0
 30
0
 70
128
 71
21
 72
9
 73
10
 74
22
 0
VERTEX
 8
MMA-B684
 10
0
 20
0
 30
0
 70
128
 71
22
 72
10
 73
11
 74
23
 0
VERTEX
 8
MMA-B684
 10
0
 20
0
 30
0
 70
128
 71
23
 72
11
 73
12
 74
24
 0
VERTEX
 8
MMA-B684
 10
0
 20
0
 30
0
 70
128
 71
25
 72
21
 73
22
 74
26
 0
VERTEX
 8
MMA-B684
 10
0
 20
0
 30
0
 70
128
 71
27
 72
23
 73
24
 74
28
 0
VERTEX
 8
MMA-B684
 10
0
 20
0
 30
0
 70
128
 71
33
 72
31
 73
32
 74
34
 0
VERTEX
 8
MMA-B684
 10
0
 20
0
 30
0
 70
128
 71
33
 72
29
 73
25
 74
31
 0
VERTEX
 8
MMA-B684
 10
0
 20
0
 30
0
 70
128
 71
31
 72
25
 73
26
 74
32
 0
VERTEX
 8
MMA-B684
 10
0
 20
0
 30
0
 70
128
 71
32
 72
26
 73
30
 74
34
 0
VERTEX
 8
MMA-B684
 10
0
 20
0
 30
0
 70
128
 71
34
 72
30
 73
29
 74
33
 0
SEQEND
 0
ENDSEC
 0
EOF
