 0
SECTION
 2
HEADER
 9
$ACADVER
 1
AC1009
 0
ENDSEC
 0
SECTION
 2
TABLES
 0
TABLE
 2
LTYPE
 70
1
 0
LTYPE
 2
CONTINUOUS
 70
64
 3
solid line
 72
65
 73
0
 40
0.0
 0
ENDTAB
 0
TABLE
 2
LAYER
 70
6
 0
LAYER
 2
0
 70
0
 62
7
 6
CONTINUOUS
 0
LAYER
 2
FCLH_9008_ID_WT_BK
 70
64
 62
7
 6
CONTINUOUS
 0
LAYER
 2
SERIGRAFIA
 70
64
 62
7
 6
CONTINUOUS
 0
LAYER
 2
GRAFICA_BODY1
 70
64
 62
7
 6
CONTINUOUS
 0
LAYER
 2
GRAFICA_BODY2
 70
64
 62
7
 6
CONTINUOUS
 0
LAYER
 2
GRAFICA_BODY6
 70
64
 62
7
 6
CONTINUOUS
 0
LAYER
 2
GRAFICA_BODY7
 70
64
 62
7
 6
CONTINUOUS
 0
LAYER
 2
GRAFICA_BODY8
 70
64
 62
7
 6
CONTINUOUS
 0
LAYER
 2
GRAFICA_BODY9
 70
64
 62
7
 6
CONTINUOUS
 0
LAYER
 2
GRAFICA_BODY10
 70
64
 62
7
 6
CONTINUOUS
 0
LAYER
 2
GRAFICA_BODY12
 70
64
 62
7
 6
CONTINUOUS
 0
LAYER
 2
GRAFICA_BODY19
 70
64
 62
7
 6
CONTINUOUS
 0
LAYER
 2
GRAFICA_BODY20
 70
64
 62
7
 6
CONTINUOUS
 0
LAYER
 2
GRAFICA_BODY21
 70
64
 62
7
 6
CONTINUOUS
 0
LAYER
 2
GRAFICA_BODY22
 70
64
 62
7
 6
CONTINUOUS
 0
LAYER
 2
GRAFICA_BODY23
 70
64
 62
7
 6
CONTINUOUS
 0
LAYER
 2
GRAFICA_BODY27
 70
64
 62
7
 6
CONTINUOUS
 0
LAYER
 2
GRAFICA_BODY28
 70
64
 62
7
 6
CONTINUOUS
 0
LAYER
 2
GRAFICA_BODY29
 70
64
 62
7
 6
CONTINUOUS
 0
LAYER
 2
GRAFICA_BODY30
 70
64
 62
7
 6
CONTINUOUS
 0
LAYER
 2
LOGO_FULGOR_MILANO
 70
64
 62
7
 6
CONTINUOUS
 0
LAYER
 2
FULGOR
 70
64
 62
7
 6
CONTINUOUS
 0
LAYER
 2
MILANO
 70
64
 62
7
 6
CONTINUOUS
 0
LAYER
 2
VETRO
 70
64
 62
39
 6
CONTINUOUS
 0
ENDTAB
 0
ENDSEC
 0
SECTION
 2
BLOCKS
 0
ENDSEC
 0
SECTION
 2
ENTITIES
 0
POLYLINE
 8
GRAFICA_BODY1
 66
1
 10
0.0
 20
0.0
 30
0.0
 70
64
 71
8
 72
5
 0
VERTEX
 8
GRAFICA_BODY1
 10
-11.7002
 20
-3.8981
 30
0.0025
 70
192
 0
VERTEX
 8
GRAFICA_BODY1
 10
-11.7002
 20
-3.8981
 30
0.0025
 70
192
 0
VERTEX
 8
GRAFICA_BODY1
 10
11.6998
 20
-3.8981
 30
0.0025
 70
192
 0
VERTEX
 8
GRAFICA_BODY1
 10
11.6998
 20
-3.8981
 30
0.0025
 70
192
 0
VERTEX
 8
GRAFICA_BODY1
 10
11.6998
 20
-3.6681
 30
0.0025
 70
192
 0
VERTEX
 8
GRAFICA_BODY1
 10
11.6998
 20
-3.6681
 30
0.0025
 70
192
 0
VERTEX
 8
GRAFICA_BODY1
 10
-11.7002
 20
-3.6681
 30
0.0025
 70
192
 0
VERTEX
 8
GRAFICA_BODY1
 10
-11.7002
 20
-3.6681
 30
0.0025
 70
192
 0
VERTEX
 8
GRAFICA_BODY1
 10
0
 20
0
 30
0
 70
128
 71
1
 72
2
 73
4
 74
3
 0
VERTEX
 8
GRAFICA_BODY1
 10
0
 20
0
 30
0
 70
128
 71
3
 72
4
 73
6
 74
5
 0
VERTEX
 8
GRAFICA_BODY1
 10
0
 20
0
 30
0
 70
128
 71
5
 72
6
 73
8
 74
7
 0
VERTEX
 8
GRAFICA_BODY1
 10
0
 20
0
 30
0
 70
128
 71
7
 72
8
 73
2
 74
1
 0
VERTEX
 8
GRAFICA_BODY1
 10
0
 20
0
 30
0
 70
128
 71
2
 72
8
 73
6
 74
4
 0
SEQEND
 0
POLYLINE
 8
GRAFICA_BODY2
 66
1
 10
0.0
 20
0.0
 30
0.0
 70
64
 71
8
 72
5
 0
VERTEX
 8
GRAFICA_BODY2
 10
-11.7002
 20
21.8719
 30
0.0025
 70
192
 0
VERTEX
 8
GRAFICA_BODY2
 10
-11.7002
 20
21.8719
 30
0.0025
 70
192
 0
VERTEX
 8
GRAFICA_BODY2
 10
11.6998
 20
21.8719
 30
0.0025
 70
192
 0
VERTEX
 8
GRAFICA_BODY2
 10
11.6998
 20
21.8719
 30
0.0025
 70
192
 0
VERTEX
 8
GRAFICA_BODY2
 10
11.6998
 20
22.1019
 30
0.0025
 70
192
 0
VERTEX
 8
GRAFICA_BODY2
 10
11.6998
 20
22.1019
 30
0.0025
 70
192
 0
VERTEX
 8
GRAFICA_BODY2
 10
-11.7002
 20
22.1019
 30
0.0025
 70
192
 0
VERTEX
 8
GRAFICA_BODY2
 10
-11.7002
 20
22.1019
 30
0.0025
 70
192
 0
VERTEX
 8
GRAFICA_BODY2
 10
0
 20
0
 30
0
 70
128
 71
1
 72
2
 73
4
 74
3
 0
VERTEX
 8
GRAFICA_BODY2
 10
0
 20
0
 30
0
 70
128
 71
3
 72
4
 73
6
 74
5
 0
VERTEX
 8
GRAFICA_BODY2
 10
0
 20
0
 30
0
 70
128
 71
5
 72
6
 73
8
 74
7
 0
VERTEX
 8
GRAFICA_BODY2
 10
0
 20
0
 30
0
 70
128
 71
7
 72
8
 73
2
 74
1
 0
VERTEX
 8
GRAFICA_BODY2
 10
0
 20
0
 30
0
 70
128
 71
2
 72
8
 73
6
 74
4
 0
SEQEND
 0
POLYLINE
 8
GRAFICA_BODY6
 66
1
 10
0.0
 20
0.0
 30
0.0
 70
64
 71
8
 72
5
 0
VERTEX
 8
GRAFICA_BODY6
 10
27.9
 20
15.4519
 30
0.0025
 70
192
 0
VERTEX
 8
GRAFICA_BODY6
 10
27.9
 20
15.4519
 30
0.0025
 70
192
 0
VERTEX
 8
GRAFICA_BODY6
 10
29.7
 20
15.4519
 30
0.0025
 70
192
 0
VERTEX
 8
GRAFICA_BODY6
 10
29.7
 20
15.4519
 30
0.0025
 70
192
 0
VERTEX
 8
GRAFICA_BODY6
 10
29.7
 20
15.7519
 30
0.0025
 70
192
 0
VERTEX
 8
GRAFICA_BODY6
 10
29.7
 20
15.7519
 30
0.0025
 70
192
 0
VERTEX
 8
GRAFICA_BODY6
 10
27.9
 20
15.7519
 30
0.0025
 70
192
 0
VERTEX
 8
GRAFICA_BODY6
 10
27.9
 20
15.7519
 30
0.0025
 70
192
 0
VERTEX
 8
GRAFICA_BODY6
 10
0
 20
0
 30
0
 70
128
 71
1
 72
2
 73
4
 74
3
 0
VERTEX
 8
GRAFICA_BODY6
 10
0
 20
0
 30
0
 70
128
 71
3
 72
4
 73
6
 74
5
 0
VERTEX
 8
GRAFICA_BODY6
 10
0
 20
0
 30
0
 70
128
 71
5
 72
6
 73
8
 74
7
 0
VERTEX
 8
GRAFICA_BODY6
 10
0
 20
0
 30
0
 70
128
 71
7
 72
8
 73
2
 74
1
 0
VERTEX
 8
GRAFICA_BODY6
 10
0
 20
0
 30
0
 70
128
 71
2
 72
8
 73
6
 74
4
 0
SEQEND
 0
POLYLINE
 8
GRAFICA_BODY7
 66
1
 10
0.0
 20
0.0
 30
0.0
 70
64
 71
8
 72
5
 0
VERTEX
 8
GRAFICA_BODY7
 10
-0.9002
 20
15.4519
 30
0.0025
 70
192
 0
VERTEX
 8
GRAFICA_BODY7
 10
-0.9002
 20
15.4519
 30
0.0025
 70
192
 0
VERTEX
 8
GRAFICA_BODY7
 10
0.8998
 20
15.4519
 30
0.0025
 70
192
 0
VERTEX
 8
GRAFICA_BODY7
 10
0.8998
 20
15.4519
 30
0.0025
 70
192
 0
VERTEX
 8
GRAFICA_BODY7
 10
0.8998
 20
15.7519
 30
0.0025
 70
192
 0
VERTEX
 8
GRAFICA_BODY7
 10
0.8998
 20
15.7519
 30
0.0025
 70
192
 0
VERTEX
 8
GRAFICA_BODY7
 10
-0.9002
 20
15.7519
 30
0.0025
 70
192
 0
VERTEX
 8
GRAFICA_BODY7
 10
-0.9002
 20
15.7519
 30
0.0025
 70
192
 0
VERTEX
 8
GRAFICA_BODY7
 10
0
 20
0
 30
0
 70
128
 71
1
 72
2
 73
4
 74
3
 0
VERTEX
 8
GRAFICA_BODY7
 10
0
 20
0
 30
0
 70
128
 71
3
 72
4
 73
6
 74
5
 0
VERTEX
 8
GRAFICA_BODY7
 10
0
 20
0
 30
0
 70
128
 71
5
 72
6
 73
8
 74
7
 0
VERTEX
 8
GRAFICA_BODY7
 10
0
 20
0
 30
0
 70
128
 71
7
 72
8
 73
2
 74
1
 0
VERTEX
 8
GRAFICA_BODY7
 10
0
 20
0
 30
0
 70
128
 71
2
 72
8
 73
6
 74
4
 0
SEQEND
 0
POLYLINE
 8
GRAFICA_BODY8
 66
1
 10
0.0
 20
0.0
 30
0.0
 70
64
 71
8
 72
5
 0
VERTEX
 8
GRAFICA_BODY8
 10
-29.7002
 20
2.4519
 30
0.0025
 70
192
 0
VERTEX
 8
GRAFICA_BODY8
 10
-29.7002
 20
2.4519
 30
0.0025
 70
192
 0
VERTEX
 8
GRAFICA_BODY8
 10
-27.9002
 20
2.4519
 30
0.0025
 70
192
 0
VERTEX
 8
GRAFICA_BODY8
 10
-27.9002
 20
2.4519
 30
0.0025
 70
192
 0
VERTEX
 8
GRAFICA_BODY8
 10
-27.9002
 20
2.7519
 30
0.0025
 70
192
 0
VERTEX
 8
GRAFICA_BODY8
 10
-27.9002
 20
2.7519
 30
0.0025
 70
192
 0
VERTEX
 8
GRAFICA_BODY8
 10
-29.7002
 20
2.7519
 30
0.0025
 70
192
 0
VERTEX
 8
GRAFICA_BODY8
 10
-29.7002
 20
2.7519
 30
0.0025
 70
192
 0
VERTEX
 8
GRAFICA_BODY8
 10
0
 20
0
 30
0
 70
128
 71
1
 72
2
 73
4
 74
3
 0
VERTEX
 8
GRAFICA_BODY8
 10
0
 20
0
 30
0
 70
128
 71
3
 72
4
 73
6
 74
5
 0
VERTEX
 8
GRAFICA_BODY8
 10
0
 20
0
 30
0
 70
128
 71
5
 72
6
 73
8
 74
7
 0
VERTEX
 8
GRAFICA_BODY8
 10
0
 20
0
 30
0
 70
128
 71
7
 72
8
 73
2
 74
1
 0
VERTEX
 8
GRAFICA_BODY8
 10
0
 20
0
 30
0
 70
128
 71
2
 72
8
 73
6
 74
4
 0
SEQEND
 0
POLYLINE
 8
GRAFICA_BODY9
 66
1
 10
0.0
 20
0.0
 30
0.0
 70
64
 71
8
 72
5
 0
VERTEX
 8
GRAFICA_BODY9
 10
-29.7002
 20
15.4519
 30
0.0025
 70
192
 0
VERTEX
 8
GRAFICA_BODY9
 10
-29.7002
 20
15.4519
 30
0.0025
 70
192
 0
VERTEX
 8
GRAFICA_BODY9
 10
-27.9002
 20
15.4519
 30
0.0025
 70
192
 0
VERTEX
 8
GRAFICA_BODY9
 10
-27.9002
 20
15.4519
 30
0.0025
 70
192
 0
VERTEX
 8
GRAFICA_BODY9
 10
-27.9002
 20
15.7519
 30
0.0025
 70
192
 0
VERTEX
 8
GRAFICA_BODY9
 10
-27.9002
 20
15.7519
 30
0.0025
 70
192
 0
VERTEX
 8
GRAFICA_BODY9
 10
-29.7002
 20
15.7519
 30
0.0025
 70
192
 0
VERTEX
 8
GRAFICA_BODY9
 10
-29.7002
 20
15.7519
 30
0.0025
 70
192
 0
VERTEX
 8
GRAFICA_BODY9
 10
0
 20
0
 30
0
 70
128
 71
1
 72
2
 73
4
 74
3
 0
VERTEX
 8
GRAFICA_BODY9
 10
0
 20
0
 30
0
 70
128
 71
3
 72
4
 73
6
 74
5
 0
VERTEX
 8
GRAFICA_BODY9
 10
0
 20
0
 30
0
 70
128
 71
5
 72
6
 73
8
 74
7
 0
VERTEX
 8
GRAFICA_BODY9
 10
0
 20
0
 30
0
 70
128
 71
7
 72
8
 73
2
 74
1
 0
VERTEX
 8
GRAFICA_BODY9
 10
0
 20
0
 30
0
 70
128
 71
2
 72
8
 73
6
 74
4
 0
SEQEND
 0
POLYLINE
 8
GRAFICA_BODY10
 66
1
 10
0.0
 20
0.0
 30
0.0
 70
64
 71
8
 72
5
 0
VERTEX
 8
GRAFICA_BODY10
 10
-5.85
 20
-21.4
 30
0.0025
 70
192
 0
VERTEX
 8
GRAFICA_BODY10
 10
-5.85
 20
-21.4
 30
0.0025
 70
192
 0
VERTEX
 8
GRAFICA_BODY10
 10
-3.75
 20
-21.4
 30
0.0025
 70
192
 0
VERTEX
 8
GRAFICA_BODY10
 10
-3.75
 20
-21.4
 30
0.0025
 70
192
 0
VERTEX
 8
GRAFICA_BODY10
 10
-3.75
 20
-20.45
 30
0.0025
 70
192
 0
VERTEX
 8
GRAFICA_BODY10
 10
-3.75
 20
-20.45
 30
0.0025
 70
192
 0
VERTEX
 8
GRAFICA_BODY10
 10
-5.85
 20
-20.45
 30
0.0025
 70
192
 0
VERTEX
 8
GRAFICA_BODY10
 10
-5.85
 20
-20.45
 30
0.0025
 70
192
 0
VERTEX
 8
GRAFICA_BODY10
 10
0
 20
0
 30
0
 70
128
 71
1
 72
2
 73
4
 74
3
 0
VERTEX
 8
GRAFICA_BODY10
 10
0
 20
0
 30
0
 70
128
 71
3
 72
4
 73
6
 74
5
 0
VERTEX
 8
GRAFICA_BODY10
 10
0
 20
0
 30
0
 70
128
 71
5
 72
6
 73
8
 74
7
 0
VERTEX
 8
GRAFICA_BODY10
 10
0
 20
0
 30
0
 70
128
 71
7
 72
8
 73
2
 74
1
 0
VERTEX
 8
GRAFICA_BODY10
 10
0
 20
0
 30
0
 70
128
 71
2
 72
8
 73
6
 74
4
 0
SEQEND
 0
POLYLINE
 8
GRAFICA_BODY12
 66
1
 10
0.0
 20
0.0
 30
0.0
 70
64
 71
8
 72
5
 0
VERTEX
 8
GRAFICA_BODY12
 10
3.71
 20
-21.4
 30
0.0025
 70
192
 0
VERTEX
 8
GRAFICA_BODY12
 10
3.71
 20
-21.4
 30
0.0025
 70
192
 0
VERTEX
 8
GRAFICA_BODY12
 10
5.85
 20
-21.4
 30
0.0025
 70
192
 0
VERTEX
 8
GRAFICA_BODY12
 10
5.85
 20
-21.4
 30
0.0025
 70
192
 0
VERTEX
 8
GRAFICA_BODY12
 10
5.85
 20
-20.45
 30
0.0025
 70
192
 0
VERTEX
 8
GRAFICA_BODY12
 10
5.85
 20
-20.45
 30
0.0025
 70
192
 0
VERTEX
 8
GRAFICA_BODY12
 10
3.71
 20
-20.45
 30
0.0025
 70
192
 0
VERTEX
 8
GRAFICA_BODY12
 10
3.71
 20
-20.45
 30
0.0025
 70
192
 0
VERTEX
 8
GRAFICA_BODY12
 10
0
 20
0
 30
0
 70
128
 71
1
 72
2
 73
4
 74
3
 0
VERTEX
 8
GRAFICA_BODY12
 10
0
 20
0
 30
0
 70
128
 71
3
 72
4
 73
6
 74
5
 0
VERTEX
 8
GRAFICA_BODY12
 10
0
 20
0
 30
0
 70
128
 71
5
 72
6
 73
8
 74
7
 0
VERTEX
 8
GRAFICA_BODY12
 10
0
 20
0
 30
0
 70
128
 71
7
 72
8
 73
2
 74
1
 0
VERTEX
 8
GRAFICA_BODY12
 10
0
 20
0
 30
0
 70
128
 71
2
 72
8
 73
6
 74
4
 0
SEQEND
 0
POLYLINE
 8
GRAFICA_BODY19
 66
1
 10
0.0
 20
0.0
 30
0.0
 70
64
 71
8
 72
5
 0
VERTEX
 8
GRAFICA_BODY19
 10
27.9
 20
2.4519
 30
0.0025
 70
192
 0
VERTEX
 8
GRAFICA_BODY19
 10
27.9
 20
2.4519
 30
0.0025
 70
192
 0
VERTEX
 8
GRAFICA_BODY19
 10
29.7
 20
2.4519
 30
0.0025
 70
192
 0
VERTEX
 8
GRAFICA_BODY19
 10
29.7
 20
2.4519
 30
0.0025
 70
192
 0
VERTEX
 8
GRAFICA_BODY19
 10
29.7
 20
2.7519
 30
0.0025
 70
192
 0
VERTEX
 8
GRAFICA_BODY19
 10
29.7
 20
2.7519
 30
0.0025
 70
192
 0
VERTEX
 8
GRAFICA_BODY19
 10
27.9
 20
2.7519
 30
0.0025
 70
192
 0
VERTEX
 8
GRAFICA_BODY19
 10
27.9
 20
2.7519
 30
0.0025
 70
192
 0
VERTEX
 8
GRAFICA_BODY19
 10
0
 20
0
 30
0
 70
128
 71
1
 72
2
 73
4
 74
3
 0
VERTEX
 8
GRAFICA_BODY19
 10
0
 20
0
 30
0
 70
128
 71
3
 72
4
 73
6
 74
5
 0
VERTEX
 8
GRAFICA_BODY19
 10
0
 20
0
 30
0
 70
128
 71
5
 72
6
 73
8
 74
7
 0
VERTEX
 8
GRAFICA_BODY19
 10
0
 20
0
 30
0
 70
128
 71
7
 72
8
 73
2
 74
1
 0
VERTEX
 8
GRAFICA_BODY19
 10
0
 20
0
 30
0
 70
128
 71
2
 72
8
 73
6
 74
4
 0
SEQEND
 0
POLYLINE
 8
GRAFICA_BODY20
 66
1
 10
0.0
 20
0.0
 30
0.0
 70
64
 71
8
 72
5
 0
VERTEX
 8
GRAFICA_BODY20
 10
27.9
 20
-10.5481
 30
0.0025
 70
192
 0
VERTEX
 8
GRAFICA_BODY20
 10
27.9
 20
-10.5481
 30
0.0025
 70
192
 0
VERTEX
 8
GRAFICA_BODY20
 10
29.7
 20
-10.5481
 30
0.0025
 70
192
 0
VERTEX
 8
GRAFICA_BODY20
 10
29.7
 20
-10.5481
 30
0.0025
 70
192
 0
VERTEX
 8
GRAFICA_BODY20
 10
29.7
 20
-10.2481
 30
0.0025
 70
192
 0
VERTEX
 8
GRAFICA_BODY20
 10
29.7
 20
-10.2481
 30
0.0025
 70
192
 0
VERTEX
 8
GRAFICA_BODY20
 10
27.9
 20
-10.2481
 30
0.0025
 70
192
 0
VERTEX
 8
GRAFICA_BODY20
 10
27.9
 20
-10.2481
 30
0.0025
 70
192
 0
VERTEX
 8
GRAFICA_BODY20
 10
0
 20
0
 30
0
 70
128
 71
1
 72
2
 73
4
 74
3
 0
VERTEX
 8
GRAFICA_BODY20
 10
0
 20
0
 30
0
 70
128
 71
3
 72
4
 73
6
 74
5
 0
VERTEX
 8
GRAFICA_BODY20
 10
0
 20
0
 30
0
 70
128
 71
5
 72
6
 73
8
 74
7
 0
VERTEX
 8
GRAFICA_BODY20
 10
0
 20
0
 30
0
 70
128
 71
7
 72
8
 73
2
 74
1
 0
VERTEX
 8
GRAFICA_BODY20
 10
0
 20
0
 30
0
 70
128
 71
2
 72
8
 73
6
 74
4
 0
SEQEND
 0
POLYLINE
 8
GRAFICA_BODY21
 66
1
 10
0.0
 20
0.0
 30
0.0
 70
64
 71
8
 72
5
 0
VERTEX
 8
GRAFICA_BODY21
 10
-29.7002
 20
-10.5481
 30
0.0025
 70
192
 0
VERTEX
 8
GRAFICA_BODY21
 10
-29.7002
 20
-10.5481
 30
0.0025
 70
192
 0
VERTEX
 8
GRAFICA_BODY21
 10
-27.9002
 20
-10.5481
 30
0.0025
 70
192
 0
VERTEX
 8
GRAFICA_BODY21
 10
-27.9002
 20
-10.5481
 30
0.0025
 70
192
 0
VERTEX
 8
GRAFICA_BODY21
 10
-27.9002
 20
-10.2481
 30
0.0025
 70
192
 0
VERTEX
 8
GRAFICA_BODY21
 10
-27.9002
 20
-10.2481
 30
0.0025
 70
192
 0
VERTEX
 8
GRAFICA_BODY21
 10
-29.7002
 20
-10.2481
 30
0.0025
 70
192
 0
VERTEX
 8
GRAFICA_BODY21
 10
-29.7002
 20
-10.2481
 30
0.0025
 70
192
 0
VERTEX
 8
GRAFICA_BODY21
 10
0
 20
0
 30
0
 70
128
 71
1
 72
2
 73
4
 74
3
 0
VERTEX
 8
GRAFICA_BODY21
 10
0
 20
0
 30
0
 70
128
 71
3
 72
4
 73
6
 74
5
 0
VERTEX
 8
GRAFICA_BODY21
 10
0
 20
0
 30
0
 70
128
 71
5
 72
6
 73
8
 74
7
 0
VERTEX
 8
GRAFICA_BODY21
 10
0
 20
0
 30
0
 70
128
 71
7
 72
8
 73
2
 74
1
 0
VERTEX
 8
GRAFICA_BODY21
 10
0
 20
0
 30
0
 70
128
 71
2
 72
8
 73
6
 74
4
 0
SEQEND
 0
POLYLINE
 8
GRAFICA_BODY22
 66
1
 10
0.0
 20
0.0
 30
0.0
 70
64
 71
8
 72
5
 0
VERTEX
 8
GRAFICA_BODY22
 10
-0.9002
 20
2.4519
 30
0.0025
 70
192
 0
VERTEX
 8
GRAFICA_BODY22
 10
-0.9002
 20
2.4519
 30
0.0025
 70
192
 0
VERTEX
 8
GRAFICA_BODY22
 10
0.8998
 20
2.4519
 30
0.0025
 70
192
 0
VERTEX
 8
GRAFICA_BODY22
 10
0.8998
 20
2.4519
 30
0.0025
 70
192
 0
VERTEX
 8
GRAFICA_BODY22
 10
0.8998
 20
2.7519
 30
0.0025
 70
192
 0
VERTEX
 8
GRAFICA_BODY22
 10
0.8998
 20
2.7519
 30
0.0025
 70
192
 0
VERTEX
 8
GRAFICA_BODY22
 10
-0.9002
 20
2.7519
 30
0.0025
 70
192
 0
VERTEX
 8
GRAFICA_BODY22
 10
-0.9002
 20
2.7519
 30
0.0025
 70
192
 0
VERTEX
 8
GRAFICA_BODY22
 10
0
 20
0
 30
0
 70
128
 71
1
 72
2
 73
4
 74
3
 0
VERTEX
 8
GRAFICA_BODY22
 10
0
 20
0
 30
0
 70
128
 71
3
 72
4
 73
6
 74
5
 0
VERTEX
 8
GRAFICA_BODY22
 10
0
 20
0
 30
0
 70
128
 71
5
 72
6
 73
8
 74
7
 0
VERTEX
 8
GRAFICA_BODY22
 10
0
 20
0
 30
0
 70
128
 71
7
 72
8
 73
2
 74
1
 0
VERTEX
 8
GRAFICA_BODY22
 10
0
 20
0
 30
0
 70
128
 71
2
 72
8
 73
6
 74
4
 0
SEQEND
 0
POLYLINE
 8
GRAFICA_BODY23
 66
1
 10
0.0
 20
0.0
 30
0.0
 70
64
 71
8
 72
5
 0
VERTEX
 8
GRAFICA_BODY23
 10
-3.52
 20
-21.4
 30
0.0025
 70
192
 0
VERTEX
 8
GRAFICA_BODY23
 10
-3.52
 20
-21.4
 30
0.0025
 70
192
 0
VERTEX
 8
GRAFICA_BODY23
 10
3.48
 20
-21.4
 30
0.0025
 70
192
 0
VERTEX
 8
GRAFICA_BODY23
 10
3.48
 20
-21.4
 30
0.0025
 70
192
 0
VERTEX
 8
GRAFICA_BODY23
 10
3.48
 20
-20.45
 30
0.0025
 70
192
 0
VERTEX
 8
GRAFICA_BODY23
 10
3.48
 20
-20.45
 30
0.0025
 70
192
 0
VERTEX
 8
GRAFICA_BODY23
 10
-3.52
 20
-20.45
 30
0.0025
 70
192
 0
VERTEX
 8
GRAFICA_BODY23
 10
-3.52
 20
-20.45
 30
0.0025
 70
192
 0
VERTEX
 8
GRAFICA_BODY23
 10
0
 20
0
 30
0
 70
128
 71
1
 72
2
 73
4
 74
3
 0
VERTEX
 8
GRAFICA_BODY23
 10
0
 20
0
 30
0
 70
128
 71
3
 72
4
 73
6
 74
5
 0
VERTEX
 8
GRAFICA_BODY23
 10
0
 20
0
 30
0
 70
128
 71
5
 72
6
 73
8
 74
7
 0
VERTEX
 8
GRAFICA_BODY23
 10
0
 20
0
 30
0
 70
128
 71
7
 72
8
 73
2
 74
1
 0
VERTEX
 8
GRAFICA_BODY23
 10
0
 20
0
 30
0
 70
128
 71
2
 72
8
 73
6
 74
4
 0
SEQEND
 0
POLYLINE
 8
GRAFICA_BODY27
 66
1
 10
0.0
 20
0.0
 30
0.0
 70
64
 71
8
 72
5
 0
VERTEX
 8
GRAFICA_BODY27
 10
-40.5002
 20
21.8719
 30
0.0025
 70
192
 0
VERTEX
 8
GRAFICA_BODY27
 10
-40.5002
 20
21.8719
 30
0.0025
 70
192
 0
VERTEX
 8
GRAFICA_BODY27
 10
-17.1002
 20
21.8719
 30
0.0025
 70
192
 0
VERTEX
 8
GRAFICA_BODY27
 10
-17.1002
 20
21.8719
 30
0.0025
 70
192
 0
VERTEX
 8
GRAFICA_BODY27
 10
-17.1002
 20
22.1019
 30
0.0025
 70
192
 0
VERTEX
 8
GRAFICA_BODY27
 10
-17.1002
 20
22.1019
 30
0.0025
 70
192
 0
VERTEX
 8
GRAFICA_BODY27
 10
-40.5002
 20
22.1019
 30
0.0025
 70
192
 0
VERTEX
 8
GRAFICA_BODY27
 10
-40.5002
 20
22.1019
 30
0.0025
 70
192
 0
VERTEX
 8
GRAFICA_BODY27
 10
0
 20
0
 30
0
 70
128
 71
1
 72
2
 73
4
 74
3
 0
VERTEX
 8
GRAFICA_BODY27
 10
0
 20
0
 30
0
 70
128
 71
3
 72
4
 73
6
 74
5
 0
VERTEX
 8
GRAFICA_BODY27
 10
0
 20
0
 30
0
 70
128
 71
5
 72
6
 73
8
 74
7
 0
VERTEX
 8
GRAFICA_BODY27
 10
0
 20
0
 30
0
 70
128
 71
7
 72
8
 73
2
 74
1
 0
VERTEX
 8
GRAFICA_BODY27
 10
0
 20
0
 30
0
 70
128
 71
2
 72
8
 73
6
 74
4
 0
SEQEND
 0
POLYLINE
 8
GRAFICA_BODY28
 66
1
 10
0.0
 20
0.0
 30
0.0
 70
64
 71
8
 72
5
 0
VERTEX
 8
GRAFICA_BODY28
 10
-40.5002
 20
-16.8981
 30
0.0025
 70
192
 0
VERTEX
 8
GRAFICA_BODY28
 10
-40.5002
 20
-16.8981
 30
0.0025
 70
192
 0
VERTEX
 8
GRAFICA_BODY28
 10
-17.1002
 20
-16.8981
 30
0.0025
 70
192
 0
VERTEX
 8
GRAFICA_BODY28
 10
-17.1002
 20
-16.8981
 30
0.0025
 70
192
 0
VERTEX
 8
GRAFICA_BODY28
 10
-17.1002
 20
-16.6681
 30
0.0025
 70
192
 0
VERTEX
 8
GRAFICA_BODY28
 10
-17.1002
 20
-16.6681
 30
0.0025
 70
192
 0
VERTEX
 8
GRAFICA_BODY28
 10
-40.5002
 20
-16.6681
 30
0.0025
 70
192
 0
VERTEX
 8
GRAFICA_BODY28
 10
-40.5002
 20
-16.6681
 30
0.0025
 70
192
 0
VERTEX
 8
GRAFICA_BODY28
 10
0
 20
0
 30
0
 70
128
 71
1
 72
2
 73
4
 74
3
 0
VERTEX
 8
GRAFICA_BODY28
 10
0
 20
0
 30
0
 70
128
 71
3
 72
4
 73
6
 74
5
 0
VERTEX
 8
GRAFICA_BODY28
 10
0
 20
0
 30
0
 70
128
 71
5
 72
6
 73
8
 74
7
 0
VERTEX
 8
GRAFICA_BODY28
 10
0
 20
0
 30
0
 70
128
 71
7
 72
8
 73
2
 74
1
 0
VERTEX
 8
GRAFICA_BODY28
 10
0
 20
0
 30
0
 70
128
 71
2
 72
8
 73
6
 74
4
 0
SEQEND
 0
POLYLINE
 8
GRAFICA_BODY29
 66
1
 10
0.0
 20
0.0
 30
0.0
 70
64
 71
8
 72
5
 0
VERTEX
 8
GRAFICA_BODY29
 10
17.1
 20
21.8719
 30
0.0025
 70
192
 0
VERTEX
 8
GRAFICA_BODY29
 10
17.1
 20
21.8719
 30
0.0025
 70
192
 0
VERTEX
 8
GRAFICA_BODY29
 10
40.5
 20
21.8719
 30
0.0025
 70
192
 0
VERTEX
 8
GRAFICA_BODY29
 10
40.5
 20
21.8719
 30
0.0025
 70
192
 0
VERTEX
 8
GRAFICA_BODY29
 10
40.5
 20
22.1019
 30
0.0025
 70
192
 0
VERTEX
 8
GRAFICA_BODY29
 10
40.5
 20
22.1019
 30
0.0025
 70
192
 0
VERTEX
 8
GRAFICA_BODY29
 10
17.1
 20
22.1019
 30
0.0025
 70
192
 0
VERTEX
 8
GRAFICA_BODY29
 10
17.1
 20
22.1019
 30
0.0025
 70
192
 0
VERTEX
 8
GRAFICA_BODY29
 10
0
 20
0
 30
0
 70
128
 71
1
 72
2
 73
4
 74
3
 0
VERTEX
 8
GRAFICA_BODY29
 10
0
 20
0
 30
0
 70
128
 71
3
 72
4
 73
6
 74
5
 0
VERTEX
 8
GRAFICA_BODY29
 10
0
 20
0
 30
0
 70
128
 71
5
 72
6
 73
8
 74
7
 0
VERTEX
 8
GRAFICA_BODY29
 10
0
 20
0
 30
0
 70
128
 71
7
 72
8
 73
2
 74
1
 0
VERTEX
 8
GRAFICA_BODY29
 10
0
 20
0
 30
0
 70
128
 71
2
 72
8
 73
6
 74
4
 0
SEQEND
 0
POLYLINE
 8
GRAFICA_BODY30
 66
1
 10
0.0
 20
0.0
 30
0.0
 70
64
 71
8
 72
5
 0
VERTEX
 8
GRAFICA_BODY30
 10
17.1
 20
-16.8981
 30
0.0025
 70
192
 0
VERTEX
 8
GRAFICA_BODY30
 10
17.1
 20
-16.8981
 30
0.0025
 70
192
 0
VERTEX
 8
GRAFICA_BODY30
 10
40.5
 20
-16.8981
 30
0.0025
 70
192
 0
VERTEX
 8
GRAFICA_BODY30
 10
40.5
 20
-16.8981
 30
0.0025
 70
192
 0
VERTEX
 8
GRAFICA_BODY30
 10
40.5
 20
-16.6681
 30
0.0025
 70
192
 0
VERTEX
 8
GRAFICA_BODY30
 10
40.5
 20
-16.6681
 30
0.0025
 70
192
 0
VERTEX
 8
GRAFICA_BODY30
 10
17.1
 20
-16.6681
 30
0.0025
 70
192
 0
VERTEX
 8
GRAFICA_BODY30
 10
17.1
 20
-16.6681
 30
0.0025
 70
192
 0
VERTEX
 8
GRAFICA_BODY30
 10
0
 20
0
 30
0
 70
128
 71
1
 72
2
 73
4
 74
3
 0
VERTEX
 8
GRAFICA_BODY30
 10
0
 20
0
 30
0
 70
128
 71
3
 72
4
 73
6
 74
5
 0
VERTEX
 8
GRAFICA_BODY30
 10
0
 20
0
 30
0
 70
128
 71
5
 72
6
 73
8
 74
7
 0
VERTEX
 8
GRAFICA_BODY30
 10
0
 20
0
 30
0
 70
128
 71
7
 72
8
 73
2
 74
1
 0
VERTEX
 8
GRAFICA_BODY30
 10
0
 20
0
 30
0
 70
128
 71
2
 72
8
 73
6
 74
4
 0
SEQEND
 0
POLYLINE
 8
FULGOR
 66
1
 10
0.0
 20
0.0
 30
0.0
 70
64
 71
363
 72
183
 0
VERTEX
 8
FULGOR
 10
0.1474
 20
-13.3495
 30
0.0025
 70
192
 0
VERTEX
 8
FULGOR
 10
-2.3086
 20
-13.4418
 30
0.0025
 70
192
 0
VERTEX
 8
FULGOR
 10
1.1598
 20
-13.4184
 30
0.0025
 70
192
 0
VERTEX
 8
FULGOR
 10
-2.1689
 20
-13.1749
 30
0.0025
 70
192
 0
VERTEX
 8
FULGOR
 10
-2.1689
 20
-13.0909
 30
0.0025
 70
192
 0
VERTEX
 8
FULGOR
 10
-1.8259
 20
-13.0909
 30
0.0025
 70
192
 0
VERTEX
 8
FULGOR
 10
-1.8259
 20
-12.9913
 30
0.0025
 70
192
 0
VERTEX
 8
FULGOR
 10
-2.3086
 20
-12.9913
 30
0.0025
 70
192
 0
VERTEX
 8
FULGOR
 10
-1.684
 20
-13.246
 30
0.0025
 70
192
 0
VERTEX
 8
FULGOR
 10
-1.6829
 20
-13.267
 30
0.0025
 70
192
 0
VERTEX
 8
FULGOR
 10
-1.6797
 20
-13.2865
 30
0.0025
 70
192
 0
VERTEX
 8
FULGOR
 10
-2.1689
 20
-13.4418
 30
0.0025
 70
192
 0
VERTEX
 8
FULGOR
 10
-2.1689
 20
-13.2551
 30
0.0025
 70
192
 0
VERTEX
 8
FULGOR
 10
-1.8259
 20
-13.2551
 30
0.0025
 70
192
 0
VERTEX
 8
FULGOR
 10
-1.8259
 20
-13.1749
 30
0.0025
 70
192
 0
VERTEX
 8
FULGOR
 10
-1.684
 20
-12.9913
 30
0.0025
 70
192
 0
VERTEX
 8
FULGOR
 10
-1.6745
 20
-13.3044
 30
0.0025
 70
192
 0
VERTEX
 8
FULGOR
 10
-1.6675
 20
-13.3208
 30
0.0025
 70
192
 0
VERTEX
 8
FULGOR
 10
-1.6588
 20
-13.3359
 30
0.0025
 70
192
 0
VERTEX
 8
FULGOR
 10
-1.6486
 20
-13.3496
 30
0.0025
 70
192
 0
VERTEX
 8
FULGOR
 10
-1.5244
 20
-13.4184
 30
0.0025
 70
192
 0
VERTEX
 8
FULGOR
 10
-1.4765
 20
-13.4282
 30
0.0025
 70
192
 0
VERTEX
 8
FULGOR
 10
-1.3987
 20
-13.4364
 30
0.0025
 70
192
 0
VERTEX
 8
FULGOR
 10
-1.3179
 20
-13.439
 30
0.0025
 70
192
 0
VERTEX
 8
FULGOR
 10
-1.2277
 20
-13.4358
 30
0.0025
 70
192
 0
VERTEX
 8
FULGOR
 10
-1.1595
 20
-13.4268
 30
0.0025
 70
192
 0
VERTEX
 8
FULGOR
 10
-1.6368
 20
-13.362
 30
0.0025
 70
192
 0
VERTEX
 8
FULGOR
 10
-1.0756
 20
-13.404
 30
0.0025
 70
192
 0
VERTEX
 8
FULGOR
 10
-1.6238
 20
-13.3732
 30
0.0025
 70
192
 0
VERTEX
 8
FULGOR
 10
-1.6095
 20
-13.3832
 30
0.0025
 70
192
 0
VERTEX
 8
FULGOR
 10
-1.5861
 20
-13.3963
 30
0.0025
 70
192
 0
VERTEX
 8
FULGOR
 10
-1.5607
 20
-13.4071
 30
0.0025
 70
192
 0
VERTEX
 8
FULGOR
 10
-0.9828
 20
-13.3417
 30
0.0025
 70
192
 0
VERTEX
 8
FULGOR
 10
-1.1118
 20
-13.4159
 30
0.0025
 70
192
 0
VERTEX
 8
FULGOR
 10
-1.0503
 20
-13.393
 30
0.0025
 70
192
 0
VERTEX
 8
FULGOR
 10
-1.027
 20
-13.3801
 30
0.0025
 70
192
 0
VERTEX
 8
FULGOR
 10
-1.0061
 20
-13.3651
 30
0.0025
 70
192
 0
VERTEX
 8
FULGOR
 10
-0.9541
 20
-13.2731
 30
0.0025
 70
192
 0
VERTEX
 8
FULGOR
 10
-0.953
 20
-13.2546
 30
0.0025
 70
192
 0
VERTEX
 8
FULGOR
 10
-0.9528
 20
-12.9913
 30
0.0025
 70
192
 0
VERTEX
 8
FULGOR
 10
-0.9938
 20
-13.3539
 30
0.0025
 70
192
 0
VERTEX
 8
FULGOR
 10
-0.9734
 20
-13.3284
 30
0.0025
 70
192
 0
VERTEX
 8
FULGOR
 10
-1.0926
 20
-13.2532
 30
0.0025
 70
192
 0
VERTEX
 8
FULGOR
 10
-1.0933
 20
-13.2596
 30
0.0025
 70
192
 0
VERTEX
 8
FULGOR
 10
-1.0948
 20
-13.2659
 30
0.0025
 70
192
 0
VERTEX
 8
FULGOR
 10
-1.0969
 20
-13.2721
 30
0.0025
 70
192
 0
VERTEX
 8
FULGOR
 10
-1.0996
 20
-13.2782
 30
0.0025
 70
192
 0
VERTEX
 8
FULGOR
 10
-1.1031
 20
-13.2843
 30
0.0025
 70
192
 0
VERTEX
 8
FULGOR
 10
-1.1072
 20
-13.2902
 30
0.0025
 70
192
 0
VERTEX
 8
FULGOR
 10
-1.1148
 20
-13.2988
 30
0.0025
 70
192
 0
VERTEX
 8
FULGOR
 10
-1.124
 20
-13.307
 30
0.0025
 70
192
 0
VERTEX
 8
FULGOR
 10
-1.1349
 20
-13.3148
 30
0.0025
 70
192
 0
VERTEX
 8
FULGOR
 10
-1.1476
 20
-13.322
 30
0.0025
 70
192
 0
VERTEX
 8
FULGOR
 10
-0.9656
 20
-13.3141
 30
0.0025
 70
192
 0
VERTEX
 8
FULGOR
 10
-0.9596
 20
-13.2986
 30
0.0025
 70
192
 0
VERTEX
 8
FULGOR
 10
-0.9554
 20
-13.2819
 30
0.0025
 70
192
 0
VERTEX
 8
FULGOR
 10
-1.0924
 20
-12.9913
 30
0.0025
 70
192
 0
VERTEX
 8
FULGOR
 10
-1.0924
 20
-13.2469
 30
0.0025
 70
192
 0
VERTEX
 8
FULGOR
 10
-1.3975
 20
-13.3485
 30
0.0025
 70
192
 0
VERTEX
 8
FULGOR
 10
-1.1674
 20
-13.3306
 30
0.0025
 70
192
 0
VERTEX
 8
FULGOR
 10
-1.4636
 20
-13.3362
 30
0.0025
 70
192
 0
VERTEX
 8
FULGOR
 10
-1.4841
 20
-13.3288
 30
0.0025
 70
192
 0
VERTEX
 8
FULGOR
 10
-1.1904
 20
-13.3381
 30
0.0025
 70
192
 0
VERTEX
 8
FULGOR
 10
-1.2241
 20
-13.3454
 30
0.0025
 70
192
 0
VERTEX
 8
FULGOR
 10
-1.2635
 20
-13.3502
 30
0.0025
 70
192
 0
VERTEX
 8
FULGOR
 10
-1.5242
 20
-13.3016
 30
0.0025
 70
192
 0
VERTEX
 8
FULGOR
 10
-1.529
 20
-13.2955
 30
0.0025
 70
192
 0
VERTEX
 8
FULGOR
 10
-1.5332
 20
-13.2891
 30
0.0025
 70
192
 0
VERTEX
 8
FULGOR
 10
-1.5367
 20
-13.2824
 30
0.0025
 70
192
 0
VERTEX
 8
FULGOR
 10
-1.5395
 20
-13.2753
 30
0.0025
 70
192
 0
VERTEX
 8
FULGOR
 10
-1.3184
 20
-13.3522
 30
0.0025
 70
192
 0
VERTEX
 8
FULGOR
 10
-1.5437
 20
-13.256
 30
0.0025
 70
192
 0
VERTEX
 8
FULGOR
 10
-1.5444
 20
-13.2434
 30
0.0025
 70
192
 0
VERTEX
 8
FULGOR
 10
-1.5444
 20
-12.9913
 30
0.0025
 70
192
 0
VERTEX
 8
FULGOR
 10
-1.4398
 20
-13.3421
 30
0.0025
 70
192
 0
VERTEX
 8
FULGOR
 10
-1.4973
 20
-13.3224
 30
0.0025
 70
192
 0
VERTEX
 8
FULGOR
 10
-1.5088
 20
-13.3153
 30
0.0025
 70
192
 0
VERTEX
 8
FULGOR
 10
-1.5186
 20
-13.3073
 30
0.0025
 70
192
 0
VERTEX
 8
FULGOR
 10
-0.6716
 20
-13.3423
 30
0.0025
 70
192
 0
VERTEX
 8
FULGOR
 10
-0.6716
 20
-12.9913
 30
0.0025
 70
192
 0
VERTEX
 8
FULGOR
 10
0.4383
 20
-13.0328
 30
0.0025
 70
192
 0
VERTEX
 8
FULGOR
 10
-1.5417
 20
-13.2678
 30
0.0025
 70
192
 0
VERTEX
 8
FULGOR
 10
-0.8113
 20
-12.9913
 30
0.0025
 70
192
 0
VERTEX
 8
FULGOR
 10
0.162
 20
-12.9917
 30
0.0025
 70
192
 0
VERTEX
 8
FULGOR
 10
-0.8113
 20
-13.4418
 30
0.0025
 70
192
 0
VERTEX
 8
FULGOR
 10
-0.3286
 20
-13.4418
 30
0.0025
 70
192
 0
VERTEX
 8
FULGOR
 10
-0.3286
 20
-13.3423
 30
0.0025
 70
192
 0
VERTEX
 8
FULGOR
 10
0.3594
 20
-13.015
 30
0.0025
 70
192
 0
VERTEX
 8
FULGOR
 10
0.2758
 20
-13.0018
 30
0.0025
 70
192
 0
VERTEX
 8
FULGOR
 10
0.0984
 20
-12.9918
 30
0.0025
 70
192
 0
VERTEX
 8
FULGOR
 10
-0.1468
 20
-13.06
 30
0.0025
 70
192
 0
VERTEX
 8
FULGOR
 10
-0.1706
 20
-13.0755
 30
0.0025
 70
192
 0
VERTEX
 8
FULGOR
 10
-0.1907
 20
-13.0915
 30
0.0025
 70
192
 0
VERTEX
 8
FULGOR
 10
-0.2077
 20
-13.108
 30
0.0025
 70
192
 0
VERTEX
 8
FULGOR
 10
0.0408
 20
-12.9975
 30
0.0025
 70
192
 0
VERTEX
 8
FULGOR
 10
-0.0104
 20
-13.0074
 30
0.0025
 70
192
 0
VERTEX
 8
FULGOR
 10
-0.0607
 20
-13.0218
 30
0.0025
 70
192
 0
VERTEX
 8
FULGOR
 10
-0.246
 20
-13.169
 30
0.0025
 70
192
 0
VERTEX
 8
FULGOR
 10
-0.2501
 20
-13.182
 30
0.0025
 70
192
 0
VERTEX
 8
FULGOR
 10
-0.1061
 20
-13.0394
 30
0.0025
 70
192
 0
VERTEX
 8
FULGOR
 10
-0.1294
 20
-13.0505
 30
0.0025
 70
192
 0
VERTEX
 8
FULGOR
 10
-0.221
 20
-13.1237
 30
0.0025
 70
192
 0
VERTEX
 8
FULGOR
 10
-0.254
 20
-13.2347
 30
0.0025
 70
192
 0
VERTEX
 8
FULGOR
 10
-0.2307
 20
-13.1377
 30
0.0025
 70
192
 0
VERTEX
 8
FULGOR
 10
-0.2391
 20
-13.1527
 30
0.0025
 70
192
 0
VERTEX
 8
FULGOR
 10
-0.253
 20
-13.1956
 30
0.0025
 70
192
 0
VERTEX
 8
FULGOR
 10
-0.2542
 20
-13.2051
 30
0.0025
 70
192
 0
VERTEX
 8
FULGOR
 10
-0.2549
 20
-13.2198
 30
0.0025
 70
192
 0
VERTEX
 8
FULGOR
 10
-0.2514
 20
-13.2493
 30
0.0025
 70
192
 0
VERTEX
 8
FULGOR
 10
-0.1926
 20
-13.3394
 30
0.0025
 70
192
 0
VERTEX
 8
FULGOR
 10
-0.1705
 20
-13.3572
 30
0.0025
 70
192
 0
VERTEX
 8
FULGOR
 10
-0.2471
 20
-13.2635
 30
0.0025
 70
192
 0
VERTEX
 8
FULGOR
 10
-0.1091
 20
-13.3931
 30
0.0025
 70
192
 0
VERTEX
 8
FULGOR
 10
-0.0755
 20
-13.407
 30
0.0025
 70
192
 0
VERTEX
 8
FULGOR
 10
-0.2413
 20
-13.2773
 30
0.0025
 70
192
 0
VERTEX
 8
FULGOR
 10
-0.2341
 20
-13.2906
 30
0.0025
 70
192
 0
VERTEX
 8
FULGOR
 10
0.0826
 20
-13.4395
 30
0.0025
 70
192
 0
VERTEX
 8
FULGOR
 10
0.1262
 20
-13.4416
 30
0.0025
 70
192
 0
VERTEX
 8
FULGOR
 10
0.162
 20
-13.4414
 30
0.0025
 70
192
 0
VERTEX
 8
FULGOR
 10
0.2187
 20
-13.4381
 30
0.0025
 70
192
 0
VERTEX
 8
FULGOR
 10
-0.2223
 20
-13.3077
 30
0.0025
 70
192
 0
VERTEX
 8
FULGOR
 10
-0.2084
 20
-13.324
 30
0.0025
 70
192
 0
VERTEX
 8
FULGOR
 10
-0.141
 20
-13.3764
 30
0.0025
 70
192
 0
VERTEX
 8
FULGOR
 10
0.2778
 20
-13.2079
 30
0.0025
 70
192
 0
VERTEX
 8
FULGOR
 10
-0.0298
 20
-13.4212
 30
0.0025
 70
192
 0
VERTEX
 8
FULGOR
 10
0.0206
 20
-13.432
 30
0.0025
 70
192
 0
VERTEX
 8
FULGOR
 10
0.289
 20
-13.4289
 30
0.0025
 70
192
 0
VERTEX
 8
FULGOR
 10
0.4383
 20
-13.4004
 30
0.0025
 70
192
 0
VERTEX
 8
FULGOR
 10
0.1211
 20
-13.3492
 30
0.0025
 70
192
 0
VERTEX
 8
FULGOR
 10
0.0904
 20
-13.3468
 30
0.0025
 70
192
 0
VERTEX
 8
FULGOR
 10
0.4383
 20
-13.2079
 30
0.0025
 70
192
 0
VERTEX
 8
FULGOR
 10
0.033
 20
-13.3339
 30
0.0025
 70
192
 0
VERTEX
 8
FULGOR
 10
0.0121
 20
-13.3259
 30
0.0025
 70
192
 0
VERTEX
 8
FULGOR
 10
0.2777
 20
-13.3398
 30
0.0025
 70
192
 0
VERTEX
 8
FULGOR
 10
0.2595
 20
-13.3431
 30
0.0025
 70
192
 0
VERTEX
 8
FULGOR
 10
-0.0361
 20
-13.2954
 30
0.0025
 70
192
 0
VERTEX
 8
FULGOR
 10
0.2092
 20
-13.3483
 30
0.0025
 70
192
 0
VERTEX
 8
FULGOR
 10
0.1721
 20
-13.3497
 30
0.0025
 70
192
 0
VERTEX
 8
FULGOR
 10
0.0609
 20
-13.3417
 30
0.0025
 70
192
 0
VERTEX
 8
FULGOR
 10
-0.0071
 20
-13.3162
 30
0.0025
 70
192
 0
VERTEX
 8
FULGOR
 10
-0.0715
 20
-13.2394
 30
0.0025
 70
192
 0
VERTEX
 8
FULGOR
 10
-0.0737
 20
-13.2299
 30
0.0025
 70
192
 0
VERTEX
 8
FULGOR
 10
-0.075
 20
-13.22
 30
0.0025
 70
192
 0
VERTEX
 8
FULGOR
 10
-0.0754
 20
-13.2098
 30
0.0025
 70
192
 0
VERTEX
 8
FULGOR
 10
-0.0748
 20
-13.1996
 30
0.0025
 70
192
 0
VERTEX
 8
FULGOR
 10
-0.0244
 20
-13.3049
 30
0.0025
 70
192
 0
VERTEX
 8
FULGOR
 10
-0.0464
 20
-13.285
 30
0.0025
 70
192
 0
VERTEX
 8
FULGOR
 10
-0.0554
 20
-13.2737
 30
0.0025
 70
192
 0
VERTEX
 8
FULGOR
 10
-0.0621
 20
-13.1634
 30
0.0025
 70
192
 0
VERTEX
 8
FULGOR
 10
-0.0567
 20
-13.1554
 30
0.0025
 70
192
 0
VERTEX
 8
FULGOR
 10
-0.0504
 20
-13.1479
 30
0.0025
 70
192
 0
VERTEX
 8
FULGOR
 10
-0.0628
 20
-13.2616
 30
0.0025
 70
192
 0
VERTEX
 8
FULGOR
 10
-0.0277
 20
-13.1281
 30
0.0025
 70
192
 0
VERTEX
 8
FULGOR
 10
-0.0145
 20
-13.1196
 30
0.0025
 70
192
 0
VERTEX
 8
FULGOR
 10
-0.0686
 20
-13.2486
 30
0.0025
 70
192
 0
VERTEX
 8
FULGOR
 10
0.0301
 20
-13.0998
 30
0.0025
 70
192
 0
VERTEX
 8
FULGOR
 10
0.0563
 20
-13.0924
 30
0.0025
 70
192
 0
VERTEX
 8
FULGOR
 10
-0.0731
 20
-13.1898
 30
0.0025
 70
192
 0
VERTEX
 8
FULGOR
 10
0.1024
 20
-13.0852
 30
0.0025
 70
192
 0
VERTEX
 8
FULGOR
 10
-0.0704
 20
-13.1806
 30
0.0025
 70
192
 0
VERTEX
 8
FULGOR
 10
0.2149
 20
-13.0889
 30
0.0025
 70
192
 0
VERTEX
 8
FULGOR
 10
-0.0667
 20
-13.1717
 30
0.0025
 70
192
 0
VERTEX
 8
FULGOR
 10
0.4383
 20
-13.1289
 30
0.0025
 70
192
 0
VERTEX
 8
FULGOR
 10
0.5802
 20
-13.2166
 30
0.0025
 70
192
 0
VERTEX
 8
FULGOR
 10
0.5814
 20
-13.2366
 30
0.0025
 70
192
 0
VERTEX
 8
FULGOR
 10
-0.0398
 20
-13.1375
 30
0.0025
 70
192
 0
VERTEX
 8
FULGOR
 10
0.0046
 20
-13.1098
 30
0.0025
 70
192
 0
VERTEX
 8
FULGOR
 10
0.598
 20
-13.2901
 30
0.0025
 70
192
 0
VERTEX
 8
FULGOR
 10
0.6075
 20
-13.3058
 30
0.0025
 70
192
 0
VERTEX
 8
FULGOR
 10
0.6186
 20
-13.3205
 30
0.0025
 70
192
 0
VERTEX
 8
FULGOR
 10
0.6314
 20
-13.3342
 30
0.0025
 70
192
 0
VERTEX
 8
FULGOR
 10
0.6532
 20
-13.3529
 30
0.0025
 70
192
 0
VERTEX
 8
FULGOR
 10
0.0875
 20
-13.0867
 30
0.0025
 70
192
 0
VERTEX
 8
FULGOR
 10
0.1211
 20
-13.0844
 30
0.0025
 70
192
 0
VERTEX
 8
FULGOR
 10
0.302
 20
-13.1013
 30
0.0025
 70
192
 0
VERTEX
 8
FULGOR
 10
0.5849
 20
-13.2555
 30
0.0025
 70
192
 0
VERTEX
 8
FULGOR
 10
0.5905
 20
-13.2733
 30
0.0025
 70
192
 0
VERTEX
 8
FULGOR
 10
0.9237
 20
-13.4381
 30
0.0025
 70
192
 0
VERTEX
 8
FULGOR
 10
0.9822
 20
-13.4405
 30
0.0025
 70
192
 0
VERTEX
 8
FULGOR
 10
0.6779
 20
-13.3696
 30
0.0025
 70
192
 0
VERTEX
 8
FULGOR
 10
1.1254
 20
-13.4267
 30
0.0025
 70
192
 0
VERTEX
 8
FULGOR
 10
0.7049
 20
-13.3842
 30
0.0025
 70
192
 0
VERTEX
 8
FULGOR
 10
0.744
 20
-13.4008
 30
0.0025
 70
192
 0
VERTEX
 8
FULGOR
 10
0.796
 20
-13.4171
 30
0.0025
 70
192
 0
VERTEX
 8
FULGOR
 10
0.8605
 20
-13.4306
 30
0.0025
 70
192
 0
VERTEX
 8
FULGOR
 10
1.051
 20
-13.4372
 30
0.0025
 70
192
 0
VERTEX
 8
FULGOR
 10
1.3394
 20
-13.3275
 30
0.0025
 70
192
 0
VERTEX
 8
FULGOR
 10
1.1894
 20
-13.4111
 30
0.0025
 70
192
 0
VERTEX
 8
FULGOR
 10
1.2402
 20
-13.3929
 30
0.0025
 70
192
 0
VERTEX
 8
FULGOR
 10
1.2776
 20
-13.3746
 30
0.0025
 70
192
 0
VERTEX
 8
FULGOR
 10
1.3031
 20
-13.3587
 30
0.0025
 70
192
 0
VERTEX
 8
FULGOR
 10
1.3259
 20
-13.3407
 30
0.0025
 70
192
 0
VERTEX
 8
FULGOR
 10
1.3828
 20
-13.2367
 30
0.0025
 70
192
 0
VERTEX
 8
FULGOR
 10
1.3841
 20
-13.2167
 30
0.0025
 70
192
 0
VERTEX
 8
FULGOR
 10
1.3829
 20
-13.1967
 30
0.0025
 70
192
 0
VERTEX
 8
FULGOR
 10
1.3795
 20
-13.1778
 30
0.0025
 70
192
 0
VERTEX
 8
FULGOR
 10
1.3514
 20
-13.3133
 30
0.0025
 70
192
 0
VERTEX
 8
FULGOR
 10
1.3617
 20
-13.2981
 30
0.0025
 70
192
 0
VERTEX
 8
FULGOR
 10
1.3702
 20
-13.2819
 30
0.0025
 70
192
 0
VERTEX
 8
FULGOR
 10
1.3459
 20
-13.1129
 30
0.0025
 70
192
 0
VERTEX
 8
FULGOR
 10
1.3331
 20
-13.0992
 30
0.0025
 70
192
 0
VERTEX
 8
FULGOR
 10
1.3113
 20
-13.0804
 30
0.0025
 70
192
 0
VERTEX
 8
FULGOR
 10
1.2866
 20
-13.0638
 30
0.0025
 70
192
 0
VERTEX
 8
FULGOR
 10
1.2595
 20
-13.0491
 30
0.0025
 70
192
 0
VERTEX
 8
FULGOR
 10
1.2205
 20
-13.0325
 30
0.0025
 70
192
 0
VERTEX
 8
FULGOR
 10
1.3768
 20
-13.2646
 30
0.0025
 70
192
 0
VERTEX
 8
FULGOR
 10
1.3814
 20
-13.2463
 30
0.0025
 70
192
 0
VERTEX
 8
FULGOR
 10
1.374
 20
-13.16
 30
0.0025
 70
192
 0
VERTEX
 8
FULGOR
 10
1.3664
 20
-13.1433
 30
0.0025
 70
192
 0
VERTEX
 8
FULGOR
 10
0.9134
 20
-12.9959
 30
0.0025
 70
192
 0
VERTEX
 8
FULGOR
 10
1.357
 20
-13.1276
 30
0.0025
 70
192
 0
VERTEX
 8
FULGOR
 10
1.1684
 20
-13.0162
 30
0.0025
 70
192
 0
VERTEX
 8
FULGOR
 10
1.1039
 20
-13.0026
 30
0.0025
 70
192
 0
VERTEX
 8
FULGOR
 10
1.0407
 20
-12.995
 30
0.0025
 70
192
 0
VERTEX
 8
FULGOR
 10
0.661
 20
-13.0744
 30
0.0025
 70
192
 0
VERTEX
 8
FULGOR
 10
0.6382
 20
-13.0925
 30
0.0025
 70
192
 0
VERTEX
 8
FULGOR
 10
0.6247
 20
-13.1057
 30
0.0025
 70
192
 0
VERTEX
 8
FULGOR
 10
0.6127
 20
-13.1199
 30
0.0025
 70
192
 0
VERTEX
 8
FULGOR
 10
0.6024
 20
-13.135
 30
0.0025
 70
192
 0
VERTEX
 8
FULGOR
 10
0.5939
 20
-13.1513
 30
0.0025
 70
192
 0
VERTEX
 8
FULGOR
 10
0.5873
 20
-13.1686
 30
0.0025
 70
192
 0
VERTEX
 8
FULGOR
 10
0.9822
 20
-12.9926
 30
0.0025
 70
192
 0
VERTEX
 8
FULGOR
 10
0.5814
 20
-13.1965
 30
0.0025
 70
192
 0
VERTEX
 8
FULGOR
 10
0.7608
 20
-13.2167
 30
0.0025
 70
192
 0
VERTEX
 8
FULGOR
 10
0.7613
 20
-13.2276
 30
0.0025
 70
192
 0
VERTEX
 8
FULGOR
 10
0.8389
 20
-13.0064
 30
0.0025
 70
192
 0
VERTEX
 8
FULGOR
 10
0.7748
 20
-13.022
 30
0.0025
 70
192
 0
VERTEX
 8
FULGOR
 10
0.724
 20
-13.0402
 30
0.0025
 70
192
 0
VERTEX
 8
FULGOR
 10
0.6865
 20
-13.0584
 30
0.0025
 70
192
 0
VERTEX
 8
FULGOR
 10
0.5828
 20
-13.1869
 30
0.0025
 70
192
 0
VERTEX
 8
FULGOR
 10
0.783
 20
-13.2823
 30
0.0025
 70
192
 0
VERTEX
 8
FULGOR
 10
0.7894
 20
-13.2898
 30
0.0025
 70
192
 0
VERTEX
 8
FULGOR
 10
0.7627
 20
-13.2379
 30
0.0025
 70
192
 0
VERTEX
 8
FULGOR
 10
0.7651
 20
-13.2478
 30
0.0025
 70
192
 0
VERTEX
 8
FULGOR
 10
0.7683
 20
-13.2571
 30
0.0025
 70
192
 0
VERTEX
 8
FULGOR
 10
0.7724
 20
-13.266
 30
0.0025
 70
192
 0
VERTEX
 8
FULGOR
 10
0.8698
 20
-13.3347
 30
0.0025
 70
192
 0
VERTEX
 8
FULGOR
 10
0.9005
 20
-13.342
 30
0.0025
 70
192
 0
VERTEX
 8
FULGOR
 10
0.7773
 20
-13.2744
 30
0.0025
 70
192
 0
VERTEX
 8
FULGOR
 10
0.9822
 20
-13.349
 30
0.0025
 70
192
 0
VERTEX
 8
FULGOR
 10
1.031
 20
-13.3467
 30
0.0025
 70
192
 0
VERTEX
 8
FULGOR
 10
0.8004
 20
-13.3001
 30
0.0025
 70
192
 0
VERTEX
 8
FULGOR
 10
1.1004
 20
-13.3329
 30
0.0025
 70
192
 0
VERTEX
 8
FULGOR
 10
1.1225
 20
-13.3248
 30
0.0025
 70
192
 0
VERTEX
 8
FULGOR
 10
1.1424
 20
-13.3149
 30
0.0025
 70
192
 0
VERTEX
 8
FULGOR
 10
0.8129
 20
-13.3093
 30
0.0025
 70
192
 0
VERTEX
 8
FULGOR
 10
1.1679
 20
-13.2967
 30
0.0025
 70
192
 0
VERTEX
 8
FULGOR
 10
0.8268
 20
-13.3176
 30
0.0025
 70
192
 0
VERTEX
 8
FULGOR
 10
0.8473
 20
-13.327
 30
0.0025
 70
192
 0
VERTEX
 8
FULGOR
 10
1.1897
 20
-13.2702
 30
0.0025
 70
192
 0
VERTEX
 8
FULGOR
 10
0.9401
 20
-13.3473
 30
0.0025
 70
192
 0
VERTEX
 8
FULGOR
 10
1.0703
 20
-13.3407
 30
0.0025
 70
192
 0
VERTEX
 8
FULGOR
 10
1.1559
 20
-13.3063
 30
0.0025
 70
192
 0
VERTEX
 8
FULGOR
 10
1.2026
 20
-13.2328
 30
0.0025
 70
192
 0
VERTEX
 8
FULGOR
 10
1.2032
 20
-13.2275
 30
0.0025
 70
192
 0
VERTEX
 8
FULGOR
 10
1.2037
 20
-13.2167
 30
0.0025
 70
192
 0
VERTEX
 8
FULGOR
 10
1.2032
 20
-13.2059
 30
0.0025
 70
192
 0
VERTEX
 8
FULGOR
 10
1.1784
 20
-13.286
 30
0.0025
 70
192
 0
VERTEX
 8
FULGOR
 10
1.1844
 20
-13.2783
 30
0.0025
 70
192
 0
VERTEX
 8
FULGOR
 10
1.1962
 20
-13.1764
 30
0.0025
 70
192
 0
VERTEX
 8
FULGOR
 10
1.1921
 20
-13.1675
 30
0.0025
 70
192
 0
VERTEX
 8
FULGOR
 10
1.1942
 20
-13.2616
 30
0.0025
 70
192
 0
VERTEX
 8
FULGOR
 10
1.1979
 20
-13.2525
 30
0.0025
 70
192
 0
VERTEX
 8
FULGOR
 10
1.175
 20
-13.1438
 30
0.0025
 70
192
 0
VERTEX
 8
FULGOR
 10
1.2007
 20
-13.2429
 30
0.0025
 70
192
 0
VERTEX
 8
FULGOR
 10
1.2017
 20
-13.1955
 30
0.0025
 70
192
 0
VERTEX
 8
FULGOR
 10
1.1376
 20
-13.1161
 30
0.0025
 70
192
 0
VERTEX
 8
FULGOR
 10
1.1171
 20
-13.1067
 30
0.0025
 70
192
 0
VERTEX
 8
FULGOR
 10
1.1994
 20
-13.1857
 30
0.0025
 70
192
 0
VERTEX
 8
FULGOR
 10
1.1872
 20
-13.1591
 30
0.0025
 70
192
 0
VERTEX
 8
FULGOR
 10
1.1815
 20
-13.1512
 30
0.0025
 70
192
 0
VERTEX
 8
FULGOR
 10
1.164
 20
-13.1335
 30
0.0025
 70
192
 0
VERTEX
 8
FULGOR
 10
0.9334
 20
-13.0871
 30
0.0025
 70
192
 0
VERTEX
 8
FULGOR
 10
0.8942
 20
-13.093
 30
0.0025
 70
192
 0
VERTEX
 8
FULGOR
 10
0.8641
 20
-13.1007
 30
0.0025
 70
192
 0
VERTEX
 8
FULGOR
 10
1.1515
 20
-13.1243
 30
0.0025
 70
192
 0
VERTEX
 8
FULGOR
 10
1.0945
 20
-13.099
 30
0.0025
 70
192
 0
VERTEX
 8
FULGOR
 10
1.0639
 20
-13.0918
 30
0.0025
 70
192
 0
VERTEX
 8
FULGOR
 10
1.0242
 20
-13.0865
 30
0.0025
 70
192
 0
VERTEX
 8
FULGOR
 10
0.9822
 20
-13.0847
 30
0.0025
 70
192
 0
VERTEX
 8
FULGOR
 10
0.842
 20
-13.1088
 30
0.0025
 70
192
 0
VERTEX
 8
FULGOR
 10
0.822
 20
-13.1186
 30
0.0025
 70
192
 0
VERTEX
 8
FULGOR
 10
0.8086
 20
-13.1272
 30
0.0025
 70
192
 0
VERTEX
 8
FULGOR
 10
0.7966
 20
-13.1368
 30
0.0025
 70
192
 0
VERTEX
 8
FULGOR
 10
0.7861
 20
-13.1474
 30
0.0025
 70
192
 0
VERTEX
 8
FULGOR
 10
0.78
 20
-13.155
 30
0.0025
 70
192
 0
VERTEX
 8
FULGOR
 10
0.7747
 20
-13.1632
 30
0.0025
 70
192
 0
VERTEX
 8
FULGOR
 10
0.7702
 20
-13.1718
 30
0.0025
 70
192
 0
VERTEX
 8
FULGOR
 10
0.7666
 20
-13.1809
 30
0.0025
 70
192
 0
VERTEX
 8
FULGOR
 10
0.7638
 20
-13.1905
 30
0.0025
 70
192
 0
VERTEX
 8
FULGOR
 10
1.7507
 20
-13.2514
 30
0.0025
 70
192
 0
VERTEX
 8
FULGOR
 10
0.7619
 20
-13.2006
 30
0.0025
 70
192
 0
VERTEX
 8
FULGOR
 10
0.7613
 20
-13.2059
 30
0.0025
 70
192
 0
VERTEX
 8
FULGOR
 10
1.5259
 20
-13.4418
 30
0.0025
 70
192
 0
VERTEX
 8
FULGOR
 10
1.6657
 20
-13.4418
 30
0.0025
 70
192
 0
VERTEX
 8
FULGOR
 10
1.6657
 20
-13.2514
 30
0.0025
 70
192
 0
VERTEX
 8
FULGOR
 10
1.8494
 20
-13.2965
 30
0.0025
 70
192
 0
VERTEX
 8
FULGOR
 10
1.8602
 20
-13.308
 30
0.0025
 70
192
 0
VERTEX
 8
FULGOR
 10
1.9583
 20
-13.4418
 30
0.0025
 70
192
 0
VERTEX
 8
FULGOR
 10
2.2077
 20
-13.4418
 30
0.0025
 70
192
 0
VERTEX
 8
FULGOR
 10
2.1742
 20
-13.4244
 30
0.0025
 70
192
 0
VERTEX
 8
FULGOR
 10
1.7969
 20
-13.2607
 30
0.0025
 70
192
 0
VERTEX
 8
FULGOR
 10
1.8084
 20
-13.266
 30
0.0025
 70
192
 0
VERTEX
 8
FULGOR
 10
2.1256
 20
-13.391
 30
0.0025
 70
192
 0
VERTEX
 8
FULGOR
 10
2.0892
 20
-13.3572
 30
0.0025
 70
192
 0
VERTEX
 8
FULGOR
 10
1.5259
 20
-13.1714
 30
0.0025
 70
192
 0
VERTEX
 8
FULGOR
 10
2.043
 20
-13.2951
 30
0.0025
 70
192
 0
VERTEX
 8
FULGOR
 10
2.0204
 20
-13.2698
 30
0.0025
 70
192
 0
VERTEX
 8
FULGOR
 10
1.9991
 20
-13.2517
 30
0.0025
 70
192
 0
VERTEX
 8
FULGOR
 10
1.8356
 20
-13.2841
 30
0.0025
 70
192
 0
VERTEX
 8
FULGOR
 10
1.0892
 20
-13.4318
 30
0.0025
 70
192
 0
VERTEX
 8
FULGOR
 10
1.9479
 20
-13.2243
 30
0.0025
 70
192
 0
VERTEX
 8
FULGOR
 10
2.146
 20
-13.4068
 30
0.0025
 70
192
 0
VERTEX
 8
FULGOR
 10
2.0156
 20
-13.196
 30
0.0025
 70
192
 0
VERTEX
 8
FULGOR
 10
1.9786
 20
-13.2383
 30
0.0025
 70
192
 0
VERTEX
 8
FULGOR
 10
2.0394
 20
-13.1765
 30
0.0025
 70
192
 0
VERTEX
 8
FULGOR
 10
1.9628
 20
-13.23
 30
0.0025
 70
192
 0
VERTEX
 8
FULGOR
 10
2.0619
 20
-13.1419
 30
0.0025
 70
192
 0
VERTEX
 8
FULGOR
 10
2.0669
 20
-13.1227
 30
0.0025
 70
192
 0
VERTEX
 8
FULGOR
 10
1.9804
 20
-13.2141
 30
0.0025
 70
192
 0
VERTEX
 8
FULGOR
 10
2.0648
 20
-13.0856
 30
0.0025
 70
192
 0
VERTEX
 8
FULGOR
 10
2.0565
 20
-13.0671
 30
0.0025
 70
192
 0
VERTEX
 8
FULGOR
 10
2.0437
 20
-13.0511
 30
0.0025
 70
192
 0
VERTEX
 8
FULGOR
 10
2.0225
 20
-13.0343
 30
0.0025
 70
192
 0
VERTEX
 8
FULGOR
 10
2.0535
 20
-13.1587
 30
0.0025
 70
192
 0
VERTEX
 8
FULGOR
 10
1.9201
 20
-12.9987
 30
0.0025
 70
192
 0
VERTEX
 8
FULGOR
 10
1.8791
 20
-12.9933
 30
0.0025
 70
192
 0
VERTEX
 8
FULGOR
 10
2.0679
 20
-13.1066
 30
0.0025
 70
192
 0
VERTEX
 8
FULGOR
 10
1.6657
 20
-13.0715
 30
0.0025
 70
192
 0
VERTEX
 8
FULGOR
 10
1.9858
 20
-13.0162
 30
0.0025
 70
192
 0
VERTEX
 8
FULGOR
 10
1.839
 20
-12.9913
 30
0.0025
 70
192
 0
VERTEX
 8
FULGOR
 10
1.5259
 20
-12.9913
 30
0.0025
 70
192
 0
VERTEX
 8
FULGOR
 10
1.6657
 20
-13.1711
 30
0.0025
 70
192
 0
VERTEX
 8
FULGOR
 10
1.7931
 20
-13.1714
 30
0.0025
 70
192
 0
VERTEX
 8
FULGOR
 10
1.8294
 20
-13.1684
 30
0.0025
 70
192
 0
VERTEX
 8
FULGOR
 10
1.8704
 20
-13.1537
 30
0.0025
 70
192
 0
VERTEX
 8
FULGOR
 10
1.8794
 20
-13.1464
 30
0.0025
 70
192
 0
VERTEX
 8
FULGOR
 10
1.8849
 20
-13.1394
 30
0.0025
 70
192
 0
VERTEX
 8
FULGOR
 10
1.8899
 20
-13.1149
 30
0.0025
 70
192
 0
VERTEX
 8
FULGOR
 10
1.8876
 20
-13.1061
 30
0.0025
 70
192
 0
VERTEX
 8
FULGOR
 10
1.8219
 20
-13.073
 30
0.0025
 70
192
 0
VERTEX
 8
FULGOR
 10
1.8674
 20
-13.0856
 30
0.0025
 70
192
 0
VERTEX
 8
FULGOR
 10
1.806
 20
-13.0718
 30
0.0025
 70
192
 0
VERTEX
 8
FULGOR
 10
1.8511
 20
-13.0789
 30
0.0025
 70
192
 0
VERTEX
 8
FULGOR
 10
1.8381
 20
-13.0756
 30
0.0025
 70
192
 0
VERTEX
 8
FULGOR
 10
0.8278
 20
-13.4237
 30
0.0025
 70
192
 0
VERTEX
 8
FULGOR
 10
0.7727
 20
-13.4098
 30
0.0025
 70
192
 0
VERTEX
 8
FULGOR
 10
1.7888
 20
-13.0715
 30
0.0025
 70
192
 0
VERTEX
 8
FULGOR
 10
1.786
 20
-12.9913
 30
0.0025
 70
192
 0
VERTEX
 8
FULGOR
 10
1.8828
 20
-13.0985
 30
0.0025
 70
192
 0
VERTEX
 8
FULGOR
 10
1.8767
 20
-13.0921
 30
0.0025
 70
192
 0
VERTEX
 8
FULGOR
 10
1.8902
 20
-13.1234
 30
0.0025
 70
192
 0
VERTEX
 8
FULGOR
 10
1.8886
 20
-13.1315
 30
0.0025
 70
192
 0
VERTEX
 8
FULGOR
 10
1.7506
 20
-13.1713
 30
0.0025
 70
192
 0
VERTEX
 8
FULGOR
 10
1.9532
 20
-13.4348
 30
0.0025
 70
192
 0
VERTEX
 8
FULGOR
 10
1.9461
 20
-13.4249
 30
0.0025
 70
192
 0
VERTEX
 8
FULGOR
 10
0.0752
 20
-13.3442
 30
0.0025
 70
192
 0
VERTEX
 8
FULGOR
 10
1.9332
 20
-13.4073
 30
0.0025
 70
192
 0
VERTEX
 8
FULGOR
 10
1.9213
 20
-13.3909
 30
0.0025
 70
192
 0
VERTEX
 8
FULGOR
 10
0.1052
 20
-13.3479
 30
0.0025
 70
192
 0
VERTEX
 8
FULGOR
 10
1.5259
 20
-13.2515
 30
0.0025
 70
192
 0
VERTEX
 8
FULGOR
 10
1.8893
 20
-13.3468
 30
0.0025
 70
192
 0
VERTEX
 8
FULGOR
 10
1.8773
 20
-13.3303
 30
0.0025
 70
192
 0
VERTEX
 8
FULGOR
 10
0
 20
0
 30
0
 70
128
 71
244
 72
245
 73
188
 74
3
 0
VERTEX
 8
FULGOR
 10
0
 20
0
 30
0
 70
128
 71
137
 72
135
 73
127
 74
120
 0
VERTEX
 8
FULGOR
 10
0
 20
0
 30
0
 70
128
 71
287
 72
288
 73
220
 74
219
 0
VERTEX
 8
FULGOR
 10
0
 20
0
 30
0
 70
128
 71
135
 72
134
 73
128
 74
127
 0
VERTEX
 8
FULGOR
 10
0
 20
0
 30
0
 70
128
 71
145
 72
144
 73
106
 74
99
 0
VERTEX
 8
FULGOR
 10
0
 20
0
 30
0
 70
128
 71
152
 72
148
 73
115
 74
112
 0
VERTEX
 8
FULGOR
 10
0
 20
0
 30
0
 70
128
 71
288
 72
289
 73
221
 74
220
 0
VERTEX
 8
FULGOR
 10
0
 20
0
 30
0
 70
128
 71
155
 72
152
 73
112
 74
109
 0
VERTEX
 8
FULGOR
 10
0
 20
0
 30
0
 70
128
 71
141
 72
155
 73
109
 74
103
 0
VERTEX
 8
FULGOR
 10
0
 20
0
 30
0
 70
128
 71
289
 72
290
 73
230
 74
221
 0
VERTEX
 8
FULGOR
 10
0
 20
0
 30
0
 70
128
 71
290
 72
292
 73
223
 74
230
 0
VERTEX
 8
FULGOR
 10
0
 20
0
 30
0
 70
128
 71
142
 72
141
 73
103
 74
108
 0
VERTEX
 8
FULGOR
 10
0
 20
0
 30
0
 70
128
 71
143
 72
142
 73
108
 74
107
 0
VERTEX
 8
FULGOR
 10
0
 20
0
 30
0
 70
128
 71
144
 72
143
 73
107
 74
106
 0
VERTEX
 8
FULGOR
 10
0
 20
0
 30
0
 70
128
 71
254
 72
255
 73
207
 74
206
 0
VERTEX
 8
FULGOR
 10
0
 20
0
 30
0
 70
128
 71
265
 72
254
 73
206
 74
199
 0
VERTEX
 8
FULGOR
 10
0
 20
0
 30
0
 70
128
 71
263
 72
265
 73
199
 74
198
 0
VERTEX
 8
FULGOR
 10
0
 20
0
 30
0
 70
128
 71
251
 72
240
 73
179
 74
178
 0
VERTEX
 8
FULGOR
 10
0
 20
0
 30
0
 70
128
 71
5
 72
8
 73
7
 74
6
 0
VERTEX
 8
FULGOR
 10
0
 20
0
 30
0
 70
128
 71
8
 72
5
 73
4
 74
4
 0
VERTEX
 8
FULGOR
 10
0
 20
0
 30
0
 70
128
 71
8
 72
4
 73
13
 74
2
 0
VERTEX
 8
FULGOR
 10
0
 20
0
 30
0
 70
128
 71
237
 72
238
 73
185
 74
346
 0
VERTEX
 8
FULGOR
 10
0
 20
0
 30
0
 70
128
 71
339
 72
340
 73
321
 74
328
 0
VERTEX
 8
FULGOR
 10
0
 20
0
 30
0
 70
128
 71
161
 72
174
 73
84
 74
89
 0
VERTEX
 8
FULGOR
 10
0
 20
0
 30
0
 70
128
 71
174
 72
159
 73
90
 74
84
 0
VERTEX
 8
FULGOR
 10
0
 20
0
 30
0
 70
128
 71
249
 72
237
 73
346
 74
184
 0
VERTEX
 8
FULGOR
 10
0
 20
0
 30
0
 70
128
 71
248
 72
249
 73
184
 74
347
 0
VERTEX
 8
FULGOR
 10
0
 20
0
 30
0
 70
128
 71
159
 72
173
 73
95
 74
90
 0
VERTEX
 8
FULGOR
 10
0
 20
0
 30
0
 70
128
 71
173
 72
157
 73
96
 74
95
 0
VERTEX
 8
FULGOR
 10
0
 20
0
 30
0
 70
128
 71
246
 72
248
 73
347
 74
183
 0
VERTEX
 8
FULGOR
 10
0
 20
0
 30
0
 70
128
 71
362
 72
307
 73
305
 74
359
 0
VERTEX
 8
FULGOR
 10
0
 20
0
 30
0
 70
128
 71
151
 72
150
 73
94
 74
93
 0
VERTEX
 8
FULGOR
 10
0
 20
0
 30
0
 70
128
 71
353
 72
352
 73
319
 74
318
 0
VERTEX
 8
FULGOR
 10
0
 20
0
 30
0
 70
128
 71
175
 72
161
 73
89
 74
88
 0
VERTEX
 8
FULGOR
 10
0
 20
0
 30
0
 70
128
 71
253
 72
247
 73
190
 74
189
 0
VERTEX
 8
FULGOR
 10
0
 20
0
 30
0
 70
128
 71
153
 72
166
 73
92
 74
91
 0
VERTEX
 8
FULGOR
 10
0
 20
0
 30
0
 70
128
 71
166
 72
151
 73
93
 74
92
 0
VERTEX
 8
FULGOR
 10
0
 20
0
 30
0
 70
128
 71
273
 72
274
 73
226
 74
210
 0
VERTEX
 8
FULGOR
 10
0
 20
0
 30
0
 70
128
 71
163
 72
175
 73
88
 74
81
 0
VERTEX
 8
FULGOR
 10
0
 20
0
 30
0
 70
128
 71
167
 72
154
 73
101
 74
100
 0
VERTEX
 8
FULGOR
 10
0
 20
0
 30
0
 70
128
 71
154
 72
153
 73
91
 74
101
 0
VERTEX
 8
FULGOR
 10
0
 20
0
 30
0
 70
128
 71
274
 72
275
 73
227
 74
226
 0
VERTEX
 8
FULGOR
 10
0
 20
0
 30
0
 70
128
 71
13
 72
12
 73
2
 74
2
 0
VERTEX
 8
FULGOR
 10
0
 20
0
 30
0
 70
128
 71
13
 72
4
 73
15
 74
14
 0
VERTEX
 8
FULGOR
 10
0
 20
0
 30
0
 70
128
 71
16
 72
74
 73
73
 74
9
 0
VERTEX
 8
FULGOR
 10
0
 20
0
 30
0
 70
128
 71
73
 72
72
 73
10
 74
9
 0
VERTEX
 8
FULGOR
 10
0
 20
0
 30
0
 70
128
 71
72
 72
82
 73
11
 74
10
 0
VERTEX
 8
FULGOR
 10
0
 20
0
 30
0
 70
128
 71
82
 72
70
 73
18
 74
17
 0
VERTEX
 8
FULGOR
 10
0
 20
0
 30
0
 70
128
 71
58
 72
57
 73
40
 74
39
 0
VERTEX
 8
FULGOR
 10
0
 20
0
 30
0
 70
128
 71
82
 72
17
 73
11
 74
11
 0
VERTEX
 8
FULGOR
 10
0
 20
0
 30
0
 70
128
 71
43
 72
58
 73
39
 74
38
 0
VERTEX
 8
FULGOR
 10
0
 20
0
 30
0
 70
128
 71
70
 72
69
 73
20
 74
19
 0
VERTEX
 8
FULGOR
 10
0
 20
0
 30
0
 70
128
 71
70
 72
19
 73
18
 74
18
 0
VERTEX
 8
FULGOR
 10
0
 20
0
 30
0
 70
128
 71
69
 72
68
 73
27
 74
20
 0
VERTEX
 8
FULGOR
 10
0
 20
0
 30
0
 70
128
 71
68
 72
67
 73
29
 74
27
 0
VERTEX
 8
FULGOR
 10
0
 20
0
 30
0
 70
128
 71
67
 72
66
 73
30
 74
29
 0
VERTEX
 8
FULGOR
 10
0
 20
0
 30
0
 70
128
 71
66
 72
78
 73
31
 74
30
 0
VERTEX
 8
FULGOR
 10
0
 20
0
 30
0
 70
128
 71
78
 72
77
 73
32
 74
31
 0
VERTEX
 8
FULGOR
 10
0
 20
0
 30
0
 70
128
 71
32
 72
77
 73
76
 74
21
 0
VERTEX
 8
FULGOR
 10
0
 20
0
 30
0
 70
128
 71
76
 72
62
 73
21
 74
21
 0
VERTEX
 8
FULGOR
 10
0
 20
0
 30
0
 70
128
 71
62
 72
61
 73
22
 74
21
 0
VERTEX
 8
FULGOR
 10
0
 20
0
 30
0
 70
128
 71
61
 72
75
 73
22
 74
22
 0
VERTEX
 8
FULGOR
 10
0
 20
0
 30
0
 70
128
 71
75
 72
59
 73
23
 74
22
 0
VERTEX
 8
FULGOR
 10
0
 20
0
 30
0
 70
128
 71
23
 72
59
 73
71
 74
24
 0
VERTEX
 8
FULGOR
 10
0
 20
0
 30
0
 70
128
 71
275
 72
281
 73
228
 74
227
 0
VERTEX
 8
FULGOR
 10
0
 20
0
 30
0
 70
128
 71
157
 72
156
 73
97
 74
96
 0
VERTEX
 8
FULGOR
 10
0
 20
0
 30
0
 70
128
 71
291
 72
296
 73
333
 74
354
 0
VERTEX
 8
FULGOR
 10
0
 20
0
 30
0
 70
128
 71
281
 72
282
 73
229
 74
228
 0
VERTEX
 8
FULGOR
 10
0
 20
0
 30
0
 70
128
 71
282
 72
283
 73
215
 74
229
 0
VERTEX
 8
FULGOR
 10
0
 20
0
 30
0
 70
128
 71
283
 72
284
 73
216
 74
215
 0
VERTEX
 8
FULGOR
 10
0
 20
0
 30
0
 70
128
 71
129
 72
1
 73
118
 74
117
 0
VERTEX
 8
FULGOR
 10
0
 20
0
 30
0
 70
128
 71
238
 72
251
 73
178
 74
185
 0
VERTEX
 8
FULGOR
 10
0
 20
0
 30
0
 70
128
 71
245
 72
253
 73
189
 74
188
 0
VERTEX
 8
FULGOR
 10
0
 20
0
 30
0
 70
128
 71
337
 72
338
 73
325
 74
316
 0
VERTEX
 8
FULGOR
 10
0
 20
0
 30
0
 70
128
 71
336
 72
337
 73
316
 74
314
 0
VERTEX
 8
FULGOR
 10
0
 20
0
 30
0
 70
128
 71
241
 72
252
 73
311
 74
186
 0
VERTEX
 8
FULGOR
 10
0
 20
0
 30
0
 70
128
 71
24
 72
71
 73
65
 74
25
 0
VERTEX
 8
FULGOR
 10
0
 20
0
 30
0
 70
128
 71
65
 72
64
 73
25
 74
25
 0
VERTEX
 8
FULGOR
 10
0
 20
0
 30
0
 70
128
 71
156
 72
167
 73
100
 74
97
 0
VERTEX
 8
FULGOR
 10
0
 20
0
 30
0
 70
128
 71
149
 72
162
 73
104
 74
102
 0
VERTEX
 8
FULGOR
 10
0
 20
0
 30
0
 70
128
 71
64
 72
63
 73
26
 74
25
 0
VERTEX
 8
FULGOR
 10
0
 20
0
 30
0
 70
128
 71
162
 72
160
 73
105
 74
104
 0
VERTEX
 8
FULGOR
 10
0
 20
0
 30
0
 70
128
 71
63
 72
60
 73
26
 74
26
 0
VERTEX
 8
FULGOR
 10
0
 20
0
 30
0
 70
128
 71
266
 72
269
 73
196
 74
195
 0
VERTEX
 8
FULGOR
 10
0
 20
0
 30
0
 70
128
 71
360
 72
129
 73
117
 74
126
 0
VERTEX
 8
FULGOR
 10
0
 20
0
 30
0
 70
128
 71
60
 72
53
 73
34
 74
26
 0
VERTEX
 8
FULGOR
 10
0
 20
0
 30
0
 70
128
 71
53
 72
52
 73
34
 74
34
 0
VERTEX
 8
FULGOR
 10
0
 20
0
 30
0
 70
128
 71
52
 72
51
 73
28
 74
34
 0
VERTEX
 8
FULGOR
 10
0
 20
0
 30
0
 70
128
 71
51
 72
50
 73
35
 74
28
 0
VERTEX
 8
FULGOR
 10
0
 20
0
 30
0
 70
128
 71
50
 72
49
 73
36
 74
35
 0
VERTEX
 8
FULGOR
 10
0
 20
0
 30
0
 70
128
 71
36
 72
49
 73
48
 74
37
 0
VERTEX
 8
FULGOR
 10
0
 20
0
 30
0
 70
128
 71
44
 72
43
 73
38
 74
56
 0
VERTEX
 8
FULGOR
 10
0
 20
0
 30
0
 70
128
 71
37
 72
48
 73
47
 74
41
 0
VERTEX
 8
FULGOR
 10
0
 20
0
 30
0
 70
128
 71
33
 72
47
 73
46
 74
42
 0
VERTEX
 8
FULGOR
 10
0
 20
0
 30
0
 70
128
 71
45
 72
55
 73
54
 74
54
 0
VERTEX
 8
FULGOR
 10
0
 20
0
 30
0
 70
128
 71
47
 72
33
 73
41
 74
41
 0
VERTEX
 8
FULGOR
 10
0
 20
0
 30
0
 70
128
 71
42
 72
46
 73
45
 74
54
 0
VERTEX
 8
FULGOR
 10
0
 20
0
 30
0
 70
128
 71
55
 72
45
 73
44
 74
56
 0
VERTEX
 8
FULGOR
 10
0
 20
0
 30
0
 70
128
 71
83
 72
80
 73
79
 74
85
 0
VERTEX
 8
FULGOR
 10
0
 20
0
 30
0
 70
128
 71
79
 72
87
 73
86
 74
85
 0
VERTEX
 8
FULGOR
 10
0
 20
0
 30
0
 70
128
 71
134
 72
124
 73
131
 74
128
 0
VERTEX
 8
FULGOR
 10
0
 20
0
 30
0
 70
128
 71
334
 72
335
 73
320
 74
312
 0
VERTEX
 8
FULGOR
 10
0
 20
0
 30
0
 70
128
 71
308
 72
307
 73
362
 74
363
 0
VERTEX
 8
FULGOR
 10
0
 20
0
 30
0
 70
128
 71
139
 72
357
 73
114
 74
113
 0
VERTEX
 8
FULGOR
 10
0
 20
0
 30
0
 70
128
 71
305
 72
304
 73
358
 74
359
 0
VERTEX
 8
FULGOR
 10
0
 20
0
 30
0
 70
128
 71
335
 72
336
 73
314
 74
320
 0
VERTEX
 8
FULGOR
 10
0
 20
0
 30
0
 70
128
 71
355
 72
356
 73
313
 74
301
 0
VERTEX
 8
FULGOR
 10
0
 20
0
 30
0
 70
128
 71
301
 72
300
 73
299
 74
355
 0
VERTEX
 8
FULGOR
 10
0
 20
0
 30
0
 70
128
 71
352
 72
339
 73
328
 74
319
 0
VERTEX
 8
FULGOR
 10
0
 20
0
 30
0
 70
128
 71
343
 72
348
 73
349
 74
331
 0
VERTEX
 8
FULGOR
 10
0
 20
0
 30
0
 70
128
 71
342
 72
344
 73
330
 74
324
 0
VERTEX
 8
FULGOR
 10
0
 20
0
 30
0
 70
128
 71
262
 72
263
 73
198
 74
197
 0
VERTEX
 8
FULGOR
 10
0
 20
0
 30
0
 70
128
 71
303
 72
312
 73
317
 74
310
 0
VERTEX
 8
FULGOR
 10
0
 20
0
 30
0
 70
128
 71
250
 72
262
 73
197
 74
187
 0
VERTEX
 8
FULGOR
 10
0
 20
0
 30
0
 70
128
 71
291
 72
354
 73
334
 74
302
 0
VERTEX
 8
FULGOR
 10
0
 20
0
 30
0
 70
128
 71
341
 72
343
 73
331
 74
327
 0
VERTEX
 8
FULGOR
 10
0
 20
0
 30
0
 70
128
 71
150
 72
149
 73
102
 74
94
 0
VERTEX
 8
FULGOR
 10
0
 20
0
 30
0
 70
128
 71
1
 72
138
 73
119
 74
118
 0
VERTEX
 8
FULGOR
 10
0
 20
0
 30
0
 70
128
 71
338
 72
353
 73
318
 74
325
 0
VERTEX
 8
FULGOR
 10
0
 20
0
 30
0
 70
128
 71
280
 72
273
 73
210
 74
222
 0
VERTEX
 8
FULGOR
 10
0
 20
0
 30
0
 70
128
 71
285
 72
286
 73
218
 74
217
 0
VERTEX
 8
FULGOR
 10
0
 20
0
 30
0
 70
128
 71
160
 72
158
 73
98
 74
105
 0
VERTEX
 8
FULGOR
 10
0
 20
0
 30
0
 70
128
 71
138
 72
137
 73
120
 74
119
 0
VERTEX
 8
FULGOR
 10
0
 20
0
 30
0
 70
128
 71
286
 72
287
 73
219
 74
218
 0
VERTEX
 8
FULGOR
 10
0
 20
0
 30
0
 70
128
 71
261
 72
270
 73
211
 74
209
 0
VERTEX
 8
FULGOR
 10
0
 20
0
 30
0
 70
128
 71
348
 72
329
 73
332
 74
349
 0
VERTEX
 8
FULGOR
 10
0
 20
0
 30
0
 70
128
 71
329
 72
333
 73
306
 74
332
 0
VERTEX
 8
FULGOR
 10
0
 20
0
 30
0
 70
128
 71
333
 72
296
 73
361
 74
306
 0
VERTEX
 8
FULGOR
 10
0
 20
0
 30
0
 70
128
 71
296
 72
295
 73
294
 74
361
 0
VERTEX
 8
FULGOR
 10
0
 20
0
 30
0
 70
128
 71
358
 72
304
 73
313
 74
356
 0
VERTEX
 8
FULGOR
 10
0
 20
0
 30
0
 70
128
 71
148
 72
147
 73
116
 74
115
 0
VERTEX
 8
FULGOR
 10
0
 20
0
 30
0
 70
128
 71
158
 72
145
 73
99
 74
98
 0
VERTEX
 8
FULGOR
 10
0
 20
0
 30
0
 70
128
 71
260
 72
261
 73
209
 74
208
 0
VERTEX
 8
FULGOR
 10
0
 20
0
 30
0
 70
128
 71
269
 72
260
 73
208
 74
196
 0
VERTEX
 8
FULGOR
 10
0
 20
0
 30
0
 70
128
 71
276
 72
267
 73
204
 74
203
 0
VERTEX
 8
FULGOR
 10
0
 20
0
 30
0
 70
128
 71
232
 72
242
 73
182
 74
180
 0
VERTEX
 8
FULGOR
 10
0
 20
0
 30
0
 70
128
 71
242
 72
246
 73
183
 74
182
 0
VERTEX
 8
FULGOR
 10
0
 20
0
 30
0
 70
128
 71
272
 72
276
 73
203
 74
202
 0
VERTEX
 8
FULGOR
 10
0
 20
0
 30
0
 70
128
 71
264
 72
272
 73
202
 74
201
 0
VERTEX
 8
FULGOR
 10
0
 20
0
 30
0
 70
128
 71
240
 72
241
 73
186
 74
179
 0
VERTEX
 8
FULGOR
 10
0
 20
0
 30
0
 70
128
 71
147
 72
136
 73
121
 74
116
 0
VERTEX
 8
FULGOR
 10
0
 20
0
 30
0
 70
128
 71
340
 72
350
 73
322
 74
321
 0
VERTEX
 8
FULGOR
 10
0
 20
0
 30
0
 70
128
 71
303
 72
302
 73
334
 74
312
 0
VERTEX
 8
FULGOR
 10
0
 20
0
 30
0
 70
128
 71
345
 72
341
 73
327
 74
326
 0
VERTEX
 8
FULGOR
 10
0
 20
0
 30
0
 70
128
 71
252
 72
243
 73
181
 74
311
 0
VERTEX
 8
FULGOR
 10
0
 20
0
 30
0
 70
128
 71
344
 72
345
 73
326
 74
330
 0
VERTEX
 8
FULGOR
 10
0
 20
0
 30
0
 70
128
 71
231
 72
232
 73
180
 74
172
 0
VERTEX
 8
FULGOR
 10
0
 20
0
 30
0
 70
128
 71
257
 72
266
 73
195
 74
194
 0
VERTEX
 8
FULGOR
 10
0
 20
0
 30
0
 70
128
 71
256
 72
257
 73
194
 74
193
 0
VERTEX
 8
FULGOR
 10
0
 20
0
 30
0
 70
128
 71
297
 72
310
 73
317
 74
315
 0
VERTEX
 8
FULGOR
 10
0
 20
0
 30
0
 70
128
 71
357
 72
130
 73
125
 74
114
 0
VERTEX
 8
FULGOR
 10
0
 20
0
 30
0
 70
128
 71
255
 72
256
 73
193
 74
207
 0
VERTEX
 8
FULGOR
 10
0
 20
0
 30
0
 70
128
 71
298
 72
297
 73
315
 74
309
 0
VERTEX
 8
FULGOR
 10
0
 20
0
 30
0
 70
128
 71
298
 72
309
 73
308
 74
363
 0
VERTEX
 8
FULGOR
 10
0
 20
0
 30
0
 70
128
 71
243
 72
244
 73
3
 74
181
 0
VERTEX
 8
FULGOR
 10
0
 20
0
 30
0
 70
128
 71
259
 72
250
 73
187
 74
192
 0
VERTEX
 8
FULGOR
 10
0
 20
0
 30
0
 70
128
 71
279
 72
280
 73
222
 74
214
 0
VERTEX
 8
FULGOR
 10
0
 20
0
 30
0
 70
128
 71
278
 72
279
 73
214
 74
213
 0
VERTEX
 8
FULGOR
 10
0
 20
0
 30
0
 70
128
 71
258
 72
259
 73
192
 74
191
 0
VERTEX
 8
FULGOR
 10
0
 20
0
 30
0
 70
128
 71
247
 72
258
 73
191
 74
190
 0
VERTEX
 8
FULGOR
 10
0
 20
0
 30
0
 70
128
 71
351
 72
342
 73
324
 74
323
 0
VERTEX
 8
FULGOR
 10
0
 20
0
 30
0
 70
128
 71
350
 72
351
 73
323
 74
322
 0
VERTEX
 8
FULGOR
 10
0
 20
0
 30
0
 70
128
 71
284
 72
285
 73
217
 74
216
 0
VERTEX
 8
FULGOR
 10
0
 20
0
 30
0
 70
128
 71
136
 72
146
 73
122
 74
121
 0
VERTEX
 8
FULGOR
 10
0
 20
0
 30
0
 70
128
 71
146
 72
140
 73
110
 74
122
 0
VERTEX
 8
FULGOR
 10
0
 20
0
 30
0
 70
128
 71
130
 72
360
 73
126
 74
125
 0
VERTEX
 8
FULGOR
 10
0
 20
0
 30
0
 70
128
 71
140
 72
133
 73
111
 74
110
 0
VERTEX
 8
FULGOR
 10
0
 20
0
 30
0
 70
128
 71
133
 72
132
 73
123
 74
111
 0
VERTEX
 8
FULGOR
 10
0
 20
0
 30
0
 70
128
 71
132
 72
139
 73
113
 74
123
 0
VERTEX
 8
FULGOR
 10
0
 20
0
 30
0
 70
128
 71
292
 72
293
 73
164
 74
223
 0
VERTEX
 8
FULGOR
 10
0
 20
0
 30
0
 70
128
 71
293
 72
224
 73
165
 74
164
 0
VERTEX
 8
FULGOR
 10
0
 20
0
 30
0
 70
128
 71
224
 72
225
 73
176
 74
165
 0
VERTEX
 8
FULGOR
 10
0
 20
0
 30
0
 70
128
 71
225
 72
233
 73
177
 74
176
 0
VERTEX
 8
FULGOR
 10
0
 20
0
 30
0
 70
128
 71
233
 72
234
 73
168
 74
177
 0
VERTEX
 8
FULGOR
 10
0
 20
0
 30
0
 70
128
 71
234
 72
235
 73
169
 74
168
 0
VERTEX
 8
FULGOR
 10
0
 20
0
 30
0
 70
128
 71
235
 72
236
 73
170
 74
169
 0
VERTEX
 8
FULGOR
 10
0
 20
0
 30
0
 70
128
 71
236
 72
239
 73
171
 74
170
 0
VERTEX
 8
FULGOR
 10
0
 20
0
 30
0
 70
128
 71
239
 72
231
 73
172
 74
171
 0
VERTEX
 8
FULGOR
 10
0
 20
0
 30
0
 70
128
 71
213
 72
212
 73
277
 74
278
 0
VERTEX
 8
FULGOR
 10
0
 20
0
 30
0
 70
128
 71
212
 72
205
 73
268
 74
277
 0
VERTEX
 8
FULGOR
 10
0
 20
0
 30
0
 70
128
 71
267
 72
268
 73
205
 74
204
 0
VERTEX
 8
FULGOR
 10
0
 20
0
 30
0
 70
128
 71
270
 72
271
 73
200
 74
211
 0
VERTEX
 8
FULGOR
 10
0
 20
0
 30
0
 70
128
 71
271
 72
264
 73
201
 74
200
 0
SEQEND
 0
POLYLINE
 8
MILANO
 66
1
 10
0.0
 20
0.0
 30
0.0
 70
64
 71
93
 72
47
 0
VERTEX
 8
MILANO
 10
0.1725
 20
-13.7478
 30
0.0025
 70
192
 0
VERTEX
 8
MILANO
 10
0.5627
 20
-13.9002
 30
0.0025
 70
192
 0
VERTEX
 8
MILANO
 10
0.5668
 20
-13.9352
 30
0.0025
 70
192
 0
VERTEX
 8
MILANO
 10
0.5816
 20
-13.9671
 30
0.0025
 70
192
 0
VERTEX
 8
MILANO
 10
0.6064
 20
-13.992
 30
0.0025
 70
192
 0
VERTEX
 8
MILANO
 10
0.6373
 20
-14.0089
 30
0.0025
 70
192
 0
VERTEX
 8
MILANO
 10
0.6711
 20
-14.0188
 30
0.0025
 70
192
 0
VERTEX
 8
MILANO
 10
0.7062
 20
-14.0226
 30
0.0025
 70
192
 0
VERTEX
 8
MILANO
 10
0.4154
 20
-13.976
 30
0.0025
 70
192
 0
VERTEX
 8
MILANO
 10
0.7414
 20
-14.02
 30
0.0025
 70
192
 0
VERTEX
 8
MILANO
 10
0.7754
 20
-14.0106
 30
0.0025
 70
192
 0
VERTEX
 8
MILANO
 10
0.8061
 20
-13.9934
 30
0.0025
 70
192
 0
VERTEX
 8
MILANO
 10
0.0249
 20
-13.9558
 30
0.0025
 70
192
 0
VERTEX
 8
MILANO
 10
0.0803
 20
-14.0552
 30
0.0025
 70
192
 0
VERTEX
 8
MILANO
 10
0.1259
 20
-14.0552
 30
0.0025
 70
192
 0
VERTEX
 8
MILANO
 10
0.8301
 20
-13.9677
 30
0.0025
 70
192
 0
VERTEX
 8
MILANO
 10
0.8457
 20
-13.9362
 30
0.0025
 70
192
 0
VERTEX
 8
MILANO
 10
-0.2265
 20
-14.0552
 30
0.0025
 70
192
 0
VERTEX
 8
MILANO
 10
-0.1045
 20
-13.9217
 30
0.0025
 70
192
 0
VERTEX
 8
MILANO
 10
0.0062
 20
-13.9217
 30
0.0025
 70
192
 0
VERTEX
 8
MILANO
 10
0.8507
 20
-13.9013
 30
0.0025
 70
192
 0
VERTEX
 8
MILANO
 10
0.8461
 20
-13.8664
 30
0.0025
 70
192
 0
VERTEX
 8
MILANO
 10
0.8312
 20
-13.8346
 30
0.0025
 70
192
 0
VERTEX
 8
MILANO
 10
-0.3785
 20
-13.7478
 30
0.0025
 70
192
 0
VERTEX
 8
MILANO
 10
-0.3785
 20
-14.0217
 30
0.0025
 70
192
 0
VERTEX
 8
MILANO
 10
0.807
 20
-13.809
 30
0.0025
 70
192
 0
VERTEX
 8
MILANO
 10
0.7763
 20
-13.7919
 30
0.0025
 70
192
 0
VERTEX
 8
MILANO
 10
0.7423
 20
-13.7825
 30
0.0025
 70
192
 0
VERTEX
 8
MILANO
 10
-0.5333
 20
-13.7478
 30
0.0025
 70
192
 0
VERTEX
 8
MILANO
 10
-0.4949
 20
-13.7478
 30
0.0025
 70
192
 0
VERTEX
 8
MILANO
 10
-0.4949
 20
-14.0552
 30
0.0025
 70
192
 0
VERTEX
 8
MILANO
 10
-0.5333
 20
-14.0552
 30
0.0025
 70
192
 0
VERTEX
 8
MILANO
 10
-0.9956
 20
-14.0552
 30
0.0025
 70
192
 0
VERTEX
 8
MILANO
 10
-0.9477
 20
-13.7459
 30
0.0025
 70
192
 0
VERTEX
 8
MILANO
 10
-0.6563
 20
-13.7459
 30
0.0025
 70
192
 0
VERTEX
 8
MILANO
 10
-0.642
 20
-13.7459
 30
0.0025
 70
192
 0
VERTEX
 8
MILANO
 10
-0.5915
 20
-14.0552
 30
0.0025
 70
192
 0
VERTEX
 8
MILANO
 10
-0.6332
 20
-14.0552
 30
0.0025
 70
192
 0
VERTEX
 8
MILANO
 10
-0.8023
 20
-14.0552
 30
0.0025
 70
192
 0
VERTEX
 8
MILANO
 10
-0.9241
 20
-13.8477
 30
0.0025
 70
192
 0
VERTEX
 8
MILANO
 10
-0.2419
 20
-14.0217
 30
0.0025
 70
192
 0
VERTEX
 8
MILANO
 10
-0.2419
 20
-14.0552
 30
0.0025
 70
192
 0
VERTEX
 8
MILANO
 10
-0.4164
 20
-14.0552
 30
0.0025
 70
192
 0
VERTEX
 8
MILANO
 10
-0.9384
 20
-13.7459
 30
0.0025
 70
192
 0
VERTEX
 8
MILANO
 10
-0.7946
 20
-13.9921
 30
0.0025
 70
192
 0
VERTEX
 8
MILANO
 10
-0.6667
 20
-13.8477
 30
0.0025
 70
192
 0
VERTEX
 8
MILANO
 10
-0.7836
 20
-14.0552
 30
0.0025
 70
192
 0
VERTEX
 8
MILANO
 10
-0.9543
 20
-14.0552
 30
0.0025
 70
192
 0
VERTEX
 8
MILANO
 10
0.7073
 20
-13.7426
 30
0.0025
 70
192
 0
VERTEX
 8
MILANO
 10
0.6612
 20
-13.7451
 30
0.0025
 70
192
 0
VERTEX
 8
MILANO
 10
0.6165
 20
-13.7563
 30
0.0025
 70
192
 0
VERTEX
 8
MILANO
 10
0.577
 20
-13.7797
 30
0.0025
 70
192
 0
VERTEX
 8
MILANO
 10
0.5453
 20
-13.8132
 30
0.0025
 70
192
 0
VERTEX
 8
MILANO
 10
0.5247
 20
-13.8543
 30
0.0025
 70
192
 0
VERTEX
 8
MILANO
 10
0.5183
 20
-13.8999
 30
0.0025
 70
192
 0
VERTEX
 8
MILANO
 10
0.5237
 20
-13.9456
 30
0.0025
 70
192
 0
VERTEX
 8
MILANO
 10
0.5431
 20
-13.9873
 30
0.0025
 70
192
 0
VERTEX
 8
MILANO
 10
0.5756
 20
-14.0199
 30
0.0025
 70
192
 0
VERTEX
 8
MILANO
 10
0.6159
 20
-14.0421
 30
0.0025
 70
192
 0
VERTEX
 8
MILANO
 10
0.6602
 20
-14.055
 30
0.0025
 70
192
 0
VERTEX
 8
MILANO
 10
0.7061
 20
-14.06
 30
0.0025
 70
192
 0
VERTEX
 8
MILANO
 10
0.752
 20
-14.0565
 30
0.0025
 70
192
 0
VERTEX
 8
MILANO
 10
0.7965
 20
-14.0442
 30
0.0025
 70
192
 0
VERTEX
 8
MILANO
 10
0.8367
 20
-14.0218
 30
0.0025
 70
192
 0
VERTEX
 8
MILANO
 10
0.8681
 20
-13.9882
 30
0.0025
 70
192
 0
VERTEX
 8
MILANO
 10
0.8884
 20
-13.9469
 30
0.0025
 70
192
 0
VERTEX
 8
MILANO
 10
0.895
 20
-13.9013
 30
0.0025
 70
192
 0
VERTEX
 8
MILANO
 10
0.8891
 20
-13.8557
 30
0.0025
 70
192
 0
VERTEX
 8
MILANO
 10
0.8696
 20
-13.8141
 30
0.0025
 70
192
 0
VERTEX
 8
MILANO
 10
0.8379
 20
-13.7806
 30
0.0025
 70
192
 0
VERTEX
 8
MILANO
 10
0.1725
 20
-14.0552
 30
0.0025
 70
192
 0
VERTEX
 8
MILANO
 10
0.2129
 20
-14.0552
 30
0.0025
 70
192
 0
VERTEX
 8
MILANO
 10
0.2129
 20
-13.8311
 30
0.0025
 70
192
 0
VERTEX
 8
MILANO
 10
0.4422
 20
-14.0552
 30
0.0025
 70
192
 0
VERTEX
 8
MILANO
 10
0.4553
 20
-14.0552
 30
0.0025
 70
192
 0
VERTEX
 8
MILANO
 10
0.4553
 20
-13.7478
 30
0.0025
 70
192
 0
VERTEX
 8
MILANO
 10
0.4149
 20
-13.7478
 30
0.0025
 70
192
 0
VERTEX
 8
MILANO
 10
0.7977
 20
-13.7582
 30
0.0025
 70
192
 0
VERTEX
 8
MILANO
 10
0.1875
 20
-13.7478
 30
0.0025
 70
192
 0
VERTEX
 8
MILANO
 10
-0.1758
 20
-14.0552
 30
0.0025
 70
192
 0
VERTEX
 8
MILANO
 10
-0.1244
 20
-13.9558
 30
0.0025
 70
192
 0
VERTEX
 8
MILANO
 10
0.7533
 20
-13.746
 30
0.0025
 70
192
 0
VERTEX
 8
MILANO
 10
0.7071
 20
-13.7799
 30
0.0025
 70
192
 0
VERTEX
 8
MILANO
 10
0.6719
 20
-13.7818
 30
0.0025
 70
192
 0
VERTEX
 8
MILANO
 10
-0.0429
 20
-13.7478
 30
0.0025
 70
192
 0
VERTEX
 8
MILANO
 10
-0.056
 20
-13.7478
 30
0.0025
 70
192
 0
VERTEX
 8
MILANO
 10
0.6377
 20
-13.7904
 30
0.0025
 70
192
 0
VERTEX
 8
MILANO
 10
0.6075
 20
-13.8083
 30
0.0025
 70
192
 0
VERTEX
 8
MILANO
 10
0.5833
 20
-13.834
 30
0.0025
 70
192
 0
VERTEX
 8
MILANO
 10
-0.0452
 20
-13.8233
 30
0.0025
 70
192
 0
VERTEX
 8
MILANO
 10
-0.0543
 20
-13.8233
 30
0.0025
 70
192
 0
VERTEX
 8
MILANO
 10
-0.4197
 20
-13.7478
 30
0.0025
 70
192
 0
VERTEX
 8
MILANO
 10
0.5675
 20
-13.8654
 30
0.0025
 70
192
 0
VERTEX
 8
MILANO
 10
0
 20
0
 30
0
 70
128
 71
71
 72
1
 73
73
 74
72
 0
VERTEX
 8
MILANO
 10
0
 20
0
 30
0
 70
128
 71
1
 72
79
 73
73
 74
73
 0
VERTEX
 8
MILANO
 10
0
 20
0
 30
0
 70
128
 71
73
 72
79
 73
9
 74
74
 0
VERTEX
 8
MILANO
 10
0
 20
0
 30
0
 70
128
 71
76
 72
75
 73
9
 74
77
 0
VERTEX
 8
MILANO
 10
0
 20
0
 30
0
 70
128
 71
9
 72
75
 73
74
 74
74
 0
VERTEX
 8
MILANO
 10
0
 20
0
 30
0
 70
128
 71
18
 72
86
 73
19
 74
81
 0
VERTEX
 8
MILANO
 10
0
 20
0
 30
0
 70
128
 71
80
 72
18
 73
81
 74
81
 0
VERTEX
 8
MILANO
 10
0
 20
0
 30
0
 70
128
 71
86
 72
85
 73
90
 74
91
 0
VERTEX
 8
MILANO
 10
0
 20
0
 30
0
 70
128
 71
15
 72
13
 73
20
 74
20
 0
VERTEX
 8
MILANO
 10
0
 20
0
 30
0
 70
128
 71
86
 72
91
 73
19
 74
19
 0
VERTEX
 8
MILANO
 10
0
 20
0
 30
0
 70
128
 71
85
 72
15
 73
20
 74
90
 0
VERTEX
 8
MILANO
 10
0
 20
0
 30
0
 70
128
 71
13
 72
81
 73
19
 74
20
 0
VERTEX
 8
MILANO
 10
0
 20
0
 30
0
 70
128
 71
15
 72
14
 73
13
 74
13
 0
VERTEX
 8
MILANO
 10
0
 20
0
 30
0
 70
128
 71
92
 72
24
 73
25
 74
43
 0
VERTEX
 8
MILANO
 10
0
 20
0
 30
0
 70
128
 71
25
 72
41
 73
42
 74
43
 0
VERTEX
 8
MILANO
 10
0
 20
0
 30
0
 70
128
 71
29
 72
30
 73
31
 74
32
 0
VERTEX
 8
MILANO
 10
0
 20
0
 30
0
 70
128
 71
33
 72
34
 73
40
 74
48
 0
VERTEX
 8
MILANO
 10
0
 20
0
 30
0
 70
128
 71
34
 72
44
 73
40
 74
40
 0
VERTEX
 8
MILANO
 10
0
 20
0
 30
0
 70
128
 71
40
 72
44
 73
45
 74
39
 0
VERTEX
 8
MILANO
 10
0
 20
0
 30
0
 70
128
 71
45
 72
35
 73
46
 74
47
 0
VERTEX
 8
MILANO
 10
0
 20
0
 30
0
 70
128
 71
46
 72
36
 73
37
 74
38
 0
VERTEX
 8
MILANO
 10
0
 20
0
 30
0
 70
128
 71
45
 72
47
 73
39
 74
39
 0
VERTEX
 8
MILANO
 10
0
 20
0
 30
0
 70
128
 71
35
 72
36
 73
46
 74
46
 0
VERTEX
 8
MILANO
 10
0
 20
0
 30
0
 70
128
 71
50
 72
49
 73
83
 74
84
 0
VERTEX
 8
MILANO
 10
0
 20
0
 30
0
 70
128
 71
51
 72
50
 73
84
 74
87
 0
VERTEX
 8
MILANO
 10
0
 20
0
 30
0
 70
128
 71
5
 72
6
 73
59
 74
58
 0
VERTEX
 8
MILANO
 10
0
 20
0
 30
0
 70
128
 71
28
 72
83
 73
49
 74
82
 0
VERTEX
 8
MILANO
 10
0
 20
0
 30
0
 70
128
 71
27
 72
28
 73
82
 74
78
 0
VERTEX
 8
MILANO
 10
0
 20
0
 30
0
 70
128
 71
26
 72
27
 73
78
 74
70
 0
VERTEX
 8
MILANO
 10
0
 20
0
 30
0
 70
128
 71
23
 72
26
 73
70
 74
69
 0
VERTEX
 8
MILANO
 10
0
 20
0
 30
0
 70
128
 71
6
 72
7
 73
60
 74
59
 0
VERTEX
 8
MILANO
 10
0
 20
0
 30
0
 70
128
 71
7
 72
8
 73
61
 74
60
 0
VERTEX
 8
MILANO
 10
0
 20
0
 30
0
 70
128
 71
22
 72
23
 73
69
 74
68
 0
VERTEX
 8
MILANO
 10
0
 20
0
 30
0
 70
128
 71
21
 72
22
 73
68
 74
67
 0
VERTEX
 8
MILANO
 10
0
 20
0
 30
0
 70
128
 71
17
 72
21
 73
67
 74
66
 0
VERTEX
 8
MILANO
 10
0
 20
0
 30
0
 70
128
 71
16
 72
17
 73
66
 74
65
 0
VERTEX
 8
MILANO
 10
0
 20
0
 30
0
 70
128
 71
12
 72
16
 73
65
 74
64
 0
VERTEX
 8
MILANO
 10
0
 20
0
 30
0
 70
128
 71
11
 72
12
 73
64
 74
63
 0
VERTEX
 8
MILANO
 10
0
 20
0
 30
0
 70
128
 71
10
 72
11
 73
63
 74
62
 0
VERTEX
 8
MILANO
 10
0
 20
0
 30
0
 70
128
 71
4
 72
5
 73
58
 74
57
 0
VERTEX
 8
MILANO
 10
0
 20
0
 30
0
 70
128
 71
57
 72
56
 73
3
 74
4
 0
VERTEX
 8
MILANO
 10
0
 20
0
 30
0
 70
128
 71
56
 72
55
 73
2
 74
3
 0
VERTEX
 8
MILANO
 10
0
 20
0
 30
0
 70
128
 71
55
 72
54
 73
93
 74
2
 0
VERTEX
 8
MILANO
 10
0
 20
0
 30
0
 70
128
 71
54
 72
53
 73
89
 74
93
 0
VERTEX
 8
MILANO
 10
0
 20
0
 30
0
 70
128
 71
53
 72
52
 73
88
 74
89
 0
VERTEX
 8
MILANO
 10
0
 20
0
 30
0
 70
128
 71
52
 72
51
 73
87
 74
88
 0
VERTEX
 8
MILANO
 10
0
 20
0
 30
0
 70
128
 71
8
 72
10
 73
62
 74
61
 0
SEQEND
 0
POLYLINE
 8
VETRO
 66
1
 10
0.0
 20
0.0
 30
0.0
 70
64
 71
8
 72
6
 0
VERTEX
 8
VETRO
 10
-45.7
 20
-26.1
 30
-0.4
 70
192
 0
VERTEX
 8
VETRO
 10
-45.7
 20
-26.1
 30
0
 70
192
 0
VERTEX
 8
VETRO
 10
45.7
 20
-26.1
 30
-0.4
 70
192
 0
VERTEX
 8
VETRO
 10
45.7
 20
-26.1
 30
0
 70
192
 0
VERTEX
 8
VETRO
 10
45.7
 20
26.1
 30
-0.4
 70
192
 0
VERTEX
 8
VETRO
 10
45.7
 20
26.1
 30
0
 70
192
 0
VERTEX
 8
VETRO
 10
-45.7
 20
26.1
 30
-0.4
 70
192
 0
VERTEX
 8
VETRO
 10
-45.7
 20
26.1
 30
0
 70
192
 0
VERTEX
 8
VETRO
 10
0
 20
0
 30
0
 70
128
 71
1
 72
2
 73
4
 74
3
 0
VERTEX
 8
VETRO
 10
0
 20
0
 30
0
 70
128
 71
3
 72
4
 73
6
 74
5
 0
VERTEX
 8
VETRO
 10
0
 20
0
 30
0
 70
128
 71
5
 72
6
 73
8
 74
7
 0
VERTEX
 8
VETRO
 10
0
 20
0
 30
0
 70
128
 71
7
 72
8
 73
2
 74
1
 0
VERTEX
 8
VETRO
 10
0
 20
0
 30
0
 70
128
 71
2
 72
8
 73
6
 74
4
 0
VERTEX
 8
VETRO
 10
0
 20
0
 30
0
 70
128
 71
7
 72
1
 73
3
 74
5
 0
SEQEND
 0
ENDSEC
 0
EOF
