 0
SECTION
 2
HEADER
 9
$ACADVER
 1
AC1009
 0
ENDSEC
 0
SECTION
 2
TABLES
 0
TABLE
 2
LTYPE
 70
1
 0
LTYPE
 2
CONTINUOUS
 70
64
 3
solid line
 72
65
 73
0
 40
0.0
 0
ENDTAB
 0
TABLE
 2
LAYER
 70
6
 0
LAYER
 2
0
 70
0
 62
7
 6
CONTINUOUS
 0
LAYER
 2
FCLHD_8041_HID_TS_BK
 70
64
 62
7
 6
CONTINUOUS
 0
LAYER
 2
VETRO
 70
64
 62
39
 6
CONTINUOUS
 0
LAYER
 2
P-RZA01696_GRAFICA_1
 70
64
 62
7
 6
CONTINUOUS
 0
LAYER
 2
P-RZA01696_GRAFICA_BODY1
 70
64
 62
7
 6
CONTINUOUS
 0
LAYER
 2
P-RZA01696_GRAFICA_BODY22
 70
64
 62
7
 6
CONTINUOUS
 0
LAYER
 2
P-RZA01696_GRAFICA_BODY23
 70
64
 62
7
 6
CONTINUOUS
 0
LAYER
 2
P-RZA01696_GRAFICA_BODY24
 70
64
 62
7
 6
CONTINUOUS
 0
LAYER
 2
P-RZA01696_GRAFICA_BODY25
 70
64
 62
7
 6
CONTINUOUS
 0
LAYER
 2
P-RZA01696_GRAFICA_BODY49
 70
64
 62
7
 6
CONTINUOUS
 0
LAYER
 2
P-RZA01696_GRAFICA_BODY53
 70
64
 62
7
 6
CONTINUOUS
 0
LAYER
 2
P-RZA01696_GRAFICA_BODY54
 70
64
 62
7
 6
CONTINUOUS
 0
LAYER
 2
LOGO_FULGOR_MILANO
 70
64
 62
7
 6
CONTINUOUS
 0
LAYER
 2
FULGOR
 70
64
 62
7
 6
CONTINUOUS
 0
LAYER
 2
MILANO
 70
64
 62
7
 6
CONTINUOUS
 0
LAYER
 2
F-DTS00117
 70
64
 62
253
 6
CONTINUOUS
 0
ENDTAB
 0
ENDSEC
 0
SECTION
 2
BLOCKS
 0
ENDSEC
 0
SECTION
 2
ENTITIES
 0
POLYLINE
 8
VETRO
 66
1
 10
0.0
 20
0.0
 30
0.0
 70
64
 71
32
 72
32
 0
VERTEX
 8
VETRO
 10
-40
 20
-26
 30
0
 70
192
 0
VERTEX
 8
VETRO
 10
-40
 20
-26
 30
0.4
 70
192
 0
VERTEX
 8
VETRO
 10
40
 20
-26
 30
0
 70
192
 0
VERTEX
 8
VETRO
 10
40
 20
-26
 30
0.4
 70
192
 0
VERTEX
 8
VETRO
 10
40
 20
26
 30
0
 70
192
 0
VERTEX
 8
VETRO
 10
40
 20
26
 30
0.4
 70
192
 0
VERTEX
 8
VETRO
 10
-40
 20
26
 30
0
 70
192
 0
VERTEX
 8
VETRO
 10
-40
 20
26
 30
0.4
 70
192
 0
VERTEX
 8
VETRO
 10
6.93
 20
-26
 30
0.4
 70
192
 0
VERTEX
 8
VETRO
 10
6.93
 20
-26
 30
0
 70
192
 0
VERTEX
 8
VETRO
 10
6.93
 20
26
 30
0.4
 70
192
 0
VERTEX
 8
VETRO
 10
6.93
 20
26
 30
0
 70
192
 0
VERTEX
 8
VETRO
 10
40
 20
-14.3001
 30
0.4
 70
192
 0
VERTEX
 8
VETRO
 10
40
 20
-14.3001
 30
0
 70
192
 0
VERTEX
 8
VETRO
 10
-40
 20
-14.3001
 30
0.4
 70
192
 0
VERTEX
 8
VETRO
 10
-40
 20
-14.3001
 30
0
 70
192
 0
VERTEX
 8
VETRO
 10
6.93
 20
-14.3001
 30
0.4
 70
192
 0
VERTEX
 8
VETRO
 10
6.93
 20
-14.3001
 30
0
 70
192
 0
VERTEX
 8
VETRO
 10
-6.93
 20
-26
 30
0.4
 70
192
 0
VERTEX
 8
VETRO
 10
-6.93
 20
-26
 30
0
 70
192
 0
VERTEX
 8
VETRO
 10
-6.93
 20
-14.3001
 30
0.4
 70
192
 0
VERTEX
 8
VETRO
 10
-6.93
 20
-14.3001
 30
0
 70
192
 0
VERTEX
 8
VETRO
 10
-6.93
 20
26
 30
0
 70
192
 0
VERTEX
 8
VETRO
 10
-6.93
 20
26
 30
0.4
 70
192
 0
VERTEX
 8
VETRO
 10
-40
 20
18.5601
 30
0.4
 70
192
 0
VERTEX
 8
VETRO
 10
-40
 20
18.5601
 30
0
 70
192
 0
VERTEX
 8
VETRO
 10
-6.93
 20
18.5601
 30
0
 70
192
 0
VERTEX
 8
VETRO
 10
40
 20
18.5601
 30
0.4
 70
192
 0
VERTEX
 8
VETRO
 10
6.93
 20
18.5601
 30
0.4
 70
192
 0
VERTEX
 8
VETRO
 10
40
 20
18.5601
 30
0
 70
192
 0
VERTEX
 8
VETRO
 10
-6.93
 20
18.5601
 30
0.4
 70
192
 0
VERTEX
 8
VETRO
 10
6.93
 20
18.5601
 30
0
 70
192
 0
VERTEX
 8
VETRO
 10
0
 20
0
 30
0
 70
128
 71
1
 72
2
 73
19
 74
20
 0
VERTEX
 8
VETRO
 10
0
 20
0
 30
0
 70
128
 71
3
 72
4
 73
13
 74
14
 0
VERTEX
 8
VETRO
 10
0
 20
0
 30
0
 70
128
 71
5
 72
6
 73
11
 74
12
 0
VERTEX
 8
VETRO
 10
0
 20
0
 30
0
 70
128
 71
7
 72
8
 73
25
 74
26
 0
VERTEX
 8
VETRO
 10
0
 20
0
 30
0
 70
128
 71
2
 72
15
 73
21
 74
19
 0
VERTEX
 8
VETRO
 10
0
 20
0
 30
0
 70
128
 71
7
 72
26
 73
27
 74
23
 0
VERTEX
 8
VETRO
 10
0
 20
0
 30
0
 70
128
 71
9
 72
4
 73
3
 74
10
 0
VERTEX
 8
VETRO
 10
0
 20
0
 30
0
 70
128
 71
11
 72
24
 73
23
 74
12
 0
VERTEX
 8
VETRO
 10
0
 20
0
 30
0
 70
128
 71
11
 72
6
 73
28
 74
29
 0
VERTEX
 8
VETRO
 10
0
 20
0
 30
0
 70
128
 71
10
 72
3
 73
14
 74
18
 0
VERTEX
 8
VETRO
 10
0
 20
0
 30
0
 70
128
 71
13
 72
28
 73
30
 74
14
 0
VERTEX
 8
VETRO
 10
0
 20
0
 30
0
 70
128
 71
15
 72
2
 73
1
 74
16
 0
VERTEX
 8
VETRO
 10
0
 20
0
 30
0
 70
128
 71
15
 72
25
 73
31
 74
21
 0
VERTEX
 8
VETRO
 10
0
 20
0
 30
0
 70
128
 71
16
 72
1
 73
20
 74
22
 0
VERTEX
 8
VETRO
 10
0
 20
0
 30
0
 70
128
 71
13
 72
4
 73
9
 74
17
 0
VERTEX
 8
VETRO
 10
0
 20
0
 30
0
 70
128
 71
14
 72
30
 73
32
 74
18
 0
VERTEX
 8
VETRO
 10
0
 20
0
 30
0
 70
128
 71
19
 72
9
 73
10
 74
20
 0
VERTEX
 8
VETRO
 10
0
 20
0
 30
0
 70
128
 71
21
 72
17
 73
9
 74
19
 0
VERTEX
 8
VETRO
 10
0
 20
0
 30
0
 70
128
 71
32
 72
12
 73
23
 74
27
 0
VERTEX
 8
VETRO
 10
0
 20
0
 30
0
 70
128
 71
24
 72
8
 73
7
 74
23
 0
VERTEX
 8
VETRO
 10
0
 20
0
 30
0
 70
128
 71
24
 72
11
 73
29
 74
31
 0
VERTEX
 8
VETRO
 10
0
 20
0
 30
0
 70
128
 71
20
 72
10
 73
18
 74
22
 0
VERTEX
 8
VETRO
 10
0
 20
0
 30
0
 70
128
 71
25
 72
15
 73
16
 74
26
 0
VERTEX
 8
VETRO
 10
0
 20
0
 30
0
 70
128
 71
26
 72
16
 73
22
 74
27
 0
VERTEX
 8
VETRO
 10
0
 20
0
 30
0
 70
128
 71
28
 72
13
 73
17
 74
29
 0
VERTEX
 8
VETRO
 10
0
 20
0
 30
0
 70
128
 71
28
 72
6
 73
5
 74
30
 0
VERTEX
 8
VETRO
 10
0
 20
0
 30
0
 70
128
 71
25
 72
8
 73
24
 74
31
 0
VERTEX
 8
VETRO
 10
0
 20
0
 30
0
 70
128
 71
30
 72
5
 73
12
 74
32
 0
VERTEX
 8
VETRO
 10
0
 20
0
 30
0
 70
128
 71
21
 72
31
 73
27
 74
22
 0
VERTEX
 8
VETRO
 10
0
 20
0
 30
0
 70
128
 71
31
 72
29
 73
32
 74
27
 0
VERTEX
 8
VETRO
 10
0
 20
0
 30
0
 70
128
 71
29
 72
17
 73
18
 74
32
 0
VERTEX
 8
VETRO
 10
0
 20
0
 30
0
 70
128
 71
17
 72
21
 73
22
 74
18
 0
SEQEND
 0
POLYLINE
 8
P-RZA01696_GRAFICA_BODY1
 66
1
 10
0.0
 20
0.0
 30
0.0
 70
64
 71
8
 72
5
 0
VERTEX
 8
P-RZA01696_GRAFICA_BODY1
 10
22.875
 20
11.68
 30
0.4025
 70
192
 0
VERTEX
 8
P-RZA01696_GRAFICA_BODY1
 10
22.875
 20
11.68
 30
0.4025
 70
192
 0
VERTEX
 8
P-RZA01696_GRAFICA_BODY1
 10
24.675
 20
11.68
 30
0.4025
 70
192
 0
VERTEX
 8
P-RZA01696_GRAFICA_BODY1
 10
24.675
 20
11.68
 30
0.4025
 70
192
 0
VERTEX
 8
P-RZA01696_GRAFICA_BODY1
 10
24.675
 20
11.98
 30
0.4025
 70
192
 0
VERTEX
 8
P-RZA01696_GRAFICA_BODY1
 10
24.675
 20
11.98
 30
0.4025
 70
192
 0
VERTEX
 8
P-RZA01696_GRAFICA_BODY1
 10
22.875
 20
11.98
 30
0.4025
 70
192
 0
VERTEX
 8
P-RZA01696_GRAFICA_BODY1
 10
22.875
 20
11.98
 30
0.4025
 70
192
 0
VERTEX
 8
P-RZA01696_GRAFICA_BODY1
 10
0
 20
0
 30
0
 70
128
 71
1
 72
2
 73
4
 74
3
 0
VERTEX
 8
P-RZA01696_GRAFICA_BODY1
 10
0
 20
0
 30
0
 70
128
 71
3
 72
4
 73
6
 74
5
 0
VERTEX
 8
P-RZA01696_GRAFICA_BODY1
 10
0
 20
0
 30
0
 70
128
 71
5
 72
6
 73
8
 74
7
 0
VERTEX
 8
P-RZA01696_GRAFICA_BODY1
 10
0
 20
0
 30
0
 70
128
 71
7
 72
8
 73
2
 74
1
 0
VERTEX
 8
P-RZA01696_GRAFICA_BODY1
 10
0
 20
0
 30
0
 70
128
 71
2
 72
8
 73
6
 74
4
 0
SEQEND
 0
POLYLINE
 8
P-RZA01696_GRAFICA_BODY22
 66
1
 10
0.0
 20
0.0
 30
0.0
 70
64
 71
8
 72
5
 0
VERTEX
 8
P-RZA01696_GRAFICA_BODY22
 10
-35.49
 20
20.8
 30
0.4025
 70
192
 0
VERTEX
 8
P-RZA01696_GRAFICA_BODY22
 10
-35.49
 20
20.8
 30
0.4025
 70
192
 0
VERTEX
 8
P-RZA01696_GRAFICA_BODY22
 10
-12.21
 20
20.8
 30
0.4025
 70
192
 0
VERTEX
 8
P-RZA01696_GRAFICA_BODY22
 10
-12.21
 20
20.8
 30
0.4025
 70
192
 0
VERTEX
 8
P-RZA01696_GRAFICA_BODY22
 10
-12.21
 20
21.03
 30
0.4025
 70
192
 0
VERTEX
 8
P-RZA01696_GRAFICA_BODY22
 10
-12.21
 20
21.03
 30
0.4025
 70
192
 0
VERTEX
 8
P-RZA01696_GRAFICA_BODY22
 10
-35.49
 20
21.03
 30
0.4025
 70
192
 0
VERTEX
 8
P-RZA01696_GRAFICA_BODY22
 10
-35.49
 20
21.03
 30
0.4025
 70
192
 0
VERTEX
 8
P-RZA01696_GRAFICA_BODY22
 10
0
 20
0
 30
0
 70
128
 71
1
 72
2
 73
4
 74
3
 0
VERTEX
 8
P-RZA01696_GRAFICA_BODY22
 10
0
 20
0
 30
0
 70
128
 71
3
 72
4
 73
6
 74
5
 0
VERTEX
 8
P-RZA01696_GRAFICA_BODY22
 10
0
 20
0
 30
0
 70
128
 71
5
 72
6
 73
8
 74
7
 0
VERTEX
 8
P-RZA01696_GRAFICA_BODY22
 10
0
 20
0
 30
0
 70
128
 71
7
 72
8
 73
2
 74
1
 0
VERTEX
 8
P-RZA01696_GRAFICA_BODY22
 10
0
 20
0
 30
0
 70
128
 71
2
 72
8
 73
6
 74
4
 0
SEQEND
 0
POLYLINE
 8
P-RZA01696_GRAFICA_BODY23
 66
1
 10
0.0
 20
0.0
 30
0.0
 70
64
 71
8
 72
5
 0
VERTEX
 8
P-RZA01696_GRAFICA_BODY23
 10
-24.7
 20
11.68
 30
0.4025
 70
192
 0
VERTEX
 8
P-RZA01696_GRAFICA_BODY23
 10
-24.7
 20
11.68
 30
0.4025
 70
192
 0
VERTEX
 8
P-RZA01696_GRAFICA_BODY23
 10
-22.9
 20
11.68
 30
0.4025
 70
192
 0
VERTEX
 8
P-RZA01696_GRAFICA_BODY23
 10
-22.9
 20
11.68
 30
0.4025
 70
192
 0
VERTEX
 8
P-RZA01696_GRAFICA_BODY23
 10
-22.9
 20
11.98
 30
0.4025
 70
192
 0
VERTEX
 8
P-RZA01696_GRAFICA_BODY23
 10
-22.9
 20
11.98
 30
0.4025
 70
192
 0
VERTEX
 8
P-RZA01696_GRAFICA_BODY23
 10
-24.7
 20
11.98
 30
0.4025
 70
192
 0
VERTEX
 8
P-RZA01696_GRAFICA_BODY23
 10
-24.7
 20
11.98
 30
0.4025
 70
192
 0
VERTEX
 8
P-RZA01696_GRAFICA_BODY23
 10
0
 20
0
 30
0
 70
128
 71
1
 72
2
 73
4
 74
3
 0
VERTEX
 8
P-RZA01696_GRAFICA_BODY23
 10
0
 20
0
 30
0
 70
128
 71
3
 72
4
 73
6
 74
5
 0
VERTEX
 8
P-RZA01696_GRAFICA_BODY23
 10
0
 20
0
 30
0
 70
128
 71
5
 72
6
 73
8
 74
7
 0
VERTEX
 8
P-RZA01696_GRAFICA_BODY23
 10
0
 20
0
 30
0
 70
128
 71
7
 72
8
 73
2
 74
1
 0
VERTEX
 8
P-RZA01696_GRAFICA_BODY23
 10
0
 20
0
 30
0
 70
128
 71
2
 72
8
 73
6
 74
4
 0
SEQEND
 0
POLYLINE
 8
P-RZA01696_GRAFICA_BODY24
 66
1
 10
0.0
 20
0.0
 30
0.0
 70
64
 71
8
 72
5
 0
VERTEX
 8
P-RZA01696_GRAFICA_BODY24
 10
-24.7
 20
-7.72
 30
0.4025
 70
192
 0
VERTEX
 8
P-RZA01696_GRAFICA_BODY24
 10
-24.7
 20
-7.72
 30
0.4025
 70
192
 0
VERTEX
 8
P-RZA01696_GRAFICA_BODY24
 10
-22.9
 20
-7.72
 30
0.4025
 70
192
 0
VERTEX
 8
P-RZA01696_GRAFICA_BODY24
 10
-22.9
 20
-7.72
 30
0.4025
 70
192
 0
VERTEX
 8
P-RZA01696_GRAFICA_BODY24
 10
-22.9
 20
-7.42
 30
0.4025
 70
192
 0
VERTEX
 8
P-RZA01696_GRAFICA_BODY24
 10
-22.9
 20
-7.42
 30
0.4025
 70
192
 0
VERTEX
 8
P-RZA01696_GRAFICA_BODY24
 10
-24.7
 20
-7.42
 30
0.4025
 70
192
 0
VERTEX
 8
P-RZA01696_GRAFICA_BODY24
 10
-24.7
 20
-7.42
 30
0.4025
 70
192
 0
VERTEX
 8
P-RZA01696_GRAFICA_BODY24
 10
0
 20
0
 30
0
 70
128
 71
1
 72
2
 73
4
 74
3
 0
VERTEX
 8
P-RZA01696_GRAFICA_BODY24
 10
0
 20
0
 30
0
 70
128
 71
3
 72
4
 73
6
 74
5
 0
VERTEX
 8
P-RZA01696_GRAFICA_BODY24
 10
0
 20
0
 30
0
 70
128
 71
5
 72
6
 73
8
 74
7
 0
VERTEX
 8
P-RZA01696_GRAFICA_BODY24
 10
0
 20
0
 30
0
 70
128
 71
7
 72
8
 73
2
 74
1
 0
VERTEX
 8
P-RZA01696_GRAFICA_BODY24
 10
0
 20
0
 30
0
 70
128
 71
2
 72
8
 73
6
 74
4
 0
SEQEND
 0
POLYLINE
 8
P-RZA01696_GRAFICA_BODY25
 66
1
 10
0.0
 20
0.0
 30
0.0
 70
64
 71
8
 72
5
 0
VERTEX
 8
P-RZA01696_GRAFICA_BODY25
 10
-35.49
 20
-16.77
 30
0.4025
 70
192
 0
VERTEX
 8
P-RZA01696_GRAFICA_BODY25
 10
-35.49
 20
-16.77
 30
0.4025
 70
192
 0
VERTEX
 8
P-RZA01696_GRAFICA_BODY25
 10
-12.21
 20
-16.77
 30
0.4025
 70
192
 0
VERTEX
 8
P-RZA01696_GRAFICA_BODY25
 10
-12.21
 20
-16.77
 30
0.4025
 70
192
 0
VERTEX
 8
P-RZA01696_GRAFICA_BODY25
 10
-12.21
 20
-16.54
 30
0.4025
 70
192
 0
VERTEX
 8
P-RZA01696_GRAFICA_BODY25
 10
-12.21
 20
-16.54
 30
0.4025
 70
192
 0
VERTEX
 8
P-RZA01696_GRAFICA_BODY25
 10
-35.49
 20
-16.54
 30
0.4025
 70
192
 0
VERTEX
 8
P-RZA01696_GRAFICA_BODY25
 10
-35.49
 20
-16.54
 30
0.4025
 70
192
 0
VERTEX
 8
P-RZA01696_GRAFICA_BODY25
 10
0
 20
0
 30
0
 70
128
 71
1
 72
2
 73
4
 74
3
 0
VERTEX
 8
P-RZA01696_GRAFICA_BODY25
 10
0
 20
0
 30
0
 70
128
 71
3
 72
4
 73
6
 74
5
 0
VERTEX
 8
P-RZA01696_GRAFICA_BODY25
 10
0
 20
0
 30
0
 70
128
 71
5
 72
6
 73
8
 74
7
 0
VERTEX
 8
P-RZA01696_GRAFICA_BODY25
 10
0
 20
0
 30
0
 70
128
 71
7
 72
8
 73
2
 74
1
 0
VERTEX
 8
P-RZA01696_GRAFICA_BODY25
 10
0
 20
0
 30
0
 70
128
 71
2
 72
8
 73
6
 74
4
 0
SEQEND
 0
POLYLINE
 8
P-RZA01696_GRAFICA_BODY49
 66
1
 10
0.0
 20
0.0
 30
0.0
 70
64
 71
8
 72
5
 0
VERTEX
 8
P-RZA01696_GRAFICA_BODY49
 10
12.085
 20
-16.77
 30
0.4025
 70
192
 0
VERTEX
 8
P-RZA01696_GRAFICA_BODY49
 10
12.085
 20
-16.77
 30
0.4025
 70
192
 0
VERTEX
 8
P-RZA01696_GRAFICA_BODY49
 10
35.365
 20
-16.77
 30
0.4025
 70
192
 0
VERTEX
 8
P-RZA01696_GRAFICA_BODY49
 10
35.365
 20
-16.77
 30
0.4025
 70
192
 0
VERTEX
 8
P-RZA01696_GRAFICA_BODY49
 10
35.365
 20
-16.54
 30
0.4025
 70
192
 0
VERTEX
 8
P-RZA01696_GRAFICA_BODY49
 10
35.365
 20
-16.54
 30
0.4025
 70
192
 0
VERTEX
 8
P-RZA01696_GRAFICA_BODY49
 10
12.085
 20
-16.54
 30
0.4025
 70
192
 0
VERTEX
 8
P-RZA01696_GRAFICA_BODY49
 10
12.085
 20
-16.54
 30
0.4025
 70
192
 0
VERTEX
 8
P-RZA01696_GRAFICA_BODY49
 10
0
 20
0
 30
0
 70
128
 71
1
 72
2
 73
4
 74
3
 0
VERTEX
 8
P-RZA01696_GRAFICA_BODY49
 10
0
 20
0
 30
0
 70
128
 71
3
 72
4
 73
6
 74
5
 0
VERTEX
 8
P-RZA01696_GRAFICA_BODY49
 10
0
 20
0
 30
0
 70
128
 71
5
 72
6
 73
8
 74
7
 0
VERTEX
 8
P-RZA01696_GRAFICA_BODY49
 10
0
 20
0
 30
0
 70
128
 71
7
 72
8
 73
2
 74
1
 0
VERTEX
 8
P-RZA01696_GRAFICA_BODY49
 10
0
 20
0
 30
0
 70
128
 71
2
 72
8
 73
6
 74
4
 0
SEQEND
 0
POLYLINE
 8
P-RZA01696_GRAFICA_BODY53
 66
1
 10
0.0
 20
0.0
 30
0.0
 70
64
 71
8
 72
5
 0
VERTEX
 8
P-RZA01696_GRAFICA_BODY53
 10
22.875
 20
-7.72
 30
0.4025
 70
192
 0
VERTEX
 8
P-RZA01696_GRAFICA_BODY53
 10
22.875
 20
-7.72
 30
0.4025
 70
192
 0
VERTEX
 8
P-RZA01696_GRAFICA_BODY53
 10
24.675
 20
-7.72
 30
0.4025
 70
192
 0
VERTEX
 8
P-RZA01696_GRAFICA_BODY53
 10
24.675
 20
-7.72
 30
0.4025
 70
192
 0
VERTEX
 8
P-RZA01696_GRAFICA_BODY53
 10
24.675
 20
-7.42
 30
0.4025
 70
192
 0
VERTEX
 8
P-RZA01696_GRAFICA_BODY53
 10
24.675
 20
-7.42
 30
0.4025
 70
192
 0
VERTEX
 8
P-RZA01696_GRAFICA_BODY53
 10
22.875
 20
-7.42
 30
0.4025
 70
192
 0
VERTEX
 8
P-RZA01696_GRAFICA_BODY53
 10
22.875
 20
-7.42
 30
0.4025
 70
192
 0
VERTEX
 8
P-RZA01696_GRAFICA_BODY53
 10
0
 20
0
 30
0
 70
128
 71
1
 72
2
 73
4
 74
3
 0
VERTEX
 8
P-RZA01696_GRAFICA_BODY53
 10
0
 20
0
 30
0
 70
128
 71
3
 72
4
 73
6
 74
5
 0
VERTEX
 8
P-RZA01696_GRAFICA_BODY53
 10
0
 20
0
 30
0
 70
128
 71
5
 72
6
 73
8
 74
7
 0
VERTEX
 8
P-RZA01696_GRAFICA_BODY53
 10
0
 20
0
 30
0
 70
128
 71
7
 72
8
 73
2
 74
1
 0
VERTEX
 8
P-RZA01696_GRAFICA_BODY53
 10
0
 20
0
 30
0
 70
128
 71
2
 72
8
 73
6
 74
4
 0
SEQEND
 0
POLYLINE
 8
P-RZA01696_GRAFICA_BODY54
 66
1
 10
0.0
 20
0.0
 30
0.0
 70
64
 71
8
 72
5
 0
VERTEX
 8
P-RZA01696_GRAFICA_BODY54
 10
12.085
 20
20.8
 30
0.4025
 70
192
 0
VERTEX
 8
P-RZA01696_GRAFICA_BODY54
 10
12.085
 20
20.8
 30
0.4025
 70
192
 0
VERTEX
 8
P-RZA01696_GRAFICA_BODY54
 10
35.365
 20
20.8
 30
0.4025
 70
192
 0
VERTEX
 8
P-RZA01696_GRAFICA_BODY54
 10
35.365
 20
20.8
 30
0.4025
 70
192
 0
VERTEX
 8
P-RZA01696_GRAFICA_BODY54
 10
35.365
 20
21.03
 30
0.4025
 70
192
 0
VERTEX
 8
P-RZA01696_GRAFICA_BODY54
 10
35.365
 20
21.03
 30
0.4025
 70
192
 0
VERTEX
 8
P-RZA01696_GRAFICA_BODY54
 10
12.085
 20
21.03
 30
0.4025
 70
192
 0
VERTEX
 8
P-RZA01696_GRAFICA_BODY54
 10
12.085
 20
21.03
 30
0.4025
 70
192
 0
VERTEX
 8
P-RZA01696_GRAFICA_BODY54
 10
0
 20
0
 30
0
 70
128
 71
1
 72
2
 73
4
 74
3
 0
VERTEX
 8
P-RZA01696_GRAFICA_BODY54
 10
0
 20
0
 30
0
 70
128
 71
3
 72
4
 73
6
 74
5
 0
VERTEX
 8
P-RZA01696_GRAFICA_BODY54
 10
0
 20
0
 30
0
 70
128
 71
5
 72
6
 73
8
 74
7
 0
VERTEX
 8
P-RZA01696_GRAFICA_BODY54
 10
0
 20
0
 30
0
 70
128
 71
7
 72
8
 73
2
 74
1
 0
VERTEX
 8
P-RZA01696_GRAFICA_BODY54
 10
0
 20
0
 30
0
 70
128
 71
2
 72
8
 73
6
 74
4
 0
SEQEND
 0
POLYLINE
 8
FULGOR
 66
1
 10
0.0
 20
0.0
 30
0.0
 70
64
 71
363
 72
183
 0
VERTEX
 8
FULGOR
 10
0.108
 20
-16.8944
 30
0.4025
 70
192
 0
VERTEX
 8
FULGOR
 10
-2.348
 20
-16.9867
 30
0.4025
 70
192
 0
VERTEX
 8
FULGOR
 10
1.1204
 20
-16.9633
 30
0.4025
 70
192
 0
VERTEX
 8
FULGOR
 10
-2.2082
 20
-16.7198
 30
0.4025
 70
192
 0
VERTEX
 8
FULGOR
 10
-2.2082
 20
-16.6358
 30
0.4025
 70
192
 0
VERTEX
 8
FULGOR
 10
-1.8653
 20
-16.6358
 30
0.4025
 70
192
 0
VERTEX
 8
FULGOR
 10
-1.8653
 20
-16.5362
 30
0.4025
 70
192
 0
VERTEX
 8
FULGOR
 10
-2.348
 20
-16.5362
 30
0.4025
 70
192
 0
VERTEX
 8
FULGOR
 10
-1.7234
 20
-16.7909
 30
0.4025
 70
192
 0
VERTEX
 8
FULGOR
 10
-1.7222
 20
-16.812
 30
0.4025
 70
192
 0
VERTEX
 8
FULGOR
 10
-1.719
 20
-16.8314
 30
0.4025
 70
192
 0
VERTEX
 8
FULGOR
 10
-2.2082
 20
-16.9867
 30
0.4025
 70
192
 0
VERTEX
 8
FULGOR
 10
-2.2082
 20
-16.8
 30
0.4025
 70
192
 0
VERTEX
 8
FULGOR
 10
-1.8653
 20
-16.8
 30
0.4025
 70
192
 0
VERTEX
 8
FULGOR
 10
-1.8653
 20
-16.7198
 30
0.4025
 70
192
 0
VERTEX
 8
FULGOR
 10
-1.7234
 20
-16.5362
 30
0.4025
 70
192
 0
VERTEX
 8
FULGOR
 10
-1.7139
 20
-16.8493
 30
0.4025
 70
192
 0
VERTEX
 8
FULGOR
 10
-1.7069
 20
-16.8658
 30
0.4025
 70
192
 0
VERTEX
 8
FULGOR
 10
-1.6982
 20
-16.8808
 30
0.4025
 70
192
 0
VERTEX
 8
FULGOR
 10
-1.6879
 20
-16.8945
 30
0.4025
 70
192
 0
VERTEX
 8
FULGOR
 10
-1.5638
 20
-16.9633
 30
0.4025
 70
192
 0
VERTEX
 8
FULGOR
 10
-1.5159
 20
-16.9732
 30
0.4025
 70
192
 0
VERTEX
 8
FULGOR
 10
-1.438
 20
-16.9814
 30
0.4025
 70
192
 0
VERTEX
 8
FULGOR
 10
-1.3573
 20
-16.9839
 30
0.4025
 70
192
 0
VERTEX
 8
FULGOR
 10
-1.267
 20
-16.9807
 30
0.4025
 70
192
 0
VERTEX
 8
FULGOR
 10
-1.1989
 20
-16.9717
 30
0.4025
 70
192
 0
VERTEX
 8
FULGOR
 10
-1.6762
 20
-16.9069
 30
0.4025
 70
192
 0
VERTEX
 8
FULGOR
 10
-1.115
 20
-16.9489
 30
0.4025
 70
192
 0
VERTEX
 8
FULGOR
 10
-1.6631
 20
-16.9181
 30
0.4025
 70
192
 0
VERTEX
 8
FULGOR
 10
-1.6489
 20
-16.9281
 30
0.4025
 70
192
 0
VERTEX
 8
FULGOR
 10
-1.6255
 20
-16.9412
 30
0.4025
 70
192
 0
VERTEX
 8
FULGOR
 10
-1.6001
 20
-16.952
 30
0.4025
 70
192
 0
VERTEX
 8
FULGOR
 10
-1.0222
 20
-16.8866
 30
0.4025
 70
192
 0
VERTEX
 8
FULGOR
 10
-1.1511
 20
-16.9608
 30
0.4025
 70
192
 0
VERTEX
 8
FULGOR
 10
-1.0896
 20
-16.9379
 30
0.4025
 70
192
 0
VERTEX
 8
FULGOR
 10
-1.0664
 20
-16.925
 30
0.4025
 70
192
 0
VERTEX
 8
FULGOR
 10
-1.0455
 20
-16.91
 30
0.4025
 70
192
 0
VERTEX
 8
FULGOR
 10
-0.9934
 20
-16.818
 30
0.4025
 70
192
 0
VERTEX
 8
FULGOR
 10
-0.9923
 20
-16.7995
 30
0.4025
 70
192
 0
VERTEX
 8
FULGOR
 10
-0.9921
 20
-16.5362
 30
0.4025
 70
192
 0
VERTEX
 8
FULGOR
 10
-1.0332
 20
-16.8988
 30
0.4025
 70
192
 0
VERTEX
 8
FULGOR
 10
-1.0128
 20
-16.8733
 30
0.4025
 70
192
 0
VERTEX
 8
FULGOR
 10
-1.1319
 20
-16.7982
 30
0.4025
 70
192
 0
VERTEX
 8
FULGOR
 10
-1.1327
 20
-16.8045
 30
0.4025
 70
192
 0
VERTEX
 8
FULGOR
 10
-1.1341
 20
-16.8108
 30
0.4025
 70
192
 0
VERTEX
 8
FULGOR
 10
-1.1362
 20
-16.817
 30
0.4025
 70
192
 0
VERTEX
 8
FULGOR
 10
-1.139
 20
-16.8232
 30
0.4025
 70
192
 0
VERTEX
 8
FULGOR
 10
-1.1424
 20
-16.8292
 30
0.4025
 70
192
 0
VERTEX
 8
FULGOR
 10
-1.1466
 20
-16.8351
 30
0.4025
 70
192
 0
VERTEX
 8
FULGOR
 10
-1.1541
 20
-16.8437
 30
0.4025
 70
192
 0
VERTEX
 8
FULGOR
 10
-1.1634
 20
-16.8519
 30
0.4025
 70
192
 0
VERTEX
 8
FULGOR
 10
-1.1743
 20
-16.8597
 30
0.4025
 70
192
 0
VERTEX
 8
FULGOR
 10
-1.187
 20
-16.8669
 30
0.4025
 70
192
 0
VERTEX
 8
FULGOR
 10
-1.005
 20
-16.859
 30
0.4025
 70
192
 0
VERTEX
 8
FULGOR
 10
-0.9989
 20
-16.8435
 30
0.4025
 70
192
 0
VERTEX
 8
FULGOR
 10
-0.9948
 20
-16.8268
 30
0.4025
 70
192
 0
VERTEX
 8
FULGOR
 10
-1.1318
 20
-16.5362
 30
0.4025
 70
192
 0
VERTEX
 8
FULGOR
 10
-1.1318
 20
-16.7918
 30
0.4025
 70
192
 0
VERTEX
 8
FULGOR
 10
-1.4369
 20
-16.8934
 30
0.4025
 70
192
 0
VERTEX
 8
FULGOR
 10
-1.2067
 20
-16.8756
 30
0.4025
 70
192
 0
VERTEX
 8
FULGOR
 10
-1.503
 20
-16.8811
 30
0.4025
 70
192
 0
VERTEX
 8
FULGOR
 10
-1.5235
 20
-16.8738
 30
0.4025
 70
192
 0
VERTEX
 8
FULGOR
 10
-1.2298
 20
-16.883
 30
0.4025
 70
192
 0
VERTEX
 8
FULGOR
 10
-1.2635
 20
-16.8903
 30
0.4025
 70
192
 0
VERTEX
 8
FULGOR
 10
-1.3028
 20
-16.8951
 30
0.4025
 70
192
 0
VERTEX
 8
FULGOR
 10
-1.5635
 20
-16.8465
 30
0.4025
 70
192
 0
VERTEX
 8
FULGOR
 10
-1.5684
 20
-16.8405
 30
0.4025
 70
192
 0
VERTEX
 8
FULGOR
 10
-1.5726
 20
-16.8341
 30
0.4025
 70
192
 0
VERTEX
 8
FULGOR
 10
-1.576
 20
-16.8273
 30
0.4025
 70
192
 0
VERTEX
 8
FULGOR
 10
-1.5789
 20
-16.8202
 30
0.4025
 70
192
 0
VERTEX
 8
FULGOR
 10
-1.3577
 20
-16.8972
 30
0.4025
 70
192
 0
VERTEX
 8
FULGOR
 10
-1.5831
 20
-16.801
 30
0.4025
 70
192
 0
VERTEX
 8
FULGOR
 10
-1.5837
 20
-16.7884
 30
0.4025
 70
192
 0
VERTEX
 8
FULGOR
 10
-1.5837
 20
-16.5362
 30
0.4025
 70
192
 0
VERTEX
 8
FULGOR
 10
-1.4792
 20
-16.887
 30
0.4025
 70
192
 0
VERTEX
 8
FULGOR
 10
-1.5367
 20
-16.8674
 30
0.4025
 70
192
 0
VERTEX
 8
FULGOR
 10
-1.5482
 20
-16.8602
 30
0.4025
 70
192
 0
VERTEX
 8
FULGOR
 10
-1.5579
 20
-16.8523
 30
0.4025
 70
192
 0
VERTEX
 8
FULGOR
 10
-0.7109
 20
-16.8872
 30
0.4025
 70
192
 0
VERTEX
 8
FULGOR
 10
-0.7109
 20
-16.5362
 30
0.4025
 70
192
 0
VERTEX
 8
FULGOR
 10
0.399
 20
-16.5777
 30
0.4025
 70
192
 0
VERTEX
 8
FULGOR
 10
-1.581
 20
-16.8128
 30
0.4025
 70
192
 0
VERTEX
 8
FULGOR
 10
-0.8507
 20
-16.5362
 30
0.4025
 70
192
 0
VERTEX
 8
FULGOR
 10
0.1226
 20
-16.5366
 30
0.4025
 70
192
 0
VERTEX
 8
FULGOR
 10
-0.8507
 20
-16.9867
 30
0.4025
 70
192
 0
VERTEX
 8
FULGOR
 10
-0.368
 20
-16.9867
 30
0.4025
 70
192
 0
VERTEX
 8
FULGOR
 10
-0.368
 20
-16.8872
 30
0.4025
 70
192
 0
VERTEX
 8
FULGOR
 10
0.3201
 20
-16.56
 30
0.4025
 70
192
 0
VERTEX
 8
FULGOR
 10
0.2365
 20
-16.5467
 30
0.4025
 70
192
 0
VERTEX
 8
FULGOR
 10
0.0591
 20
-16.5367
 30
0.4025
 70
192
 0
VERTEX
 8
FULGOR
 10
-0.1861
 20
-16.6049
 30
0.4025
 70
192
 0
VERTEX
 8
FULGOR
 10
-0.2099
 20
-16.6204
 30
0.4025
 70
192
 0
VERTEX
 8
FULGOR
 10
-0.23
 20
-16.6364
 30
0.4025
 70
192
 0
VERTEX
 8
FULGOR
 10
-0.2471
 20
-16.6529
 30
0.4025
 70
192
 0
VERTEX
 8
FULGOR
 10
0.0015
 20
-16.5425
 30
0.4025
 70
192
 0
VERTEX
 8
FULGOR
 10
-0.0498
 20
-16.5523
 30
0.4025
 70
192
 0
VERTEX
 8
FULGOR
 10
-0.1001
 20
-16.5667
 30
0.4025
 70
192
 0
VERTEX
 8
FULGOR
 10
-0.2854
 20
-16.7139
 30
0.4025
 70
192
 0
VERTEX
 8
FULGOR
 10
-0.2894
 20
-16.7269
 30
0.4025
 70
192
 0
VERTEX
 8
FULGOR
 10
-0.1454
 20
-16.5843
 30
0.4025
 70
192
 0
VERTEX
 8
FULGOR
 10
-0.1687
 20
-16.5954
 30
0.4025
 70
192
 0
VERTEX
 8
FULGOR
 10
-0.2604
 20
-16.6687
 30
0.4025
 70
192
 0
VERTEX
 8
FULGOR
 10
-0.2933
 20
-16.7796
 30
0.4025
 70
192
 0
VERTEX
 8
FULGOR
 10
-0.27
 20
-16.6826
 30
0.4025
 70
192
 0
VERTEX
 8
FULGOR
 10
-0.2785
 20
-16.6977
 30
0.4025
 70
192
 0
VERTEX
 8
FULGOR
 10
-0.2923
 20
-16.7405
 30
0.4025
 70
192
 0
VERTEX
 8
FULGOR
 10
-0.2935
 20
-16.75
 30
0.4025
 70
192
 0
VERTEX
 8
FULGOR
 10
-0.2942
 20
-16.7647
 30
0.4025
 70
192
 0
VERTEX
 8
FULGOR
 10
-0.2907
 20
-16.7942
 30
0.4025
 70
192
 0
VERTEX
 8
FULGOR
 10
-0.232
 20
-16.8843
 30
0.4025
 70
192
 0
VERTEX
 8
FULGOR
 10
-0.2098
 20
-16.9021
 30
0.4025
 70
192
 0
VERTEX
 8
FULGOR
 10
-0.2865
 20
-16.8084
 30
0.4025
 70
192
 0
VERTEX
 8
FULGOR
 10
-0.1484
 20
-16.938
 30
0.4025
 70
192
 0
VERTEX
 8
FULGOR
 10
-0.1148
 20
-16.9519
 30
0.4025
 70
192
 0
VERTEX
 8
FULGOR
 10
-0.2807
 20
-16.8222
 30
0.4025
 70
192
 0
VERTEX
 8
FULGOR
 10
-0.2734
 20
-16.8355
 30
0.4025
 70
192
 0
VERTEX
 8
FULGOR
 10
0.0432
 20
-16.9844
 30
0.4025
 70
192
 0
VERTEX
 8
FULGOR
 10
0.0869
 20
-16.9865
 30
0.4025
 70
192
 0
VERTEX
 8
FULGOR
 10
0.1226
 20
-16.9863
 30
0.4025
 70
192
 0
VERTEX
 8
FULGOR
 10
0.1793
 20
-16.9831
 30
0.4025
 70
192
 0
VERTEX
 8
FULGOR
 10
-0.2617
 20
-16.8527
 30
0.4025
 70
192
 0
VERTEX
 8
FULGOR
 10
-0.2478
 20
-16.8689
 30
0.4025
 70
192
 0
VERTEX
 8
FULGOR
 10
-0.1803
 20
-16.9213
 30
0.4025
 70
192
 0
VERTEX
 8
FULGOR
 10
0.2385
 20
-16.7528
 30
0.4025
 70
192
 0
VERTEX
 8
FULGOR
 10
-0.0692
 20
-16.9661
 30
0.4025
 70
192
 0
VERTEX
 8
FULGOR
 10
-0.0188
 20
-16.9769
 30
0.4025
 70
192
 0
VERTEX
 8
FULGOR
 10
0.2497
 20
-16.9739
 30
0.4025
 70
192
 0
VERTEX
 8
FULGOR
 10
0.399
 20
-16.9453
 30
0.4025
 70
192
 0
VERTEX
 8
FULGOR
 10
0.0818
 20
-16.8941
 30
0.4025
 70
192
 0
VERTEX
 8
FULGOR
 10
0.0511
 20
-16.8917
 30
0.4025
 70
192
 0
VERTEX
 8
FULGOR
 10
0.399
 20
-16.7528
 30
0.4025
 70
192
 0
VERTEX
 8
FULGOR
 10
-0.0064
 20
-16.8789
 30
0.4025
 70
192
 0
VERTEX
 8
FULGOR
 10
-0.0272
 20
-16.8708
 30
0.4025
 70
192
 0
VERTEX
 8
FULGOR
 10
0.2384
 20
-16.8847
 30
0.4025
 70
192
 0
VERTEX
 8
FULGOR
 10
0.2201
 20
-16.8881
 30
0.4025
 70
192
 0
VERTEX
 8
FULGOR
 10
-0.0754
 20
-16.8403
 30
0.4025
 70
192
 0
VERTEX
 8
FULGOR
 10
0.1698
 20
-16.8932
 30
0.4025
 70
192
 0
VERTEX
 8
FULGOR
 10
0.1328
 20
-16.8946
 30
0.4025
 70
192
 0
VERTEX
 8
FULGOR
 10
0.0215
 20
-16.8866
 30
0.4025
 70
192
 0
VERTEX
 8
FULGOR
 10
-0.0464
 20
-16.8611
 30
0.4025
 70
192
 0
VERTEX
 8
FULGOR
 10
-0.1109
 20
-16.7844
 30
0.4025
 70
192
 0
VERTEX
 8
FULGOR
 10
-0.113
 20
-16.7748
 30
0.4025
 70
192
 0
VERTEX
 8
FULGOR
 10
-0.1143
 20
-16.765
 30
0.4025
 70
192
 0
VERTEX
 8
FULGOR
 10
-0.1148
 20
-16.7547
 30
0.4025
 70
192
 0
VERTEX
 8
FULGOR
 10
-0.1142
 20
-16.7445
 30
0.4025
 70
192
 0
VERTEX
 8
FULGOR
 10
-0.0638
 20
-16.8498
 30
0.4025
 70
192
 0
VERTEX
 8
FULGOR
 10
-0.0858
 20
-16.8299
 30
0.4025
 70
192
 0
VERTEX
 8
FULGOR
 10
-0.0947
 20
-16.8186
 30
0.4025
 70
192
 0
VERTEX
 8
FULGOR
 10
-0.1015
 20
-16.7083
 30
0.4025
 70
192
 0
VERTEX
 8
FULGOR
 10
-0.096
 20
-16.7003
 30
0.4025
 70
192
 0
VERTEX
 8
FULGOR
 10
-0.0898
 20
-16.6929
 30
0.4025
 70
192
 0
VERTEX
 8
FULGOR
 10
-0.1021
 20
-16.8065
 30
0.4025
 70
192
 0
VERTEX
 8
FULGOR
 10
-0.067
 20
-16.673
 30
0.4025
 70
192
 0
VERTEX
 8
FULGOR
 10
-0.0538
 20
-16.6645
 30
0.4025
 70
192
 0
VERTEX
 8
FULGOR
 10
-0.108
 20
-16.7935
 30
0.4025
 70
192
 0
VERTEX
 8
FULGOR
 10
-0.0093
 20
-16.6448
 30
0.4025
 70
192
 0
VERTEX
 8
FULGOR
 10
0.017
 20
-16.6373
 30
0.4025
 70
192
 0
VERTEX
 8
FULGOR
 10
-0.1125
 20
-16.7348
 30
0.4025
 70
192
 0
VERTEX
 8
FULGOR
 10
0.063
 20
-16.6301
 30
0.4025
 70
192
 0
VERTEX
 8
FULGOR
 10
-0.1098
 20
-16.7255
 30
0.4025
 70
192
 0
VERTEX
 8
FULGOR
 10
0.1755
 20
-16.6338
 30
0.4025
 70
192
 0
VERTEX
 8
FULGOR
 10
-0.1061
 20
-16.7167
 30
0.4025
 70
192
 0
VERTEX
 8
FULGOR
 10
0.399
 20
-16.6739
 30
0.4025
 70
192
 0
VERTEX
 8
FULGOR
 10
0.5409
 20
-16.7615
 30
0.4025
 70
192
 0
VERTEX
 8
FULGOR
 10
0.5421
 20
-16.7815
 30
0.4025
 70
192
 0
VERTEX
 8
FULGOR
 10
-0.0791
 20
-16.6825
 30
0.4025
 70
192
 0
VERTEX
 8
FULGOR
 10
-0.0347
 20
-16.6547
 30
0.4025
 70
192
 0
VERTEX
 8
FULGOR
 10
0.5587
 20
-16.835
 30
0.4025
 70
192
 0
VERTEX
 8
FULGOR
 10
0.5681
 20
-16.8507
 30
0.4025
 70
192
 0
VERTEX
 8
FULGOR
 10
0.5793
 20
-16.8654
 30
0.4025
 70
192
 0
VERTEX
 8
FULGOR
 10
0.592
 20
-16.8791
 30
0.4025
 70
192
 0
VERTEX
 8
FULGOR
 10
0.6139
 20
-16.8979
 30
0.4025
 70
192
 0
VERTEX
 8
FULGOR
 10
0.0481
 20
-16.6317
 30
0.4025
 70
192
 0
VERTEX
 8
FULGOR
 10
0.0818
 20
-16.6294
 30
0.4025
 70
192
 0
VERTEX
 8
FULGOR
 10
0.2626
 20
-16.6462
 30
0.4025
 70
192
 0
VERTEX
 8
FULGOR
 10
0.5455
 20
-16.8004
 30
0.4025
 70
192
 0
VERTEX
 8
FULGOR
 10
0.5511
 20
-16.8183
 30
0.4025
 70
192
 0
VERTEX
 8
FULGOR
 10
0.8844
 20
-16.9831
 30
0.4025
 70
192
 0
VERTEX
 8
FULGOR
 10
0.9428
 20
-16.9854
 30
0.4025
 70
192
 0
VERTEX
 8
FULGOR
 10
0.6385
 20
-16.9145
 30
0.4025
 70
192
 0
VERTEX
 8
FULGOR
 10
1.0861
 20
-16.9717
 30
0.4025
 70
192
 0
VERTEX
 8
FULGOR
 10
0.6656
 20
-16.9292
 30
0.4025
 70
192
 0
VERTEX
 8
FULGOR
 10
0.7046
 20
-16.9457
 30
0.4025
 70
192
 0
VERTEX
 8
FULGOR
 10
0.7567
 20
-16.962
 30
0.4025
 70
192
 0
VERTEX
 8
FULGOR
 10
0.8211
 20
-16.9755
 30
0.4025
 70
192
 0
VERTEX
 8
FULGOR
 10
1.0116
 20
-16.9822
 30
0.4025
 70
192
 0
VERTEX
 8
FULGOR
 10
1.3001
 20
-16.8724
 30
0.4025
 70
192
 0
VERTEX
 8
FULGOR
 10
1.1501
 20
-16.956
 30
0.4025
 70
192
 0
VERTEX
 8
FULGOR
 10
1.2008
 20
-16.9378
 30
0.4025
 70
192
 0
VERTEX
 8
FULGOR
 10
1.2383
 20
-16.9196
 30
0.4025
 70
192
 0
VERTEX
 8
FULGOR
 10
1.2638
 20
-16.9036
 30
0.4025
 70
192
 0
VERTEX
 8
FULGOR
 10
1.2866
 20
-16.8856
 30
0.4025
 70
192
 0
VERTEX
 8
FULGOR
 10
1.3435
 20
-16.7816
 30
0.4025
 70
192
 0
VERTEX
 8
FULGOR
 10
1.3447
 20
-16.7616
 30
0.4025
 70
192
 0
VERTEX
 8
FULGOR
 10
1.3436
 20
-16.7416
 30
0.4025
 70
192
 0
VERTEX
 8
FULGOR
 10
1.3401
 20
-16.7227
 30
0.4025
 70
192
 0
VERTEX
 8
FULGOR
 10
1.3121
 20
-16.8582
 30
0.4025
 70
192
 0
VERTEX
 8
FULGOR
 10
1.3224
 20
-16.843
 30
0.4025
 70
192
 0
VERTEX
 8
FULGOR
 10
1.3309
 20
-16.8268
 30
0.4025
 70
192
 0
VERTEX
 8
FULGOR
 10
1.3065
 20
-16.6578
 30
0.4025
 70
192
 0
VERTEX
 8
FULGOR
 10
1.2938
 20
-16.6441
 30
0.4025
 70
192
 0
VERTEX
 8
FULGOR
 10
1.2719
 20
-16.6254
 30
0.4025
 70
192
 0
VERTEX
 8
FULGOR
 10
1.2473
 20
-16.6087
 30
0.4025
 70
192
 0
VERTEX
 8
FULGOR
 10
1.2202
 20
-16.594
 30
0.4025
 70
192
 0
VERTEX
 8
FULGOR
 10
1.1811
 20
-16.5774
 30
0.4025
 70
192
 0
VERTEX
 8
FULGOR
 10
1.3375
 20
-16.8096
 30
0.4025
 70
192
 0
VERTEX
 8
FULGOR
 10
1.342
 20
-16.7912
 30
0.4025
 70
192
 0
VERTEX
 8
FULGOR
 10
1.3346
 20
-16.7049
 30
0.4025
 70
192
 0
VERTEX
 8
FULGOR
 10
1.3271
 20
-16.6882
 30
0.4025
 70
192
 0
VERTEX
 8
FULGOR
 10
0.8741
 20
-16.5408
 30
0.4025
 70
192
 0
VERTEX
 8
FULGOR
 10
1.3176
 20
-16.6725
 30
0.4025
 70
192
 0
VERTEX
 8
FULGOR
 10
1.1291
 20
-16.5611
 30
0.4025
 70
192
 0
VERTEX
 8
FULGOR
 10
1.0646
 20
-16.5476
 30
0.4025
 70
192
 0
VERTEX
 8
FULGOR
 10
1.0013
 20
-16.5399
 30
0.4025
 70
192
 0
VERTEX
 8
FULGOR
 10
0.6217
 20
-16.6193
 30
0.4025
 70
192
 0
VERTEX
 8
FULGOR
 10
0.5988
 20
-16.6374
 30
0.4025
 70
192
 0
VERTEX
 8
FULGOR
 10
0.5853
 20
-16.6506
 30
0.4025
 70
192
 0
VERTEX
 8
FULGOR
 10
0.5734
 20
-16.6648
 30
0.4025
 70
192
 0
VERTEX
 8
FULGOR
 10
0.5631
 20
-16.68
 30
0.4025
 70
192
 0
VERTEX
 8
FULGOR
 10
0.5546
 20
-16.6962
 30
0.4025
 70
192
 0
VERTEX
 8
FULGOR
 10
0.548
 20
-16.7135
 30
0.4025
 70
192
 0
VERTEX
 8
FULGOR
 10
0.9428
 20
-16.5375
 30
0.4025
 70
192
 0
VERTEX
 8
FULGOR
 10
0.542
 20
-16.7414
 30
0.4025
 70
192
 0
VERTEX
 8
FULGOR
 10
0.7215
 20
-16.7616
 30
0.4025
 70
192
 0
VERTEX
 8
FULGOR
 10
0.7219
 20
-16.7725
 30
0.4025
 70
192
 0
VERTEX
 8
FULGOR
 10
0.7995
 20
-16.5513
 30
0.4025
 70
192
 0
VERTEX
 8
FULGOR
 10
0.7355
 20
-16.5669
 30
0.4025
 70
192
 0
VERTEX
 8
FULGOR
 10
0.6846
 20
-16.5851
 30
0.4025
 70
192
 0
VERTEX
 8
FULGOR
 10
0.6472
 20
-16.6034
 30
0.4025
 70
192
 0
VERTEX
 8
FULGOR
 10
0.5435
 20
-16.7319
 30
0.4025
 70
192
 0
VERTEX
 8
FULGOR
 10
0.7436
 20
-16.8272
 30
0.4025
 70
192
 0
VERTEX
 8
FULGOR
 10
0.75
 20
-16.8347
 30
0.4025
 70
192
 0
VERTEX
 8
FULGOR
 10
0.7234
 20
-16.7828
 30
0.4025
 70
192
 0
VERTEX
 8
FULGOR
 10
0.7257
 20
-16.7927
 30
0.4025
 70
192
 0
VERTEX
 8
FULGOR
 10
0.7289
 20
-16.8021
 30
0.4025
 70
192
 0
VERTEX
 8
FULGOR
 10
0.733
 20
-16.8109
 30
0.4025
 70
192
 0
VERTEX
 8
FULGOR
 10
0.8305
 20
-16.8797
 30
0.4025
 70
192
 0
VERTEX
 8
FULGOR
 10
0.8611
 20
-16.8869
 30
0.4025
 70
192
 0
VERTEX
 8
FULGOR
 10
0.7379
 20
-16.8193
 30
0.4025
 70
192
 0
VERTEX
 8
FULGOR
 10
0.9428
 20
-16.894
 30
0.4025
 70
192
 0
VERTEX
 8
FULGOR
 10
0.9917
 20
-16.8916
 30
0.4025
 70
192
 0
VERTEX
 8
FULGOR
 10
0.761
 20
-16.845
 30
0.4025
 70
192
 0
VERTEX
 8
FULGOR
 10
1.061
 20
-16.8779
 30
0.4025
 70
192
 0
VERTEX
 8
FULGOR
 10
1.0831
 20
-16.8697
 30
0.4025
 70
192
 0
VERTEX
 8
FULGOR
 10
1.1031
 20
-16.8598
 30
0.4025
 70
192
 0
VERTEX
 8
FULGOR
 10
0.7735
 20
-16.8543
 30
0.4025
 70
192
 0
VERTEX
 8
FULGOR
 10
1.1285
 20
-16.8416
 30
0.4025
 70
192
 0
VERTEX
 8
FULGOR
 10
0.7874
 20
-16.8625
 30
0.4025
 70
192
 0
VERTEX
 8
FULGOR
 10
0.8079
 20
-16.872
 30
0.4025
 70
192
 0
VERTEX
 8
FULGOR
 10
1.1504
 20
-16.8151
 30
0.4025
 70
192
 0
VERTEX
 8
FULGOR
 10
0.9008
 20
-16.8922
 30
0.4025
 70
192
 0
VERTEX
 8
FULGOR
 10
1.0309
 20
-16.8856
 30
0.4025
 70
192
 0
VERTEX
 8
FULGOR
 10
1.1165
 20
-16.8512
 30
0.4025
 70
192
 0
VERTEX
 8
FULGOR
 10
1.1632
 20
-16.7777
 30
0.4025
 70
192
 0
VERTEX
 8
FULGOR
 10
1.1638
 20
-16.7725
 30
0.4025
 70
192
 0
VERTEX
 8
FULGOR
 10
1.1643
 20
-16.7616
 30
0.4025
 70
192
 0
VERTEX
 8
FULGOR
 10
1.1638
 20
-16.7508
 30
0.4025
 70
192
 0
VERTEX
 8
FULGOR
 10
1.139
 20
-16.831
 30
0.4025
 70
192
 0
VERTEX
 8
FULGOR
 10
1.1451
 20
-16.8233
 30
0.4025
 70
192
 0
VERTEX
 8
FULGOR
 10
1.1568
 20
-16.7213
 30
0.4025
 70
192
 0
VERTEX
 8
FULGOR
 10
1.1527
 20
-16.7124
 30
0.4025
 70
192
 0
VERTEX
 8
FULGOR
 10
1.1549
 20
-16.8065
 30
0.4025
 70
192
 0
VERTEX
 8
FULGOR
 10
1.1585
 20
-16.7974
 30
0.4025
 70
192
 0
VERTEX
 8
FULGOR
 10
1.1357
 20
-16.6887
 30
0.4025
 70
192
 0
VERTEX
 8
FULGOR
 10
1.1613
 20
-16.7878
 30
0.4025
 70
192
 0
VERTEX
 8
FULGOR
 10
1.1624
 20
-16.7405
 30
0.4025
 70
192
 0
VERTEX
 8
FULGOR
 10
1.0982
 20
-16.661
 30
0.4025
 70
192
 0
VERTEX
 8
FULGOR
 10
1.0777
 20
-16.6516
 30
0.4025
 70
192
 0
VERTEX
 8
FULGOR
 10
1.16
 20
-16.7306
 30
0.4025
 70
192
 0
VERTEX
 8
FULGOR
 10
1.1478
 20
-16.7041
 30
0.4025
 70
192
 0
VERTEX
 8
FULGOR
 10
1.1421
 20
-16.6962
 30
0.4025
 70
192
 0
VERTEX
 8
FULGOR
 10
1.1247
 20
-16.6785
 30
0.4025
 70
192
 0
VERTEX
 8
FULGOR
 10
0.894
 20
-16.632
 30
0.4025
 70
192
 0
VERTEX
 8
FULGOR
 10
0.8549
 20
-16.6379
 30
0.4025
 70
192
 0
VERTEX
 8
FULGOR
 10
0.8247
 20
-16.6456
 30
0.4025
 70
192
 0
VERTEX
 8
FULGOR
 10
1.1122
 20
-16.6692
 30
0.4025
 70
192
 0
VERTEX
 8
FULGOR
 10
1.0552
 20
-16.6439
 30
0.4025
 70
192
 0
VERTEX
 8
FULGOR
 10
1.0245
 20
-16.6367
 30
0.4025
 70
192
 0
VERTEX
 8
FULGOR
 10
0.9848
 20
-16.6314
 30
0.4025
 70
192
 0
VERTEX
 8
FULGOR
 10
0.9428
 20
-16.6297
 30
0.4025
 70
192
 0
VERTEX
 8
FULGOR
 10
0.8027
 20
-16.6537
 30
0.4025
 70
192
 0
VERTEX
 8
FULGOR
 10
0.7827
 20
-16.6636
 30
0.4025
 70
192
 0
VERTEX
 8
FULGOR
 10
0.7693
 20
-16.6721
 30
0.4025
 70
192
 0
VERTEX
 8
FULGOR
 10
0.7572
 20
-16.6817
 30
0.4025
 70
192
 0
VERTEX
 8
FULGOR
 10
0.7468
 20
-16.6923
 30
0.4025
 70
192
 0
VERTEX
 8
FULGOR
 10
0.7407
 20
-16.7
 30
0.4025
 70
192
 0
VERTEX
 8
FULGOR
 10
0.7354
 20
-16.7081
 30
0.4025
 70
192
 0
VERTEX
 8
FULGOR
 10
0.7309
 20
-16.7167
 30
0.4025
 70
192
 0
VERTEX
 8
FULGOR
 10
0.7272
 20
-16.7258
 30
0.4025
 70
192
 0
VERTEX
 8
FULGOR
 10
0.7244
 20
-16.7354
 30
0.4025
 70
192
 0
VERTEX
 8
FULGOR
 10
1.7114
 20
-16.7963
 30
0.4025
 70
192
 0
VERTEX
 8
FULGOR
 10
0.7225
 20
-16.7455
 30
0.4025
 70
192
 0
VERTEX
 8
FULGOR
 10
0.7219
 20
-16.7508
 30
0.4025
 70
192
 0
VERTEX
 8
FULGOR
 10
1.4866
 20
-16.9867
 30
0.4025
 70
192
 0
VERTEX
 8
FULGOR
 10
1.6263
 20
-16.9867
 30
0.4025
 70
192
 0
VERTEX
 8
FULGOR
 10
1.6263
 20
-16.7963
 30
0.4025
 70
192
 0
VERTEX
 8
FULGOR
 10
1.81
 20
-16.8414
 30
0.4025
 70
192
 0
VERTEX
 8
FULGOR
 10
1.8208
 20
-16.8529
 30
0.4025
 70
192
 0
VERTEX
 8
FULGOR
 10
1.919
 20
-16.9867
 30
0.4025
 70
192
 0
VERTEX
 8
FULGOR
 10
2.1683
 20
-16.9867
 30
0.4025
 70
192
 0
VERTEX
 8
FULGOR
 10
2.1348
 20
-16.9693
 30
0.4025
 70
192
 0
VERTEX
 8
FULGOR
 10
1.7576
 20
-16.8056
 30
0.4025
 70
192
 0
VERTEX
 8
FULGOR
 10
1.769
 20
-16.811
 30
0.4025
 70
192
 0
VERTEX
 8
FULGOR
 10
2.0863
 20
-16.936
 30
0.4025
 70
192
 0
VERTEX
 8
FULGOR
 10
2.0499
 20
-16.9022
 30
0.4025
 70
192
 0
VERTEX
 8
FULGOR
 10
1.4866
 20
-16.7163
 30
0.4025
 70
192
 0
VERTEX
 8
FULGOR
 10
2.0036
 20
-16.8401
 30
0.4025
 70
192
 0
VERTEX
 8
FULGOR
 10
1.9811
 20
-16.8147
 30
0.4025
 70
192
 0
VERTEX
 8
FULGOR
 10
1.9598
 20
-16.7967
 30
0.4025
 70
192
 0
VERTEX
 8
FULGOR
 10
1.7962
 20
-16.8291
 30
0.4025
 70
192
 0
VERTEX
 8
FULGOR
 10
1.0499
 20
-16.9768
 30
0.4025
 70
192
 0
VERTEX
 8
FULGOR
 10
1.9086
 20
-16.7692
 30
0.4025
 70
192
 0
VERTEX
 8
FULGOR
 10
2.1067
 20
-16.9518
 30
0.4025
 70
192
 0
VERTEX
 8
FULGOR
 10
1.9762
 20
-16.7409
 30
0.4025
 70
192
 0
VERTEX
 8
FULGOR
 10
1.9392
 20
-16.7832
 30
0.4025
 70
192
 0
VERTEX
 8
FULGOR
 10
2.0001
 20
-16.7214
 30
0.4025
 70
192
 0
VERTEX
 8
FULGOR
 10
1.9234
 20
-16.7749
 30
0.4025
 70
192
 0
VERTEX
 8
FULGOR
 10
2.0225
 20
-16.6868
 30
0.4025
 70
192
 0
VERTEX
 8
FULGOR
 10
2.0275
 20
-16.6676
 30
0.4025
 70
192
 0
VERTEX
 8
FULGOR
 10
1.941
 20
-16.759
 30
0.4025
 70
192
 0
VERTEX
 8
FULGOR
 10
2.0254
 20
-16.6305
 30
0.4025
 70
192
 0
VERTEX
 8
FULGOR
 10
2.0171
 20
-16.612
 30
0.4025
 70
192
 0
VERTEX
 8
FULGOR
 10
2.0043
 20
-16.596
 30
0.4025
 70
192
 0
VERTEX
 8
FULGOR
 10
1.9832
 20
-16.5792
 30
0.4025
 70
192
 0
VERTEX
 8
FULGOR
 10
2.0142
 20
-16.7036
 30
0.4025
 70
192
 0
VERTEX
 8
FULGOR
 10
1.8807
 20
-16.5437
 30
0.4025
 70
192
 0
VERTEX
 8
FULGOR
 10
1.8397
 20
-16.5382
 30
0.4025
 70
192
 0
VERTEX
 8
FULGOR
 10
2.0286
 20
-16.6515
 30
0.4025
 70
192
 0
VERTEX
 8
FULGOR
 10
1.6263
 20
-16.6164
 30
0.4025
 70
192
 0
VERTEX
 8
FULGOR
 10
1.9465
 20
-16.5611
 30
0.4025
 70
192
 0
VERTEX
 8
FULGOR
 10
1.7997
 20
-16.5362
 30
0.4025
 70
192
 0
VERTEX
 8
FULGOR
 10
1.4866
 20
-16.5362
 30
0.4025
 70
192
 0
VERTEX
 8
FULGOR
 10
1.6263
 20
-16.7161
 30
0.4025
 70
192
 0
VERTEX
 8
FULGOR
 10
1.7538
 20
-16.7163
 30
0.4025
 70
192
 0
VERTEX
 8
FULGOR
 10
1.79
 20
-16.7133
 30
0.4025
 70
192
 0
VERTEX
 8
FULGOR
 10
1.831
 20
-16.6986
 30
0.4025
 70
192
 0
VERTEX
 8
FULGOR
 10
1.84
 20
-16.6913
 30
0.4025
 70
192
 0
VERTEX
 8
FULGOR
 10
1.8456
 20
-16.6844
 30
0.4025
 70
192
 0
VERTEX
 8
FULGOR
 10
1.8506
 20
-16.6598
 30
0.4025
 70
192
 0
VERTEX
 8
FULGOR
 10
1.8482
 20
-16.651
 30
0.4025
 70
192
 0
VERTEX
 8
FULGOR
 10
1.7826
 20
-16.618
 30
0.4025
 70
192
 0
VERTEX
 8
FULGOR
 10
1.8281
 20
-16.6305
 30
0.4025
 70
192
 0
VERTEX
 8
FULGOR
 10
1.7666
 20
-16.6167
 30
0.4025
 70
192
 0
VERTEX
 8
FULGOR
 10
1.8117
 20
-16.6238
 30
0.4025
 70
192
 0
VERTEX
 8
FULGOR
 10
1.7988
 20
-16.6205
 30
0.4025
 70
192
 0
VERTEX
 8
FULGOR
 10
0.7884
 20
-16.9686
 30
0.4025
 70
192
 0
VERTEX
 8
FULGOR
 10
0.7333
 20
-16.9547
 30
0.4025
 70
192
 0
VERTEX
 8
FULGOR
 10
1.7495
 20
-16.6164
 30
0.4025
 70
192
 0
VERTEX
 8
FULGOR
 10
1.7467
 20
-16.5362
 30
0.4025
 70
192
 0
VERTEX
 8
FULGOR
 10
1.8435
 20
-16.6434
 30
0.4025
 70
192
 0
VERTEX
 8
FULGOR
 10
1.8374
 20
-16.6371
 30
0.4025
 70
192
 0
VERTEX
 8
FULGOR
 10
1.8508
 20
-16.6683
 30
0.4025
 70
192
 0
VERTEX
 8
FULGOR
 10
1.8492
 20
-16.6765
 30
0.4025
 70
192
 0
VERTEX
 8
FULGOR
 10
1.7112
 20
-16.7162
 30
0.4025
 70
192
 0
VERTEX
 8
FULGOR
 10
1.9139
 20
-16.9797
 30
0.4025
 70
192
 0
VERTEX
 8
FULGOR
 10
1.9067
 20
-16.9699
 30
0.4025
 70
192
 0
VERTEX
 8
FULGOR
 10
0.0359
 20
-16.8891
 30
0.4025
 70
192
 0
VERTEX
 8
FULGOR
 10
1.8939
 20
-16.9522
 30
0.4025
 70
192
 0
VERTEX
 8
FULGOR
 10
1.8819
 20
-16.9358
 30
0.4025
 70
192
 0
VERTEX
 8
FULGOR
 10
0.0659
 20
-16.8929
 30
0.4025
 70
192
 0
VERTEX
 8
FULGOR
 10
1.4866
 20
-16.7964
 30
0.4025
 70
192
 0
VERTEX
 8
FULGOR
 10
1.8499
 20
-16.8917
 30
0.4025
 70
192
 0
VERTEX
 8
FULGOR
 10
1.8379
 20
-16.8752
 30
0.4025
 70
192
 0
VERTEX
 8
FULGOR
 10
0
 20
0
 30
0
 70
128
 71
244
 72
245
 73
188
 74
3
 0
VERTEX
 8
FULGOR
 10
0
 20
0
 30
0
 70
128
 71
137
 72
135
 73
127
 74
120
 0
VERTEX
 8
FULGOR
 10
0
 20
0
 30
0
 70
128
 71
287
 72
288
 73
220
 74
219
 0
VERTEX
 8
FULGOR
 10
0
 20
0
 30
0
 70
128
 71
135
 72
134
 73
128
 74
127
 0
VERTEX
 8
FULGOR
 10
0
 20
0
 30
0
 70
128
 71
145
 72
144
 73
106
 74
99
 0
VERTEX
 8
FULGOR
 10
0
 20
0
 30
0
 70
128
 71
152
 72
148
 73
115
 74
112
 0
VERTEX
 8
FULGOR
 10
0
 20
0
 30
0
 70
128
 71
288
 72
289
 73
221
 74
220
 0
VERTEX
 8
FULGOR
 10
0
 20
0
 30
0
 70
128
 71
155
 72
152
 73
112
 74
109
 0
VERTEX
 8
FULGOR
 10
0
 20
0
 30
0
 70
128
 71
141
 72
155
 73
109
 74
103
 0
VERTEX
 8
FULGOR
 10
0
 20
0
 30
0
 70
128
 71
289
 72
290
 73
230
 74
221
 0
VERTEX
 8
FULGOR
 10
0
 20
0
 30
0
 70
128
 71
290
 72
292
 73
223
 74
230
 0
VERTEX
 8
FULGOR
 10
0
 20
0
 30
0
 70
128
 71
142
 72
141
 73
103
 74
108
 0
VERTEX
 8
FULGOR
 10
0
 20
0
 30
0
 70
128
 71
143
 72
142
 73
108
 74
107
 0
VERTEX
 8
FULGOR
 10
0
 20
0
 30
0
 70
128
 71
144
 72
143
 73
107
 74
106
 0
VERTEX
 8
FULGOR
 10
0
 20
0
 30
0
 70
128
 71
254
 72
255
 73
207
 74
206
 0
VERTEX
 8
FULGOR
 10
0
 20
0
 30
0
 70
128
 71
265
 72
254
 73
206
 74
199
 0
VERTEX
 8
FULGOR
 10
0
 20
0
 30
0
 70
128
 71
263
 72
265
 73
199
 74
198
 0
VERTEX
 8
FULGOR
 10
0
 20
0
 30
0
 70
128
 71
251
 72
240
 73
179
 74
178
 0
VERTEX
 8
FULGOR
 10
0
 20
0
 30
0
 70
128
 71
5
 72
8
 73
7
 74
6
 0
VERTEX
 8
FULGOR
 10
0
 20
0
 30
0
 70
128
 71
8
 72
5
 73
4
 74
4
 0
VERTEX
 8
FULGOR
 10
0
 20
0
 30
0
 70
128
 71
8
 72
4
 73
13
 74
2
 0
VERTEX
 8
FULGOR
 10
0
 20
0
 30
0
 70
128
 71
237
 72
238
 73
185
 74
346
 0
VERTEX
 8
FULGOR
 10
0
 20
0
 30
0
 70
128
 71
339
 72
340
 73
321
 74
328
 0
VERTEX
 8
FULGOR
 10
0
 20
0
 30
0
 70
128
 71
161
 72
174
 73
84
 74
89
 0
VERTEX
 8
FULGOR
 10
0
 20
0
 30
0
 70
128
 71
174
 72
159
 73
90
 74
84
 0
VERTEX
 8
FULGOR
 10
0
 20
0
 30
0
 70
128
 71
249
 72
237
 73
346
 74
184
 0
VERTEX
 8
FULGOR
 10
0
 20
0
 30
0
 70
128
 71
248
 72
249
 73
184
 74
347
 0
VERTEX
 8
FULGOR
 10
0
 20
0
 30
0
 70
128
 71
159
 72
173
 73
95
 74
90
 0
VERTEX
 8
FULGOR
 10
0
 20
0
 30
0
 70
128
 71
173
 72
157
 73
96
 74
95
 0
VERTEX
 8
FULGOR
 10
0
 20
0
 30
0
 70
128
 71
246
 72
248
 73
347
 74
183
 0
VERTEX
 8
FULGOR
 10
0
 20
0
 30
0
 70
128
 71
362
 72
307
 73
305
 74
359
 0
VERTEX
 8
FULGOR
 10
0
 20
0
 30
0
 70
128
 71
151
 72
150
 73
94
 74
93
 0
VERTEX
 8
FULGOR
 10
0
 20
0
 30
0
 70
128
 71
353
 72
352
 73
319
 74
318
 0
VERTEX
 8
FULGOR
 10
0
 20
0
 30
0
 70
128
 71
175
 72
161
 73
89
 74
88
 0
VERTEX
 8
FULGOR
 10
0
 20
0
 30
0
 70
128
 71
253
 72
247
 73
190
 74
189
 0
VERTEX
 8
FULGOR
 10
0
 20
0
 30
0
 70
128
 71
153
 72
166
 73
92
 74
91
 0
VERTEX
 8
FULGOR
 10
0
 20
0
 30
0
 70
128
 71
166
 72
151
 73
93
 74
92
 0
VERTEX
 8
FULGOR
 10
0
 20
0
 30
0
 70
128
 71
273
 72
274
 73
226
 74
210
 0
VERTEX
 8
FULGOR
 10
0
 20
0
 30
0
 70
128
 71
163
 72
175
 73
88
 74
81
 0
VERTEX
 8
FULGOR
 10
0
 20
0
 30
0
 70
128
 71
167
 72
154
 73
101
 74
100
 0
VERTEX
 8
FULGOR
 10
0
 20
0
 30
0
 70
128
 71
154
 72
153
 73
91
 74
101
 0
VERTEX
 8
FULGOR
 10
0
 20
0
 30
0
 70
128
 71
274
 72
275
 73
227
 74
226
 0
VERTEX
 8
FULGOR
 10
0
 20
0
 30
0
 70
128
 71
13
 72
12
 73
2
 74
2
 0
VERTEX
 8
FULGOR
 10
0
 20
0
 30
0
 70
128
 71
13
 72
4
 73
15
 74
14
 0
VERTEX
 8
FULGOR
 10
0
 20
0
 30
0
 70
128
 71
16
 72
74
 73
73
 74
9
 0
VERTEX
 8
FULGOR
 10
0
 20
0
 30
0
 70
128
 71
73
 72
72
 73
10
 74
9
 0
VERTEX
 8
FULGOR
 10
0
 20
0
 30
0
 70
128
 71
72
 72
82
 73
11
 74
10
 0
VERTEX
 8
FULGOR
 10
0
 20
0
 30
0
 70
128
 71
82
 72
70
 73
18
 74
17
 0
VERTEX
 8
FULGOR
 10
0
 20
0
 30
0
 70
128
 71
58
 72
57
 73
40
 74
39
 0
VERTEX
 8
FULGOR
 10
0
 20
0
 30
0
 70
128
 71
82
 72
17
 73
11
 74
11
 0
VERTEX
 8
FULGOR
 10
0
 20
0
 30
0
 70
128
 71
43
 72
58
 73
39
 74
38
 0
VERTEX
 8
FULGOR
 10
0
 20
0
 30
0
 70
128
 71
70
 72
69
 73
20
 74
19
 0
VERTEX
 8
FULGOR
 10
0
 20
0
 30
0
 70
128
 71
70
 72
19
 73
18
 74
18
 0
VERTEX
 8
FULGOR
 10
0
 20
0
 30
0
 70
128
 71
69
 72
68
 73
27
 74
20
 0
VERTEX
 8
FULGOR
 10
0
 20
0
 30
0
 70
128
 71
68
 72
67
 73
29
 74
27
 0
VERTEX
 8
FULGOR
 10
0
 20
0
 30
0
 70
128
 71
67
 72
66
 73
30
 74
29
 0
VERTEX
 8
FULGOR
 10
0
 20
0
 30
0
 70
128
 71
66
 72
78
 73
31
 74
30
 0
VERTEX
 8
FULGOR
 10
0
 20
0
 30
0
 70
128
 71
78
 72
77
 73
32
 74
31
 0
VERTEX
 8
FULGOR
 10
0
 20
0
 30
0
 70
128
 71
32
 72
77
 73
76
 74
21
 0
VERTEX
 8
FULGOR
 10
0
 20
0
 30
0
 70
128
 71
76
 72
62
 73
21
 74
21
 0
VERTEX
 8
FULGOR
 10
0
 20
0
 30
0
 70
128
 71
62
 72
61
 73
22
 74
21
 0
VERTEX
 8
FULGOR
 10
0
 20
0
 30
0
 70
128
 71
61
 72
75
 73
22
 74
22
 0
VERTEX
 8
FULGOR
 10
0
 20
0
 30
0
 70
128
 71
75
 72
59
 73
23
 74
22
 0
VERTEX
 8
FULGOR
 10
0
 20
0
 30
0
 70
128
 71
23
 72
59
 73
71
 74
24
 0
VERTEX
 8
FULGOR
 10
0
 20
0
 30
0
 70
128
 71
275
 72
281
 73
228
 74
227
 0
VERTEX
 8
FULGOR
 10
0
 20
0
 30
0
 70
128
 71
157
 72
156
 73
97
 74
96
 0
VERTEX
 8
FULGOR
 10
0
 20
0
 30
0
 70
128
 71
291
 72
296
 73
333
 74
354
 0
VERTEX
 8
FULGOR
 10
0
 20
0
 30
0
 70
128
 71
281
 72
282
 73
229
 74
228
 0
VERTEX
 8
FULGOR
 10
0
 20
0
 30
0
 70
128
 71
282
 72
283
 73
215
 74
229
 0
VERTEX
 8
FULGOR
 10
0
 20
0
 30
0
 70
128
 71
283
 72
284
 73
216
 74
215
 0
VERTEX
 8
FULGOR
 10
0
 20
0
 30
0
 70
128
 71
129
 72
1
 73
118
 74
117
 0
VERTEX
 8
FULGOR
 10
0
 20
0
 30
0
 70
128
 71
238
 72
251
 73
178
 74
185
 0
VERTEX
 8
FULGOR
 10
0
 20
0
 30
0
 70
128
 71
245
 72
253
 73
189
 74
188
 0
VERTEX
 8
FULGOR
 10
0
 20
0
 30
0
 70
128
 71
337
 72
338
 73
325
 74
316
 0
VERTEX
 8
FULGOR
 10
0
 20
0
 30
0
 70
128
 71
336
 72
337
 73
316
 74
314
 0
VERTEX
 8
FULGOR
 10
0
 20
0
 30
0
 70
128
 71
241
 72
252
 73
311
 74
186
 0
VERTEX
 8
FULGOR
 10
0
 20
0
 30
0
 70
128
 71
24
 72
71
 73
65
 74
25
 0
VERTEX
 8
FULGOR
 10
0
 20
0
 30
0
 70
128
 71
65
 72
64
 73
25
 74
25
 0
VERTEX
 8
FULGOR
 10
0
 20
0
 30
0
 70
128
 71
156
 72
167
 73
100
 74
97
 0
VERTEX
 8
FULGOR
 10
0
 20
0
 30
0
 70
128
 71
149
 72
162
 73
104
 74
102
 0
VERTEX
 8
FULGOR
 10
0
 20
0
 30
0
 70
128
 71
64
 72
63
 73
26
 74
25
 0
VERTEX
 8
FULGOR
 10
0
 20
0
 30
0
 70
128
 71
162
 72
160
 73
105
 74
104
 0
VERTEX
 8
FULGOR
 10
0
 20
0
 30
0
 70
128
 71
63
 72
60
 73
26
 74
26
 0
VERTEX
 8
FULGOR
 10
0
 20
0
 30
0
 70
128
 71
266
 72
269
 73
196
 74
195
 0
VERTEX
 8
FULGOR
 10
0
 20
0
 30
0
 70
128
 71
360
 72
129
 73
117
 74
126
 0
VERTEX
 8
FULGOR
 10
0
 20
0
 30
0
 70
128
 71
60
 72
53
 73
34
 74
26
 0
VERTEX
 8
FULGOR
 10
0
 20
0
 30
0
 70
128
 71
53
 72
52
 73
34
 74
34
 0
VERTEX
 8
FULGOR
 10
0
 20
0
 30
0
 70
128
 71
52
 72
51
 73
28
 74
34
 0
VERTEX
 8
FULGOR
 10
0
 20
0
 30
0
 70
128
 71
51
 72
50
 73
35
 74
28
 0
VERTEX
 8
FULGOR
 10
0
 20
0
 30
0
 70
128
 71
50
 72
49
 73
36
 74
35
 0
VERTEX
 8
FULGOR
 10
0
 20
0
 30
0
 70
128
 71
36
 72
49
 73
48
 74
37
 0
VERTEX
 8
FULGOR
 10
0
 20
0
 30
0
 70
128
 71
44
 72
43
 73
38
 74
56
 0
VERTEX
 8
FULGOR
 10
0
 20
0
 30
0
 70
128
 71
37
 72
48
 73
47
 74
41
 0
VERTEX
 8
FULGOR
 10
0
 20
0
 30
0
 70
128
 71
33
 72
47
 73
46
 74
42
 0
VERTEX
 8
FULGOR
 10
0
 20
0
 30
0
 70
128
 71
45
 72
55
 73
54
 74
54
 0
VERTEX
 8
FULGOR
 10
0
 20
0
 30
0
 70
128
 71
47
 72
33
 73
41
 74
41
 0
VERTEX
 8
FULGOR
 10
0
 20
0
 30
0
 70
128
 71
42
 72
46
 73
45
 74
54
 0
VERTEX
 8
FULGOR
 10
0
 20
0
 30
0
 70
128
 71
55
 72
45
 73
44
 74
56
 0
VERTEX
 8
FULGOR
 10
0
 20
0
 30
0
 70
128
 71
83
 72
80
 73
79
 74
85
 0
VERTEX
 8
FULGOR
 10
0
 20
0
 30
0
 70
128
 71
79
 72
87
 73
86
 74
85
 0
VERTEX
 8
FULGOR
 10
0
 20
0
 30
0
 70
128
 71
134
 72
124
 73
131
 74
128
 0
VERTEX
 8
FULGOR
 10
0
 20
0
 30
0
 70
128
 71
334
 72
335
 73
320
 74
312
 0
VERTEX
 8
FULGOR
 10
0
 20
0
 30
0
 70
128
 71
308
 72
307
 73
362
 74
363
 0
VERTEX
 8
FULGOR
 10
0
 20
0
 30
0
 70
128
 71
139
 72
357
 73
114
 74
113
 0
VERTEX
 8
FULGOR
 10
0
 20
0
 30
0
 70
128
 71
305
 72
304
 73
358
 74
359
 0
VERTEX
 8
FULGOR
 10
0
 20
0
 30
0
 70
128
 71
335
 72
336
 73
314
 74
320
 0
VERTEX
 8
FULGOR
 10
0
 20
0
 30
0
 70
128
 71
355
 72
356
 73
313
 74
301
 0
VERTEX
 8
FULGOR
 10
0
 20
0
 30
0
 70
128
 71
301
 72
300
 73
299
 74
355
 0
VERTEX
 8
FULGOR
 10
0
 20
0
 30
0
 70
128
 71
352
 72
339
 73
328
 74
319
 0
VERTEX
 8
FULGOR
 10
0
 20
0
 30
0
 70
128
 71
343
 72
348
 73
349
 74
331
 0
VERTEX
 8
FULGOR
 10
0
 20
0
 30
0
 70
128
 71
342
 72
344
 73
330
 74
324
 0
VERTEX
 8
FULGOR
 10
0
 20
0
 30
0
 70
128
 71
262
 72
263
 73
198
 74
197
 0
VERTEX
 8
FULGOR
 10
0
 20
0
 30
0
 70
128
 71
303
 72
312
 73
317
 74
310
 0
VERTEX
 8
FULGOR
 10
0
 20
0
 30
0
 70
128
 71
250
 72
262
 73
197
 74
187
 0
VERTEX
 8
FULGOR
 10
0
 20
0
 30
0
 70
128
 71
291
 72
354
 73
334
 74
302
 0
VERTEX
 8
FULGOR
 10
0
 20
0
 30
0
 70
128
 71
341
 72
343
 73
331
 74
327
 0
VERTEX
 8
FULGOR
 10
0
 20
0
 30
0
 70
128
 71
150
 72
149
 73
102
 74
94
 0
VERTEX
 8
FULGOR
 10
0
 20
0
 30
0
 70
128
 71
1
 72
138
 73
119
 74
118
 0
VERTEX
 8
FULGOR
 10
0
 20
0
 30
0
 70
128
 71
338
 72
353
 73
318
 74
325
 0
VERTEX
 8
FULGOR
 10
0
 20
0
 30
0
 70
128
 71
280
 72
273
 73
210
 74
222
 0
VERTEX
 8
FULGOR
 10
0
 20
0
 30
0
 70
128
 71
285
 72
286
 73
218
 74
217
 0
VERTEX
 8
FULGOR
 10
0
 20
0
 30
0
 70
128
 71
160
 72
158
 73
98
 74
105
 0
VERTEX
 8
FULGOR
 10
0
 20
0
 30
0
 70
128
 71
138
 72
137
 73
120
 74
119
 0
VERTEX
 8
FULGOR
 10
0
 20
0
 30
0
 70
128
 71
286
 72
287
 73
219
 74
218
 0
VERTEX
 8
FULGOR
 10
0
 20
0
 30
0
 70
128
 71
261
 72
270
 73
211
 74
209
 0
VERTEX
 8
FULGOR
 10
0
 20
0
 30
0
 70
128
 71
348
 72
329
 73
332
 74
349
 0
VERTEX
 8
FULGOR
 10
0
 20
0
 30
0
 70
128
 71
329
 72
333
 73
306
 74
332
 0
VERTEX
 8
FULGOR
 10
0
 20
0
 30
0
 70
128
 71
333
 72
296
 73
361
 74
306
 0
VERTEX
 8
FULGOR
 10
0
 20
0
 30
0
 70
128
 71
296
 72
295
 73
294
 74
361
 0
VERTEX
 8
FULGOR
 10
0
 20
0
 30
0
 70
128
 71
358
 72
304
 73
313
 74
356
 0
VERTEX
 8
FULGOR
 10
0
 20
0
 30
0
 70
128
 71
148
 72
147
 73
116
 74
115
 0
VERTEX
 8
FULGOR
 10
0
 20
0
 30
0
 70
128
 71
158
 72
145
 73
99
 74
98
 0
VERTEX
 8
FULGOR
 10
0
 20
0
 30
0
 70
128
 71
260
 72
261
 73
209
 74
208
 0
VERTEX
 8
FULGOR
 10
0
 20
0
 30
0
 70
128
 71
269
 72
260
 73
208
 74
196
 0
VERTEX
 8
FULGOR
 10
0
 20
0
 30
0
 70
128
 71
276
 72
267
 73
204
 74
203
 0
VERTEX
 8
FULGOR
 10
0
 20
0
 30
0
 70
128
 71
232
 72
242
 73
182
 74
180
 0
VERTEX
 8
FULGOR
 10
0
 20
0
 30
0
 70
128
 71
242
 72
246
 73
183
 74
182
 0
VERTEX
 8
FULGOR
 10
0
 20
0
 30
0
 70
128
 71
272
 72
276
 73
203
 74
202
 0
VERTEX
 8
FULGOR
 10
0
 20
0
 30
0
 70
128
 71
264
 72
272
 73
202
 74
201
 0
VERTEX
 8
FULGOR
 10
0
 20
0
 30
0
 70
128
 71
240
 72
241
 73
186
 74
179
 0
VERTEX
 8
FULGOR
 10
0
 20
0
 30
0
 70
128
 71
147
 72
136
 73
121
 74
116
 0
VERTEX
 8
FULGOR
 10
0
 20
0
 30
0
 70
128
 71
340
 72
350
 73
322
 74
321
 0
VERTEX
 8
FULGOR
 10
0
 20
0
 30
0
 70
128
 71
303
 72
302
 73
334
 74
312
 0
VERTEX
 8
FULGOR
 10
0
 20
0
 30
0
 70
128
 71
345
 72
341
 73
327
 74
326
 0
VERTEX
 8
FULGOR
 10
0
 20
0
 30
0
 70
128
 71
252
 72
243
 73
181
 74
311
 0
VERTEX
 8
FULGOR
 10
0
 20
0
 30
0
 70
128
 71
344
 72
345
 73
326
 74
330
 0
VERTEX
 8
FULGOR
 10
0
 20
0
 30
0
 70
128
 71
231
 72
232
 73
180
 74
172
 0
VERTEX
 8
FULGOR
 10
0
 20
0
 30
0
 70
128
 71
257
 72
266
 73
195
 74
194
 0
VERTEX
 8
FULGOR
 10
0
 20
0
 30
0
 70
128
 71
256
 72
257
 73
194
 74
193
 0
VERTEX
 8
FULGOR
 10
0
 20
0
 30
0
 70
128
 71
297
 72
310
 73
317
 74
315
 0
VERTEX
 8
FULGOR
 10
0
 20
0
 30
0
 70
128
 71
357
 72
130
 73
125
 74
114
 0
VERTEX
 8
FULGOR
 10
0
 20
0
 30
0
 70
128
 71
255
 72
256
 73
193
 74
207
 0
VERTEX
 8
FULGOR
 10
0
 20
0
 30
0
 70
128
 71
298
 72
297
 73
315
 74
309
 0
VERTEX
 8
FULGOR
 10
0
 20
0
 30
0
 70
128
 71
298
 72
309
 73
308
 74
363
 0
VERTEX
 8
FULGOR
 10
0
 20
0
 30
0
 70
128
 71
243
 72
244
 73
3
 74
181
 0
VERTEX
 8
FULGOR
 10
0
 20
0
 30
0
 70
128
 71
259
 72
250
 73
187
 74
192
 0
VERTEX
 8
FULGOR
 10
0
 20
0
 30
0
 70
128
 71
279
 72
280
 73
222
 74
214
 0
VERTEX
 8
FULGOR
 10
0
 20
0
 30
0
 70
128
 71
278
 72
279
 73
214
 74
213
 0
VERTEX
 8
FULGOR
 10
0
 20
0
 30
0
 70
128
 71
258
 72
259
 73
192
 74
191
 0
VERTEX
 8
FULGOR
 10
0
 20
0
 30
0
 70
128
 71
247
 72
258
 73
191
 74
190
 0
VERTEX
 8
FULGOR
 10
0
 20
0
 30
0
 70
128
 71
351
 72
342
 73
324
 74
323
 0
VERTEX
 8
FULGOR
 10
0
 20
0
 30
0
 70
128
 71
350
 72
351
 73
323
 74
322
 0
VERTEX
 8
FULGOR
 10
0
 20
0
 30
0
 70
128
 71
284
 72
285
 73
217
 74
216
 0
VERTEX
 8
FULGOR
 10
0
 20
0
 30
0
 70
128
 71
136
 72
146
 73
122
 74
121
 0
VERTEX
 8
FULGOR
 10
0
 20
0
 30
0
 70
128
 71
146
 72
140
 73
110
 74
122
 0
VERTEX
 8
FULGOR
 10
0
 20
0
 30
0
 70
128
 71
130
 72
360
 73
126
 74
125
 0
VERTEX
 8
FULGOR
 10
0
 20
0
 30
0
 70
128
 71
140
 72
133
 73
111
 74
110
 0
VERTEX
 8
FULGOR
 10
0
 20
0
 30
0
 70
128
 71
133
 72
132
 73
123
 74
111
 0
VERTEX
 8
FULGOR
 10
0
 20
0
 30
0
 70
128
 71
132
 72
139
 73
113
 74
123
 0
VERTEX
 8
FULGOR
 10
0
 20
0
 30
0
 70
128
 71
292
 72
293
 73
164
 74
223
 0
VERTEX
 8
FULGOR
 10
0
 20
0
 30
0
 70
128
 71
293
 72
224
 73
165
 74
164
 0
VERTEX
 8
FULGOR
 10
0
 20
0
 30
0
 70
128
 71
224
 72
225
 73
176
 74
165
 0
VERTEX
 8
FULGOR
 10
0
 20
0
 30
0
 70
128
 71
225
 72
233
 73
177
 74
176
 0
VERTEX
 8
FULGOR
 10
0
 20
0
 30
0
 70
128
 71
233
 72
234
 73
168
 74
177
 0
VERTEX
 8
FULGOR
 10
0
 20
0
 30
0
 70
128
 71
234
 72
235
 73
169
 74
168
 0
VERTEX
 8
FULGOR
 10
0
 20
0
 30
0
 70
128
 71
235
 72
236
 73
170
 74
169
 0
VERTEX
 8
FULGOR
 10
0
 20
0
 30
0
 70
128
 71
236
 72
239
 73
171
 74
170
 0
VERTEX
 8
FULGOR
 10
0
 20
0
 30
0
 70
128
 71
239
 72
231
 73
172
 74
171
 0
VERTEX
 8
FULGOR
 10
0
 20
0
 30
0
 70
128
 71
213
 72
212
 73
277
 74
278
 0
VERTEX
 8
FULGOR
 10
0
 20
0
 30
0
 70
128
 71
212
 72
205
 73
268
 74
277
 0
VERTEX
 8
FULGOR
 10
0
 20
0
 30
0
 70
128
 71
267
 72
268
 73
205
 74
204
 0
VERTEX
 8
FULGOR
 10
0
 20
0
 30
0
 70
128
 71
270
 72
271
 73
200
 74
211
 0
VERTEX
 8
FULGOR
 10
0
 20
0
 30
0
 70
128
 71
271
 72
264
 73
201
 74
200
 0
SEQEND
 0
POLYLINE
 8
MILANO
 66
1
 10
0.0
 20
0.0
 30
0.0
 70
64
 71
93
 72
47
 0
VERTEX
 8
MILANO
 10
0.1332
 20
-17.2927
 30
0.4025
 70
192
 0
VERTEX
 8
MILANO
 10
0.5233
 20
-17.4451
 30
0.4025
 70
192
 0
VERTEX
 8
MILANO
 10
0.5274
 20
-17.4801
 30
0.4025
 70
192
 0
VERTEX
 8
MILANO
 10
0.5422
 20
-17.512
 30
0.4025
 70
192
 0
VERTEX
 8
MILANO
 10
0.5671
 20
-17.5369
 30
0.4025
 70
192
 0
VERTEX
 8
MILANO
 10
0.5979
 20
-17.5539
 30
0.4025
 70
192
 0
VERTEX
 8
MILANO
 10
0.6318
 20
-17.5637
 30
0.4025
 70
192
 0
VERTEX
 8
MILANO
 10
0.6669
 20
-17.5676
 30
0.4025
 70
192
 0
VERTEX
 8
MILANO
 10
0.3761
 20
-17.5209
 30
0.4025
 70
192
 0
VERTEX
 8
MILANO
 10
0.702
 20
-17.5649
 30
0.4025
 70
192
 0
VERTEX
 8
MILANO
 10
0.736
 20
-17.5555
 30
0.4025
 70
192
 0
VERTEX
 8
MILANO
 10
0.7667
 20
-17.5383
 30
0.4025
 70
192
 0
VERTEX
 8
MILANO
 10
-0.0145
 20
-17.5007
 30
0.4025
 70
192
 0
VERTEX
 8
MILANO
 10
0.041
 20
-17.6001
 30
0.4025
 70
192
 0
VERTEX
 8
MILANO
 10
0.0865
 20
-17.6001
 30
0.4025
 70
192
 0
VERTEX
 8
MILANO
 10
0.7908
 20
-17.5127
 30
0.4025
 70
192
 0
VERTEX
 8
MILANO
 10
0.8063
 20
-17.4811
 30
0.4025
 70
192
 0
VERTEX
 8
MILANO
 10
-0.2658
 20
-17.6001
 30
0.4025
 70
192
 0
VERTEX
 8
MILANO
 10
-0.1439
 20
-17.4666
 30
0.4025
 70
192
 0
VERTEX
 8
MILANO
 10
-0.0331
 20
-17.4666
 30
0.4025
 70
192
 0
VERTEX
 8
MILANO
 10
0.8113
 20
-17.4463
 30
0.4025
 70
192
 0
VERTEX
 8
MILANO
 10
0.8068
 20
-17.4113
 30
0.4025
 70
192
 0
VERTEX
 8
MILANO
 10
0.7919
 20
-17.3795
 30
0.4025
 70
192
 0
VERTEX
 8
MILANO
 10
-0.4179
 20
-17.2927
 30
0.4025
 70
192
 0
VERTEX
 8
MILANO
 10
-0.4179
 20
-17.5666
 30
0.4025
 70
192
 0
VERTEX
 8
MILANO
 10
0.7677
 20
-17.354
 30
0.4025
 70
192
 0
VERTEX
 8
MILANO
 10
0.7369
 20
-17.3368
 30
0.4025
 70
192
 0
VERTEX
 8
MILANO
 10
0.7029
 20
-17.3274
 30
0.4025
 70
192
 0
VERTEX
 8
MILANO
 10
-0.5727
 20
-17.2927
 30
0.4025
 70
192
 0
VERTEX
 8
MILANO
 10
-0.5343
 20
-17.2927
 30
0.4025
 70
192
 0
VERTEX
 8
MILANO
 10
-0.5343
 20
-17.6001
 30
0.4025
 70
192
 0
VERTEX
 8
MILANO
 10
-0.5727
 20
-17.6001
 30
0.4025
 70
192
 0
VERTEX
 8
MILANO
 10
-1.0349
 20
-17.6001
 30
0.4025
 70
192
 0
VERTEX
 8
MILANO
 10
-0.9871
 20
-17.2908
 30
0.4025
 70
192
 0
VERTEX
 8
MILANO
 10
-0.6956
 20
-17.2908
 30
0.4025
 70
192
 0
VERTEX
 8
MILANO
 10
-0.6814
 20
-17.2908
 30
0.4025
 70
192
 0
VERTEX
 8
MILANO
 10
-0.6309
 20
-17.6001
 30
0.4025
 70
192
 0
VERTEX
 8
MILANO
 10
-0.6726
 20
-17.6001
 30
0.4025
 70
192
 0
VERTEX
 8
MILANO
 10
-0.8416
 20
-17.6001
 30
0.4025
 70
192
 0
VERTEX
 8
MILANO
 10
-0.9635
 20
-17.3926
 30
0.4025
 70
192
 0
VERTEX
 8
MILANO
 10
-0.2812
 20
-17.5666
 30
0.4025
 70
192
 0
VERTEX
 8
MILANO
 10
-0.2812
 20
-17.6001
 30
0.4025
 70
192
 0
VERTEX
 8
MILANO
 10
-0.4558
 20
-17.6001
 30
0.4025
 70
192
 0
VERTEX
 8
MILANO
 10
-0.9777
 20
-17.2908
 30
0.4025
 70
192
 0
VERTEX
 8
MILANO
 10
-0.8339
 20
-17.537
 30
0.4025
 70
192
 0
VERTEX
 8
MILANO
 10
-0.7061
 20
-17.3926
 30
0.4025
 70
192
 0
VERTEX
 8
MILANO
 10
-0.823
 20
-17.6001
 30
0.4025
 70
192
 0
VERTEX
 8
MILANO
 10
-0.9937
 20
-17.6001
 30
0.4025
 70
192
 0
VERTEX
 8
MILANO
 10
0.6679
 20
-17.2875
 30
0.4025
 70
192
 0
VERTEX
 8
MILANO
 10
0.6219
 20
-17.29
 30
0.4025
 70
192
 0
VERTEX
 8
MILANO
 10
0.5771
 20
-17.3012
 30
0.4025
 70
192
 0
VERTEX
 8
MILANO
 10
0.5377
 20
-17.3247
 30
0.4025
 70
192
 0
VERTEX
 8
MILANO
 10
0.506
 20
-17.3582
 30
0.4025
 70
192
 0
VERTEX
 8
MILANO
 10
0.4854
 20
-17.3992
 30
0.4025
 70
192
 0
VERTEX
 8
MILANO
 10
0.479
 20
-17.4448
 30
0.4025
 70
192
 0
VERTEX
 8
MILANO
 10
0.4844
 20
-17.4906
 30
0.4025
 70
192
 0
VERTEX
 8
MILANO
 10
0.5038
 20
-17.5322
 30
0.4025
 70
192
 0
VERTEX
 8
MILANO
 10
0.5362
 20
-17.5648
 30
0.4025
 70
192
 0
VERTEX
 8
MILANO
 10
0.5766
 20
-17.587
 30
0.4025
 70
192
 0
VERTEX
 8
MILANO
 10
0.6209
 20
-17.5999
 30
0.4025
 70
192
 0
VERTEX
 8
MILANO
 10
0.6667
 20
-17.6049
 30
0.4025
 70
192
 0
VERTEX
 8
MILANO
 10
0.7127
 20
-17.6014
 30
0.4025
 70
192
 0
VERTEX
 8
MILANO
 10
0.7571
 20
-17.5891
 30
0.4025
 70
192
 0
VERTEX
 8
MILANO
 10
0.7973
 20
-17.5667
 30
0.4025
 70
192
 0
VERTEX
 8
MILANO
 10
0.8288
 20
-17.5331
 30
0.4025
 70
192
 0
VERTEX
 8
MILANO
 10
0.8491
 20
-17.4918
 30
0.4025
 70
192
 0
VERTEX
 8
MILANO
 10
0.8556
 20
-17.4463
 30
0.4025
 70
192
 0
VERTEX
 8
MILANO
 10
0.8497
 20
-17.4006
 30
0.4025
 70
192
 0
VERTEX
 8
MILANO
 10
0.8302
 20
-17.359
 30
0.4025
 70
192
 0
VERTEX
 8
MILANO
 10
0.7986
 20
-17.3256
 30
0.4025
 70
192
 0
VERTEX
 8
MILANO
 10
0.1332
 20
-17.6001
 30
0.4025
 70
192
 0
VERTEX
 8
MILANO
 10
0.1735
 20
-17.6001
 30
0.4025
 70
192
 0
VERTEX
 8
MILANO
 10
0.1735
 20
-17.376
 30
0.4025
 70
192
 0
VERTEX
 8
MILANO
 10
0.4028
 20
-17.6001
 30
0.4025
 70
192
 0
VERTEX
 8
MILANO
 10
0.416
 20
-17.6001
 30
0.4025
 70
192
 0
VERTEX
 8
MILANO
 10
0.416
 20
-17.2927
 30
0.4025
 70
192
 0
VERTEX
 8
MILANO
 10
0.3756
 20
-17.2927
 30
0.4025
 70
192
 0
VERTEX
 8
MILANO
 10
0.7584
 20
-17.3031
 30
0.4025
 70
192
 0
VERTEX
 8
MILANO
 10
0.1482
 20
-17.2927
 30
0.4025
 70
192
 0
VERTEX
 8
MILANO
 10
-0.2152
 20
-17.6001
 30
0.4025
 70
192
 0
VERTEX
 8
MILANO
 10
-0.1638
 20
-17.5007
 30
0.4025
 70
192
 0
VERTEX
 8
MILANO
 10
0.7139
 20
-17.2909
 30
0.4025
 70
192
 0
VERTEX
 8
MILANO
 10
0.6678
 20
-17.3249
 30
0.4025
 70
192
 0
VERTEX
 8
MILANO
 10
0.6326
 20
-17.3268
 30
0.4025
 70
192
 0
VERTEX
 8
MILANO
 10
-0.0823
 20
-17.2927
 30
0.4025
 70
192
 0
VERTEX
 8
MILANO
 10
-0.0953
 20
-17.2927
 30
0.4025
 70
192
 0
VERTEX
 8
MILANO
 10
0.5984
 20
-17.3353
 30
0.4025
 70
192
 0
VERTEX
 8
MILANO
 10
0.5682
 20
-17.3533
 30
0.4025
 70
192
 0
VERTEX
 8
MILANO
 10
0.544
 20
-17.3789
 30
0.4025
 70
192
 0
VERTEX
 8
MILANO
 10
-0.0846
 20
-17.3682
 30
0.4025
 70
192
 0
VERTEX
 8
MILANO
 10
-0.0936
 20
-17.3682
 30
0.4025
 70
192
 0
VERTEX
 8
MILANO
 10
-0.4591
 20
-17.2927
 30
0.4025
 70
192
 0
VERTEX
 8
MILANO
 10
0.5282
 20
-17.4103
 30
0.4025
 70
192
 0
VERTEX
 8
MILANO
 10
0
 20
0
 30
0
 70
128
 71
71
 72
1
 73
73
 74
72
 0
VERTEX
 8
MILANO
 10
0
 20
0
 30
0
 70
128
 71
1
 72
79
 73
73
 74
73
 0
VERTEX
 8
MILANO
 10
0
 20
0
 30
0
 70
128
 71
73
 72
79
 73
9
 74
74
 0
VERTEX
 8
MILANO
 10
0
 20
0
 30
0
 70
128
 71
76
 72
75
 73
9
 74
77
 0
VERTEX
 8
MILANO
 10
0
 20
0
 30
0
 70
128
 71
9
 72
75
 73
74
 74
74
 0
VERTEX
 8
MILANO
 10
0
 20
0
 30
0
 70
128
 71
18
 72
86
 73
19
 74
81
 0
VERTEX
 8
MILANO
 10
0
 20
0
 30
0
 70
128
 71
80
 72
18
 73
81
 74
81
 0
VERTEX
 8
MILANO
 10
0
 20
0
 30
0
 70
128
 71
86
 72
85
 73
90
 74
91
 0
VERTEX
 8
MILANO
 10
0
 20
0
 30
0
 70
128
 71
15
 72
13
 73
20
 74
20
 0
VERTEX
 8
MILANO
 10
0
 20
0
 30
0
 70
128
 71
86
 72
91
 73
19
 74
19
 0
VERTEX
 8
MILANO
 10
0
 20
0
 30
0
 70
128
 71
85
 72
15
 73
20
 74
90
 0
VERTEX
 8
MILANO
 10
0
 20
0
 30
0
 70
128
 71
13
 72
81
 73
19
 74
20
 0
VERTEX
 8
MILANO
 10
0
 20
0
 30
0
 70
128
 71
15
 72
14
 73
13
 74
13
 0
VERTEX
 8
MILANO
 10
0
 20
0
 30
0
 70
128
 71
92
 72
24
 73
25
 74
43
 0
VERTEX
 8
MILANO
 10
0
 20
0
 30
0
 70
128
 71
25
 72
41
 73
42
 74
43
 0
VERTEX
 8
MILANO
 10
0
 20
0
 30
0
 70
128
 71
29
 72
30
 73
31
 74
32
 0
VERTEX
 8
MILANO
 10
0
 20
0
 30
0
 70
128
 71
33
 72
34
 73
40
 74
48
 0
VERTEX
 8
MILANO
 10
0
 20
0
 30
0
 70
128
 71
34
 72
44
 73
40
 74
40
 0
VERTEX
 8
MILANO
 10
0
 20
0
 30
0
 70
128
 71
40
 72
44
 73
45
 74
39
 0
VERTEX
 8
MILANO
 10
0
 20
0
 30
0
 70
128
 71
45
 72
35
 73
46
 74
47
 0
VERTEX
 8
MILANO
 10
0
 20
0
 30
0
 70
128
 71
46
 72
36
 73
37
 74
38
 0
VERTEX
 8
MILANO
 10
0
 20
0
 30
0
 70
128
 71
45
 72
47
 73
39
 74
39
 0
VERTEX
 8
MILANO
 10
0
 20
0
 30
0
 70
128
 71
35
 72
36
 73
46
 74
46
 0
VERTEX
 8
MILANO
 10
0
 20
0
 30
0
 70
128
 71
50
 72
49
 73
83
 74
84
 0
VERTEX
 8
MILANO
 10
0
 20
0
 30
0
 70
128
 71
51
 72
50
 73
84
 74
87
 0
VERTEX
 8
MILANO
 10
0
 20
0
 30
0
 70
128
 71
5
 72
6
 73
59
 74
58
 0
VERTEX
 8
MILANO
 10
0
 20
0
 30
0
 70
128
 71
28
 72
83
 73
49
 74
82
 0
VERTEX
 8
MILANO
 10
0
 20
0
 30
0
 70
128
 71
27
 72
28
 73
82
 74
78
 0
VERTEX
 8
MILANO
 10
0
 20
0
 30
0
 70
128
 71
26
 72
27
 73
78
 74
70
 0
VERTEX
 8
MILANO
 10
0
 20
0
 30
0
 70
128
 71
23
 72
26
 73
70
 74
69
 0
VERTEX
 8
MILANO
 10
0
 20
0
 30
0
 70
128
 71
6
 72
7
 73
60
 74
59
 0
VERTEX
 8
MILANO
 10
0
 20
0
 30
0
 70
128
 71
7
 72
8
 73
61
 74
60
 0
VERTEX
 8
MILANO
 10
0
 20
0
 30
0
 70
128
 71
22
 72
23
 73
69
 74
68
 0
VERTEX
 8
MILANO
 10
0
 20
0
 30
0
 70
128
 71
21
 72
22
 73
68
 74
67
 0
VERTEX
 8
MILANO
 10
0
 20
0
 30
0
 70
128
 71
17
 72
21
 73
67
 74
66
 0
VERTEX
 8
MILANO
 10
0
 20
0
 30
0
 70
128
 71
16
 72
17
 73
66
 74
65
 0
VERTEX
 8
MILANO
 10
0
 20
0
 30
0
 70
128
 71
12
 72
16
 73
65
 74
64
 0
VERTEX
 8
MILANO
 10
0
 20
0
 30
0
 70
128
 71
11
 72
12
 73
64
 74
63
 0
VERTEX
 8
MILANO
 10
0
 20
0
 30
0
 70
128
 71
10
 72
11
 73
63
 74
62
 0
VERTEX
 8
MILANO
 10
0
 20
0
 30
0
 70
128
 71
4
 72
5
 73
58
 74
57
 0
VERTEX
 8
MILANO
 10
0
 20
0
 30
0
 70
128
 71
57
 72
56
 73
3
 74
4
 0
VERTEX
 8
MILANO
 10
0
 20
0
 30
0
 70
128
 71
56
 72
55
 73
2
 74
3
 0
VERTEX
 8
MILANO
 10
0
 20
0
 30
0
 70
128
 71
55
 72
54
 73
93
 74
2
 0
VERTEX
 8
MILANO
 10
0
 20
0
 30
0
 70
128
 71
54
 72
53
 73
89
 74
93
 0
VERTEX
 8
MILANO
 10
0
 20
0
 30
0
 70
128
 71
53
 72
52
 73
88
 74
89
 0
VERTEX
 8
MILANO
 10
0
 20
0
 30
0
 70
128
 71
52
 72
51
 73
87
 74
88
 0
VERTEX
 8
MILANO
 10
0
 20
0
 30
0
 70
128
 71
8
 72
10
 73
62
 74
61
 0
SEQEND
 0
POLYLINE
 8
F-DTS00117
 66
1
 10
0.0
 20
0.0
 30
0.0
 70
64
 71
704
 72
576
 0
VERTEX
 8
F-DTS00117
 10
-6.93
 20
-14.3
 30
0
 70
192
 0
VERTEX
 8
F-DTS00117
 10
-6.93
 20
-14.3
 30
0.4
 70
192
 0
VERTEX
 8
F-DTS00117
 10
6.93
 20
-14.3
 30
0
 70
192
 0
VERTEX
 8
F-DTS00117
 10
6.93
 20
-14.3
 30
0.4
 70
192
 0
VERTEX
 8
F-DTS00117
 10
6.93
 20
18.56
 30
0
 70
192
 0
VERTEX
 8
F-DTS00117
 10
6.93
 20
18.56
 30
0.4
 70
192
 0
VERTEX
 8
F-DTS00117
 10
-6.93
 20
18.56
 30
0
 70
192
 0
VERTEX
 8
F-DTS00117
 10
-6.93
 20
18.56
 30
0.4
 70
192
 0
VERTEX
 8
F-DTS00117
 10
1
 20
2.1296
 30
0.4
 70
192
 0
VERTEX
 8
F-DTS00117
 10
0.9951
 20
2.2276
 30
0.4
 70
192
 0
VERTEX
 8
F-DTS00117
 10
0.9807
 20
2.3247
 30
0.4
 70
192
 0
VERTEX
 8
F-DTS00117
 10
0.9569
 20
2.4198
 30
0.4
 70
192
 0
VERTEX
 8
F-DTS00117
 10
0.9238
 20
2.5122
 30
0.4
 70
192
 0
VERTEX
 8
F-DTS00117
 10
0.8819
 20
2.6009
 30
0.4
 70
192
 0
VERTEX
 8
F-DTS00117
 10
0.8314
 20
2.6851
 30
0.4
 70
192
 0
VERTEX
 8
F-DTS00117
 10
0.773
 20
2.7639
 30
0.4
 70
192
 0
VERTEX
 8
F-DTS00117
 10
0.7071
 20
2.8366
 30
0.4
 70
192
 0
VERTEX
 8
F-DTS00117
 10
0.6344
 20
2.9026
 30
0.4
 70
192
 0
VERTEX
 8
F-DTS00117
 10
0.5555
 20
2.961
 30
0.4
 70
192
 0
VERTEX
 8
F-DTS00117
 10
0.4714
 20
3.0115
 30
0.4
 70
192
 0
VERTEX
 8
F-DTS00117
 10
0.3827
 20
3.0534
 30
0.4
 70
192
 0
VERTEX
 8
F-DTS00117
 10
0.2903
 20
3.0865
 30
0.4
 70
192
 0
VERTEX
 8
F-DTS00117
 10
0.1951
 20
3.1103
 30
0.4
 70
192
 0
VERTEX
 8
F-DTS00117
 10
0.098
 20
3.1247
 30
0.4
 70
192
 0
VERTEX
 8
F-DTS00117
 10
0
 20
3.1295
 30
0.4
 70
192
 0
VERTEX
 8
F-DTS00117
 10
-0.098
 20
3.1247
 30
0.4
 70
192
 0
VERTEX
 8
F-DTS00117
 10
-0.1951
 20
3.1103
 30
0.4
 70
192
 0
VERTEX
 8
F-DTS00117
 10
-0.2903
 20
3.0865
 30
0.4
 70
192
 0
VERTEX
 8
F-DTS00117
 10
-0.3827
 20
3.0534
 30
0.4
 70
192
 0
VERTEX
 8
F-DTS00117
 10
-0.4714
 20
3.0115
 30
0.4
 70
192
 0
VERTEX
 8
F-DTS00117
 10
-0.5555
 20
2.961
 30
0.4
 70
192
 0
VERTEX
 8
F-DTS00117
 10
-0.6344
 20
2.9026
 30
0.4
 70
192
 0
VERTEX
 8
F-DTS00117
 10
-0.7071
 20
2.8366
 30
0.4
 70
192
 0
VERTEX
 8
F-DTS00117
 10
-0.773
 20
2.7639
 30
0.4
 70
192
 0
VERTEX
 8
F-DTS00117
 10
-0.8314
 20
2.6851
 30
0.4
 70
192
 0
VERTEX
 8
F-DTS00117
 10
-0.8819
 20
2.6009
 30
0.4
 70
192
 0
VERTEX
 8
F-DTS00117
 10
-0.9238
 20
2.5122
 30
0.4
 70
192
 0
VERTEX
 8
F-DTS00117
 10
-0.9569
 20
2.4198
 30
0.4
 70
192
 0
VERTEX
 8
F-DTS00117
 10
-0.9807
 20
2.3247
 30
0.4
 70
192
 0
VERTEX
 8
F-DTS00117
 10
-0.9951
 20
2.2276
 30
0.4
 70
192
 0
VERTEX
 8
F-DTS00117
 10
-1
 20
2.1296
 30
0.4
 70
192
 0
VERTEX
 8
F-DTS00117
 10
-0.9951
 20
2.0316
 30
0.4
 70
192
 0
VERTEX
 8
F-DTS00117
 10
-0.9807
 20
1.9345
 30
0.4
 70
192
 0
VERTEX
 8
F-DTS00117
 10
-0.9569
 20
1.8393
 30
0.4
 70
192
 0
VERTEX
 8
F-DTS00117
 10
-0.9238
 20
1.7469
 30
0.4
 70
192
 0
VERTEX
 8
F-DTS00117
 10
-0.8819
 20
1.6582
 30
0.4
 70
192
 0
VERTEX
 8
F-DTS00117
 10
-0.8314
 20
1.574
 30
0.4
 70
192
 0
VERTEX
 8
F-DTS00117
 10
-0.773
 20
1.4952
 30
0.4
 70
192
 0
VERTEX
 8
F-DTS00117
 10
-0.7071
 20
1.4225
 30
0.4
 70
192
 0
VERTEX
 8
F-DTS00117
 10
-0.6344
 20
1.3566
 30
0.4
 70
192
 0
VERTEX
 8
F-DTS00117
 10
-0.5555
 20
1.2981
 30
0.4
 70
192
 0
VERTEX
 8
F-DTS00117
 10
-0.4714
 20
1.2477
 30
0.4
 70
192
 0
VERTEX
 8
F-DTS00117
 10
-0.3827
 20
1.2057
 30
0.4
 70
192
 0
VERTEX
 8
F-DTS00117
 10
-0.2903
 20
1.1727
 30
0.4
 70
192
 0
VERTEX
 8
F-DTS00117
 10
-0.1951
 20
1.1488
 30
0.4
 70
192
 0
VERTEX
 8
F-DTS00117
 10
-0.098
 20
1.1344
 30
0.4
 70
192
 0
VERTEX
 8
F-DTS00117
 10
0
 20
1.1296
 30
0.4
 70
192
 0
VERTEX
 8
F-DTS00117
 10
0.098
 20
1.1344
 30
0.4
 70
192
 0
VERTEX
 8
F-DTS00117
 10
0.1951
 20
1.1488
 30
0.4
 70
192
 0
VERTEX
 8
F-DTS00117
 10
0.2903
 20
1.1727
 30
0.4
 70
192
 0
VERTEX
 8
F-DTS00117
 10
0.3827
 20
1.2057
 30
0.4
 70
192
 0
VERTEX
 8
F-DTS00117
 10
0.4714
 20
1.2477
 30
0.4
 70
192
 0
VERTEX
 8
F-DTS00117
 10
0.5555
 20
1.2981
 30
0.4
 70
192
 0
VERTEX
 8
F-DTS00117
 10
0.6344
 20
1.3566
 30
0.4
 70
192
 0
VERTEX
 8
F-DTS00117
 10
0.7071
 20
1.4225
 30
0.4
 70
192
 0
VERTEX
 8
F-DTS00117
 10
0.773
 20
1.4952
 30
0.4
 70
192
 0
VERTEX
 8
F-DTS00117
 10
0.8314
 20
1.574
 30
0.4
 70
192
 0
VERTEX
 8
F-DTS00117
 10
0.8819
 20
1.6582
 30
0.4
 70
192
 0
VERTEX
 8
F-DTS00117
 10
0.9238
 20
1.7469
 30
0.4
 70
192
 0
VERTEX
 8
F-DTS00117
 10
0.9569
 20
1.8393
 30
0.4
 70
192
 0
VERTEX
 8
F-DTS00117
 10
0.9807
 20
1.9345
 30
0.4
 70
192
 0
VERTEX
 8
F-DTS00117
 10
0.9951
 20
2.0316
 30
0.4
 70
192
 0
VERTEX
 8
F-DTS00117
 10
-6.085
 20
16.63
 30
0.4
 70
192
 0
VERTEX
 8
F-DTS00117
 10
6.085
 20
16.63
 30
0.4
 70
192
 0
VERTEX
 8
F-DTS00117
 10
6.085
 20
17.09
 30
0.4
 70
192
 0
VERTEX
 8
F-DTS00117
 10
-6.085
 20
17.09
 30
0.4
 70
192
 0
VERTEX
 8
F-DTS00117
 10
-6.085
 20
15.63
 30
0.4
 70
192
 0
VERTEX
 8
F-DTS00117
 10
6.085
 20
15.63
 30
0.4
 70
192
 0
VERTEX
 8
F-DTS00117
 10
6.085
 20
16.09
 30
0.4
 70
192
 0
VERTEX
 8
F-DTS00117
 10
-6.085
 20
16.09
 30
0.4
 70
192
 0
VERTEX
 8
F-DTS00117
 10
-6.085
 20
14.63
 30
0.4
 70
192
 0
VERTEX
 8
F-DTS00117
 10
6.085
 20
14.63
 30
0.4
 70
192
 0
VERTEX
 8
F-DTS00117
 10
6.085
 20
15.09
 30
0.4
 70
192
 0
VERTEX
 8
F-DTS00117
 10
-6.085
 20
15.09
 30
0.4
 70
192
 0
VERTEX
 8
F-DTS00117
 10
-6.085
 20
13.63
 30
0.4
 70
192
 0
VERTEX
 8
F-DTS00117
 10
6.085
 20
13.63
 30
0.4
 70
192
 0
VERTEX
 8
F-DTS00117
 10
6.085
 20
14.09
 30
0.4
 70
192
 0
VERTEX
 8
F-DTS00117
 10
-6.085
 20
14.09
 30
0.4
 70
192
 0
VERTEX
 8
F-DTS00117
 10
-6.085
 20
12.63
 30
0.4
 70
192
 0
VERTEX
 8
F-DTS00117
 10
6.085
 20
12.63
 30
0.4
 70
192
 0
VERTEX
 8
F-DTS00117
 10
6.085
 20
13.09
 30
0.4
 70
192
 0
VERTEX
 8
F-DTS00117
 10
-6.085
 20
13.09
 30
0.4
 70
192
 0
VERTEX
 8
F-DTS00117
 10
-6.085
 20
11.63
 30
0.4
 70
192
 0
VERTEX
 8
F-DTS00117
 10
6.085
 20
11.63
 30
0.4
 70
192
 0
VERTEX
 8
F-DTS00117
 10
6.085
 20
12.09
 30
0.4
 70
192
 0
VERTEX
 8
F-DTS00117
 10
-6.085
 20
12.09
 30
0.4
 70
192
 0
VERTEX
 8
F-DTS00117
 10
-6.085
 20
10.63
 30
0.4
 70
192
 0
VERTEX
 8
F-DTS00117
 10
6.085
 20
10.63
 30
0.4
 70
192
 0
VERTEX
 8
F-DTS00117
 10
6.085
 20
11.09
 30
0.4
 70
192
 0
VERTEX
 8
F-DTS00117
 10
-6.085
 20
11.09
 30
0.4
 70
192
 0
VERTEX
 8
F-DTS00117
 10
-6.085
 20
9.63
 30
0.4
 70
192
 0
VERTEX
 8
F-DTS00117
 10
6.085
 20
9.63
 30
0.4
 70
192
 0
VERTEX
 8
F-DTS00117
 10
6.085
 20
10.09
 30
0.4
 70
192
 0
VERTEX
 8
F-DTS00117
 10
-6.085
 20
10.09
 30
0.4
 70
192
 0
VERTEX
 8
F-DTS00117
 10
-6.085
 20
8.63
 30
0.4
 70
192
 0
VERTEX
 8
F-DTS00117
 10
6.085
 20
8.63
 30
0.4
 70
192
 0
VERTEX
 8
F-DTS00117
 10
6.085
 20
9.09
 30
0.4
 70
192
 0
VERTEX
 8
F-DTS00117
 10
-6.085
 20
9.09
 30
0.4
 70
192
 0
VERTEX
 8
F-DTS00117
 10
-6.085
 20
7.63
 30
0.4
 70
192
 0
VERTEX
 8
F-DTS00117
 10
6.085
 20
7.63
 30
0.4
 70
192
 0
VERTEX
 8
F-DTS00117
 10
6.085
 20
8.09
 30
0.4
 70
192
 0
VERTEX
 8
F-DTS00117
 10
-6.085
 20
8.09
 30
0.4
 70
192
 0
VERTEX
 8
F-DTS00117
 10
-6.085
 20
6.63
 30
0.4
 70
192
 0
VERTEX
 8
F-DTS00117
 10
6.085
 20
6.63
 30
0.4
 70
192
 0
VERTEX
 8
F-DTS00117
 10
6.085
 20
7.09
 30
0.4
 70
192
 0
VERTEX
 8
F-DTS00117
 10
-6.085
 20
7.09
 30
0.4
 70
192
 0
VERTEX
 8
F-DTS00117
 10
-6.085
 20
5.63
 30
0.4
 70
192
 0
VERTEX
 8
F-DTS00117
 10
6.085
 20
5.63
 30
0.4
 70
192
 0
VERTEX
 8
F-DTS00117
 10
6.085
 20
6.09
 30
0.4
 70
192
 0
VERTEX
 8
F-DTS00117
 10
-6.085
 20
6.09
 30
0.4
 70
192
 0
VERTEX
 8
F-DTS00117
 10
-6.085
 20
4.63
 30
0.4
 70
192
 0
VERTEX
 8
F-DTS00117
 10
6.085
 20
4.63
 30
0.4
 70
192
 0
VERTEX
 8
F-DTS00117
 10
6.085
 20
5.09
 30
0.4
 70
192
 0
VERTEX
 8
F-DTS00117
 10
-6.085
 20
5.09
 30
0.4
 70
192
 0
VERTEX
 8
F-DTS00117
 10
-6.085
 20
-0.8301
 30
0.4
 70
192
 0
VERTEX
 8
F-DTS00117
 10
6.085
 20
-0.8301
 30
0.4
 70
192
 0
VERTEX
 8
F-DTS00117
 10
6.085
 20
-0.3701
 30
0.4
 70
192
 0
VERTEX
 8
F-DTS00117
 10
-6.085
 20
-0.3701
 30
0.4
 70
192
 0
VERTEX
 8
F-DTS00117
 10
-6.085
 20
-1.8301
 30
0.4
 70
192
 0
VERTEX
 8
F-DTS00117
 10
6.085
 20
-1.8301
 30
0.4
 70
192
 0
VERTEX
 8
F-DTS00117
 10
6.085
 20
-1.3701
 30
0.4
 70
192
 0
VERTEX
 8
F-DTS00117
 10
-6.085
 20
-1.3701
 30
0.4
 70
192
 0
VERTEX
 8
F-DTS00117
 10
-6.085
 20
-2.8301
 30
0.4
 70
192
 0
VERTEX
 8
F-DTS00117
 10
6.085
 20
-2.8301
 30
0.4
 70
192
 0
VERTEX
 8
F-DTS00117
 10
6.085
 20
-2.3701
 30
0.4
 70
192
 0
VERTEX
 8
F-DTS00117
 10
-6.085
 20
-2.3701
 30
0.4
 70
192
 0
VERTEX
 8
F-DTS00117
 10
-6.085
 20
-3.8301
 30
0.4
 70
192
 0
VERTEX
 8
F-DTS00117
 10
6.085
 20
-3.8301
 30
0.4
 70
192
 0
VERTEX
 8
F-DTS00117
 10
6.085
 20
-3.3701
 30
0.4
 70
192
 0
VERTEX
 8
F-DTS00117
 10
-6.085
 20
-3.3701
 30
0.4
 70
192
 0
VERTEX
 8
F-DTS00117
 10
-6.085
 20
-4.8301
 30
0.4
 70
192
 0
VERTEX
 8
F-DTS00117
 10
6.085
 20
-4.8301
 30
0.4
 70
192
 0
VERTEX
 8
F-DTS00117
 10
6.085
 20
-4.3701
 30
0.4
 70
192
 0
VERTEX
 8
F-DTS00117
 10
-6.085
 20
-4.3701
 30
0.4
 70
192
 0
VERTEX
 8
F-DTS00117
 10
-6.085
 20
-5.8301
 30
0.4
 70
192
 0
VERTEX
 8
F-DTS00117
 10
6.085
 20
-5.8301
 30
0.4
 70
192
 0
VERTEX
 8
F-DTS00117
 10
6.085
 20
-5.3701
 30
0.4
 70
192
 0
VERTEX
 8
F-DTS00117
 10
-6.085
 20
-5.3701
 30
0.4
 70
192
 0
VERTEX
 8
F-DTS00117
 10
-6.085
 20
-6.8301
 30
0.4
 70
192
 0
VERTEX
 8
F-DTS00117
 10
6.085
 20
-6.8301
 30
0.4
 70
192
 0
VERTEX
 8
F-DTS00117
 10
6.085
 20
-6.3701
 30
0.4
 70
192
 0
VERTEX
 8
F-DTS00117
 10
-6.085
 20
-6.3701
 30
0.4
 70
192
 0
VERTEX
 8
F-DTS00117
 10
-6.085
 20
-7.8301
 30
0.4
 70
192
 0
VERTEX
 8
F-DTS00117
 10
6.085
 20
-7.8301
 30
0.4
 70
192
 0
VERTEX
 8
F-DTS00117
 10
6.085
 20
-7.3701
 30
0.4
 70
192
 0
VERTEX
 8
F-DTS00117
 10
-6.085
 20
-7.3701
 30
0.4
 70
192
 0
VERTEX
 8
F-DTS00117
 10
-6.085
 20
-8.8301
 30
0.4
 70
192
 0
VERTEX
 8
F-DTS00117
 10
6.085
 20
-8.8301
 30
0.4
 70
192
 0
VERTEX
 8
F-DTS00117
 10
6.085
 20
-8.3701
 30
0.4
 70
192
 0
VERTEX
 8
F-DTS00117
 10
-6.085
 20
-8.3701
 30
0.4
 70
192
 0
VERTEX
 8
F-DTS00117
 10
-6.085
 20
-9.8301
 30
0.4
 70
192
 0
VERTEX
 8
F-DTS00117
 10
6.085
 20
-9.8301
 30
0.4
 70
192
 0
VERTEX
 8
F-DTS00117
 10
6.085
 20
-9.3701
 30
0.4
 70
192
 0
VERTEX
 8
F-DTS00117
 10
-6.085
 20
-9.3701
 30
0.4
 70
192
 0
VERTEX
 8
F-DTS00117
 10
-6.085
 20
-10.8301
 30
0.4
 70
192
 0
VERTEX
 8
F-DTS00117
 10
6.085
 20
-10.8301
 30
0.4
 70
192
 0
VERTEX
 8
F-DTS00117
 10
6.085
 20
-10.3701
 30
0.4
 70
192
 0
VERTEX
 8
F-DTS00117
 10
-6.085
 20
-10.3701
 30
0.4
 70
192
 0
VERTEX
 8
F-DTS00117
 10
-6.085
 20
-11.8301
 30
0.4
 70
192
 0
VERTEX
 8
F-DTS00117
 10
6.085
 20
-11.8301
 30
0.4
 70
192
 0
VERTEX
 8
F-DTS00117
 10
6.085
 20
-11.3701
 30
0.4
 70
192
 0
VERTEX
 8
F-DTS00117
 10
-6.085
 20
-11.3701
 30
0.4
 70
192
 0
VERTEX
 8
F-DTS00117
 10
-6.085
 20
-12.8301
 30
0.4
 70
192
 0
VERTEX
 8
F-DTS00117
 10
6.085
 20
-12.8301
 30
0.4
 70
192
 0
VERTEX
 8
F-DTS00117
 10
6.085
 20
-12.3701
 30
0.4
 70
192
 0
VERTEX
 8
F-DTS00117
 10
-6.085
 20
-12.3701
 30
0.4
 70
192
 0
VERTEX
 8
F-DTS00117
 10
1
 20
2.1296
 30
0
 70
192
 0
VERTEX
 8
F-DTS00117
 10
0.9951
 20
2.2276
 30
0
 70
192
 0
VERTEX
 8
F-DTS00117
 10
0.9807
 20
2.3247
 30
0
 70
192
 0
VERTEX
 8
F-DTS00117
 10
0.9569
 20
2.4198
 30
0
 70
192
 0
VERTEX
 8
F-DTS00117
 10
0.9238
 20
2.5122
 30
0
 70
192
 0
VERTEX
 8
F-DTS00117
 10
0.8819
 20
2.6009
 30
0
 70
192
 0
VERTEX
 8
F-DTS00117
 10
0.8314
 20
2.6851
 30
0
 70
192
 0
VERTEX
 8
F-DTS00117
 10
0.773
 20
2.7639
 30
0
 70
192
 0
VERTEX
 8
F-DTS00117
 10
0.7071
 20
2.8366
 30
0
 70
192
 0
VERTEX
 8
F-DTS00117
 10
0.6344
 20
2.9026
 30
0
 70
192
 0
VERTEX
 8
F-DTS00117
 10
0.5555
 20
2.961
 30
0
 70
192
 0
VERTEX
 8
F-DTS00117
 10
0.4714
 20
3.0115
 30
0
 70
192
 0
VERTEX
 8
F-DTS00117
 10
0.3827
 20
3.0534
 30
0
 70
192
 0
VERTEX
 8
F-DTS00117
 10
0.2903
 20
3.0865
 30
0
 70
192
 0
VERTEX
 8
F-DTS00117
 10
0.1951
 20
3.1103
 30
0
 70
192
 0
VERTEX
 8
F-DTS00117
 10
0.098
 20
3.1247
 30
0
 70
192
 0
VERTEX
 8
F-DTS00117
 10
0
 20
3.1295
 30
0
 70
192
 0
VERTEX
 8
F-DTS00117
 10
-0.098
 20
3.1247
 30
0
 70
192
 0
VERTEX
 8
F-DTS00117
 10
-0.1951
 20
3.1103
 30
0
 70
192
 0
VERTEX
 8
F-DTS00117
 10
-0.2903
 20
3.0865
 30
0
 70
192
 0
VERTEX
 8
F-DTS00117
 10
-0.3827
 20
3.0534
 30
0
 70
192
 0
VERTEX
 8
F-DTS00117
 10
-0.4714
 20
3.0115
 30
0
 70
192
 0
VERTEX
 8
F-DTS00117
 10
-0.5555
 20
2.961
 30
0
 70
192
 0
VERTEX
 8
F-DTS00117
 10
-0.6344
 20
2.9026
 30
0
 70
192
 0
VERTEX
 8
F-DTS00117
 10
-0.7071
 20
2.8366
 30
0
 70
192
 0
VERTEX
 8
F-DTS00117
 10
-0.773
 20
2.7639
 30
0
 70
192
 0
VERTEX
 8
F-DTS00117
 10
-0.8314
 20
2.6851
 30
0
 70
192
 0
VERTEX
 8
F-DTS00117
 10
-0.8819
 20
2.6009
 30
0
 70
192
 0
VERTEX
 8
F-DTS00117
 10
-0.9238
 20
2.5122
 30
0
 70
192
 0
VERTEX
 8
F-DTS00117
 10
-0.9569
 20
2.4198
 30
0
 70
192
 0
VERTEX
 8
F-DTS00117
 10
-0.9807
 20
2.3247
 30
0
 70
192
 0
VERTEX
 8
F-DTS00117
 10
-0.9951
 20
2.2276
 30
0
 70
192
 0
VERTEX
 8
F-DTS00117
 10
-1
 20
2.1296
 30
0
 70
192
 0
VERTEX
 8
F-DTS00117
 10
-0.9951
 20
2.0316
 30
0
 70
192
 0
VERTEX
 8
F-DTS00117
 10
-0.9807
 20
1.9345
 30
0
 70
192
 0
VERTEX
 8
F-DTS00117
 10
-0.9569
 20
1.8393
 30
0
 70
192
 0
VERTEX
 8
F-DTS00117
 10
-0.9238
 20
1.7469
 30
0
 70
192
 0
VERTEX
 8
F-DTS00117
 10
-0.8819
 20
1.6582
 30
0
 70
192
 0
VERTEX
 8
F-DTS00117
 10
-0.8314
 20
1.574
 30
0
 70
192
 0
VERTEX
 8
F-DTS00117
 10
-0.773
 20
1.4952
 30
0
 70
192
 0
VERTEX
 8
F-DTS00117
 10
-0.7071
 20
1.4225
 30
0
 70
192
 0
VERTEX
 8
F-DTS00117
 10
-0.6344
 20
1.3566
 30
0
 70
192
 0
VERTEX
 8
F-DTS00117
 10
-0.5555
 20
1.2981
 30
0
 70
192
 0
VERTEX
 8
F-DTS00117
 10
-0.4714
 20
1.2477
 30
0
 70
192
 0
VERTEX
 8
F-DTS00117
 10
-0.3827
 20
1.2057
 30
0
 70
192
 0
VERTEX
 8
F-DTS00117
 10
-0.2903
 20
1.1727
 30
0
 70
192
 0
VERTEX
 8
F-DTS00117
 10
-0.1951
 20
1.1488
 30
0
 70
192
 0
VERTEX
 8
F-DTS00117
 10
-0.098
 20
1.1344
 30
0
 70
192
 0
VERTEX
 8
F-DTS00117
 10
0
 20
1.1296
 30
0
 70
192
 0
VERTEX
 8
F-DTS00117
 10
0.098
 20
1.1344
 30
0
 70
192
 0
VERTEX
 8
F-DTS00117
 10
0.1951
 20
1.1488
 30
0
 70
192
 0
VERTEX
 8
F-DTS00117
 10
0.2903
 20
1.1727
 30
0
 70
192
 0
VERTEX
 8
F-DTS00117
 10
0.3827
 20
1.2057
 30
0
 70
192
 0
VERTEX
 8
F-DTS00117
 10
0.4714
 20
1.2477
 30
0
 70
192
 0
VERTEX
 8
F-DTS00117
 10
0.5555
 20
1.2981
 30
0
 70
192
 0
VERTEX
 8
F-DTS00117
 10
0.6344
 20
1.3566
 30
0
 70
192
 0
VERTEX
 8
F-DTS00117
 10
0.7071
 20
1.4225
 30
0
 70
192
 0
VERTEX
 8
F-DTS00117
 10
0.773
 20
1.4952
 30
0
 70
192
 0
VERTEX
 8
F-DTS00117
 10
0.8314
 20
1.574
 30
0
 70
192
 0
VERTEX
 8
F-DTS00117
 10
0.8819
 20
1.6582
 30
0
 70
192
 0
VERTEX
 8
F-DTS00117
 10
0.9238
 20
1.7469
 30
0
 70
192
 0
VERTEX
 8
F-DTS00117
 10
0.9569
 20
1.8393
 30
0
 70
192
 0
VERTEX
 8
F-DTS00117
 10
0.9807
 20
1.9345
 30
0
 70
192
 0
VERTEX
 8
F-DTS00117
 10
0.9951
 20
2.0316
 30
0
 70
192
 0
VERTEX
 8
F-DTS00117
 10
-6.085
 20
16.63
 30
0
 70
192
 0
VERTEX
 8
F-DTS00117
 10
6.085
 20
16.63
 30
0
 70
192
 0
VERTEX
 8
F-DTS00117
 10
6.085
 20
17.09
 30
0
 70
192
 0
VERTEX
 8
F-DTS00117
 10
-6.085
 20
17.09
 30
0
 70
192
 0
VERTEX
 8
F-DTS00117
 10
-6.085
 20
15.63
 30
0
 70
192
 0
VERTEX
 8
F-DTS00117
 10
6.085
 20
15.63
 30
0
 70
192
 0
VERTEX
 8
F-DTS00117
 10
6.085
 20
16.09
 30
0
 70
192
 0
VERTEX
 8
F-DTS00117
 10
-6.085
 20
16.09
 30
0
 70
192
 0
VERTEX
 8
F-DTS00117
 10
-6.085
 20
14.63
 30
0
 70
192
 0
VERTEX
 8
F-DTS00117
 10
6.085
 20
14.63
 30
0
 70
192
 0
VERTEX
 8
F-DTS00117
 10
6.085
 20
15.09
 30
0
 70
192
 0
VERTEX
 8
F-DTS00117
 10
-6.085
 20
15.09
 30
0
 70
192
 0
VERTEX
 8
F-DTS00117
 10
-6.085
 20
13.63
 30
0
 70
192
 0
VERTEX
 8
F-DTS00117
 10
6.085
 20
13.63
 30
0
 70
192
 0
VERTEX
 8
F-DTS00117
 10
6.085
 20
14.09
 30
0
 70
192
 0
VERTEX
 8
F-DTS00117
 10
-6.085
 20
14.09
 30
0
 70
192
 0
VERTEX
 8
F-DTS00117
 10
-6.085
 20
12.63
 30
0
 70
192
 0
VERTEX
 8
F-DTS00117
 10
6.085
 20
12.63
 30
0
 70
192
 0
VERTEX
 8
F-DTS00117
 10
6.085
 20
13.09
 30
0
 70
192
 0
VERTEX
 8
F-DTS00117
 10
-6.085
 20
13.09
 30
0
 70
192
 0
VERTEX
 8
F-DTS00117
 10
-6.085
 20
11.63
 30
0
 70
192
 0
VERTEX
 8
F-DTS00117
 10
6.085
 20
11.63
 30
0
 70
192
 0
VERTEX
 8
F-DTS00117
 10
6.085
 20
12.09
 30
0
 70
192
 0
VERTEX
 8
F-DTS00117
 10
-6.085
 20
12.09
 30
0
 70
192
 0
VERTEX
 8
F-DTS00117
 10
-6.085
 20
10.63
 30
0
 70
192
 0
VERTEX
 8
F-DTS00117
 10
6.085
 20
10.63
 30
0
 70
192
 0
VERTEX
 8
F-DTS00117
 10
6.085
 20
11.09
 30
0
 70
192
 0
VERTEX
 8
F-DTS00117
 10
-6.085
 20
11.09
 30
0
 70
192
 0
VERTEX
 8
F-DTS00117
 10
-6.085
 20
9.63
 30
0
 70
192
 0
VERTEX
 8
F-DTS00117
 10
6.085
 20
9.63
 30
0
 70
192
 0
VERTEX
 8
F-DTS00117
 10
6.085
 20
10.09
 30
0
 70
192
 0
VERTEX
 8
F-DTS00117
 10
-6.085
 20
10.09
 30
0
 70
192
 0
VERTEX
 8
F-DTS00117
 10
-6.085
 20
8.63
 30
0
 70
192
 0
VERTEX
 8
F-DTS00117
 10
6.085
 20
8.63
 30
0
 70
192
 0
VERTEX
 8
F-DTS00117
 10
6.085
 20
9.09
 30
0
 70
192
 0
VERTEX
 8
F-DTS00117
 10
-6.085
 20
9.09
 30
0
 70
192
 0
VERTEX
 8
F-DTS00117
 10
-6.085
 20
7.63
 30
0
 70
192
 0
VERTEX
 8
F-DTS00117
 10
6.085
 20
7.63
 30
0
 70
192
 0
VERTEX
 8
F-DTS00117
 10
6.085
 20
8.09
 30
0
 70
192
 0
VERTEX
 8
F-DTS00117
 10
-6.085
 20
8.09
 30
0
 70
192
 0
VERTEX
 8
F-DTS00117
 10
-6.085
 20
6.63
 30
0
 70
192
 0
VERTEX
 8
F-DTS00117
 10
6.085
 20
6.63
 30
0
 70
192
 0
VERTEX
 8
F-DTS00117
 10
6.085
 20
7.09
 30
0
 70
192
 0
VERTEX
 8
F-DTS00117
 10
-6.085
 20
7.09
 30
0
 70
192
 0
VERTEX
 8
F-DTS00117
 10
-6.085
 20
5.63
 30
0
 70
192
 0
VERTEX
 8
F-DTS00117
 10
6.085
 20
5.63
 30
0
 70
192
 0
VERTEX
 8
F-DTS00117
 10
6.085
 20
6.09
 30
0
 70
192
 0
VERTEX
 8
F-DTS00117
 10
-6.085
 20
6.09
 30
0
 70
192
 0
VERTEX
 8
F-DTS00117
 10
-6.085
 20
4.63
 30
0
 70
192
 0
VERTEX
 8
F-DTS00117
 10
6.085
 20
4.63
 30
0
 70
192
 0
VERTEX
 8
F-DTS00117
 10
6.085
 20
5.09
 30
0
 70
192
 0
VERTEX
 8
F-DTS00117
 10
-6.085
 20
5.09
 30
0
 70
192
 0
VERTEX
 8
F-DTS00117
 10
-6.085
 20
-0.8301
 30
0
 70
192
 0
VERTEX
 8
F-DTS00117
 10
6.085
 20
-0.8301
 30
0
 70
192
 0
VERTEX
 8
F-DTS00117
 10
6.085
 20
-0.3701
 30
0
 70
192
 0
VERTEX
 8
F-DTS00117
 10
-6.085
 20
-0.3701
 30
0
 70
192
 0
VERTEX
 8
F-DTS00117
 10
-6.085
 20
-1.8301
 30
0
 70
192
 0
VERTEX
 8
F-DTS00117
 10
6.085
 20
-1.8301
 30
0
 70
192
 0
VERTEX
 8
F-DTS00117
 10
6.085
 20
-1.3701
 30
0
 70
192
 0
VERTEX
 8
F-DTS00117
 10
-6.085
 20
-1.3701
 30
0
 70
192
 0
VERTEX
 8
F-DTS00117
 10
-6.085
 20
-2.8301
 30
0
 70
192
 0
VERTEX
 8
F-DTS00117
 10
6.085
 20
-2.8301
 30
0
 70
192
 0
VERTEX
 8
F-DTS00117
 10
6.085
 20
-2.3701
 30
0
 70
192
 0
VERTEX
 8
F-DTS00117
 10
-6.085
 20
-2.3701
 30
0
 70
192
 0
VERTEX
 8
F-DTS00117
 10
-6.085
 20
-3.8301
 30
0
 70
192
 0
VERTEX
 8
F-DTS00117
 10
6.085
 20
-3.8301
 30
0
 70
192
 0
VERTEX
 8
F-DTS00117
 10
6.085
 20
-3.3701
 30
0
 70
192
 0
VERTEX
 8
F-DTS00117
 10
-6.085
 20
-3.3701
 30
0
 70
192
 0
VERTEX
 8
F-DTS00117
 10
-6.085
 20
-4.8301
 30
0
 70
192
 0
VERTEX
 8
F-DTS00117
 10
6.085
 20
-4.8301
 30
0
 70
192
 0
VERTEX
 8
F-DTS00117
 10
6.085
 20
-4.3701
 30
0
 70
192
 0
VERTEX
 8
F-DTS00117
 10
-6.085
 20
-4.3701
 30
0
 70
192
 0
VERTEX
 8
F-DTS00117
 10
-6.085
 20
-5.8301
 30
0
 70
192
 0
VERTEX
 8
F-DTS00117
 10
6.085
 20
-5.8301
 30
0
 70
192
 0
VERTEX
 8
F-DTS00117
 10
6.085
 20
-5.3701
 30
0
 70
192
 0
VERTEX
 8
F-DTS00117
 10
-6.085
 20
-5.3701
 30
0
 70
192
 0
VERTEX
 8
F-DTS00117
 10
-6.085
 20
-6.8301
 30
0
 70
192
 0
VERTEX
 8
F-DTS00117
 10
6.085
 20
-6.8301
 30
0
 70
192
 0
VERTEX
 8
F-DTS00117
 10
6.085
 20
-6.3701
 30
0
 70
192
 0
VERTEX
 8
F-DTS00117
 10
-6.085
 20
-6.3701
 30
0
 70
192
 0
VERTEX
 8
F-DTS00117
 10
-6.085
 20
-7.8301
 30
0
 70
192
 0
VERTEX
 8
F-DTS00117
 10
6.085
 20
-7.8301
 30
0
 70
192
 0
VERTEX
 8
F-DTS00117
 10
6.085
 20
-7.3701
 30
0
 70
192
 0
VERTEX
 8
F-DTS00117
 10
-6.085
 20
-7.3701
 30
0
 70
192
 0
VERTEX
 8
F-DTS00117
 10
-6.085
 20
-8.8301
 30
0
 70
192
 0
VERTEX
 8
F-DTS00117
 10
6.085
 20
-8.8301
 30
0
 70
192
 0
VERTEX
 8
F-DTS00117
 10
6.085
 20
-8.3701
 30
0
 70
192
 0
VERTEX
 8
F-DTS00117
 10
-6.085
 20
-8.3701
 30
0
 70
192
 0
VERTEX
 8
F-DTS00117
 10
-6.085
 20
-9.8301
 30
0
 70
192
 0
VERTEX
 8
F-DTS00117
 10
6.085
 20
-9.8301
 30
0
 70
192
 0
VERTEX
 8
F-DTS00117
 10
6.085
 20
-9.3701
 30
0
 70
192
 0
VERTEX
 8
F-DTS00117
 10
-6.085
 20
-9.3701
 30
0
 70
192
 0
VERTEX
 8
F-DTS00117
 10
-6.085
 20
-10.8301
 30
0
 70
192
 0
VERTEX
 8
F-DTS00117
 10
6.085
 20
-10.8301
 30
0
 70
192
 0
VERTEX
 8
F-DTS00117
 10
6.085
 20
-10.3701
 30
0
 70
192
 0
VERTEX
 8
F-DTS00117
 10
-6.085
 20
-10.3701
 30
0
 70
192
 0
VERTEX
 8
F-DTS00117
 10
-6.085
 20
-11.8301
 30
0
 70
192
 0
VERTEX
 8
F-DTS00117
 10
6.085
 20
-11.8301
 30
0
 70
192
 0
VERTEX
 8
F-DTS00117
 10
6.085
 20
-11.3701
 30
0
 70
192
 0
VERTEX
 8
F-DTS00117
 10
-6.085
 20
-11.3701
 30
0
 70
192
 0
VERTEX
 8
F-DTS00117
 10
-6.085
 20
-12.8301
 30
0
 70
192
 0
VERTEX
 8
F-DTS00117
 10
6.085
 20
-12.8301
 30
0
 70
192
 0
VERTEX
 8
F-DTS00117
 10
6.085
 20
-12.3701
 30
0
 70
192
 0
VERTEX
 8
F-DTS00117
 10
-6.085
 20
-12.3701
 30
0
 70
192
 0
VERTEX
 8
F-DTS00117
 10
1
 20
2.1296
 30
0.4
 70
192
 0
VERTEX
 8
F-DTS00117
 10
0.9951
 20
2.2276
 30
0.4
 70
192
 0
VERTEX
 8
F-DTS00117
 10
0.9807
 20
2.3247
 30
0.4
 70
192
 0
VERTEX
 8
F-DTS00117
 10
0.9569
 20
2.4198
 30
0.4
 70
192
 0
VERTEX
 8
F-DTS00117
 10
0.9238
 20
2.5122
 30
0.4
 70
192
 0
VERTEX
 8
F-DTS00117
 10
0.8819
 20
2.6009
 30
0.4
 70
192
 0
VERTEX
 8
F-DTS00117
 10
0.8314
 20
2.6851
 30
0.4
 70
192
 0
VERTEX
 8
F-DTS00117
 10
0.773
 20
2.7639
 30
0.4
 70
192
 0
VERTEX
 8
F-DTS00117
 10
0.7071
 20
2.8366
 30
0.4
 70
192
 0
VERTEX
 8
F-DTS00117
 10
0.6344
 20
2.9026
 30
0.4
 70
192
 0
VERTEX
 8
F-DTS00117
 10
0.5555
 20
2.961
 30
0.4
 70
192
 0
VERTEX
 8
F-DTS00117
 10
0.4714
 20
3.0115
 30
0.4
 70
192
 0
VERTEX
 8
F-DTS00117
 10
0.3827
 20
3.0534
 30
0.4
 70
192
 0
VERTEX
 8
F-DTS00117
 10
0.2903
 20
3.0865
 30
0.4
 70
192
 0
VERTEX
 8
F-DTS00117
 10
0.1951
 20
3.1103
 30
0.4
 70
192
 0
VERTEX
 8
F-DTS00117
 10
0.098
 20
3.1247
 30
0.4
 70
192
 0
VERTEX
 8
F-DTS00117
 10
0
 20
3.1295
 30
0.4
 70
192
 0
VERTEX
 8
F-DTS00117
 10
-0.098
 20
3.1247
 30
0.4
 70
192
 0
VERTEX
 8
F-DTS00117
 10
-0.1951
 20
3.1103
 30
0.4
 70
192
 0
VERTEX
 8
F-DTS00117
 10
-0.2903
 20
3.0865
 30
0.4
 70
192
 0
VERTEX
 8
F-DTS00117
 10
-0.3827
 20
3.0534
 30
0.4
 70
192
 0
VERTEX
 8
F-DTS00117
 10
-0.4714
 20
3.0115
 30
0.4
 70
192
 0
VERTEX
 8
F-DTS00117
 10
-0.5555
 20
2.961
 30
0.4
 70
192
 0
VERTEX
 8
F-DTS00117
 10
-0.6344
 20
2.9026
 30
0.4
 70
192
 0
VERTEX
 8
F-DTS00117
 10
-0.7071
 20
2.8366
 30
0.4
 70
192
 0
VERTEX
 8
F-DTS00117
 10
-0.773
 20
2.7639
 30
0.4
 70
192
 0
VERTEX
 8
F-DTS00117
 10
-0.8314
 20
2.6851
 30
0.4
 70
192
 0
VERTEX
 8
F-DTS00117
 10
-0.8819
 20
2.6009
 30
0.4
 70
192
 0
VERTEX
 8
F-DTS00117
 10
-0.9238
 20
2.5122
 30
0.4
 70
192
 0
VERTEX
 8
F-DTS00117
 10
-0.9569
 20
2.4198
 30
0.4
 70
192
 0
VERTEX
 8
F-DTS00117
 10
-0.9807
 20
2.3247
 30
0.4
 70
192
 0
VERTEX
 8
F-DTS00117
 10
-0.9951
 20
2.2276
 30
0.4
 70
192
 0
VERTEX
 8
F-DTS00117
 10
-1
 20
2.1296
 30
0.4
 70
192
 0
VERTEX
 8
F-DTS00117
 10
-0.9951
 20
2.0316
 30
0.4
 70
192
 0
VERTEX
 8
F-DTS00117
 10
-0.9807
 20
1.9345
 30
0.4
 70
192
 0
VERTEX
 8
F-DTS00117
 10
-0.9569
 20
1.8393
 30
0.4
 70
192
 0
VERTEX
 8
F-DTS00117
 10
-0.9238
 20
1.7469
 30
0.4
 70
192
 0
VERTEX
 8
F-DTS00117
 10
-0.8819
 20
1.6582
 30
0.4
 70
192
 0
VERTEX
 8
F-DTS00117
 10
-0.8314
 20
1.574
 30
0.4
 70
192
 0
VERTEX
 8
F-DTS00117
 10
-0.773
 20
1.4952
 30
0.4
 70
192
 0
VERTEX
 8
F-DTS00117
 10
-0.7071
 20
1.4225
 30
0.4
 70
192
 0
VERTEX
 8
F-DTS00117
 10
-0.6344
 20
1.3566
 30
0.4
 70
192
 0
VERTEX
 8
F-DTS00117
 10
-0.5555
 20
1.2981
 30
0.4
 70
192
 0
VERTEX
 8
F-DTS00117
 10
-0.4714
 20
1.2477
 30
0.4
 70
192
 0
VERTEX
 8
F-DTS00117
 10
-0.3827
 20
1.2057
 30
0.4
 70
192
 0
VERTEX
 8
F-DTS00117
 10
-0.2903
 20
1.1727
 30
0.4
 70
192
 0
VERTEX
 8
F-DTS00117
 10
-0.1951
 20
1.1488
 30
0.4
 70
192
 0
VERTEX
 8
F-DTS00117
 10
-0.098
 20
1.1344
 30
0.4
 70
192
 0
VERTEX
 8
F-DTS00117
 10
0
 20
1.1296
 30
0.4
 70
192
 0
VERTEX
 8
F-DTS00117
 10
0.098
 20
1.1344
 30
0.4
 70
192
 0
VERTEX
 8
F-DTS00117
 10
0.1951
 20
1.1488
 30
0.4
 70
192
 0
VERTEX
 8
F-DTS00117
 10
0.2903
 20
1.1727
 30
0.4
 70
192
 0
VERTEX
 8
F-DTS00117
 10
0.3827
 20
1.2057
 30
0.4
 70
192
 0
VERTEX
 8
F-DTS00117
 10
0.4714
 20
1.2477
 30
0.4
 70
192
 0
VERTEX
 8
F-DTS00117
 10
0.5555
 20
1.2981
 30
0.4
 70
192
 0
VERTEX
 8
F-DTS00117
 10
0.6344
 20
1.3566
 30
0.4
 70
192
 0
VERTEX
 8
F-DTS00117
 10
0.7071
 20
1.4225
 30
0.4
 70
192
 0
VERTEX
 8
F-DTS00117
 10
0.773
 20
1.4952
 30
0.4
 70
192
 0
VERTEX
 8
F-DTS00117
 10
0.8314
 20
1.574
 30
0.4
 70
192
 0
VERTEX
 8
F-DTS00117
 10
0.8819
 20
1.6582
 30
0.4
 70
192
 0
VERTEX
 8
F-DTS00117
 10
0.9238
 20
1.7469
 30
0.4
 70
192
 0
VERTEX
 8
F-DTS00117
 10
0.9569
 20
1.8393
 30
0.4
 70
192
 0
VERTEX
 8
F-DTS00117
 10
0.9807
 20
1.9345
 30
0.4
 70
192
 0
VERTEX
 8
F-DTS00117
 10
0.9951
 20
2.0316
 30
0.4
 70
192
 0
VERTEX
 8
F-DTS00117
 10
1
 20
2.1296
 30
0
 70
192
 0
VERTEX
 8
F-DTS00117
 10
0.9951
 20
2.2276
 30
0
 70
192
 0
VERTEX
 8
F-DTS00117
 10
0.9807
 20
2.3247
 30
0
 70
192
 0
VERTEX
 8
F-DTS00117
 10
0.9569
 20
2.4198
 30
0
 70
192
 0
VERTEX
 8
F-DTS00117
 10
0.9238
 20
2.5122
 30
0
 70
192
 0
VERTEX
 8
F-DTS00117
 10
0.8819
 20
2.6009
 30
0
 70
192
 0
VERTEX
 8
F-DTS00117
 10
0.8314
 20
2.6851
 30
0
 70
192
 0
VERTEX
 8
F-DTS00117
 10
0.773
 20
2.7639
 30
0
 70
192
 0
VERTEX
 8
F-DTS00117
 10
0.7071
 20
2.8366
 30
0
 70
192
 0
VERTEX
 8
F-DTS00117
 10
0.6344
 20
2.9026
 30
0
 70
192
 0
VERTEX
 8
F-DTS00117
 10
0.5555
 20
2.961
 30
0
 70
192
 0
VERTEX
 8
F-DTS00117
 10
0.4714
 20
3.0115
 30
0
 70
192
 0
VERTEX
 8
F-DTS00117
 10
0.3827
 20
3.0534
 30
0
 70
192
 0
VERTEX
 8
F-DTS00117
 10
0.2903
 20
3.0865
 30
0
 70
192
 0
VERTEX
 8
F-DTS00117
 10
0.1951
 20
3.1103
 30
0
 70
192
 0
VERTEX
 8
F-DTS00117
 10
0.098
 20
3.1247
 30
0
 70
192
 0
VERTEX
 8
F-DTS00117
 10
0
 20
3.1295
 30
0
 70
192
 0
VERTEX
 8
F-DTS00117
 10
-0.098
 20
3.1247
 30
0
 70
192
 0
VERTEX
 8
F-DTS00117
 10
-0.1951
 20
3.1103
 30
0
 70
192
 0
VERTEX
 8
F-DTS00117
 10
-0.2903
 20
3.0865
 30
0
 70
192
 0
VERTEX
 8
F-DTS00117
 10
-0.3827
 20
3.0534
 30
0
 70
192
 0
VERTEX
 8
F-DTS00117
 10
-0.4714
 20
3.0115
 30
0
 70
192
 0
VERTEX
 8
F-DTS00117
 10
-0.5555
 20
2.961
 30
0
 70
192
 0
VERTEX
 8
F-DTS00117
 10
-0.6344
 20
2.9026
 30
0
 70
192
 0
VERTEX
 8
F-DTS00117
 10
-0.7071
 20
2.8366
 30
0
 70
192
 0
VERTEX
 8
F-DTS00117
 10
-0.773
 20
2.7639
 30
0
 70
192
 0
VERTEX
 8
F-DTS00117
 10
-0.8314
 20
2.6851
 30
0
 70
192
 0
VERTEX
 8
F-DTS00117
 10
-0.8819
 20
2.6009
 30
0
 70
192
 0
VERTEX
 8
F-DTS00117
 10
-0.9238
 20
2.5122
 30
0
 70
192
 0
VERTEX
 8
F-DTS00117
 10
-0.9569
 20
2.4198
 30
0
 70
192
 0
VERTEX
 8
F-DTS00117
 10
-0.9807
 20
2.3247
 30
0
 70
192
 0
VERTEX
 8
F-DTS00117
 10
-0.9951
 20
2.2276
 30
0
 70
192
 0
VERTEX
 8
F-DTS00117
 10
-1
 20
2.1296
 30
0
 70
192
 0
VERTEX
 8
F-DTS00117
 10
-0.9951
 20
2.0316
 30
0
 70
192
 0
VERTEX
 8
F-DTS00117
 10
-0.9807
 20
1.9345
 30
0
 70
192
 0
VERTEX
 8
F-DTS00117
 10
-0.9569
 20
1.8393
 30
0
 70
192
 0
VERTEX
 8
F-DTS00117
 10
-0.9238
 20
1.7469
 30
0
 70
192
 0
VERTEX
 8
F-DTS00117
 10
-0.8819
 20
1.6582
 30
0
 70
192
 0
VERTEX
 8
F-DTS00117
 10
-0.8314
 20
1.574
 30
0
 70
192
 0
VERTEX
 8
F-DTS00117
 10
-0.773
 20
1.4952
 30
0
 70
192
 0
VERTEX
 8
F-DTS00117
 10
-0.7071
 20
1.4225
 30
0
 70
192
 0
VERTEX
 8
F-DTS00117
 10
-0.6344
 20
1.3566
 30
0
 70
192
 0
VERTEX
 8
F-DTS00117
 10
-0.5555
 20
1.2981
 30
0
 70
192
 0
VERTEX
 8
F-DTS00117
 10
-0.4714
 20
1.2477
 30
0
 70
192
 0
VERTEX
 8
F-DTS00117
 10
-0.3827
 20
1.2057
 30
0
 70
192
 0
VERTEX
 8
F-DTS00117
 10
-0.2903
 20
1.1727
 30
0
 70
192
 0
VERTEX
 8
F-DTS00117
 10
-0.1951
 20
1.1488
 30
0
 70
192
 0
VERTEX
 8
F-DTS00117
 10
-0.098
 20
1.1344
 30
0
 70
192
 0
VERTEX
 8
F-DTS00117
 10
0
 20
1.1296
 30
0
 70
192
 0
VERTEX
 8
F-DTS00117
 10
0.098
 20
1.1344
 30
0
 70
192
 0
VERTEX
 8
F-DTS00117
 10
0.1951
 20
1.1488
 30
0
 70
192
 0
VERTEX
 8
F-DTS00117
 10
0.2903
 20
1.1727
 30
0
 70
192
 0
VERTEX
 8
F-DTS00117
 10
0.3827
 20
1.2057
 30
0
 70
192
 0
VERTEX
 8
F-DTS00117
 10
0.4714
 20
1.2477
 30
0
 70
192
 0
VERTEX
 8
F-DTS00117
 10
0.5555
 20
1.2981
 30
0
 70
192
 0
VERTEX
 8
F-DTS00117
 10
0.6344
 20
1.3566
 30
0
 70
192
 0
VERTEX
 8
F-DTS00117
 10
0.7071
 20
1.4225
 30
0
 70
192
 0
VERTEX
 8
F-DTS00117
 10
0.773
 20
1.4952
 30
0
 70
192
 0
VERTEX
 8
F-DTS00117
 10
0.8314
 20
1.574
 30
0
 70
192
 0
VERTEX
 8
F-DTS00117
 10
0.8819
 20
1.6582
 30
0
 70
192
 0
VERTEX
 8
F-DTS00117
 10
0.9238
 20
1.7469
 30
0
 70
192
 0
VERTEX
 8
F-DTS00117
 10
0.9569
 20
1.8393
 30
0
 70
192
 0
VERTEX
 8
F-DTS00117
 10
0.9807
 20
1.9345
 30
0
 70
192
 0
VERTEX
 8
F-DTS00117
 10
0.9951
 20
2.0316
 30
0
 70
192
 0
VERTEX
 8
F-DTS00117
 10
-6.085
 20
16.63
 30
0.4
 70
192
 0
VERTEX
 8
F-DTS00117
 10
6.085
 20
16.63
 30
0.4
 70
192
 0
VERTEX
 8
F-DTS00117
 10
6.085
 20
17.09
 30
0.4
 70
192
 0
VERTEX
 8
F-DTS00117
 10
-6.085
 20
17.09
 30
0.4
 70
192
 0
VERTEX
 8
F-DTS00117
 10
-6.085
 20
16.63
 30
0
 70
192
 0
VERTEX
 8
F-DTS00117
 10
6.085
 20
16.63
 30
0
 70
192
 0
VERTEX
 8
F-DTS00117
 10
6.085
 20
17.09
 30
0
 70
192
 0
VERTEX
 8
F-DTS00117
 10
-6.085
 20
17.09
 30
0
 70
192
 0
VERTEX
 8
F-DTS00117
 10
-6.085
 20
15.63
 30
0.4
 70
192
 0
VERTEX
 8
F-DTS00117
 10
6.085
 20
15.63
 30
0.4
 70
192
 0
VERTEX
 8
F-DTS00117
 10
6.085
 20
16.09
 30
0.4
 70
192
 0
VERTEX
 8
F-DTS00117
 10
-6.085
 20
16.09
 30
0.4
 70
192
 0
VERTEX
 8
F-DTS00117
 10
-6.085
 20
15.63
 30
0
 70
192
 0
VERTEX
 8
F-DTS00117
 10
6.085
 20
15.63
 30
0
 70
192
 0
VERTEX
 8
F-DTS00117
 10
6.085
 20
16.09
 30
0
 70
192
 0
VERTEX
 8
F-DTS00117
 10
-6.085
 20
16.09
 30
0
 70
192
 0
VERTEX
 8
F-DTS00117
 10
-6.085
 20
14.63
 30
0.4
 70
192
 0
VERTEX
 8
F-DTS00117
 10
6.085
 20
14.63
 30
0.4
 70
192
 0
VERTEX
 8
F-DTS00117
 10
6.085
 20
15.09
 30
0.4
 70
192
 0
VERTEX
 8
F-DTS00117
 10
-6.085
 20
15.09
 30
0.4
 70
192
 0
VERTEX
 8
F-DTS00117
 10
-6.085
 20
14.63
 30
0
 70
192
 0
VERTEX
 8
F-DTS00117
 10
6.085
 20
14.63
 30
0
 70
192
 0
VERTEX
 8
F-DTS00117
 10
6.085
 20
15.09
 30
0
 70
192
 0
VERTEX
 8
F-DTS00117
 10
-6.085
 20
15.09
 30
0
 70
192
 0
VERTEX
 8
F-DTS00117
 10
-6.085
 20
13.63
 30
0.4
 70
192
 0
VERTEX
 8
F-DTS00117
 10
6.085
 20
13.63
 30
0.4
 70
192
 0
VERTEX
 8
F-DTS00117
 10
6.085
 20
14.09
 30
0.4
 70
192
 0
VERTEX
 8
F-DTS00117
 10
-6.085
 20
14.09
 30
0.4
 70
192
 0
VERTEX
 8
F-DTS00117
 10
-6.085
 20
13.63
 30
0
 70
192
 0
VERTEX
 8
F-DTS00117
 10
6.085
 20
13.63
 30
0
 70
192
 0
VERTEX
 8
F-DTS00117
 10
6.085
 20
14.09
 30
0
 70
192
 0
VERTEX
 8
F-DTS00117
 10
-6.085
 20
14.09
 30
0
 70
192
 0
VERTEX
 8
F-DTS00117
 10
-6.085
 20
12.63
 30
0.4
 70
192
 0
VERTEX
 8
F-DTS00117
 10
6.085
 20
12.63
 30
0.4
 70
192
 0
VERTEX
 8
F-DTS00117
 10
6.085
 20
13.09
 30
0.4
 70
192
 0
VERTEX
 8
F-DTS00117
 10
-6.085
 20
13.09
 30
0.4
 70
192
 0
VERTEX
 8
F-DTS00117
 10
-6.085
 20
12.63
 30
0
 70
192
 0
VERTEX
 8
F-DTS00117
 10
6.085
 20
12.63
 30
0
 70
192
 0
VERTEX
 8
F-DTS00117
 10
6.085
 20
13.09
 30
0
 70
192
 0
VERTEX
 8
F-DTS00117
 10
-6.085
 20
13.09
 30
0
 70
192
 0
VERTEX
 8
F-DTS00117
 10
-6.085
 20
11.63
 30
0.4
 70
192
 0
VERTEX
 8
F-DTS00117
 10
6.085
 20
11.63
 30
0.4
 70
192
 0
VERTEX
 8
F-DTS00117
 10
6.085
 20
12.09
 30
0.4
 70
192
 0
VERTEX
 8
F-DTS00117
 10
-6.085
 20
12.09
 30
0.4
 70
192
 0
VERTEX
 8
F-DTS00117
 10
-6.085
 20
11.63
 30
0
 70
192
 0
VERTEX
 8
F-DTS00117
 10
6.085
 20
11.63
 30
0
 70
192
 0
VERTEX
 8
F-DTS00117
 10
6.085
 20
12.09
 30
0
 70
192
 0
VERTEX
 8
F-DTS00117
 10
-6.085
 20
12.09
 30
0
 70
192
 0
VERTEX
 8
F-DTS00117
 10
-6.085
 20
10.63
 30
0.4
 70
192
 0
VERTEX
 8
F-DTS00117
 10
6.085
 20
10.63
 30
0.4
 70
192
 0
VERTEX
 8
F-DTS00117
 10
6.085
 20
11.09
 30
0.4
 70
192
 0
VERTEX
 8
F-DTS00117
 10
-6.085
 20
11.09
 30
0.4
 70
192
 0
VERTEX
 8
F-DTS00117
 10
-6.085
 20
10.63
 30
0
 70
192
 0
VERTEX
 8
F-DTS00117
 10
6.085
 20
10.63
 30
0
 70
192
 0
VERTEX
 8
F-DTS00117
 10
6.085
 20
11.09
 30
0
 70
192
 0
VERTEX
 8
F-DTS00117
 10
-6.085
 20
11.09
 30
0
 70
192
 0
VERTEX
 8
F-DTS00117
 10
-6.085
 20
9.63
 30
0.4
 70
192
 0
VERTEX
 8
F-DTS00117
 10
6.085
 20
9.63
 30
0.4
 70
192
 0
VERTEX
 8
F-DTS00117
 10
6.085
 20
10.09
 30
0.4
 70
192
 0
VERTEX
 8
F-DTS00117
 10
-6.085
 20
10.09
 30
0.4
 70
192
 0
VERTEX
 8
F-DTS00117
 10
-6.085
 20
9.63
 30
0
 70
192
 0
VERTEX
 8
F-DTS00117
 10
6.085
 20
9.63
 30
0
 70
192
 0
VERTEX
 8
F-DTS00117
 10
6.085
 20
10.09
 30
0
 70
192
 0
VERTEX
 8
F-DTS00117
 10
-6.085
 20
10.09
 30
0
 70
192
 0
VERTEX
 8
F-DTS00117
 10
-6.085
 20
8.63
 30
0.4
 70
192
 0
VERTEX
 8
F-DTS00117
 10
6.085
 20
8.63
 30
0.4
 70
192
 0
VERTEX
 8
F-DTS00117
 10
6.085
 20
9.09
 30
0.4
 70
192
 0
VERTEX
 8
F-DTS00117
 10
-6.085
 20
9.09
 30
0.4
 70
192
 0
VERTEX
 8
F-DTS00117
 10
-6.085
 20
8.63
 30
0
 70
192
 0
VERTEX
 8
F-DTS00117
 10
6.085
 20
8.63
 30
0
 70
192
 0
VERTEX
 8
F-DTS00117
 10
6.085
 20
9.09
 30
0
 70
192
 0
VERTEX
 8
F-DTS00117
 10
-6.085
 20
9.09
 30
0
 70
192
 0
VERTEX
 8
F-DTS00117
 10
-6.085
 20
8.63
 30
0.4
 70
192
 0
VERTEX
 8
F-DTS00117
 10
6.085
 20
8.63
 30
0.4
 70
192
 0
VERTEX
 8
F-DTS00117
 10
6.085
 20
9.09
 30
0.4
 70
192
 0
VERTEX
 8
F-DTS00117
 10
-6.085
 20
9.09
 30
0.4
 70
192
 0
VERTEX
 8
F-DTS00117
 10
-6.085
 20
8.63
 30
0
 70
192
 0
VERTEX
 8
F-DTS00117
 10
6.085
 20
8.63
 30
0
 70
192
 0
VERTEX
 8
F-DTS00117
 10
6.085
 20
9.09
 30
0
 70
192
 0
VERTEX
 8
F-DTS00117
 10
-6.085
 20
9.09
 30
0
 70
192
 0
VERTEX
 8
F-DTS00117
 10
-6.085
 20
7.63
 30
0.4
 70
192
 0
VERTEX
 8
F-DTS00117
 10
6.085
 20
7.63
 30
0.4
 70
192
 0
VERTEX
 8
F-DTS00117
 10
6.085
 20
8.09
 30
0.4
 70
192
 0
VERTEX
 8
F-DTS00117
 10
-6.085
 20
8.09
 30
0.4
 70
192
 0
VERTEX
 8
F-DTS00117
 10
-6.085
 20
7.63
 30
0
 70
192
 0
VERTEX
 8
F-DTS00117
 10
6.085
 20
7.63
 30
0
 70
192
 0
VERTEX
 8
F-DTS00117
 10
6.085
 20
8.09
 30
0
 70
192
 0
VERTEX
 8
F-DTS00117
 10
-6.085
 20
8.09
 30
0
 70
192
 0
VERTEX
 8
F-DTS00117
 10
-6.085
 20
8.63
 30
0.4
 70
192
 0
VERTEX
 8
F-DTS00117
 10
6.085
 20
8.63
 30
0.4
 70
192
 0
VERTEX
 8
F-DTS00117
 10
6.085
 20
9.09
 30
0.4
 70
192
 0
VERTEX
 8
F-DTS00117
 10
-6.085
 20
9.09
 30
0.4
 70
192
 0
VERTEX
 8
F-DTS00117
 10
-6.085
 20
8.63
 30
0
 70
192
 0
VERTEX
 8
F-DTS00117
 10
6.085
 20
8.63
 30
0
 70
192
 0
VERTEX
 8
F-DTS00117
 10
6.085
 20
9.09
 30
0
 70
192
 0
VERTEX
 8
F-DTS00117
 10
-6.085
 20
9.09
 30
0
 70
192
 0
VERTEX
 8
F-DTS00117
 10
-6.085
 20
6.63
 30
0.4
 70
192
 0
VERTEX
 8
F-DTS00117
 10
6.085
 20
6.63
 30
0.4
 70
192
 0
VERTEX
 8
F-DTS00117
 10
6.085
 20
7.09
 30
0.4
 70
192
 0
VERTEX
 8
F-DTS00117
 10
-6.085
 20
7.09
 30
0.4
 70
192
 0
VERTEX
 8
F-DTS00117
 10
-6.085
 20
6.63
 30
0
 70
192
 0
VERTEX
 8
F-DTS00117
 10
6.085
 20
6.63
 30
0
 70
192
 0
VERTEX
 8
F-DTS00117
 10
6.085
 20
7.09
 30
0
 70
192
 0
VERTEX
 8
F-DTS00117
 10
-6.085
 20
7.09
 30
0
 70
192
 0
VERTEX
 8
F-DTS00117
 10
-6.085
 20
5.63
 30
0.4
 70
192
 0
VERTEX
 8
F-DTS00117
 10
6.085
 20
5.63
 30
0.4
 70
192
 0
VERTEX
 8
F-DTS00117
 10
6.085
 20
6.09
 30
0.4
 70
192
 0
VERTEX
 8
F-DTS00117
 10
-6.085
 20
6.09
 30
0.4
 70
192
 0
VERTEX
 8
F-DTS00117
 10
-6.085
 20
5.63
 30
0
 70
192
 0
VERTEX
 8
F-DTS00117
 10
6.085
 20
5.63
 30
0
 70
192
 0
VERTEX
 8
F-DTS00117
 10
6.085
 20
6.09
 30
0
 70
192
 0
VERTEX
 8
F-DTS00117
 10
-6.085
 20
6.09
 30
0
 70
192
 0
VERTEX
 8
F-DTS00117
 10
-6.085
 20
4.63
 30
0.4
 70
192
 0
VERTEX
 8
F-DTS00117
 10
6.085
 20
4.63
 30
0.4
 70
192
 0
VERTEX
 8
F-DTS00117
 10
6.085
 20
5.09
 30
0.4
 70
192
 0
VERTEX
 8
F-DTS00117
 10
-6.085
 20
5.09
 30
0.4
 70
192
 0
VERTEX
 8
F-DTS00117
 10
-6.085
 20
4.63
 30
0
 70
192
 0
VERTEX
 8
F-DTS00117
 10
6.085
 20
4.63
 30
0
 70
192
 0
VERTEX
 8
F-DTS00117
 10
6.085
 20
5.09
 30
0
 70
192
 0
VERTEX
 8
F-DTS00117
 10
-6.085
 20
5.09
 30
0
 70
192
 0
VERTEX
 8
F-DTS00117
 10
-6.085
 20
-0.8301
 30
0.4
 70
192
 0
VERTEX
 8
F-DTS00117
 10
6.085
 20
-0.8301
 30
0.4
 70
192
 0
VERTEX
 8
F-DTS00117
 10
6.085
 20
-0.3701
 30
0.4
 70
192
 0
VERTEX
 8
F-DTS00117
 10
-6.085
 20
-0.3701
 30
0.4
 70
192
 0
VERTEX
 8
F-DTS00117
 10
-6.085
 20
-0.8301
 30
0
 70
192
 0
VERTEX
 8
F-DTS00117
 10
6.085
 20
-0.8301
 30
0
 70
192
 0
VERTEX
 8
F-DTS00117
 10
6.085
 20
-0.3701
 30
0
 70
192
 0
VERTEX
 8
F-DTS00117
 10
-6.085
 20
-0.3701
 30
0
 70
192
 0
VERTEX
 8
F-DTS00117
 10
-6.085
 20
-1.8301
 30
0.4
 70
192
 0
VERTEX
 8
F-DTS00117
 10
6.085
 20
-1.8301
 30
0.4
 70
192
 0
VERTEX
 8
F-DTS00117
 10
6.085
 20
-1.3701
 30
0.4
 70
192
 0
VERTEX
 8
F-DTS00117
 10
-6.085
 20
-1.3701
 30
0.4
 70
192
 0
VERTEX
 8
F-DTS00117
 10
-6.085
 20
-1.8301
 30
0
 70
192
 0
VERTEX
 8
F-DTS00117
 10
6.085
 20
-1.8301
 30
0
 70
192
 0
VERTEX
 8
F-DTS00117
 10
6.085
 20
-1.3701
 30
0
 70
192
 0
VERTEX
 8
F-DTS00117
 10
-6.085
 20
-1.3701
 30
0
 70
192
 0
VERTEX
 8
F-DTS00117
 10
-6.085
 20
-2.8301
 30
0.4
 70
192
 0
VERTEX
 8
F-DTS00117
 10
6.085
 20
-2.8301
 30
0.4
 70
192
 0
VERTEX
 8
F-DTS00117
 10
6.085
 20
-2.3701
 30
0.4
 70
192
 0
VERTEX
 8
F-DTS00117
 10
-6.085
 20
-2.3701
 30
0.4
 70
192
 0
VERTEX
 8
F-DTS00117
 10
-6.085
 20
-2.8301
 30
0
 70
192
 0
VERTEX
 8
F-DTS00117
 10
6.085
 20
-2.8301
 30
0
 70
192
 0
VERTEX
 8
F-DTS00117
 10
6.085
 20
-2.3701
 30
0
 70
192
 0
VERTEX
 8
F-DTS00117
 10
-6.085
 20
-2.3701
 30
0
 70
192
 0
VERTEX
 8
F-DTS00117
 10
-6.085
 20
-3.8301
 30
0.4
 70
192
 0
VERTEX
 8
F-DTS00117
 10
6.085
 20
-3.8301
 30
0.4
 70
192
 0
VERTEX
 8
F-DTS00117
 10
6.085
 20
-3.3701
 30
0.4
 70
192
 0
VERTEX
 8
F-DTS00117
 10
-6.085
 20
-3.3701
 30
0.4
 70
192
 0
VERTEX
 8
F-DTS00117
 10
-6.085
 20
-3.8301
 30
0
 70
192
 0
VERTEX
 8
F-DTS00117
 10
6.085
 20
-3.8301
 30
0
 70
192
 0
VERTEX
 8
F-DTS00117
 10
6.085
 20
-3.3701
 30
0
 70
192
 0
VERTEX
 8
F-DTS00117
 10
-6.085
 20
-3.3701
 30
0
 70
192
 0
VERTEX
 8
F-DTS00117
 10
-6.085
 20
-4.8301
 30
0.4
 70
192
 0
VERTEX
 8
F-DTS00117
 10
6.085
 20
-4.8301
 30
0.4
 70
192
 0
VERTEX
 8
F-DTS00117
 10
6.085
 20
-4.3701
 30
0.4
 70
192
 0
VERTEX
 8
F-DTS00117
 10
-6.085
 20
-4.3701
 30
0.4
 70
192
 0
VERTEX
 8
F-DTS00117
 10
-6.085
 20
-4.8301
 30
0
 70
192
 0
VERTEX
 8
F-DTS00117
 10
6.085
 20
-4.8301
 30
0
 70
192
 0
VERTEX
 8
F-DTS00117
 10
6.085
 20
-4.3701
 30
0
 70
192
 0
VERTEX
 8
F-DTS00117
 10
-6.085
 20
-4.3701
 30
0
 70
192
 0
VERTEX
 8
F-DTS00117
 10
-6.085
 20
-5.8301
 30
0.4
 70
192
 0
VERTEX
 8
F-DTS00117
 10
6.085
 20
-5.8301
 30
0.4
 70
192
 0
VERTEX
 8
F-DTS00117
 10
6.085
 20
-5.3701
 30
0.4
 70
192
 0
VERTEX
 8
F-DTS00117
 10
-6.085
 20
-5.3701
 30
0.4
 70
192
 0
VERTEX
 8
F-DTS00117
 10
-6.085
 20
-5.8301
 30
0
 70
192
 0
VERTEX
 8
F-DTS00117
 10
6.085
 20
-5.8301
 30
0
 70
192
 0
VERTEX
 8
F-DTS00117
 10
6.085
 20
-5.3701
 30
0
 70
192
 0
VERTEX
 8
F-DTS00117
 10
-6.085
 20
-5.3701
 30
0
 70
192
 0
VERTEX
 8
F-DTS00117
 10
-6.085
 20
-5.8301
 30
0.4
 70
192
 0
VERTEX
 8
F-DTS00117
 10
6.085
 20
-5.8301
 30
0.4
 70
192
 0
VERTEX
 8
F-DTS00117
 10
6.085
 20
-5.3701
 30
0.4
 70
192
 0
VERTEX
 8
F-DTS00117
 10
-6.085
 20
-5.3701
 30
0.4
 70
192
 0
VERTEX
 8
F-DTS00117
 10
-6.085
 20
-5.8301
 30
0
 70
192
 0
VERTEX
 8
F-DTS00117
 10
6.085
 20
-5.8301
 30
0
 70
192
 0
VERTEX
 8
F-DTS00117
 10
6.085
 20
-5.3701
 30
0
 70
192
 0
VERTEX
 8
F-DTS00117
 10
-6.085
 20
-5.3701
 30
0
 70
192
 0
VERTEX
 8
F-DTS00117
 10
-6.085
 20
-6.8301
 30
0.4
 70
192
 0
VERTEX
 8
F-DTS00117
 10
6.085
 20
-6.8301
 30
0.4
 70
192
 0
VERTEX
 8
F-DTS00117
 10
6.085
 20
-6.3701
 30
0.4
 70
192
 0
VERTEX
 8
F-DTS00117
 10
-6.085
 20
-6.3701
 30
0.4
 70
192
 0
VERTEX
 8
F-DTS00117
 10
-6.085
 20
-6.8301
 30
0
 70
192
 0
VERTEX
 8
F-DTS00117
 10
6.085
 20
-6.8301
 30
0
 70
192
 0
VERTEX
 8
F-DTS00117
 10
6.085
 20
-6.3701
 30
0
 70
192
 0
VERTEX
 8
F-DTS00117
 10
-6.085
 20
-6.3701
 30
0
 70
192
 0
VERTEX
 8
F-DTS00117
 10
-6.085
 20
-7.8301
 30
0.4
 70
192
 0
VERTEX
 8
F-DTS00117
 10
6.085
 20
-7.8301
 30
0.4
 70
192
 0
VERTEX
 8
F-DTS00117
 10
6.085
 20
-7.3701
 30
0.4
 70
192
 0
VERTEX
 8
F-DTS00117
 10
-6.085
 20
-7.3701
 30
0.4
 70
192
 0
VERTEX
 8
F-DTS00117
 10
-6.085
 20
-7.8301
 30
0
 70
192
 0
VERTEX
 8
F-DTS00117
 10
6.085
 20
-7.8301
 30
0
 70
192
 0
VERTEX
 8
F-DTS00117
 10
6.085
 20
-7.3701
 30
0
 70
192
 0
VERTEX
 8
F-DTS00117
 10
-6.085
 20
-7.3701
 30
0
 70
192
 0
VERTEX
 8
F-DTS00117
 10
-6.085
 20
-8.8301
 30
0.4
 70
192
 0
VERTEX
 8
F-DTS00117
 10
6.085
 20
-8.8301
 30
0.4
 70
192
 0
VERTEX
 8
F-DTS00117
 10
6.085
 20
-8.3701
 30
0.4
 70
192
 0
VERTEX
 8
F-DTS00117
 10
-6.085
 20
-8.3701
 30
0.4
 70
192
 0
VERTEX
 8
F-DTS00117
 10
-6.085
 20
-8.8301
 30
0
 70
192
 0
VERTEX
 8
F-DTS00117
 10
6.085
 20
-8.8301
 30
0
 70
192
 0
VERTEX
 8
F-DTS00117
 10
6.085
 20
-8.3701
 30
0
 70
192
 0
VERTEX
 8
F-DTS00117
 10
-6.085
 20
-8.3701
 30
0
 70
192
 0
VERTEX
 8
F-DTS00117
 10
-6.085
 20
-9.8301
 30
0.4
 70
192
 0
VERTEX
 8
F-DTS00117
 10
6.085
 20
-9.8301
 30
0.4
 70
192
 0
VERTEX
 8
F-DTS00117
 10
6.085
 20
-9.3701
 30
0.4
 70
192
 0
VERTEX
 8
F-DTS00117
 10
-6.085
 20
-9.3701
 30
0.4
 70
192
 0
VERTEX
 8
F-DTS00117
 10
-6.085
 20
-9.8301
 30
0
 70
192
 0
VERTEX
 8
F-DTS00117
 10
6.085
 20
-9.8301
 30
0
 70
192
 0
VERTEX
 8
F-DTS00117
 10
6.085
 20
-9.3701
 30
0
 70
192
 0
VERTEX
 8
F-DTS00117
 10
-6.085
 20
-9.3701
 30
0
 70
192
 0
VERTEX
 8
F-DTS00117
 10
-6.085
 20
-10.8301
 30
0.4
 70
192
 0
VERTEX
 8
F-DTS00117
 10
6.085
 20
-10.8301
 30
0.4
 70
192
 0
VERTEX
 8
F-DTS00117
 10
6.085
 20
-10.3701
 30
0.4
 70
192
 0
VERTEX
 8
F-DTS00117
 10
-6.085
 20
-10.3701
 30
0.4
 70
192
 0
VERTEX
 8
F-DTS00117
 10
-6.085
 20
-10.8301
 30
0
 70
192
 0
VERTEX
 8
F-DTS00117
 10
6.085
 20
-10.8301
 30
0
 70
192
 0
VERTEX
 8
F-DTS00117
 10
6.085
 20
-10.3701
 30
0
 70
192
 0
VERTEX
 8
F-DTS00117
 10
-6.085
 20
-10.3701
 30
0
 70
192
 0
VERTEX
 8
F-DTS00117
 10
-6.085
 20
-11.8301
 30
0.4
 70
192
 0
VERTEX
 8
F-DTS00117
 10
6.085
 20
-11.8301
 30
0.4
 70
192
 0
VERTEX
 8
F-DTS00117
 10
6.085
 20
-11.3701
 30
0.4
 70
192
 0
VERTEX
 8
F-DTS00117
 10
-6.085
 20
-11.3701
 30
0.4
 70
192
 0
VERTEX
 8
F-DTS00117
 10
-6.085
 20
-11.8301
 30
0
 70
192
 0
VERTEX
 8
F-DTS00117
 10
6.085
 20
-11.8301
 30
0
 70
192
 0
VERTEX
 8
F-DTS00117
 10
6.085
 20
-11.3701
 30
0
 70
192
 0
VERTEX
 8
F-DTS00117
 10
-6.085
 20
-11.3701
 30
0
 70
192
 0
VERTEX
 8
F-DTS00117
 10
-6.085
 20
-12.8301
 30
0.4
 70
192
 0
VERTEX
 8
F-DTS00117
 10
6.085
 20
-12.8301
 30
0.4
 70
192
 0
VERTEX
 8
F-DTS00117
 10
6.085
 20
-12.3701
 30
0.4
 70
192
 0
VERTEX
 8
F-DTS00117
 10
-6.085
 20
-12.3701
 30
0.4
 70
192
 0
VERTEX
 8
F-DTS00117
 10
-6.085
 20
-12.8301
 30
0
 70
192
 0
VERTEX
 8
F-DTS00117
 10
6.085
 20
-12.8301
 30
0
 70
192
 0
VERTEX
 8
F-DTS00117
 10
6.085
 20
-12.3701
 30
0
 70
192
 0
VERTEX
 8
F-DTS00117
 10
-6.085
 20
-12.3701
 30
0
 70
192
 0
VERTEX
 8
F-DTS00117
 10
0
 20
0
 30
0
 70
128
 71
1
 72
2
 73
4
 74
3
 0
VERTEX
 8
F-DTS00117
 10
0
 20
0
 30
0
 70
128
 71
3
 72
4
 73
6
 74
5
 0
VERTEX
 8
F-DTS00117
 10
0
 20
0
 30
0
 70
128
 71
5
 72
6
 73
8
 74
7
 0
VERTEX
 8
F-DTS00117
 10
0
 20
0
 30
0
 70
128
 71
7
 72
8
 73
2
 74
1
 0
VERTEX
 8
F-DTS00117
 10
0
 20
0
 30
0
 70
128
 71
145
 72
148
 73
147
 74
146
 0
VERTEX
 8
F-DTS00117
 10
0
 20
0
 30
0
 70
128
 71
127
 72
72
 73
9
 74
122
 0
VERTEX
 8
F-DTS00117
 10
0
 20
0
 30
0
 70
128
 71
100
 72
93
 73
94
 74
99
 0
VERTEX
 8
F-DTS00117
 10
0
 20
0
 30
0
 70
128
 71
116
 72
109
 73
110
 74
115
 0
VERTEX
 8
F-DTS00117
 10
0
 20
0
 30
0
 70
128
 71
79
 72
80
 73
73
 74
74
 0
VERTEX
 8
F-DTS00117
 10
0
 20
0
 30
0
 70
128
 71
111
 72
112
 73
105
 74
106
 0
VERTEX
 8
F-DTS00117
 10
0
 20
0
 30
0
 70
128
 71
132
 72
125
 73
126
 74
131
 0
VERTEX
 8
F-DTS00117
 10
0
 20
0
 30
0
 70
128
 71
96
 72
89
 73
90
 74
95
 0
VERTEX
 8
F-DTS00117
 10
0
 20
0
 30
0
 70
128
 71
160
 72
153
 73
154
 74
159
 0
VERTEX
 8
F-DTS00117
 10
0
 20
0
 30
0
 70
128
 71
107
 72
108
 73
101
 74
102
 0
VERTEX
 8
F-DTS00117
 10
0
 20
0
 30
0
 70
128
 71
104
 72
97
 73
98
 74
103
 0
VERTEX
 8
F-DTS00117
 10
0
 20
0
 30
0
 70
128
 71
83
 72
84
 73
77
 74
78
 0
VERTEX
 8
F-DTS00117
 10
0
 20
0
 30
0
 70
128
 71
120
 72
113
 73
114
 74
119
 0
VERTEX
 8
F-DTS00117
 10
0
 20
0
 30
0
 70
128
 71
168
 72
161
 73
162
 74
167
 0
VERTEX
 8
F-DTS00117
 10
0
 20
0
 30
0
 70
128
 71
136
 72
129
 73
130
 74
135
 0
VERTEX
 8
F-DTS00117
 10
0
 20
0
 30
0
 70
128
 71
152
 72
145
 73
146
 74
151
 0
VERTEX
 8
F-DTS00117
 10
0
 20
0
 30
0
 70
128
 71
88
 72
81
 73
82
 74
87
 0
VERTEX
 8
F-DTS00117
 10
0
 20
0
 30
0
 70
128
 71
176
 72
169
 73
170
 74
175
 0
VERTEX
 8
F-DTS00117
 10
0
 20
0
 30
0
 70
128
 71
143
 72
144
 73
137
 74
138
 0
VERTEX
 8
F-DTS00117
 10
0
 20
0
 30
0
 70
128
 71
124
 72
117
 73
118
 74
123
 0
VERTEX
 8
F-DTS00117
 10
0
 20
0
 30
0
 70
128
 71
91
 72
92
 73
85
 74
86
 0
VERTEX
 8
F-DTS00117
 10
0
 20
0
 30
0
 70
128
 71
140
 72
133
 73
134
 74
139
 0
VERTEX
 8
F-DTS00117
 10
0
 20
0
 30
0
 70
128
 71
164
 72
157
 73
158
 74
163
 0
VERTEX
 8
F-DTS00117
 10
0
 20
0
 30
0
 70
128
 71
148
 72
141
 73
142
 74
147
 0
VERTEX
 8
F-DTS00117
 10
0
 20
0
 30
0
 70
128
 71
172
 72
165
 73
166
 74
171
 0
VERTEX
 8
F-DTS00117
 10
0
 20
0
 30
0
 70
128
 71
155
 72
156
 73
149
 74
150
 0
VERTEX
 8
F-DTS00117
 10
0
 20
0
 30
0
 70
128
 71
4
 72
2
 73
173
 74
174
 0
VERTEX
 8
F-DTS00117
 10
0
 20
0
 30
0
 70
128
 71
8
 72
6
 73
75
 74
76
 0
VERTEX
 8
F-DTS00117
 10
0
 20
0
 30
0
 70
128
 71
6
 72
4
 73
122
 74
123
 0
VERTEX
 8
F-DTS00117
 10
0
 20
0
 30
0
 70
128
 71
8
 72
124
 73
121
 74
2
 0
VERTEX
 8
F-DTS00117
 10
0
 20
0
 30
0
 70
128
 71
122
 72
9
 73
10
 74
10
 0
VERTEX
 8
F-DTS00117
 10
0
 20
0
 30
0
 70
128
 71
122
 72
10
 73
11
 74
11
 0
VERTEX
 8
F-DTS00117
 10
0
 20
0
 30
0
 70
128
 71
122
 72
11
 73
12
 74
12
 0
VERTEX
 8
F-DTS00117
 10
0
 20
0
 30
0
 70
128
 71
122
 72
12
 73
13
 74
13
 0
VERTEX
 8
F-DTS00117
 10
0
 20
0
 30
0
 70
128
 71
122
 72
13
 73
14
 74
14
 0
VERTEX
 8
F-DTS00117
 10
0
 20
0
 30
0
 70
128
 71
122
 72
14
 73
15
 74
15
 0
VERTEX
 8
F-DTS00117
 10
0
 20
0
 30
0
 70
128
 71
122
 72
15
 73
16
 74
16
 0
VERTEX
 8
F-DTS00117
 10
0
 20
0
 30
0
 70
128
 71
71
 72
72
 73
127
 74
127
 0
VERTEX
 8
F-DTS00117
 10
0
 20
0
 30
0
 70
128
 71
70
 72
71
 73
127
 74
127
 0
VERTEX
 8
F-DTS00117
 10
0
 20
0
 30
0
 70
128
 71
69
 72
70
 73
127
 74
127
 0
VERTEX
 8
F-DTS00117
 10
0
 20
0
 30
0
 70
128
 71
68
 72
69
 73
127
 74
127
 0
VERTEX
 8
F-DTS00117
 10
0
 20
0
 30
0
 70
128
 71
67
 72
68
 73
127
 74
127
 0
VERTEX
 8
F-DTS00117
 10
0
 20
0
 30
0
 70
128
 71
66
 72
67
 73
127
 74
127
 0
VERTEX
 8
F-DTS00117
 10
0
 20
0
 30
0
 70
128
 71
122
 72
16
 73
17
 74
17
 0
VERTEX
 8
F-DTS00117
 10
0
 20
0
 30
0
 70
128
 71
65
 72
66
 73
127
 74
127
 0
VERTEX
 8
F-DTS00117
 10
0
 20
0
 30
0
 70
128
 71
122
 72
17
 73
18
 74
18
 0
VERTEX
 8
F-DTS00117
 10
0
 20
0
 30
0
 70
128
 71
64
 72
65
 73
127
 74
127
 0
VERTEX
 8
F-DTS00117
 10
0
 20
0
 30
0
 70
128
 71
122
 72
18
 73
19
 74
19
 0
VERTEX
 8
F-DTS00117
 10
0
 20
0
 30
0
 70
128
 71
63
 72
64
 73
127
 74
127
 0
VERTEX
 8
F-DTS00117
 10
0
 20
0
 30
0
 70
128
 71
122
 72
19
 73
20
 74
20
 0
VERTEX
 8
F-DTS00117
 10
0
 20
0
 30
0
 70
128
 71
62
 72
63
 73
127
 74
127
 0
VERTEX
 8
F-DTS00117
 10
0
 20
0
 30
0
 70
128
 71
122
 72
20
 73
21
 74
21
 0
VERTEX
 8
F-DTS00117
 10
0
 20
0
 30
0
 70
128
 71
61
 72
62
 73
127
 74
127
 0
VERTEX
 8
F-DTS00117
 10
0
 20
0
 30
0
 70
128
 71
4
 72
174
 73
175
 74
175
 0
VERTEX
 8
F-DTS00117
 10
0
 20
0
 30
0
 70
128
 71
176
 72
173
 73
2
 74
2
 0
VERTEX
 8
F-DTS00117
 10
0
 20
0
 30
0
 70
128
 71
122
 72
21
 73
22
 74
22
 0
VERTEX
 8
F-DTS00117
 10
0
 20
0
 30
0
 70
128
 71
60
 72
61
 73
127
 74
127
 0
VERTEX
 8
F-DTS00117
 10
0
 20
0
 30
0
 70
128
 71
169
 72
176
 73
2
 74
2
 0
VERTEX
 8
F-DTS00117
 10
0
 20
0
 30
0
 70
128
 71
4
 72
175
 73
170
 74
170
 0
VERTEX
 8
F-DTS00117
 10
0
 20
0
 30
0
 70
128
 71
172
 72
169
 73
2
 74
2
 0
VERTEX
 8
F-DTS00117
 10
0
 20
0
 30
0
 70
128
 71
4
 72
170
 73
171
 74
171
 0
VERTEX
 8
F-DTS00117
 10
0
 20
0
 30
0
 70
128
 71
122
 72
22
 73
23
 74
23
 0
VERTEX
 8
F-DTS00117
 10
0
 20
0
 30
0
 70
128
 71
59
 72
60
 73
127
 74
127
 0
VERTEX
 8
F-DTS00117
 10
0
 20
0
 30
0
 70
128
 71
4
 72
171
 73
166
 74
166
 0
VERTEX
 8
F-DTS00117
 10
0
 20
0
 30
0
 70
128
 71
165
 72
172
 73
2
 74
2
 0
VERTEX
 8
F-DTS00117
 10
0
 20
0
 30
0
 70
128
 71
168
 72
165
 73
2
 74
2
 0
VERTEX
 8
F-DTS00117
 10
0
 20
0
 30
0
 70
128
 71
4
 72
166
 73
167
 74
167
 0
VERTEX
 8
F-DTS00117
 10
0
 20
0
 30
0
 70
128
 71
122
 72
23
 73
24
 74
24
 0
VERTEX
 8
F-DTS00117
 10
0
 20
0
 30
0
 70
128
 71
58
 72
59
 73
127
 74
127
 0
VERTEX
 8
F-DTS00117
 10
0
 20
0
 30
0
 70
128
 71
161
 72
168
 73
2
 74
2
 0
VERTEX
 8
F-DTS00117
 10
0
 20
0
 30
0
 70
128
 71
4
 72
167
 73
162
 74
162
 0
VERTEX
 8
F-DTS00117
 10
0
 20
0
 30
0
 70
128
 71
164
 72
161
 73
2
 74
2
 0
VERTEX
 8
F-DTS00117
 10
0
 20
0
 30
0
 70
128
 71
4
 72
162
 73
163
 74
163
 0
VERTEX
 8
F-DTS00117
 10
0
 20
0
 30
0
 70
128
 71
122
 72
24
 73
25
 74
25
 0
VERTEX
 8
F-DTS00117
 10
0
 20
0
 30
0
 70
128
 71
121
 72
122
 73
25
 74
25
 0
VERTEX
 8
F-DTS00117
 10
0
 20
0
 30
0
 70
128
 71
121
 72
25
 73
26
 74
26
 0
VERTEX
 8
F-DTS00117
 10
0
 20
0
 30
0
 70
128
 71
121
 72
26
 73
27
 74
27
 0
VERTEX
 8
F-DTS00117
 10
0
 20
0
 30
0
 70
128
 71
121
 72
27
 73
28
 74
28
 0
VERTEX
 8
F-DTS00117
 10
0
 20
0
 30
0
 70
128
 71
121
 72
28
 73
29
 74
29
 0
VERTEX
 8
F-DTS00117
 10
0
 20
0
 30
0
 70
128
 71
121
 72
29
 73
30
 74
30
 0
VERTEX
 8
F-DTS00117
 10
0
 20
0
 30
0
 70
128
 71
121
 72
30
 73
31
 74
31
 0
VERTEX
 8
F-DTS00117
 10
0
 20
0
 30
0
 70
128
 71
121
 72
31
 73
32
 74
32
 0
VERTEX
 8
F-DTS00117
 10
0
 20
0
 30
0
 70
128
 71
121
 72
32
 73
33
 74
33
 0
VERTEX
 8
F-DTS00117
 10
0
 20
0
 30
0
 70
128
 71
121
 72
33
 73
34
 74
34
 0
VERTEX
 8
F-DTS00117
 10
0
 20
0
 30
0
 70
128
 71
121
 72
34
 73
35
 74
35
 0
VERTEX
 8
F-DTS00117
 10
0
 20
0
 30
0
 70
128
 71
121
 72
35
 73
36
 74
36
 0
VERTEX
 8
F-DTS00117
 10
0
 20
0
 30
0
 70
128
 71
121
 72
36
 73
37
 74
37
 0
VERTEX
 8
F-DTS00117
 10
0
 20
0
 30
0
 70
128
 71
121
 72
37
 73
38
 74
38
 0
VERTEX
 8
F-DTS00117
 10
0
 20
0
 30
0
 70
128
 71
121
 72
38
 73
39
 74
39
 0
VERTEX
 8
F-DTS00117
 10
0
 20
0
 30
0
 70
128
 71
121
 72
39
 73
40
 74
40
 0
VERTEX
 8
F-DTS00117
 10
0
 20
0
 30
0
 70
128
 71
121
 72
40
 73
41
 74
41
 0
VERTEX
 8
F-DTS00117
 10
0
 20
0
 30
0
 70
128
 71
121
 72
41
 73
42
 74
42
 0
VERTEX
 8
F-DTS00117
 10
0
 20
0
 30
0
 70
128
 71
121
 72
42
 73
43
 74
43
 0
VERTEX
 8
F-DTS00117
 10
0
 20
0
 30
0
 70
128
 71
121
 72
43
 73
44
 74
44
 0
VERTEX
 8
F-DTS00117
 10
0
 20
0
 30
0
 70
128
 71
121
 72
44
 73
45
 74
45
 0
VERTEX
 8
F-DTS00117
 10
0
 20
0
 30
0
 70
128
 71
121
 72
45
 73
46
 74
46
 0
VERTEX
 8
F-DTS00117
 10
0
 20
0
 30
0
 70
128
 71
121
 72
46
 73
47
 74
47
 0
VERTEX
 8
F-DTS00117
 10
0
 20
0
 30
0
 70
128
 71
121
 72
47
 73
48
 74
48
 0
VERTEX
 8
F-DTS00117
 10
0
 20
0
 30
0
 70
128
 71
121
 72
48
 73
49
 74
49
 0
VERTEX
 8
F-DTS00117
 10
0
 20
0
 30
0
 70
128
 71
57
 72
58
 73
127
 74
127
 0
VERTEX
 8
F-DTS00117
 10
0
 20
0
 30
0
 70
128
 71
57
 72
127
 73
128
 74
128
 0
VERTEX
 8
F-DTS00117
 10
0
 20
0
 30
0
 70
128
 71
56
 72
57
 73
128
 74
128
 0
VERTEX
 8
F-DTS00117
 10
0
 20
0
 30
0
 70
128
 71
55
 72
56
 73
128
 74
128
 0
VERTEX
 8
F-DTS00117
 10
0
 20
0
 30
0
 70
128
 71
54
 72
55
 73
128
 74
128
 0
VERTEX
 8
F-DTS00117
 10
0
 20
0
 30
0
 70
128
 71
53
 72
54
 73
128
 74
128
 0
VERTEX
 8
F-DTS00117
 10
0
 20
0
 30
0
 70
128
 71
52
 72
53
 73
128
 74
128
 0
VERTEX
 8
F-DTS00117
 10
0
 20
0
 30
0
 70
128
 71
51
 72
52
 73
128
 74
128
 0
VERTEX
 8
F-DTS00117
 10
0
 20
0
 30
0
 70
128
 71
50
 72
51
 73
128
 74
128
 0
VERTEX
 8
F-DTS00117
 10
0
 20
0
 30
0
 70
128
 71
49
 72
50
 73
128
 74
128
 0
VERTEX
 8
F-DTS00117
 10
0
 20
0
 30
0
 70
128
 71
121
 72
49
 73
128
 74
128
 0
VERTEX
 8
F-DTS00117
 10
0
 20
0
 30
0
 70
128
 71
4
 72
163
 73
158
 74
158
 0
VERTEX
 8
F-DTS00117
 10
0
 20
0
 30
0
 70
128
 71
157
 72
164
 73
2
 74
2
 0
VERTEX
 8
F-DTS00117
 10
0
 20
0
 30
0
 70
128
 71
160
 72
157
 73
2
 74
2
 0
VERTEX
 8
F-DTS00117
 10
0
 20
0
 30
0
 70
128
 71
4
 72
158
 73
159
 74
159
 0
VERTEX
 8
F-DTS00117
 10
0
 20
0
 30
0
 70
128
 71
4
 72
159
 73
154
 74
154
 0
VERTEX
 8
F-DTS00117
 10
0
 20
0
 30
0
 70
128
 71
153
 72
160
 73
2
 74
2
 0
VERTEX
 8
F-DTS00117
 10
0
 20
0
 30
0
 70
128
 71
156
 72
153
 73
2
 74
2
 0
VERTEX
 8
F-DTS00117
 10
0
 20
0
 30
0
 70
128
 71
4
 72
154
 73
155
 74
155
 0
VERTEX
 8
F-DTS00117
 10
0
 20
0
 30
0
 70
128
 71
149
 72
156
 73
2
 74
2
 0
VERTEX
 8
F-DTS00117
 10
0
 20
0
 30
0
 70
128
 71
4
 72
155
 73
150
 74
150
 0
VERTEX
 8
F-DTS00117
 10
0
 20
0
 30
0
 70
128
 71
152
 72
149
 73
2
 74
2
 0
VERTEX
 8
F-DTS00117
 10
0
 20
0
 30
0
 70
128
 71
4
 72
150
 73
151
 74
151
 0
VERTEX
 8
F-DTS00117
 10
0
 20
0
 30
0
 70
128
 71
145
 72
152
 73
2
 74
2
 0
VERTEX
 8
F-DTS00117
 10
0
 20
0
 30
0
 70
128
 71
4
 72
151
 73
146
 74
146
 0
VERTEX
 8
F-DTS00117
 10
0
 20
0
 30
0
 70
128
 71
148
 72
145
 73
2
 74
2
 0
VERTEX
 8
F-DTS00117
 10
0
 20
0
 30
0
 70
128
 71
4
 72
146
 73
147
 74
147
 0
VERTEX
 8
F-DTS00117
 10
0
 20
0
 30
0
 70
128
 71
141
 72
148
 73
2
 74
2
 0
VERTEX
 8
F-DTS00117
 10
0
 20
0
 30
0
 70
128
 71
4
 72
147
 73
142
 74
142
 0
VERTEX
 8
F-DTS00117
 10
0
 20
0
 30
0
 70
128
 71
144
 72
141
 73
2
 74
2
 0
VERTEX
 8
F-DTS00117
 10
0
 20
0
 30
0
 70
128
 71
4
 72
142
 73
143
 74
143
 0
VERTEX
 8
F-DTS00117
 10
0
 20
0
 30
0
 70
128
 71
137
 72
144
 73
2
 74
2
 0
VERTEX
 8
F-DTS00117
 10
0
 20
0
 30
0
 70
128
 71
4
 72
143
 73
138
 74
138
 0
VERTEX
 8
F-DTS00117
 10
0
 20
0
 30
0
 70
128
 71
140
 72
137
 73
2
 74
2
 0
VERTEX
 8
F-DTS00117
 10
0
 20
0
 30
0
 70
128
 71
4
 72
138
 73
139
 74
139
 0
VERTEX
 8
F-DTS00117
 10
0
 20
0
 30
0
 70
128
 71
4
 72
139
 73
134
 74
134
 0
VERTEX
 8
F-DTS00117
 10
0
 20
0
 30
0
 70
128
 71
133
 72
140
 73
2
 74
2
 0
VERTEX
 8
F-DTS00117
 10
0
 20
0
 30
0
 70
128
 71
136
 72
133
 73
2
 74
2
 0
VERTEX
 8
F-DTS00117
 10
0
 20
0
 30
0
 70
128
 71
4
 72
134
 73
135
 74
135
 0
VERTEX
 8
F-DTS00117
 10
0
 20
0
 30
0
 70
128
 71
4
 72
135
 73
130
 74
130
 0
VERTEX
 8
F-DTS00117
 10
0
 20
0
 30
0
 70
128
 71
129
 72
136
 73
2
 74
2
 0
VERTEX
 8
F-DTS00117
 10
0
 20
0
 30
0
 70
128
 71
132
 72
129
 73
2
 74
2
 0
VERTEX
 8
F-DTS00117
 10
0
 20
0
 30
0
 70
128
 71
4
 72
130
 73
131
 74
131
 0
VERTEX
 8
F-DTS00117
 10
0
 20
0
 30
0
 70
128
 71
4
 72
131
 73
126
 74
126
 0
VERTEX
 8
F-DTS00117
 10
0
 20
0
 30
0
 70
128
 71
125
 72
132
 73
2
 74
2
 0
VERTEX
 8
F-DTS00117
 10
0
 20
0
 30
0
 70
128
 71
128
 72
125
 73
2
 74
2
 0
VERTEX
 8
F-DTS00117
 10
0
 20
0
 30
0
 70
128
 71
4
 72
126
 73
127
 74
127
 0
VERTEX
 8
F-DTS00117
 10
0
 20
0
 30
0
 70
128
 71
121
 72
128
 73
2
 74
2
 0
VERTEX
 8
F-DTS00117
 10
0
 20
0
 30
0
 70
128
 71
117
 72
124
 73
8
 74
8
 0
VERTEX
 8
F-DTS00117
 10
0
 20
0
 30
0
 70
128
 71
120
 72
117
 73
8
 74
8
 0
VERTEX
 8
F-DTS00117
 10
0
 20
0
 30
0
 70
128
 71
113
 72
120
 73
8
 74
8
 0
VERTEX
 8
F-DTS00117
 10
0
 20
0
 30
0
 70
128
 71
116
 72
113
 73
8
 74
8
 0
VERTEX
 8
F-DTS00117
 10
0
 20
0
 30
0
 70
128
 71
109
 72
116
 73
8
 74
8
 0
VERTEX
 8
F-DTS00117
 10
0
 20
0
 30
0
 70
128
 71
112
 72
109
 73
8
 74
8
 0
VERTEX
 8
F-DTS00117
 10
0
 20
0
 30
0
 70
128
 71
105
 72
112
 73
8
 74
8
 0
VERTEX
 8
F-DTS00117
 10
0
 20
0
 30
0
 70
128
 71
108
 72
105
 73
8
 74
8
 0
VERTEX
 8
F-DTS00117
 10
0
 20
0
 30
0
 70
128
 71
101
 72
108
 73
8
 74
8
 0
VERTEX
 8
F-DTS00117
 10
0
 20
0
 30
0
 70
128
 71
104
 72
101
 73
8
 74
8
 0
VERTEX
 8
F-DTS00117
 10
0
 20
0
 30
0
 70
128
 71
97
 72
104
 73
8
 74
8
 0
VERTEX
 8
F-DTS00117
 10
0
 20
0
 30
0
 70
128
 71
100
 72
97
 73
8
 74
8
 0
VERTEX
 8
F-DTS00117
 10
0
 20
0
 30
0
 70
128
 71
93
 72
100
 73
8
 74
8
 0
VERTEX
 8
F-DTS00117
 10
0
 20
0
 30
0
 70
128
 71
96
 72
93
 73
8
 74
8
 0
VERTEX
 8
F-DTS00117
 10
0
 20
0
 30
0
 70
128
 71
89
 72
96
 73
8
 74
8
 0
VERTEX
 8
F-DTS00117
 10
0
 20
0
 30
0
 70
128
 71
92
 72
89
 73
8
 74
8
 0
VERTEX
 8
F-DTS00117
 10
0
 20
0
 30
0
 70
128
 71
85
 72
92
 73
8
 74
8
 0
VERTEX
 8
F-DTS00117
 10
0
 20
0
 30
0
 70
128
 71
88
 72
85
 73
8
 74
8
 0
VERTEX
 8
F-DTS00117
 10
0
 20
0
 30
0
 70
128
 71
81
 72
88
 73
8
 74
8
 0
VERTEX
 8
F-DTS00117
 10
0
 20
0
 30
0
 70
128
 71
84
 72
81
 73
8
 74
8
 0
VERTEX
 8
F-DTS00117
 10
0
 20
0
 30
0
 70
128
 71
77
 72
84
 73
8
 74
8
 0
VERTEX
 8
F-DTS00117
 10
0
 20
0
 30
0
 70
128
 71
80
 72
77
 73
8
 74
8
 0
VERTEX
 8
F-DTS00117
 10
0
 20
0
 30
0
 70
128
 71
73
 72
80
 73
8
 74
8
 0
VERTEX
 8
F-DTS00117
 10
0
 20
0
 30
0
 70
128
 71
76
 72
73
 73
8
 74
8
 0
VERTEX
 8
F-DTS00117
 10
0
 20
0
 30
0
 70
128
 71
74
 72
75
 73
6
 74
6
 0
VERTEX
 8
F-DTS00117
 10
0
 20
0
 30
0
 70
128
 71
79
 72
74
 73
6
 74
6
 0
VERTEX
 8
F-DTS00117
 10
0
 20
0
 30
0
 70
128
 71
78
 72
79
 73
6
 74
6
 0
VERTEX
 8
F-DTS00117
 10
0
 20
0
 30
0
 70
128
 71
83
 72
78
 73
6
 74
6
 0
VERTEX
 8
F-DTS00117
 10
0
 20
0
 30
0
 70
128
 71
82
 72
83
 73
6
 74
6
 0
VERTEX
 8
F-DTS00117
 10
0
 20
0
 30
0
 70
128
 71
87
 72
82
 73
6
 74
6
 0
VERTEX
 8
F-DTS00117
 10
0
 20
0
 30
0
 70
128
 71
86
 72
87
 73
6
 74
6
 0
VERTEX
 8
F-DTS00117
 10
0
 20
0
 30
0
 70
128
 71
91
 72
86
 73
6
 74
6
 0
VERTEX
 8
F-DTS00117
 10
0
 20
0
 30
0
 70
128
 71
90
 72
91
 73
6
 74
6
 0
VERTEX
 8
F-DTS00117
 10
0
 20
0
 30
0
 70
128
 71
95
 72
90
 73
6
 74
6
 0
VERTEX
 8
F-DTS00117
 10
0
 20
0
 30
0
 70
128
 71
94
 72
95
 73
6
 74
6
 0
VERTEX
 8
F-DTS00117
 10
0
 20
0
 30
0
 70
128
 71
99
 72
94
 73
6
 74
6
 0
VERTEX
 8
F-DTS00117
 10
0
 20
0
 30
0
 70
128
 71
98
 72
99
 73
6
 74
6
 0
VERTEX
 8
F-DTS00117
 10
0
 20
0
 30
0
 70
128
 71
103
 72
98
 73
6
 74
6
 0
VERTEX
 8
F-DTS00117
 10
0
 20
0
 30
0
 70
128
 71
102
 72
103
 73
6
 74
6
 0
VERTEX
 8
F-DTS00117
 10
0
 20
0
 30
0
 70
128
 71
107
 72
102
 73
6
 74
6
 0
VERTEX
 8
F-DTS00117
 10
0
 20
0
 30
0
 70
128
 71
106
 72
107
 73
6
 74
6
 0
VERTEX
 8
F-DTS00117
 10
0
 20
0
 30
0
 70
128
 71
111
 72
106
 73
6
 74
6
 0
VERTEX
 8
F-DTS00117
 10
0
 20
0
 30
0
 70
128
 71
110
 72
111
 73
6
 74
6
 0
VERTEX
 8
F-DTS00117
 10
0
 20
0
 30
0
 70
128
 71
115
 72
110
 73
6
 74
6
 0
VERTEX
 8
F-DTS00117
 10
0
 20
0
 30
0
 70
128
 71
114
 72
115
 73
6
 74
6
 0
VERTEX
 8
F-DTS00117
 10
0
 20
0
 30
0
 70
128
 71
119
 72
114
 73
6
 74
6
 0
VERTEX
 8
F-DTS00117
 10
0
 20
0
 30
0
 70
128
 71
118
 72
119
 73
6
 74
6
 0
VERTEX
 8
F-DTS00117
 10
0
 20
0
 30
0
 70
128
 71
123
 72
118
 73
6
 74
6
 0
VERTEX
 8
F-DTS00117
 10
0
 20
0
 30
0
 70
128
 71
122
 72
4
 73
127
 74
127
 0
VERTEX
 8
F-DTS00117
 10
0
 20
0
 30
0
 70
128
 71
296
 72
210
 73
209
 74
289
 0
VERTEX
 8
F-DTS00117
 10
0
 20
0
 30
0
 70
128
 71
335
 72
330
 73
329
 74
336
 0
VERTEX
 8
F-DTS00117
 10
0
 20
0
 30
0
 70
128
 71
343
 72
338
 73
337
 74
344
 0
VERTEX
 8
F-DTS00117
 10
0
 20
0
 30
0
 70
128
 71
291
 72
286
 73
285
 74
292
 0
VERTEX
 8
F-DTS00117
 10
0
 20
0
 30
0
 70
128
 71
263
 72
258
 73
257
 74
264
 0
VERTEX
 8
F-DTS00117
 10
0
 20
0
 30
0
 70
128
 71
280
 72
279
 73
274
 74
273
 0
VERTEX
 8
F-DTS00117
 10
0
 20
0
 30
0
 70
128
 71
312
 72
311
 73
306
 74
305
 0
VERTEX
 8
F-DTS00117
 10
0
 20
0
 30
0
 70
128
 71
307
 72
302
 73
301
 74
308
 0
VERTEX
 8
F-DTS00117
 10
0
 20
0
 30
0
 70
128
 71
255
 72
250
 73
249
 74
256
 0
VERTEX
 8
F-DTS00117
 10
0
 20
0
 30
0
 70
128
 71
276
 72
275
 73
270
 74
269
 0
VERTEX
 8
F-DTS00117
 10
0
 20
0
 30
0
 70
128
 71
299
 72
294
 73
293
 74
300
 0
VERTEX
 8
F-DTS00117
 10
0
 20
0
 30
0
 70
128
 71
267
 72
262
 73
261
 74
268
 0
VERTEX
 8
F-DTS00117
 10
0
 20
0
 30
0
 70
128
 71
283
 72
278
 73
277
 74
284
 0
VERTEX
 8
F-DTS00117
 10
0
 20
0
 30
0
 70
128
 71
315
 72
310
 73
309
 74
316
 0
VERTEX
 8
F-DTS00117
 10
0
 20
0
 30
0
 70
128
 71
252
 72
251
 73
246
 74
245
 0
VERTEX
 8
F-DTS00117
 10
0
 20
0
 30
0
 70
128
 71
331
 72
326
 73
325
 74
332
 0
VERTEX
 8
F-DTS00117
 10
0
 20
0
 30
0
 70
128
 71
260
 72
259
 73
254
 74
253
 0
VERTEX
 8
F-DTS00117
 10
0
 20
0
 30
0
 70
128
 71
327
 72
322
 73
321
 74
328
 0
VERTEX
 8
F-DTS00117
 10
0
 20
0
 30
0
 70
128
 71
271
 72
266
 73
265
 74
272
 0
VERTEX
 8
F-DTS00117
 10
0
 20
0
 30
0
 70
128
 71
287
 72
282
 73
281
 74
288
 0
VERTEX
 8
F-DTS00117
 10
0
 20
0
 30
0
 70
128
 71
319
 72
314
 73
313
 74
320
 0
VERTEX
 8
F-DTS00117
 10
0
 20
0
 30
0
 70
128
 71
303
 72
298
 73
297
 74
304
 0
VERTEX
 8
F-DTS00117
 10
0
 20
0
 30
0
 70
128
 71
248
 72
247
 73
242
 74
241
 0
VERTEX
 8
F-DTS00117
 10
0
 20
0
 30
0
 70
128
 71
324
 72
323
 73
318
 74
317
 0
VERTEX
 8
F-DTS00117
 10
0
 20
0
 30
0
 70
128
 71
339
 72
334
 73
333
 74
340
 0
VERTEX
 8
F-DTS00117
 10
0
 20
0
 30
0
 70
128
 71
342
 72
341
 73
1
 74
3
 0
VERTEX
 8
F-DTS00117
 10
0
 20
0
 30
0
 70
128
 71
244
 72
243
 73
5
 74
7
 0
VERTEX
 8
F-DTS00117
 10
0
 20
0
 30
0
 70
128
 71
296
 72
7
 73
1
 74
293
 0
VERTEX
 8
F-DTS00117
 10
0
 20
0
 30
0
 70
128
 71
290
 72
3
 73
5
 74
291
 0
VERTEX
 8
F-DTS00117
 10
0
 20
0
 30
0
 70
128
 71
241
 72
244
 73
7
 74
7
 0
VERTEX
 8
F-DTS00117
 10
0
 20
0
 30
0
 70
128
 71
5
 72
243
 73
242
 74
242
 0
VERTEX
 8
F-DTS00117
 10
0
 20
0
 30
0
 70
128
 71
248
 72
241
 73
7
 74
7
 0
VERTEX
 8
F-DTS00117
 10
0
 20
0
 30
0
 70
128
 71
5
 72
242
 73
247
 74
247
 0
VERTEX
 8
F-DTS00117
 10
0
 20
0
 30
0
 70
128
 71
245
 72
248
 73
7
 74
7
 0
VERTEX
 8
F-DTS00117
 10
0
 20
0
 30
0
 70
128
 71
5
 72
247
 73
246
 74
246
 0
VERTEX
 8
F-DTS00117
 10
0
 20
0
 30
0
 70
128
 71
252
 72
245
 73
7
 74
7
 0
VERTEX
 8
F-DTS00117
 10
0
 20
0
 30
0
 70
128
 71
5
 72
246
 73
251
 74
251
 0
VERTEX
 8
F-DTS00117
 10
0
 20
0
 30
0
 70
128
 71
249
 72
252
 73
7
 74
7
 0
VERTEX
 8
F-DTS00117
 10
0
 20
0
 30
0
 70
128
 71
5
 72
251
 73
250
 74
250
 0
VERTEX
 8
F-DTS00117
 10
0
 20
0
 30
0
 70
128
 71
290
 72
193
 73
192
 74
192
 0
VERTEX
 8
F-DTS00117
 10
0
 20
0
 30
0
 70
128
 71
290
 72
192
 73
191
 74
191
 0
VERTEX
 8
F-DTS00117
 10
0
 20
0
 30
0
 70
128
 71
290
 72
191
 73
190
 74
190
 0
VERTEX
 8
F-DTS00117
 10
0
 20
0
 30
0
 70
128
 71
290
 72
190
 73
189
 74
189
 0
VERTEX
 8
F-DTS00117
 10
0
 20
0
 30
0
 70
128
 71
290
 72
189
 73
188
 74
188
 0
VERTEX
 8
F-DTS00117
 10
0
 20
0
 30
0
 70
128
 71
290
 72
188
 73
187
 74
187
 0
VERTEX
 8
F-DTS00117
 10
0
 20
0
 30
0
 70
128
 71
290
 72
187
 73
186
 74
186
 0
VERTEX
 8
F-DTS00117
 10
0
 20
0
 30
0
 70
128
 71
290
 72
186
 73
185
 74
185
 0
VERTEX
 8
F-DTS00117
 10
0
 20
0
 30
0
 70
128
 71
290
 72
185
 73
184
 74
184
 0
VERTEX
 8
F-DTS00117
 10
0
 20
0
 30
0
 70
128
 71
290
 72
184
 73
183
 74
183
 0
VERTEX
 8
F-DTS00117
 10
0
 20
0
 30
0
 70
128
 71
290
 72
183
 73
182
 74
182
 0
VERTEX
 8
F-DTS00117
 10
0
 20
0
 30
0
 70
128
 71
290
 72
182
 73
181
 74
181
 0
VERTEX
 8
F-DTS00117
 10
0
 20
0
 30
0
 70
128
 71
290
 72
181
 73
180
 74
180
 0
VERTEX
 8
F-DTS00117
 10
0
 20
0
 30
0
 70
128
 71
290
 72
180
 73
179
 74
179
 0
VERTEX
 8
F-DTS00117
 10
0
 20
0
 30
0
 70
128
 71
290
 72
179
 73
178
 74
178
 0
VERTEX
 8
F-DTS00117
 10
0
 20
0
 30
0
 70
128
 71
290
 72
178
 73
177
 74
177
 0
VERTEX
 8
F-DTS00117
 10
0
 20
0
 30
0
 70
128
 71
290
 72
177
 73
240
 74
240
 0
VERTEX
 8
F-DTS00117
 10
0
 20
0
 30
0
 70
128
 71
290
 72
240
 73
239
 74
239
 0
VERTEX
 8
F-DTS00117
 10
0
 20
0
 30
0
 70
128
 71
290
 72
239
 73
238
 74
238
 0
VERTEX
 8
F-DTS00117
 10
0
 20
0
 30
0
 70
128
 71
290
 72
238
 73
237
 74
237
 0
VERTEX
 8
F-DTS00117
 10
0
 20
0
 30
0
 70
128
 71
290
 72
237
 73
236
 74
236
 0
VERTEX
 8
F-DTS00117
 10
0
 20
0
 30
0
 70
128
 71
290
 72
236
 73
235
 74
235
 0
VERTEX
 8
F-DTS00117
 10
0
 20
0
 30
0
 70
128
 71
290
 72
235
 73
234
 74
234
 0
VERTEX
 8
F-DTS00117
 10
0
 20
0
 30
0
 70
128
 71
256
 72
249
 73
7
 74
7
 0
VERTEX
 8
F-DTS00117
 10
0
 20
0
 30
0
 70
128
 71
5
 72
250
 73
255
 74
255
 0
VERTEX
 8
F-DTS00117
 10
0
 20
0
 30
0
 70
128
 71
253
 72
256
 73
7
 74
7
 0
VERTEX
 8
F-DTS00117
 10
0
 20
0
 30
0
 70
128
 71
5
 72
255
 73
254
 74
254
 0
VERTEX
 8
F-DTS00117
 10
0
 20
0
 30
0
 70
128
 71
290
 72
234
 73
233
 74
233
 0
VERTEX
 8
F-DTS00117
 10
0
 20
0
 30
0
 70
128
 71
193
 72
290
 73
289
 74
289
 0
VERTEX
 8
F-DTS00117
 10
0
 20
0
 30
0
 70
128
 71
194
 72
193
 73
289
 74
289
 0
VERTEX
 8
F-DTS00117
 10
0
 20
0
 30
0
 70
128
 71
195
 72
194
 73
289
 74
289
 0
VERTEX
 8
F-DTS00117
 10
0
 20
0
 30
0
 70
128
 71
196
 72
195
 73
289
 74
289
 0
VERTEX
 8
F-DTS00117
 10
0
 20
0
 30
0
 70
128
 71
197
 72
196
 73
289
 74
289
 0
VERTEX
 8
F-DTS00117
 10
0
 20
0
 30
0
 70
128
 71
198
 72
197
 73
289
 74
289
 0
VERTEX
 8
F-DTS00117
 10
0
 20
0
 30
0
 70
128
 71
199
 72
198
 73
289
 74
289
 0
VERTEX
 8
F-DTS00117
 10
0
 20
0
 30
0
 70
128
 71
200
 72
199
 73
289
 74
289
 0
VERTEX
 8
F-DTS00117
 10
0
 20
0
 30
0
 70
128
 71
201
 72
200
 73
289
 74
289
 0
VERTEX
 8
F-DTS00117
 10
0
 20
0
 30
0
 70
128
 71
202
 72
201
 73
289
 74
289
 0
VERTEX
 8
F-DTS00117
 10
0
 20
0
 30
0
 70
128
 71
203
 72
202
 73
289
 74
289
 0
VERTEX
 8
F-DTS00117
 10
0
 20
0
 30
0
 70
128
 71
204
 72
203
 73
289
 74
289
 0
VERTEX
 8
F-DTS00117
 10
0
 20
0
 30
0
 70
128
 71
205
 72
204
 73
289
 74
289
 0
VERTEX
 8
F-DTS00117
 10
0
 20
0
 30
0
 70
128
 71
206
 72
205
 73
289
 74
289
 0
VERTEX
 8
F-DTS00117
 10
0
 20
0
 30
0
 70
128
 71
207
 72
206
 73
289
 74
289
 0
VERTEX
 8
F-DTS00117
 10
0
 20
0
 30
0
 70
128
 71
208
 72
207
 73
289
 74
289
 0
VERTEX
 8
F-DTS00117
 10
0
 20
0
 30
0
 70
128
 71
209
 72
208
 73
289
 74
289
 0
VERTEX
 8
F-DTS00117
 10
0
 20
0
 30
0
 70
128
 71
211
 72
210
 73
296
 74
296
 0
VERTEX
 8
F-DTS00117
 10
0
 20
0
 30
0
 70
128
 71
212
 72
211
 73
296
 74
296
 0
VERTEX
 8
F-DTS00117
 10
0
 20
0
 30
0
 70
128
 71
213
 72
212
 73
296
 74
296
 0
VERTEX
 8
F-DTS00117
 10
0
 20
0
 30
0
 70
128
 71
214
 72
213
 73
296
 74
296
 0
VERTEX
 8
F-DTS00117
 10
0
 20
0
 30
0
 70
128
 71
215
 72
214
 73
296
 74
296
 0
VERTEX
 8
F-DTS00117
 10
0
 20
0
 30
0
 70
128
 71
216
 72
215
 73
296
 74
296
 0
VERTEX
 8
F-DTS00117
 10
0
 20
0
 30
0
 70
128
 71
217
 72
216
 73
296
 74
296
 0
VERTEX
 8
F-DTS00117
 10
0
 20
0
 30
0
 70
128
 71
218
 72
217
 73
296
 74
296
 0
VERTEX
 8
F-DTS00117
 10
0
 20
0
 30
0
 70
128
 71
219
 72
218
 73
296
 74
296
 0
VERTEX
 8
F-DTS00117
 10
0
 20
0
 30
0
 70
128
 71
220
 72
219
 73
296
 74
296
 0
VERTEX
 8
F-DTS00117
 10
0
 20
0
 30
0
 70
128
 71
221
 72
220
 73
296
 74
296
 0
VERTEX
 8
F-DTS00117
 10
0
 20
0
 30
0
 70
128
 71
222
 72
221
 73
296
 74
296
 0
VERTEX
 8
F-DTS00117
 10
0
 20
0
 30
0
 70
128
 71
223
 72
222
 73
296
 74
296
 0
VERTEX
 8
F-DTS00117
 10
0
 20
0
 30
0
 70
128
 71
224
 72
223
 73
296
 74
296
 0
VERTEX
 8
F-DTS00117
 10
0
 20
0
 30
0
 70
128
 71
225
 72
224
 73
296
 74
296
 0
VERTEX
 8
F-DTS00117
 10
0
 20
0
 30
0
 70
128
 71
225
 72
296
 73
295
 74
295
 0
VERTEX
 8
F-DTS00117
 10
0
 20
0
 30
0
 70
128
 71
226
 72
225
 73
295
 74
295
 0
VERTEX
 8
F-DTS00117
 10
0
 20
0
 30
0
 70
128
 71
227
 72
226
 73
295
 74
295
 0
VERTEX
 8
F-DTS00117
 10
0
 20
0
 30
0
 70
128
 71
228
 72
227
 73
295
 74
295
 0
VERTEX
 8
F-DTS00117
 10
0
 20
0
 30
0
 70
128
 71
229
 72
228
 73
295
 74
295
 0
VERTEX
 8
F-DTS00117
 10
0
 20
0
 30
0
 70
128
 71
230
 72
229
 73
295
 74
295
 0
VERTEX
 8
F-DTS00117
 10
0
 20
0
 30
0
 70
128
 71
231
 72
230
 73
295
 74
295
 0
VERTEX
 8
F-DTS00117
 10
0
 20
0
 30
0
 70
128
 71
232
 72
231
 73
295
 74
295
 0
VERTEX
 8
F-DTS00117
 10
0
 20
0
 30
0
 70
128
 71
233
 72
232
 73
295
 74
295
 0
VERTEX
 8
F-DTS00117
 10
0
 20
0
 30
0
 70
128
 71
290
 72
233
 73
295
 74
295
 0
VERTEX
 8
F-DTS00117
 10
0
 20
0
 30
0
 70
128
 71
5
 72
254
 73
259
 74
259
 0
VERTEX
 8
F-DTS00117
 10
0
 20
0
 30
0
 70
128
 71
260
 72
253
 73
7
 74
7
 0
VERTEX
 8
F-DTS00117
 10
0
 20
0
 30
0
 70
128
 71
257
 72
260
 73
7
 74
7
 0
VERTEX
 8
F-DTS00117
 10
0
 20
0
 30
0
 70
128
 71
5
 72
259
 73
258
 74
258
 0
VERTEX
 8
F-DTS00117
 10
0
 20
0
 30
0
 70
128
 71
264
 72
257
 73
7
 74
7
 0
VERTEX
 8
F-DTS00117
 10
0
 20
0
 30
0
 70
128
 71
5
 72
258
 73
263
 74
263
 0
VERTEX
 8
F-DTS00117
 10
0
 20
0
 30
0
 70
128
 71
261
 72
264
 73
7
 74
7
 0
VERTEX
 8
F-DTS00117
 10
0
 20
0
 30
0
 70
128
 71
5
 72
263
 73
262
 74
262
 0
VERTEX
 8
F-DTS00117
 10
0
 20
0
 30
0
 70
128
 71
268
 72
261
 73
7
 74
7
 0
VERTEX
 8
F-DTS00117
 10
0
 20
0
 30
0
 70
128
 71
5
 72
262
 73
267
 74
267
 0
VERTEX
 8
F-DTS00117
 10
0
 20
0
 30
0
 70
128
 71
265
 72
268
 73
7
 74
7
 0
VERTEX
 8
F-DTS00117
 10
0
 20
0
 30
0
 70
128
 71
5
 72
267
 73
266
 74
266
 0
VERTEX
 8
F-DTS00117
 10
0
 20
0
 30
0
 70
128
 71
272
 72
265
 73
7
 74
7
 0
VERTEX
 8
F-DTS00117
 10
0
 20
0
 30
0
 70
128
 71
5
 72
266
 73
271
 74
271
 0
VERTEX
 8
F-DTS00117
 10
0
 20
0
 30
0
 70
128
 71
269
 72
272
 73
7
 74
7
 0
VERTEX
 8
F-DTS00117
 10
0
 20
0
 30
0
 70
128
 71
5
 72
271
 73
270
 74
270
 0
VERTEX
 8
F-DTS00117
 10
0
 20
0
 30
0
 70
128
 71
276
 72
269
 73
7
 74
7
 0
VERTEX
 8
F-DTS00117
 10
0
 20
0
 30
0
 70
128
 71
5
 72
270
 73
275
 74
275
 0
VERTEX
 8
F-DTS00117
 10
0
 20
0
 30
0
 70
128
 71
273
 72
276
 73
7
 74
7
 0
VERTEX
 8
F-DTS00117
 10
0
 20
0
 30
0
 70
128
 71
5
 72
275
 73
274
 74
274
 0
VERTEX
 8
F-DTS00117
 10
0
 20
0
 30
0
 70
128
 71
280
 72
273
 73
7
 74
7
 0
VERTEX
 8
F-DTS00117
 10
0
 20
0
 30
0
 70
128
 71
5
 72
274
 73
279
 74
279
 0
VERTEX
 8
F-DTS00117
 10
0
 20
0
 30
0
 70
128
 71
277
 72
280
 73
7
 74
7
 0
VERTEX
 8
F-DTS00117
 10
0
 20
0
 30
0
 70
128
 71
5
 72
279
 73
278
 74
278
 0
VERTEX
 8
F-DTS00117
 10
0
 20
0
 30
0
 70
128
 71
5
 72
278
 73
283
 74
283
 0
VERTEX
 8
F-DTS00117
 10
0
 20
0
 30
0
 70
128
 71
284
 72
277
 73
7
 74
7
 0
VERTEX
 8
F-DTS00117
 10
0
 20
0
 30
0
 70
128
 71
281
 72
284
 73
7
 74
7
 0
VERTEX
 8
F-DTS00117
 10
0
 20
0
 30
0
 70
128
 71
5
 72
283
 73
282
 74
282
 0
VERTEX
 8
F-DTS00117
 10
0
 20
0
 30
0
 70
128
 71
5
 72
282
 73
287
 74
287
 0
VERTEX
 8
F-DTS00117
 10
0
 20
0
 30
0
 70
128
 71
288
 72
281
 73
7
 74
7
 0
VERTEX
 8
F-DTS00117
 10
0
 20
0
 30
0
 70
128
 71
285
 72
288
 73
7
 74
7
 0
VERTEX
 8
F-DTS00117
 10
0
 20
0
 30
0
 70
128
 71
5
 72
287
 73
286
 74
286
 0
VERTEX
 8
F-DTS00117
 10
0
 20
0
 30
0
 70
128
 71
5
 72
286
 73
291
 74
291
 0
VERTEX
 8
F-DTS00117
 10
0
 20
0
 30
0
 70
128
 71
292
 72
285
 73
7
 74
7
 0
VERTEX
 8
F-DTS00117
 10
0
 20
0
 30
0
 70
128
 71
289
 72
292
 73
7
 74
7
 0
VERTEX
 8
F-DTS00117
 10
0
 20
0
 30
0
 70
128
 71
3
 72
290
 73
295
 74
295
 0
VERTEX
 8
F-DTS00117
 10
0
 20
0
 30
0
 70
128
 71
3
 72
295
 73
294
 74
294
 0
VERTEX
 8
F-DTS00117
 10
0
 20
0
 30
0
 70
128
 71
3
 72
294
 73
299
 74
299
 0
VERTEX
 8
F-DTS00117
 10
0
 20
0
 30
0
 70
128
 71
3
 72
299
 73
298
 74
298
 0
VERTEX
 8
F-DTS00117
 10
0
 20
0
 30
0
 70
128
 71
3
 72
298
 73
303
 74
303
 0
VERTEX
 8
F-DTS00117
 10
0
 20
0
 30
0
 70
128
 71
3
 72
303
 73
302
 74
302
 0
VERTEX
 8
F-DTS00117
 10
0
 20
0
 30
0
 70
128
 71
3
 72
302
 73
307
 74
307
 0
VERTEX
 8
F-DTS00117
 10
0
 20
0
 30
0
 70
128
 71
3
 72
307
 73
306
 74
306
 0
VERTEX
 8
F-DTS00117
 10
0
 20
0
 30
0
 70
128
 71
3
 72
306
 73
311
 74
311
 0
VERTEX
 8
F-DTS00117
 10
0
 20
0
 30
0
 70
128
 71
3
 72
311
 73
310
 74
310
 0
VERTEX
 8
F-DTS00117
 10
0
 20
0
 30
0
 70
128
 71
3
 72
310
 73
315
 74
315
 0
VERTEX
 8
F-DTS00117
 10
0
 20
0
 30
0
 70
128
 71
3
 72
315
 73
314
 74
314
 0
VERTEX
 8
F-DTS00117
 10
0
 20
0
 30
0
 70
128
 71
3
 72
314
 73
319
 74
319
 0
VERTEX
 8
F-DTS00117
 10
0
 20
0
 30
0
 70
128
 71
3
 72
319
 73
318
 74
318
 0
VERTEX
 8
F-DTS00117
 10
0
 20
0
 30
0
 70
128
 71
3
 72
318
 73
323
 74
323
 0
VERTEX
 8
F-DTS00117
 10
0
 20
0
 30
0
 70
128
 71
3
 72
323
 73
322
 74
322
 0
VERTEX
 8
F-DTS00117
 10
0
 20
0
 30
0
 70
128
 71
3
 72
322
 73
327
 74
327
 0
VERTEX
 8
F-DTS00117
 10
0
 20
0
 30
0
 70
128
 71
3
 72
327
 73
326
 74
326
 0
VERTEX
 8
F-DTS00117
 10
0
 20
0
 30
0
 70
128
 71
3
 72
326
 73
331
 74
331
 0
VERTEX
 8
F-DTS00117
 10
0
 20
0
 30
0
 70
128
 71
3
 72
331
 73
330
 74
330
 0
VERTEX
 8
F-DTS00117
 10
0
 20
0
 30
0
 70
128
 71
3
 72
330
 73
335
 74
335
 0
VERTEX
 8
F-DTS00117
 10
0
 20
0
 30
0
 70
128
 71
3
 72
335
 73
334
 74
334
 0
VERTEX
 8
F-DTS00117
 10
0
 20
0
 30
0
 70
128
 71
3
 72
334
 73
339
 74
339
 0
VERTEX
 8
F-DTS00117
 10
0
 20
0
 30
0
 70
128
 71
3
 72
339
 73
338
 74
338
 0
VERTEX
 8
F-DTS00117
 10
0
 20
0
 30
0
 70
128
 71
3
 72
338
 73
343
 74
343
 0
VERTEX
 8
F-DTS00117
 10
0
 20
0
 30
0
 70
128
 71
3
 72
343
 73
342
 74
342
 0
VERTEX
 8
F-DTS00117
 10
0
 20
0
 30
0
 70
128
 71
1
 72
341
 73
344
 74
344
 0
VERTEX
 8
F-DTS00117
 10
0
 20
0
 30
0
 70
128
 71
1
 72
344
 73
337
 74
337
 0
VERTEX
 8
F-DTS00117
 10
0
 20
0
 30
0
 70
128
 71
1
 72
337
 73
340
 74
340
 0
VERTEX
 8
F-DTS00117
 10
0
 20
0
 30
0
 70
128
 71
1
 72
340
 73
333
 74
333
 0
VERTEX
 8
F-DTS00117
 10
0
 20
0
 30
0
 70
128
 71
1
 72
333
 73
336
 74
336
 0
VERTEX
 8
F-DTS00117
 10
0
 20
0
 30
0
 70
128
 71
1
 72
336
 73
329
 74
329
 0
VERTEX
 8
F-DTS00117
 10
0
 20
0
 30
0
 70
128
 71
1
 72
329
 73
332
 74
332
 0
VERTEX
 8
F-DTS00117
 10
0
 20
0
 30
0
 70
128
 71
1
 72
332
 73
325
 74
325
 0
VERTEX
 8
F-DTS00117
 10
0
 20
0
 30
0
 70
128
 71
1
 72
325
 73
328
 74
328
 0
VERTEX
 8
F-DTS00117
 10
0
 20
0
 30
0
 70
128
 71
1
 72
328
 73
321
 74
321
 0
VERTEX
 8
F-DTS00117
 10
0
 20
0
 30
0
 70
128
 71
1
 72
321
 73
324
 74
324
 0
VERTEX
 8
F-DTS00117
 10
0
 20
0
 30
0
 70
128
 71
1
 72
324
 73
317
 74
317
 0
VERTEX
 8
F-DTS00117
 10
0
 20
0
 30
0
 70
128
 71
1
 72
317
 73
320
 74
320
 0
VERTEX
 8
F-DTS00117
 10
0
 20
0
 30
0
 70
128
 71
1
 72
320
 73
313
 74
313
 0
VERTEX
 8
F-DTS00117
 10
0
 20
0
 30
0
 70
128
 71
1
 72
313
 73
316
 74
316
 0
VERTEX
 8
F-DTS00117
 10
0
 20
0
 30
0
 70
128
 71
1
 72
316
 73
309
 74
309
 0
VERTEX
 8
F-DTS00117
 10
0
 20
0
 30
0
 70
128
 71
1
 72
309
 73
312
 74
312
 0
VERTEX
 8
F-DTS00117
 10
0
 20
0
 30
0
 70
128
 71
1
 72
312
 73
305
 74
305
 0
VERTEX
 8
F-DTS00117
 10
0
 20
0
 30
0
 70
128
 71
1
 72
305
 73
308
 74
308
 0
VERTEX
 8
F-DTS00117
 10
0
 20
0
 30
0
 70
128
 71
1
 72
308
 73
301
 74
301
 0
VERTEX
 8
F-DTS00117
 10
0
 20
0
 30
0
 70
128
 71
1
 72
301
 73
304
 74
304
 0
VERTEX
 8
F-DTS00117
 10
0
 20
0
 30
0
 70
128
 71
1
 72
304
 73
297
 74
297
 0
VERTEX
 8
F-DTS00117
 10
0
 20
0
 30
0
 70
128
 71
1
 72
297
 73
300
 74
300
 0
VERTEX
 8
F-DTS00117
 10
0
 20
0
 30
0
 70
128
 71
1
 72
300
 73
293
 74
293
 0
VERTEX
 8
F-DTS00117
 10
0
 20
0
 30
0
 70
128
 71
7
 72
296
 73
289
 74
289
 0
VERTEX
 8
F-DTS00117
 10
0
 20
0
 30
0
 70
128
 71
314
 72
315
 73
316
 74
313
 0
VERTEX
 8
F-DTS00117
 10
0
 20
0
 30
0
 70
128
 71
345
 72
409
 73
410
 74
346
 0
VERTEX
 8
F-DTS00117
 10
0
 20
0
 30
0
 70
128
 71
346
 72
410
 73
411
 74
347
 0
VERTEX
 8
F-DTS00117
 10
0
 20
0
 30
0
 70
128
 71
347
 72
411
 73
412
 74
348
 0
VERTEX
 8
F-DTS00117
 10
0
 20
0
 30
0
 70
128
 71
348
 72
412
 73
413
 74
349
 0
VERTEX
 8
F-DTS00117
 10
0
 20
0
 30
0
 70
128
 71
349
 72
413
 73
414
 74
350
 0
VERTEX
 8
F-DTS00117
 10
0
 20
0
 30
0
 70
128
 71
350
 72
414
 73
415
 74
351
 0
VERTEX
 8
F-DTS00117
 10
0
 20
0
 30
0
 70
128
 71
351
 72
415
 73
416
 74
352
 0
VERTEX
 8
F-DTS00117
 10
0
 20
0
 30
0
 70
128
 71
352
 72
416
 73
417
 74
353
 0
VERTEX
 8
F-DTS00117
 10
0
 20
0
 30
0
 70
128
 71
418
 72
354
 73
353
 74
417
 0
VERTEX
 8
F-DTS00117
 10
0
 20
0
 30
0
 70
128
 71
419
 72
355
 73
354
 74
418
 0
VERTEX
 8
F-DTS00117
 10
0
 20
0
 30
0
 70
128
 71
420
 72
356
 73
355
 74
419
 0
VERTEX
 8
F-DTS00117
 10
0
 20
0
 30
0
 70
128
 71
421
 72
357
 73
356
 74
420
 0
VERTEX
 8
F-DTS00117
 10
0
 20
0
 30
0
 70
128
 71
422
 72
358
 73
357
 74
421
 0
VERTEX
 8
F-DTS00117
 10
0
 20
0
 30
0
 70
128
 71
423
 72
359
 73
358
 74
422
 0
VERTEX
 8
F-DTS00117
 10
0
 20
0
 30
0
 70
128
 71
424
 72
360
 73
359
 74
423
 0
VERTEX
 8
F-DTS00117
 10
0
 20
0
 30
0
 70
128
 71
425
 72
361
 73
360
 74
424
 0
VERTEX
 8
F-DTS00117
 10
0
 20
0
 30
0
 70
128
 71
426
 72
362
 73
361
 74
425
 0
VERTEX
 8
F-DTS00117
 10
0
 20
0
 30
0
 70
128
 71
427
 72
363
 73
362
 74
426
 0
VERTEX
 8
F-DTS00117
 10
0
 20
0
 30
0
 70
128
 71
428
 72
364
 73
363
 74
427
 0
VERTEX
 8
F-DTS00117
 10
0
 20
0
 30
0
 70
128
 71
429
 72
365
 73
364
 74
428
 0
VERTEX
 8
F-DTS00117
 10
0
 20
0
 30
0
 70
128
 71
430
 72
366
 73
365
 74
429
 0
VERTEX
 8
F-DTS00117
 10
0
 20
0
 30
0
 70
128
 71
431
 72
367
 73
366
 74
430
 0
VERTEX
 8
F-DTS00117
 10
0
 20
0
 30
0
 70
128
 71
432
 72
368
 73
367
 74
431
 0
VERTEX
 8
F-DTS00117
 10
0
 20
0
 30
0
 70
128
 71
433
 72
369
 73
368
 74
432
 0
VERTEX
 8
F-DTS00117
 10
0
 20
0
 30
0
 70
128
 71
369
 72
433
 73
434
 74
370
 0
VERTEX
 8
F-DTS00117
 10
0
 20
0
 30
0
 70
128
 71
370
 72
434
 73
435
 74
371
 0
VERTEX
 8
F-DTS00117
 10
0
 20
0
 30
0
 70
128
 71
371
 72
435
 73
436
 74
372
 0
VERTEX
 8
F-DTS00117
 10
0
 20
0
 30
0
 70
128
 71
372
 72
436
 73
437
 74
373
 0
VERTEX
 8
F-DTS00117
 10
0
 20
0
 30
0
 70
128
 71
373
 72
437
 73
438
 74
374
 0
VERTEX
 8
F-DTS00117
 10
0
 20
0
 30
0
 70
128
 71
374
 72
438
 73
439
 74
375
 0
VERTEX
 8
F-DTS00117
 10
0
 20
0
 30
0
 70
128
 71
375
 72
439
 73
440
 74
376
 0
VERTEX
 8
F-DTS00117
 10
0
 20
0
 30
0
 70
128
 71
376
 72
440
 73
441
 74
377
 0
VERTEX
 8
F-DTS00117
 10
0
 20
0
 30
0
 70
128
 71
377
 72
441
 73
442
 74
378
 0
VERTEX
 8
F-DTS00117
 10
0
 20
0
 30
0
 70
128
 71
378
 72
442
 73
443
 74
379
 0
VERTEX
 8
F-DTS00117
 10
0
 20
0
 30
0
 70
128
 71
379
 72
443
 73
444
 74
380
 0
VERTEX
 8
F-DTS00117
 10
0
 20
0
 30
0
 70
128
 71
380
 72
444
 73
445
 74
381
 0
VERTEX
 8
F-DTS00117
 10
0
 20
0
 30
0
 70
128
 71
381
 72
445
 73
446
 74
382
 0
VERTEX
 8
F-DTS00117
 10
0
 20
0
 30
0
 70
128
 71
382
 72
446
 73
447
 74
383
 0
VERTEX
 8
F-DTS00117
 10
0
 20
0
 30
0
 70
128
 71
383
 72
447
 73
448
 74
384
 0
VERTEX
 8
F-DTS00117
 10
0
 20
0
 30
0
 70
128
 71
384
 72
448
 73
449
 74
385
 0
VERTEX
 8
F-DTS00117
 10
0
 20
0
 30
0
 70
128
 71
385
 72
449
 73
450
 74
386
 0
VERTEX
 8
F-DTS00117
 10
0
 20
0
 30
0
 70
128
 71
386
 72
450
 73
451
 74
387
 0
VERTEX
 8
F-DTS00117
 10
0
 20
0
 30
0
 70
128
 71
387
 72
451
 73
452
 74
388
 0
VERTEX
 8
F-DTS00117
 10
0
 20
0
 30
0
 70
128
 71
388
 72
452
 73
453
 74
389
 0
VERTEX
 8
F-DTS00117
 10
0
 20
0
 30
0
 70
128
 71
389
 72
453
 73
454
 74
390
 0
VERTEX
 8
F-DTS00117
 10
0
 20
0
 30
0
 70
128
 71
390
 72
454
 73
455
 74
391
 0
VERTEX
 8
F-DTS00117
 10
0
 20
0
 30
0
 70
128
 71
391
 72
455
 73
456
 74
392
 0
VERTEX
 8
F-DTS00117
 10
0
 20
0
 30
0
 70
128
 71
392
 72
456
 73
457
 74
393
 0
VERTEX
 8
F-DTS00117
 10
0
 20
0
 30
0
 70
128
 71
393
 72
457
 73
458
 74
394
 0
VERTEX
 8
F-DTS00117
 10
0
 20
0
 30
0
 70
128
 71
394
 72
458
 73
459
 74
395
 0
VERTEX
 8
F-DTS00117
 10
0
 20
0
 30
0
 70
128
 71
395
 72
459
 73
460
 74
396
 0
VERTEX
 8
F-DTS00117
 10
0
 20
0
 30
0
 70
128
 71
396
 72
460
 73
461
 74
397
 0
VERTEX
 8
F-DTS00117
 10
0
 20
0
 30
0
 70
128
 71
397
 72
461
 73
462
 74
398
 0
VERTEX
 8
F-DTS00117
 10
0
 20
0
 30
0
 70
128
 71
398
 72
462
 73
463
 74
399
 0
VERTEX
 8
F-DTS00117
 10
0
 20
0
 30
0
 70
128
 71
399
 72
463
 73
464
 74
400
 0
VERTEX
 8
F-DTS00117
 10
0
 20
0
 30
0
 70
128
 71
400
 72
464
 73
465
 74
401
 0
VERTEX
 8
F-DTS00117
 10
0
 20
0
 30
0
 70
128
 71
401
 72
465
 73
466
 74
402
 0
VERTEX
 8
F-DTS00117
 10
0
 20
0
 30
0
 70
128
 71
402
 72
466
 73
467
 74
403
 0
VERTEX
 8
F-DTS00117
 10
0
 20
0
 30
0
 70
128
 71
403
 72
467
 73
468
 74
404
 0
VERTEX
 8
F-DTS00117
 10
0
 20
0
 30
0
 70
128
 71
404
 72
468
 73
469
 74
405
 0
VERTEX
 8
F-DTS00117
 10
0
 20
0
 30
0
 70
128
 71
405
 72
469
 73
470
 74
406
 0
VERTEX
 8
F-DTS00117
 10
0
 20
0
 30
0
 70
128
 71
406
 72
470
 73
471
 74
407
 0
VERTEX
 8
F-DTS00117
 10
0
 20
0
 30
0
 70
128
 71
407
 72
471
 73
472
 74
408
 0
VERTEX
 8
F-DTS00117
 10
0
 20
0
 30
0
 70
128
 71
408
 72
472
 73
409
 74
345
 0
VERTEX
 8
F-DTS00117
 10
0
 20
0
 30
0
 70
128
 71
473
 72
477
 73
478
 74
474
 0
VERTEX
 8
F-DTS00117
 10
0
 20
0
 30
0
 70
128
 71
474
 72
478
 73
479
 74
475
 0
VERTEX
 8
F-DTS00117
 10
0
 20
0
 30
0
 70
128
 71
480
 72
476
 73
475
 74
479
 0
VERTEX
 8
F-DTS00117
 10
0
 20
0
 30
0
 70
128
 71
476
 72
480
 73
477
 74
473
 0
VERTEX
 8
F-DTS00117
 10
0
 20
0
 30
0
 70
128
 71
481
 72
485
 73
486
 74
482
 0
VERTEX
 8
F-DTS00117
 10
0
 20
0
 30
0
 70
128
 71
482
 72
486
 73
487
 74
483
 0
VERTEX
 8
F-DTS00117
 10
0
 20
0
 30
0
 70
128
 71
488
 72
484
 73
483
 74
487
 0
VERTEX
 8
F-DTS00117
 10
0
 20
0
 30
0
 70
128
 71
484
 72
488
 73
485
 74
481
 0
VERTEX
 8
F-DTS00117
 10
0
 20
0
 30
0
 70
128
 71
489
 72
493
 73
494
 74
490
 0
VERTEX
 8
F-DTS00117
 10
0
 20
0
 30
0
 70
128
 71
490
 72
494
 73
495
 74
491
 0
VERTEX
 8
F-DTS00117
 10
0
 20
0
 30
0
 70
128
 71
496
 72
492
 73
491
 74
495
 0
VERTEX
 8
F-DTS00117
 10
0
 20
0
 30
0
 70
128
 71
492
 72
496
 73
493
 74
489
 0
VERTEX
 8
F-DTS00117
 10
0
 20
0
 30
0
 70
128
 71
497
 72
501
 73
502
 74
498
 0
VERTEX
 8
F-DTS00117
 10
0
 20
0
 30
0
 70
128
 71
498
 72
502
 73
503
 74
499
 0
VERTEX
 8
F-DTS00117
 10
0
 20
0
 30
0
 70
128
 71
504
 72
500
 73
499
 74
503
 0
VERTEX
 8
F-DTS00117
 10
0
 20
0
 30
0
 70
128
 71
500
 72
504
 73
501
 74
497
 0
VERTEX
 8
F-DTS00117
 10
0
 20
0
 30
0
 70
128
 71
505
 72
509
 73
510
 74
506
 0
VERTEX
 8
F-DTS00117
 10
0
 20
0
 30
0
 70
128
 71
506
 72
510
 73
511
 74
507
 0
VERTEX
 8
F-DTS00117
 10
0
 20
0
 30
0
 70
128
 71
512
 72
508
 73
507
 74
511
 0
VERTEX
 8
F-DTS00117
 10
0
 20
0
 30
0
 70
128
 71
508
 72
512
 73
509
 74
505
 0
VERTEX
 8
F-DTS00117
 10
0
 20
0
 30
0
 70
128
 71
513
 72
517
 73
518
 74
514
 0
VERTEX
 8
F-DTS00117
 10
0
 20
0
 30
0
 70
128
 71
514
 72
518
 73
519
 74
515
 0
VERTEX
 8
F-DTS00117
 10
0
 20
0
 30
0
 70
128
 71
520
 72
516
 73
515
 74
519
 0
VERTEX
 8
F-DTS00117
 10
0
 20
0
 30
0
 70
128
 71
516
 72
520
 73
517
 74
513
 0
VERTEX
 8
F-DTS00117
 10
0
 20
0
 30
0
 70
128
 71
521
 72
525
 73
526
 74
522
 0
VERTEX
 8
F-DTS00117
 10
0
 20
0
 30
0
 70
128
 71
522
 72
526
 73
527
 74
523
 0
VERTEX
 8
F-DTS00117
 10
0
 20
0
 30
0
 70
128
 71
528
 72
524
 73
523
 74
527
 0
VERTEX
 8
F-DTS00117
 10
0
 20
0
 30
0
 70
128
 71
524
 72
528
 73
525
 74
521
 0
VERTEX
 8
F-DTS00117
 10
0
 20
0
 30
0
 70
128
 71
529
 72
533
 73
534
 74
530
 0
VERTEX
 8
F-DTS00117
 10
0
 20
0
 30
0
 70
128
 71
530
 72
534
 73
535
 74
531
 0
VERTEX
 8
F-DTS00117
 10
0
 20
0
 30
0
 70
128
 71
536
 72
532
 73
531
 74
535
 0
VERTEX
 8
F-DTS00117
 10
0
 20
0
 30
0
 70
128
 71
532
 72
536
 73
533
 74
529
 0
VERTEX
 8
F-DTS00117
 10
0
 20
0
 30
0
 70
128
 71
537
 72
541
 73
542
 74
538
 0
VERTEX
 8
F-DTS00117
 10
0
 20
0
 30
0
 70
128
 71
538
 72
542
 73
543
 74
539
 0
VERTEX
 8
F-DTS00117
 10
0
 20
0
 30
0
 70
128
 71
544
 72
540
 73
539
 74
543
 0
VERTEX
 8
F-DTS00117
 10
0
 20
0
 30
0
 70
128
 71
540
 72
544
 73
541
 74
537
 0
VERTEX
 8
F-DTS00117
 10
0
 20
0
 30
0
 70
128
 71
545
 72
549
 73
550
 74
546
 0
VERTEX
 8
F-DTS00117
 10
0
 20
0
 30
0
 70
128
 71
546
 72
550
 73
551
 74
547
 0
VERTEX
 8
F-DTS00117
 10
0
 20
0
 30
0
 70
128
 71
552
 72
548
 73
547
 74
551
 0
VERTEX
 8
F-DTS00117
 10
0
 20
0
 30
0
 70
128
 71
548
 72
552
 73
549
 74
545
 0
VERTEX
 8
F-DTS00117
 10
0
 20
0
 30
0
 70
128
 71
553
 72
557
 73
558
 74
554
 0
VERTEX
 8
F-DTS00117
 10
0
 20
0
 30
0
 70
128
 71
554
 72
558
 73
559
 74
555
 0
VERTEX
 8
F-DTS00117
 10
0
 20
0
 30
0
 70
128
 71
560
 72
556
 73
555
 74
559
 0
VERTEX
 8
F-DTS00117
 10
0
 20
0
 30
0
 70
128
 71
556
 72
560
 73
557
 74
553
 0
VERTEX
 8
F-DTS00117
 10
0
 20
0
 30
0
 70
128
 71
561
 72
565
 73
566
 74
562
 0
VERTEX
 8
F-DTS00117
 10
0
 20
0
 30
0
 70
128
 71
562
 72
566
 73
567
 74
563
 0
VERTEX
 8
F-DTS00117
 10
0
 20
0
 30
0
 70
128
 71
568
 72
564
 73
563
 74
567
 0
VERTEX
 8
F-DTS00117
 10
0
 20
0
 30
0
 70
128
 71
564
 72
568
 73
565
 74
561
 0
VERTEX
 8
F-DTS00117
 10
0
 20
0
 30
0
 70
128
 71
569
 72
573
 73
574
 74
570
 0
VERTEX
 8
F-DTS00117
 10
0
 20
0
 30
0
 70
128
 71
570
 72
574
 73
575
 74
571
 0
VERTEX
 8
F-DTS00117
 10
0
 20
0
 30
0
 70
128
 71
576
 72
572
 73
571
 74
575
 0
VERTEX
 8
F-DTS00117
 10
0
 20
0
 30
0
 70
128
 71
572
 72
576
 73
573
 74
569
 0
VERTEX
 8
F-DTS00117
 10
0
 20
0
 30
0
 70
128
 71
577
 72
581
 73
582
 74
578
 0
VERTEX
 8
F-DTS00117
 10
0
 20
0
 30
0
 70
128
 71
578
 72
582
 73
583
 74
579
 0
VERTEX
 8
F-DTS00117
 10
0
 20
0
 30
0
 70
128
 71
584
 72
580
 73
579
 74
583
 0
VERTEX
 8
F-DTS00117
 10
0
 20
0
 30
0
 70
128
 71
580
 72
584
 73
581
 74
577
 0
VERTEX
 8
F-DTS00117
 10
0
 20
0
 30
0
 70
128
 71
585
 72
589
 73
590
 74
586
 0
VERTEX
 8
F-DTS00117
 10
0
 20
0
 30
0
 70
128
 71
586
 72
590
 73
591
 74
587
 0
VERTEX
 8
F-DTS00117
 10
0
 20
0
 30
0
 70
128
 71
592
 72
588
 73
587
 74
591
 0
VERTEX
 8
F-DTS00117
 10
0
 20
0
 30
0
 70
128
 71
588
 72
592
 73
589
 74
585
 0
VERTEX
 8
F-DTS00117
 10
0
 20
0
 30
0
 70
128
 71
593
 72
597
 73
598
 74
594
 0
VERTEX
 8
F-DTS00117
 10
0
 20
0
 30
0
 70
128
 71
594
 72
598
 73
599
 74
595
 0
VERTEX
 8
F-DTS00117
 10
0
 20
0
 30
0
 70
128
 71
600
 72
596
 73
595
 74
599
 0
VERTEX
 8
F-DTS00117
 10
0
 20
0
 30
0
 70
128
 71
596
 72
600
 73
597
 74
593
 0
VERTEX
 8
F-DTS00117
 10
0
 20
0
 30
0
 70
128
 71
601
 72
605
 73
606
 74
602
 0
VERTEX
 8
F-DTS00117
 10
0
 20
0
 30
0
 70
128
 71
602
 72
606
 73
607
 74
603
 0
VERTEX
 8
F-DTS00117
 10
0
 20
0
 30
0
 70
128
 71
608
 72
604
 73
603
 74
607
 0
VERTEX
 8
F-DTS00117
 10
0
 20
0
 30
0
 70
128
 71
604
 72
608
 73
605
 74
601
 0
VERTEX
 8
F-DTS00117
 10
0
 20
0
 30
0
 70
128
 71
609
 72
613
 73
614
 74
610
 0
VERTEX
 8
F-DTS00117
 10
0
 20
0
 30
0
 70
128
 71
610
 72
614
 73
615
 74
611
 0
VERTEX
 8
F-DTS00117
 10
0
 20
0
 30
0
 70
128
 71
616
 72
612
 73
611
 74
615
 0
VERTEX
 8
F-DTS00117
 10
0
 20
0
 30
0
 70
128
 71
612
 72
616
 73
613
 74
609
 0
VERTEX
 8
F-DTS00117
 10
0
 20
0
 30
0
 70
128
 71
617
 72
621
 73
622
 74
618
 0
VERTEX
 8
F-DTS00117
 10
0
 20
0
 30
0
 70
128
 71
618
 72
622
 73
623
 74
619
 0
VERTEX
 8
F-DTS00117
 10
0
 20
0
 30
0
 70
128
 71
624
 72
620
 73
619
 74
623
 0
VERTEX
 8
F-DTS00117
 10
0
 20
0
 30
0
 70
128
 71
620
 72
624
 73
621
 74
617
 0
VERTEX
 8
F-DTS00117
 10
0
 20
0
 30
0
 70
128
 71
625
 72
629
 73
630
 74
626
 0
VERTEX
 8
F-DTS00117
 10
0
 20
0
 30
0
 70
128
 71
626
 72
630
 73
631
 74
627
 0
VERTEX
 8
F-DTS00117
 10
0
 20
0
 30
0
 70
128
 71
632
 72
628
 73
627
 74
631
 0
VERTEX
 8
F-DTS00117
 10
0
 20
0
 30
0
 70
128
 71
628
 72
632
 73
629
 74
625
 0
VERTEX
 8
F-DTS00117
 10
0
 20
0
 30
0
 70
128
 71
633
 72
637
 73
638
 74
634
 0
VERTEX
 8
F-DTS00117
 10
0
 20
0
 30
0
 70
128
 71
634
 72
638
 73
639
 74
635
 0
VERTEX
 8
F-DTS00117
 10
0
 20
0
 30
0
 70
128
 71
640
 72
636
 73
635
 74
639
 0
VERTEX
 8
F-DTS00117
 10
0
 20
0
 30
0
 70
128
 71
636
 72
640
 73
637
 74
633
 0
VERTEX
 8
F-DTS00117
 10
0
 20
0
 30
0
 70
128
 71
641
 72
645
 73
646
 74
642
 0
VERTEX
 8
F-DTS00117
 10
0
 20
0
 30
0
 70
128
 71
642
 72
646
 73
647
 74
643
 0
VERTEX
 8
F-DTS00117
 10
0
 20
0
 30
0
 70
128
 71
648
 72
644
 73
643
 74
647
 0
VERTEX
 8
F-DTS00117
 10
0
 20
0
 30
0
 70
128
 71
644
 72
648
 73
645
 74
641
 0
VERTEX
 8
F-DTS00117
 10
0
 20
0
 30
0
 70
128
 71
649
 72
653
 73
654
 74
650
 0
VERTEX
 8
F-DTS00117
 10
0
 20
0
 30
0
 70
128
 71
650
 72
654
 73
655
 74
651
 0
VERTEX
 8
F-DTS00117
 10
0
 20
0
 30
0
 70
128
 71
656
 72
652
 73
651
 74
655
 0
VERTEX
 8
F-DTS00117
 10
0
 20
0
 30
0
 70
128
 71
652
 72
656
 73
653
 74
649
 0
VERTEX
 8
F-DTS00117
 10
0
 20
0
 30
0
 70
128
 71
657
 72
661
 73
662
 74
658
 0
VERTEX
 8
F-DTS00117
 10
0
 20
0
 30
0
 70
128
 71
658
 72
662
 73
663
 74
659
 0
VERTEX
 8
F-DTS00117
 10
0
 20
0
 30
0
 70
128
 71
664
 72
660
 73
659
 74
663
 0
VERTEX
 8
F-DTS00117
 10
0
 20
0
 30
0
 70
128
 71
660
 72
664
 73
661
 74
657
 0
VERTEX
 8
F-DTS00117
 10
0
 20
0
 30
0
 70
128
 71
665
 72
669
 73
670
 74
666
 0
VERTEX
 8
F-DTS00117
 10
0
 20
0
 30
0
 70
128
 71
666
 72
670
 73
671
 74
667
 0
VERTEX
 8
F-DTS00117
 10
0
 20
0
 30
0
 70
128
 71
672
 72
668
 73
667
 74
671
 0
VERTEX
 8
F-DTS00117
 10
0
 20
0
 30
0
 70
128
 71
668
 72
672
 73
669
 74
665
 0
VERTEX
 8
F-DTS00117
 10
0
 20
0
 30
0
 70
128
 71
673
 72
677
 73
678
 74
674
 0
VERTEX
 8
F-DTS00117
 10
0
 20
0
 30
0
 70
128
 71
674
 72
678
 73
679
 74
675
 0
VERTEX
 8
F-DTS00117
 10
0
 20
0
 30
0
 70
128
 71
680
 72
676
 73
675
 74
679
 0
VERTEX
 8
F-DTS00117
 10
0
 20
0
 30
0
 70
128
 71
676
 72
680
 73
677
 74
673
 0
VERTEX
 8
F-DTS00117
 10
0
 20
0
 30
0
 70
128
 71
681
 72
685
 73
686
 74
682
 0
VERTEX
 8
F-DTS00117
 10
0
 20
0
 30
0
 70
128
 71
682
 72
686
 73
687
 74
683
 0
VERTEX
 8
F-DTS00117
 10
0
 20
0
 30
0
 70
128
 71
688
 72
684
 73
683
 74
687
 0
VERTEX
 8
F-DTS00117
 10
0
 20
0
 30
0
 70
128
 71
684
 72
688
 73
685
 74
681
 0
VERTEX
 8
F-DTS00117
 10
0
 20
0
 30
0
 70
128
 71
689
 72
693
 73
694
 74
690
 0
VERTEX
 8
F-DTS00117
 10
0
 20
0
 30
0
 70
128
 71
690
 72
694
 73
695
 74
691
 0
VERTEX
 8
F-DTS00117
 10
0
 20
0
 30
0
 70
128
 71
696
 72
692
 73
691
 74
695
 0
VERTEX
 8
F-DTS00117
 10
0
 20
0
 30
0
 70
128
 71
692
 72
696
 73
693
 74
689
 0
VERTEX
 8
F-DTS00117
 10
0
 20
0
 30
0
 70
128
 71
697
 72
701
 73
702
 74
698
 0
VERTEX
 8
F-DTS00117
 10
0
 20
0
 30
0
 70
128
 71
698
 72
702
 73
703
 74
699
 0
VERTEX
 8
F-DTS00117
 10
0
 20
0
 30
0
 70
128
 71
704
 72
700
 73
699
 74
703
 0
VERTEX
 8
F-DTS00117
 10
0
 20
0
 30
0
 70
128
 71
700
 72
704
 73
701
 74
697
 0
SEQEND
 0
ENDSEC
 0
EOF
