 0
SECTION
 2
HEADER
 9
$ACADVER
 1
AC1009
 0
ENDSEC
 0
SECTION
 2
TABLES
 0
TABLE
 2
LTYPE
 70
1
 0
LTYPE
 2
CONTINUOUS
 70
64
 3
solid line
 72
65
 73
0
 40
0.0
 0
ENDTAB
 0
TABLE
 2
LAYER
 70
6
 0
LAYER
 2
0
 70
0
 62
7
 6
CONTINUOUS
 0
LAYER
 2
FCLHD_9041_HID_TS_BK
 70
64
 62
7
 6
CONTINUOUS
 0
LAYER
 2
P-RZA01680_VETRO_2
 70
64
 62
39
 6
CONTINUOUS
 0
LAYER
 2
SEGRAFIE
 70
64
 62
7
 6
CONTINUOUS
 0
LAYER
 2
PIANO
 70
64
 62
7
 6
CONTINUOUS
 0
LAYER
 2
PIANO_1
 70
64
 62
7
 6
CONTINUOUS
 0
LAYER
 2
PIANO_2
 70
64
 62
7
 6
CONTINUOUS
 0
LAYER
 2
PIANO_3
 70
64
 62
7
 6
CONTINUOUS
 0
LAYER
 2
PIANO_4
 70
64
 62
7
 6
CONTINUOUS
 0
LAYER
 2
PIANO_5
 70
64
 62
7
 6
CONTINUOUS
 0
LAYER
 2
PIANO_4_1
 70
64
 62
7
 6
CONTINUOUS
 0
LAYER
 2
PIANO_5_1
 70
64
 62
7
 6
CONTINUOUS
 0
LAYER
 2
LOGO_FULGOR_MILANO
 70
64
 62
7
 6
CONTINUOUS
 0
LAYER
 2
FULGOR
 70
64
 62
7
 6
CONTINUOUS
 0
LAYER
 2
MILANO
 70
64
 62
7
 6
CONTINUOUS
 0
LAYER
 2
P-RZA01680_VETRO
 70
64
 62
39
 6
CONTINUOUS
 0
ENDTAB
 0
ENDSEC
 0
SECTION
 2
BLOCKS
 0
ENDSEC
 0
SECTION
 2
ENTITIES
 0
POLYLINE
 8
P-RZA01680_VETRO_2
 66
1
 10
0.0
 20
0.0
 30
0.0
 70
64
 71
8
 72
6
 0
VERTEX
 8
P-RZA01680_VETRO_2
 10
-40.7
 20
13.7
 30
0
 70
192
 0
VERTEX
 8
P-RZA01680_VETRO_2
 10
-40.7
 20
21.3
 30
0
 70
192
 0
VERTEX
 8
P-RZA01680_VETRO_2
 10
40.7
 20
13.7
 30
0
 70
192
 0
VERTEX
 8
P-RZA01680_VETRO_2
 10
40.7
 20
21.3
 30
0
 70
192
 0
VERTEX
 8
P-RZA01680_VETRO_2
 10
40.7
 20
13.7
 30
-0.425
 70
192
 0
VERTEX
 8
P-RZA01680_VETRO_2
 10
40.7
 20
21.3
 30
-0.425
 70
192
 0
VERTEX
 8
P-RZA01680_VETRO_2
 10
-40.7
 20
13.7
 30
-0.425
 70
192
 0
VERTEX
 8
P-RZA01680_VETRO_2
 10
-40.7
 20
21.3
 30
-0.425
 70
192
 0
VERTEX
 8
P-RZA01680_VETRO_2
 10
0
 20
0
 30
0
 70
128
 71
1
 72
2
 73
4
 74
3
 0
VERTEX
 8
P-RZA01680_VETRO_2
 10
0
 20
0
 30
0
 70
128
 71
3
 72
4
 73
6
 74
5
 0
VERTEX
 8
P-RZA01680_VETRO_2
 10
0
 20
0
 30
0
 70
128
 71
5
 72
6
 73
8
 74
7
 0
VERTEX
 8
P-RZA01680_VETRO_2
 10
0
 20
0
 30
0
 70
128
 71
7
 72
8
 73
2
 74
1
 0
VERTEX
 8
P-RZA01680_VETRO_2
 10
0
 20
0
 30
0
 70
128
 71
2
 72
8
 73
6
 74
4
 0
VERTEX
 8
P-RZA01680_VETRO_2
 10
0
 20
0
 30
0
 70
128
 71
7
 72
1
 73
3
 74
5
 0
SEQEND
 0
POLYLINE
 8
PIANO
 66
1
 10
0.0
 20
0.0
 30
0.0
 70
64
 71
4
 72
1
 0
VERTEX
 8
PIANO
 10
28.1999
 20
-5.1999
 30
0.0016
 70
192
 0
VERTEX
 8
PIANO
 10
29.9999
 20
-5.1999
 30
0.0016
 70
192
 0
VERTEX
 8
PIANO
 10
28.1999
 20
-4.8999
 30
0.0016
 70
192
 0
VERTEX
 8
PIANO
 10
29.9999
 20
-4.8999
 30
0.0016
 70
192
 0
VERTEX
 8
PIANO
 10
0
 20
0
 30
0
 70
128
 71
1
 72
3
 73
4
 74
2
 0
SEQEND
 0
POLYLINE
 8
PIANO_1
 66
1
 10
0.0
 20
0.0
 30
0.0
 70
64
 71
4
 72
1
 0
VERTEX
 8
PIANO_1
 10
8.7999
 20
-5.1999
 30
0.0016
 70
192
 0
VERTEX
 8
PIANO_1
 10
10.5999
 20
-5.1999
 30
0.0016
 70
192
 0
VERTEX
 8
PIANO_1
 10
8.7999
 20
-4.8999
 30
0.0016
 70
192
 0
VERTEX
 8
PIANO_1
 10
10.5999
 20
-4.8999
 30
0.0016
 70
192
 0
VERTEX
 8
PIANO_1
 10
0
 20
0
 30
0
 70
128
 71
1
 72
3
 73
4
 74
2
 0
SEQEND
 0
POLYLINE
 8
PIANO_2
 66
1
 10
0.0
 20
0.0
 30
0.0
 70
64
 71
4
 72
1
 0
VERTEX
 8
PIANO_2
 10
-10.6001
 20
-5.1999
 30
0.0016
 70
192
 0
VERTEX
 8
PIANO_2
 10
-8.8001
 20
-5.1999
 30
0.0016
 70
192
 0
VERTEX
 8
PIANO_2
 10
-10.6001
 20
-4.8999
 30
0.0016
 70
192
 0
VERTEX
 8
PIANO_2
 10
-8.8001
 20
-4.8999
 30
0.0016
 70
192
 0
VERTEX
 8
PIANO_2
 10
0
 20
0
 30
0
 70
128
 71
1
 72
3
 73
4
 74
2
 0
SEQEND
 0
POLYLINE
 8
PIANO_3
 66
1
 10
0.0
 20
0.0
 30
0.0
 70
64
 71
4
 72
1
 0
VERTEX
 8
PIANO_3
 10
-30
 20
-5.1999
 30
0.0016
 70
192
 0
VERTEX
 8
PIANO_3
 10
-28.2
 20
-5.1999
 30
0.0016
 70
192
 0
VERTEX
 8
PIANO_3
 10
-30
 20
-4.8999
 30
0.0016
 70
192
 0
VERTEX
 8
PIANO_3
 10
-28.2
 20
-4.8999
 30
0.0016
 70
192
 0
VERTEX
 8
PIANO_3
 10
0
 20
0
 30
0
 70
128
 71
1
 72
3
 73
4
 74
2
 0
SEQEND
 0
POLYLINE
 8
PIANO_4
 66
1
 10
0.0
 20
0.0
 30
0.0
 70
64
 71
4
 72
1
 0
VERTEX
 8
PIANO_4
 10
-29.0301
 20
-22.1101
 30
0.0016
 70
192
 0
VERTEX
 8
PIANO_4
 10
-21.4301
 20
-22.1101
 30
0.0016
 70
192
 0
VERTEX
 8
PIANO_4
 10
-29.0301
 20
-21.9901
 30
0.0016
 70
192
 0
VERTEX
 8
PIANO_4
 10
-21.4301
 20
-21.9901
 30
0.0016
 70
192
 0
VERTEX
 8
PIANO_4
 10
0
 20
0
 30
0
 70
128
 71
1
 72
3
 73
4
 74
2
 0
SEQEND
 0
POLYLINE
 8
PIANO_5
 66
1
 10
0.0
 20
0.0
 30
0.0
 70
64
 71
4
 72
1
 0
VERTEX
 8
PIANO_5
 10
-18.55
 20
-22.1101
 30
0.0016
 70
192
 0
VERTEX
 8
PIANO_5
 10
-10.95
 20
-22.1101
 30
0.0016
 70
192
 0
VERTEX
 8
PIANO_5
 10
-18.55
 20
-21.9901
 30
0.0016
 70
192
 0
VERTEX
 8
PIANO_5
 10
-10.95
 20
-21.9901
 30
0.0016
 70
192
 0
VERTEX
 8
PIANO_5
 10
0
 20
0
 30
0
 70
128
 71
1
 72
3
 73
4
 74
2
 0
SEQEND
 0
POLYLINE
 8
PIANO_4_1
 66
1
 10
0.0
 20
0.0
 30
0.0
 70
64
 71
4
 72
1
 0
VERTEX
 8
PIANO_4_1
 10
12.0998
 20
-22.1101
 30
0.0016
 70
192
 0
VERTEX
 8
PIANO_4_1
 10
19.6998
 20
-22.1101
 30
0.0016
 70
192
 0
VERTEX
 8
PIANO_4_1
 10
12.0998
 20
-21.9901
 30
0.0016
 70
192
 0
VERTEX
 8
PIANO_4_1
 10
19.6998
 20
-21.9901
 30
0.0016
 70
192
 0
VERTEX
 8
PIANO_4_1
 10
0
 20
0
 30
0
 70
128
 71
1
 72
3
 73
4
 74
2
 0
SEQEND
 0
POLYLINE
 8
PIANO_5_1
 66
1
 10
0.0
 20
0.0
 30
0.0
 70
64
 71
4
 72
1
 0
VERTEX
 8
PIANO_5_1
 10
22.5799
 20
-22.1101
 30
0.0016
 70
192
 0
VERTEX
 8
PIANO_5_1
 10
30.1799
 20
-22.1101
 30
0.0016
 70
192
 0
VERTEX
 8
PIANO_5_1
 10
22.5799
 20
-21.9901
 30
0.0016
 70
192
 0
VERTEX
 8
PIANO_5_1
 10
30.1799
 20
-21.9901
 30
0.0016
 70
192
 0
VERTEX
 8
PIANO_5_1
 10
0
 20
0
 30
0
 70
128
 71
1
 72
3
 73
4
 74
2
 0
SEQEND
 0
POLYLINE
 8
FULGOR
 66
1
 10
0.0
 20
0.0
 30
0.0
 70
64
 71
363
 72
183
 0
VERTEX
 8
FULGOR
 10
0.2043
 20
9.1765
 30
0.003
 70
192
 0
VERTEX
 8
FULGOR
 10
-2.2517
 20
9.0841
 30
0.003
 70
192
 0
VERTEX
 8
FULGOR
 10
1.2167
 20
9.1076
 30
0.003
 70
192
 0
VERTEX
 8
FULGOR
 10
-2.112
 20
9.351
 30
0.003
 70
192
 0
VERTEX
 8
FULGOR
 10
-2.112
 20
9.4351
 30
0.003
 70
192
 0
VERTEX
 8
FULGOR
 10
-1.769
 20
9.4351
 30
0.003
 70
192
 0
VERTEX
 8
FULGOR
 10
-1.769
 20
9.5346
 30
0.003
 70
192
 0
VERTEX
 8
FULGOR
 10
-2.2517
 20
9.5346
 30
0.003
 70
192
 0
VERTEX
 8
FULGOR
 10
-1.6271
 20
9.2799
 30
0.003
 70
192
 0
VERTEX
 8
FULGOR
 10
-1.626
 20
9.2589
 30
0.003
 70
192
 0
VERTEX
 8
FULGOR
 10
-1.6228
 20
9.2394
 30
0.003
 70
192
 0
VERTEX
 8
FULGOR
 10
-2.112
 20
9.0841
 30
0.003
 70
192
 0
VERTEX
 8
FULGOR
 10
-2.112
 20
9.2708
 30
0.003
 70
192
 0
VERTEX
 8
FULGOR
 10
-1.769
 20
9.2708
 30
0.003
 70
192
 0
VERTEX
 8
FULGOR
 10
-1.769
 20
9.351
 30
0.003
 70
192
 0
VERTEX
 8
FULGOR
 10
-1.6271
 20
9.5346
 30
0.003
 70
192
 0
VERTEX
 8
FULGOR
 10
-1.6176
 20
9.2215
 30
0.003
 70
192
 0
VERTEX
 8
FULGOR
 10
-1.6106
 20
9.2051
 30
0.003
 70
192
 0
VERTEX
 8
FULGOR
 10
-1.6019
 20
9.1901
 30
0.003
 70
192
 0
VERTEX
 8
FULGOR
 10
-1.5917
 20
9.1764
 30
0.003
 70
192
 0
VERTEX
 8
FULGOR
 10
-1.4675
 20
9.1075
 30
0.003
 70
192
 0
VERTEX
 8
FULGOR
 10
-1.4196
 20
9.0977
 30
0.003
 70
192
 0
VERTEX
 8
FULGOR
 10
-1.3418
 20
9.0895
 30
0.003
 70
192
 0
VERTEX
 8
FULGOR
 10
-1.261
 20
9.0869
 30
0.003
 70
192
 0
VERTEX
 8
FULGOR
 10
-1.1708
 20
9.0902
 30
0.003
 70
192
 0
VERTEX
 8
FULGOR
 10
-1.1026
 20
9.0991
 30
0.003
 70
192
 0
VERTEX
 8
FULGOR
 10
-1.5799
 20
9.164
 30
0.003
 70
192
 0
VERTEX
 8
FULGOR
 10
-1.0187
 20
9.1219
 30
0.003
 70
192
 0
VERTEX
 8
FULGOR
 10
-1.5669
 20
9.1528
 30
0.003
 70
192
 0
VERTEX
 8
FULGOR
 10
-1.5526
 20
9.1427
 30
0.003
 70
192
 0
VERTEX
 8
FULGOR
 10
-1.5292
 20
9.1297
 30
0.003
 70
192
 0
VERTEX
 8
FULGOR
 10
-1.5038
 20
9.1189
 30
0.003
 70
192
 0
VERTEX
 8
FULGOR
 10
-0.9259
 20
9.1842
 30
0.003
 70
192
 0
VERTEX
 8
FULGOR
 10
-1.0549
 20
9.11
 30
0.003
 70
192
 0
VERTEX
 8
FULGOR
 10
-0.9934
 20
9.1329
 30
0.003
 70
192
 0
VERTEX
 8
FULGOR
 10
-0.9701
 20
9.1459
 30
0.003
 70
192
 0
VERTEX
 8
FULGOR
 10
-0.9492
 20
9.1608
 30
0.003
 70
192
 0
VERTEX
 8
FULGOR
 10
-0.8972
 20
9.2528
 30
0.003
 70
192
 0
VERTEX
 8
FULGOR
 10
-0.8961
 20
9.2713
 30
0.003
 70
192
 0
VERTEX
 8
FULGOR
 10
-0.8959
 20
9.5346
 30
0.003
 70
192
 0
VERTEX
 8
FULGOR
 10
-0.9369
 20
9.172
 30
0.003
 70
192
 0
VERTEX
 8
FULGOR
 10
-0.9165
 20
9.1975
 30
0.003
 70
192
 0
VERTEX
 8
FULGOR
 10
-1.0357
 20
9.2727
 30
0.003
 70
192
 0
VERTEX
 8
FULGOR
 10
-1.0364
 20
9.2663
 30
0.003
 70
192
 0
VERTEX
 8
FULGOR
 10
-1.0379
 20
9.2601
 30
0.003
 70
192
 0
VERTEX
 8
FULGOR
 10
-1.04
 20
9.2538
 30
0.003
 70
192
 0
VERTEX
 8
FULGOR
 10
-1.0427
 20
9.2477
 30
0.003
 70
192
 0
VERTEX
 8
FULGOR
 10
-1.0462
 20
9.2416
 30
0.003
 70
192
 0
VERTEX
 8
FULGOR
 10
-1.0503
 20
9.2357
 30
0.003
 70
192
 0
VERTEX
 8
FULGOR
 10
-1.0579
 20
9.2271
 30
0.003
 70
192
 0
VERTEX
 8
FULGOR
 10
-1.0671
 20
9.2189
 30
0.003
 70
192
 0
VERTEX
 8
FULGOR
 10
-1.078
 20
9.2112
 30
0.003
 70
192
 0
VERTEX
 8
FULGOR
 10
-1.0907
 20
9.204
 30
0.003
 70
192
 0
VERTEX
 8
FULGOR
 10
-0.9087
 20
9.2119
 30
0.003
 70
192
 0
VERTEX
 8
FULGOR
 10
-0.9027
 20
9.2274
 30
0.003
 70
192
 0
VERTEX
 8
FULGOR
 10
-0.8985
 20
9.244
 30
0.003
 70
192
 0
VERTEX
 8
FULGOR
 10
-1.0355
 20
9.5346
 30
0.003
 70
192
 0
VERTEX
 8
FULGOR
 10
-1.0355
 20
9.279
 30
0.003
 70
192
 0
VERTEX
 8
FULGOR
 10
-1.3406
 20
9.1775
 30
0.003
 70
192
 0
VERTEX
 8
FULGOR
 10
-1.1105
 20
9.1953
 30
0.003
 70
192
 0
VERTEX
 8
FULGOR
 10
-1.4067
 20
9.1898
 30
0.003
 70
192
 0
VERTEX
 8
FULGOR
 10
-1.4272
 20
9.1971
 30
0.003
 70
192
 0
VERTEX
 8
FULGOR
 10
-1.1335
 20
9.1878
 30
0.003
 70
192
 0
VERTEX
 8
FULGOR
 10
-1.1672
 20
9.1805
 30
0.003
 70
192
 0
VERTEX
 8
FULGOR
 10
-1.2066
 20
9.1757
 30
0.003
 70
192
 0
VERTEX
 8
FULGOR
 10
-1.4673
 20
9.2243
 30
0.003
 70
192
 0
VERTEX
 8
FULGOR
 10
-1.4721
 20
9.2304
 30
0.003
 70
192
 0
VERTEX
 8
FULGOR
 10
-1.4763
 20
9.2368
 30
0.003
 70
192
 0
VERTEX
 8
FULGOR
 10
-1.4798
 20
9.2435
 30
0.003
 70
192
 0
VERTEX
 8
FULGOR
 10
-1.4826
 20
9.2506
 30
0.003
 70
192
 0
VERTEX
 8
FULGOR
 10
-1.2615
 20
9.1737
 30
0.003
 70
192
 0
VERTEX
 8
FULGOR
 10
-1.4868
 20
9.2699
 30
0.003
 70
192
 0
VERTEX
 8
FULGOR
 10
-1.4875
 20
9.2825
 30
0.003
 70
192
 0
VERTEX
 8
FULGOR
 10
-1.4875
 20
9.5346
 30
0.003
 70
192
 0
VERTEX
 8
FULGOR
 10
-1.3829
 20
9.1838
 30
0.003
 70
192
 0
VERTEX
 8
FULGOR
 10
-1.4404
 20
9.2035
 30
0.003
 70
192
 0
VERTEX
 8
FULGOR
 10
-1.4519
 20
9.2107
 30
0.003
 70
192
 0
VERTEX
 8
FULGOR
 10
-1.4617
 20
9.2186
 30
0.003
 70
192
 0
VERTEX
 8
FULGOR
 10
-0.6147
 20
9.1837
 30
0.003
 70
192
 0
VERTEX
 8
FULGOR
 10
-0.6147
 20
9.5346
 30
0.003
 70
192
 0
VERTEX
 8
FULGOR
 10
0.4952
 20
9.4931
 30
0.003
 70
192
 0
VERTEX
 8
FULGOR
 10
-1.4848
 20
9.2581
 30
0.003
 70
192
 0
VERTEX
 8
FULGOR
 10
-0.7544
 20
9.5346
 30
0.003
 70
192
 0
VERTEX
 8
FULGOR
 10
0.2189
 20
9.5342
 30
0.003
 70
192
 0
VERTEX
 8
FULGOR
 10
-0.7544
 20
9.0841
 30
0.003
 70
192
 0
VERTEX
 8
FULGOR
 10
-0.2717
 20
9.0841
 30
0.003
 70
192
 0
VERTEX
 8
FULGOR
 10
-0.2717
 20
9.1837
 30
0.003
 70
192
 0
VERTEX
 8
FULGOR
 10
0.4163
 20
9.5109
 30
0.003
 70
192
 0
VERTEX
 8
FULGOR
 10
0.3327
 20
9.5241
 30
0.003
 70
192
 0
VERTEX
 8
FULGOR
 10
0.1553
 20
9.5341
 30
0.003
 70
192
 0
VERTEX
 8
FULGOR
 10
-0.0899
 20
9.4659
 30
0.003
 70
192
 0
VERTEX
 8
FULGOR
 10
-0.1137
 20
9.4505
 30
0.003
 70
192
 0
VERTEX
 8
FULGOR
 10
-0.1338
 20
9.4345
 30
0.003
 70
192
 0
VERTEX
 8
FULGOR
 10
-0.1508
 20
9.4179
 30
0.003
 70
192
 0
VERTEX
 8
FULGOR
 10
0.0977
 20
9.5284
 30
0.003
 70
192
 0
VERTEX
 8
FULGOR
 10
0.0465
 20
9.5185
 30
0.003
 70
192
 0
VERTEX
 8
FULGOR
 10
-0.0038
 20
9.5041
 30
0.003
 70
192
 0
VERTEX
 8
FULGOR
 10
-0.1891
 20
9.3569
 30
0.003
 70
192
 0
VERTEX
 8
FULGOR
 10
-0.1932
 20
9.344
 30
0.003
 70
192
 0
VERTEX
 8
FULGOR
 10
-0.0492
 20
9.4865
 30
0.003
 70
192
 0
VERTEX
 8
FULGOR
 10
-0.0725
 20
9.4754
 30
0.003
 70
192
 0
VERTEX
 8
FULGOR
 10
-0.1641
 20
9.4022
 30
0.003
 70
192
 0
VERTEX
 8
FULGOR
 10
-0.1971
 20
9.2912
 30
0.003
 70
192
 0
VERTEX
 8
FULGOR
 10
-0.1738
 20
9.3883
 30
0.003
 70
192
 0
VERTEX
 8
FULGOR
 10
-0.1822
 20
9.3732
 30
0.003
 70
192
 0
VERTEX
 8
FULGOR
 10
-0.196
 20
9.3303
 30
0.003
 70
192
 0
VERTEX
 8
FULGOR
 10
-0.1973
 20
9.3209
 30
0.003
 70
192
 0
VERTEX
 8
FULGOR
 10
-0.198
 20
9.3061
 30
0.003
 70
192
 0
VERTEX
 8
FULGOR
 10
-0.1945
 20
9.2766
 30
0.003
 70
192
 0
VERTEX
 8
FULGOR
 10
-0.1357
 20
9.1866
 30
0.003
 70
192
 0
VERTEX
 8
FULGOR
 10
-0.1136
 20
9.1687
 30
0.003
 70
192
 0
VERTEX
 8
FULGOR
 10
-0.1902
 20
9.2625
 30
0.003
 70
192
 0
VERTEX
 8
FULGOR
 10
-0.0522
 20
9.1328
 30
0.003
 70
192
 0
VERTEX
 8
FULGOR
 10
-0.0186
 20
9.1189
 30
0.003
 70
192
 0
VERTEX
 8
FULGOR
 10
-0.1844
 20
9.2487
 30
0.003
 70
192
 0
VERTEX
 8
FULGOR
 10
-0.1772
 20
9.2353
 30
0.003
 70
192
 0
VERTEX
 8
FULGOR
 10
0.1395
 20
9.0864
 30
0.003
 70
192
 0
VERTEX
 8
FULGOR
 10
0.1831
 20
9.0843
 30
0.003
 70
192
 0
VERTEX
 8
FULGOR
 10
0.2189
 20
9.0845
 30
0.003
 70
192
 0
VERTEX
 8
FULGOR
 10
0.2756
 20
9.0878
 30
0.003
 70
192
 0
VERTEX
 8
FULGOR
 10
-0.1654
 20
9.2182
 30
0.003
 70
192
 0
VERTEX
 8
FULGOR
 10
-0.1515
 20
9.2019
 30
0.003
 70
192
 0
VERTEX
 8
FULGOR
 10
-0.0841
 20
9.1495
 30
0.003
 70
192
 0
VERTEX
 8
FULGOR
 10
0.3347
 20
9.318
 30
0.003
 70
192
 0
VERTEX
 8
FULGOR
 10
0.0271
 20
9.1047
 30
0.003
 70
192
 0
VERTEX
 8
FULGOR
 10
0.0775
 20
9.094
 30
0.003
 70
192
 0
VERTEX
 8
FULGOR
 10
0.346
 20
9.097
 30
0.003
 70
192
 0
VERTEX
 8
FULGOR
 10
0.4952
 20
9.1256
 30
0.003
 70
192
 0
VERTEX
 8
FULGOR
 10
0.178
 20
9.1767
 30
0.003
 70
192
 0
VERTEX
 8
FULGOR
 10
0.1473
 20
9.1791
 30
0.003
 70
192
 0
VERTEX
 8
FULGOR
 10
0.4952
 20
9.318
 30
0.003
 70
192
 0
VERTEX
 8
FULGOR
 10
0.0899
 20
9.192
 30
0.003
 70
192
 0
VERTEX
 8
FULGOR
 10
0.069
 20
9.2
 30
0.003
 70
192
 0
VERTEX
 8
FULGOR
 10
0.3346
 20
9.1861
 30
0.003
 70
192
 0
VERTEX
 8
FULGOR
 10
0.3164
 20
9.1828
 30
0.003
 70
192
 0
VERTEX
 8
FULGOR
 10
0.0208
 20
9.2305
 30
0.003
 70
192
 0
VERTEX
 8
FULGOR
 10
0.2661
 20
9.1777
 30
0.003
 70
192
 0
VERTEX
 8
FULGOR
 10
0.229
 20
9.1762
 30
0.003
 70
192
 0
VERTEX
 8
FULGOR
 10
0.1178
 20
9.1842
 30
0.003
 70
192
 0
VERTEX
 8
FULGOR
 10
0.0498
 20
9.2097
 30
0.003
 70
192
 0
VERTEX
 8
FULGOR
 10
-0.0146
 20
9.2865
 30
0.003
 70
192
 0
VERTEX
 8
FULGOR
 10
-0.0168
 20
9.296
 30
0.003
 70
192
 0
VERTEX
 8
FULGOR
 10
-0.0181
 20
9.3059
 30
0.003
 70
192
 0
VERTEX
 8
FULGOR
 10
-0.0185
 20
9.3161
 30
0.003
 70
192
 0
VERTEX
 8
FULGOR
 10
-0.0179
 20
9.3263
 30
0.003
 70
192
 0
VERTEX
 8
FULGOR
 10
0.0325
 20
9.221
 30
0.003
 70
192
 0
VERTEX
 8
FULGOR
 10
0.0105
 20
9.2409
 30
0.003
 70
192
 0
VERTEX
 8
FULGOR
 10
0.0015
 20
9.2522
 30
0.003
 70
192
 0
VERTEX
 8
FULGOR
 10
-0.0052
 20
9.3626
 30
0.003
 70
192
 0
VERTEX
 8
FULGOR
 10
0.0002
 20
9.3705
 30
0.003
 70
192
 0
VERTEX
 8
FULGOR
 10
0.0065
 20
9.378
 30
0.003
 70
192
 0
VERTEX
 8
FULGOR
 10
-0.0059
 20
9.2644
 30
0.003
 70
192
 0
VERTEX
 8
FULGOR
 10
0.0292
 20
9.3978
 30
0.003
 70
192
 0
VERTEX
 8
FULGOR
 10
0.0424
 20
9.4063
 30
0.003
 70
192
 0
VERTEX
 8
FULGOR
 10
-0.0117
 20
9.2774
 30
0.003
 70
192
 0
VERTEX
 8
FULGOR
 10
0.087
 20
9.4261
 30
0.003
 70
192
 0
VERTEX
 8
FULGOR
 10
0.1132
 20
9.4335
 30
0.003
 70
192
 0
VERTEX
 8
FULGOR
 10
-0.0162
 20
9.3361
 30
0.003
 70
192
 0
VERTEX
 8
FULGOR
 10
0.1593
 20
9.4407
 30
0.003
 70
192
 0
VERTEX
 8
FULGOR
 10
-0.0135
 20
9.3454
 30
0.003
 70
192
 0
VERTEX
 8
FULGOR
 10
0.2718
 20
9.437
 30
0.003
 70
192
 0
VERTEX
 8
FULGOR
 10
-0.0098
 20
9.3542
 30
0.003
 70
192
 0
VERTEX
 8
FULGOR
 10
0.4952
 20
9.397
 30
0.003
 70
192
 0
VERTEX
 8
FULGOR
 10
0.6371
 20
9.3094
 30
0.003
 70
192
 0
VERTEX
 8
FULGOR
 10
0.6383
 20
9.2893
 30
0.003
 70
192
 0
VERTEX
 8
FULGOR
 10
0.0171
 20
9.3884
 30
0.003
 70
192
 0
VERTEX
 8
FULGOR
 10
0.0615
 20
9.4161
 30
0.003
 70
192
 0
VERTEX
 8
FULGOR
 10
0.6549
 20
9.2358
 30
0.003
 70
192
 0
VERTEX
 8
FULGOR
 10
0.6644
 20
9.2201
 30
0.003
 70
192
 0
VERTEX
 8
FULGOR
 10
0.6755
 20
9.2054
 30
0.003
 70
192
 0
VERTEX
 8
FULGOR
 10
0.6883
 20
9.1917
 30
0.003
 70
192
 0
VERTEX
 8
FULGOR
 10
0.7101
 20
9.173
 30
0.003
 70
192
 0
VERTEX
 8
FULGOR
 10
0.1444
 20
9.4392
 30
0.003
 70
192
 0
VERTEX
 8
FULGOR
 10
0.178
 20
9.4415
 30
0.003
 70
192
 0
VERTEX
 8
FULGOR
 10
0.3589
 20
9.4246
 30
0.003
 70
192
 0
VERTEX
 8
FULGOR
 10
0.6418
 20
9.2704
 30
0.003
 70
192
 0
VERTEX
 8
FULGOR
 10
0.6474
 20
9.2526
 30
0.003
 70
192
 0
VERTEX
 8
FULGOR
 10
0.9806
 20
9.0878
 30
0.003
 70
192
 0
VERTEX
 8
FULGOR
 10
1.0391
 20
9.0854
 30
0.003
 70
192
 0
VERTEX
 8
FULGOR
 10
0.7348
 20
9.1563
 30
0.003
 70
192
 0
VERTEX
 8
FULGOR
 10
1.1823
 20
9.0992
 30
0.003
 70
192
 0
VERTEX
 8
FULGOR
 10
0.7618
 20
9.1417
 30
0.003
 70
192
 0
VERTEX
 8
FULGOR
 10
0.8009
 20
9.1251
 30
0.003
 70
192
 0
VERTEX
 8
FULGOR
 10
0.8529
 20
9.1088
 30
0.003
 70
192
 0
VERTEX
 8
FULGOR
 10
0.9174
 20
9.0954
 30
0.003
 70
192
 0
VERTEX
 8
FULGOR
 10
1.1079
 20
9.0887
 30
0.003
 70
192
 0
VERTEX
 8
FULGOR
 10
1.3963
 20
9.1985
 30
0.003
 70
192
 0
VERTEX
 8
FULGOR
 10
1.2463
 20
9.1148
 30
0.003
 70
192
 0
VERTEX
 8
FULGOR
 10
1.2971
 20
9.133
 30
0.003
 70
192
 0
VERTEX
 8
FULGOR
 10
1.3345
 20
9.1513
 30
0.003
 70
192
 0
VERTEX
 8
FULGOR
 10
1.36
 20
9.1672
 30
0.003
 70
192
 0
VERTEX
 8
FULGOR
 10
1.3828
 20
9.1853
 30
0.003
 70
192
 0
VERTEX
 8
FULGOR
 10
1.4397
 20
9.2892
 30
0.003
 70
192
 0
VERTEX
 8
FULGOR
 10
1.441
 20
9.3092
 30
0.003
 70
192
 0
VERTEX
 8
FULGOR
 10
1.4398
 20
9.3292
 30
0.003
 70
192
 0
VERTEX
 8
FULGOR
 10
1.4364
 20
9.3481
 30
0.003
 70
192
 0
VERTEX
 8
FULGOR
 10
1.4083
 20
9.2126
 30
0.003
 70
192
 0
VERTEX
 8
FULGOR
 10
1.4186
 20
9.2278
 30
0.003
 70
192
 0
VERTEX
 8
FULGOR
 10
1.4272
 20
9.244
 30
0.003
 70
192
 0
VERTEX
 8
FULGOR
 10
1.4028
 20
9.413
 30
0.003
 70
192
 0
VERTEX
 8
FULGOR
 10
1.39
 20
9.4267
 30
0.003
 70
192
 0
VERTEX
 8
FULGOR
 10
1.3682
 20
9.4455
 30
0.003
 70
192
 0
VERTEX
 8
FULGOR
 10
1.3435
 20
9.4622
 30
0.003
 70
192
 0
VERTEX
 8
FULGOR
 10
1.3164
 20
9.4768
 30
0.003
 70
192
 0
VERTEX
 8
FULGOR
 10
1.2774
 20
9.4934
 30
0.003
 70
192
 0
VERTEX
 8
FULGOR
 10
1.4338
 20
9.2613
 30
0.003
 70
192
 0
VERTEX
 8
FULGOR
 10
1.4383
 20
9.2796
 30
0.003
 70
192
 0
VERTEX
 8
FULGOR
 10
1.4309
 20
9.3659
 30
0.003
 70
192
 0
VERTEX
 8
FULGOR
 10
1.4233
 20
9.3827
 30
0.003
 70
192
 0
VERTEX
 8
FULGOR
 10
0.9703
 20
9.5301
 30
0.003
 70
192
 0
VERTEX
 8
FULGOR
 10
1.4139
 20
9.3984
 30
0.003
 70
192
 0
VERTEX
 8
FULGOR
 10
1.2253
 20
9.5098
 30
0.003
 70
192
 0
VERTEX
 8
FULGOR
 10
1.1608
 20
9.5233
 30
0.003
 70
192
 0
VERTEX
 8
FULGOR
 10
1.0976
 20
9.5309
 30
0.003
 70
192
 0
VERTEX
 8
FULGOR
 10
0.7179
 20
9.4515
 30
0.003
 70
192
 0
VERTEX
 8
FULGOR
 10
0.6951
 20
9.4335
 30
0.003
 70
192
 0
VERTEX
 8
FULGOR
 10
0.6816
 20
9.4203
 30
0.003
 70
192
 0
VERTEX
 8
FULGOR
 10
0.6696
 20
9.4061
 30
0.003
 70
192
 0
VERTEX
 8
FULGOR
 10
0.6593
 20
9.3909
 30
0.003
 70
192
 0
VERTEX
 8
FULGOR
 10
0.6508
 20
9.3746
 30
0.003
 70
192
 0
VERTEX
 8
FULGOR
 10
0.6442
 20
9.3574
 30
0.003
 70
192
 0
VERTEX
 8
FULGOR
 10
1.0391
 20
9.5333
 30
0.003
 70
192
 0
VERTEX
 8
FULGOR
 10
0.6383
 20
9.3294
 30
0.003
 70
192
 0
VERTEX
 8
FULGOR
 10
0.8177
 20
9.3092
 30
0.003
 70
192
 0
VERTEX
 8
FULGOR
 10
0.8182
 20
9.2984
 30
0.003
 70
192
 0
VERTEX
 8
FULGOR
 10
0.8958
 20
9.5195
 30
0.003
 70
192
 0
VERTEX
 8
FULGOR
 10
0.8317
 20
9.5039
 30
0.003
 70
192
 0
VERTEX
 8
FULGOR
 10
0.7809
 20
9.4857
 30
0.003
 70
192
 0
VERTEX
 8
FULGOR
 10
0.7434
 20
9.4675
 30
0.003
 70
192
 0
VERTEX
 8
FULGOR
 10
0.6397
 20
9.339
 30
0.003
 70
192
 0
VERTEX
 8
FULGOR
 10
0.8399
 20
9.2436
 30
0.003
 70
192
 0
VERTEX
 8
FULGOR
 10
0.8463
 20
9.2362
 30
0.003
 70
192
 0
VERTEX
 8
FULGOR
 10
0.8196
 20
9.288
 30
0.003
 70
192
 0
VERTEX
 8
FULGOR
 10
0.822
 20
9.2782
 30
0.003
 70
192
 0
VERTEX
 8
FULGOR
 10
0.8252
 20
9.2688
 30
0.003
 70
192
 0
VERTEX
 8
FULGOR
 10
0.8293
 20
9.2599
 30
0.003
 70
192
 0
VERTEX
 8
FULGOR
 10
0.9267
 20
9.1912
 30
0.003
 70
192
 0
VERTEX
 8
FULGOR
 10
0.9574
 20
9.1839
 30
0.003
 70
192
 0
VERTEX
 8
FULGOR
 10
0.8342
 20
9.2515
 30
0.003
 70
192
 0
VERTEX
 8
FULGOR
 10
1.0391
 20
9.1769
 30
0.003
 70
192
 0
VERTEX
 8
FULGOR
 10
1.0879
 20
9.1793
 30
0.003
 70
192
 0
VERTEX
 8
FULGOR
 10
0.8573
 20
9.2259
 30
0.003
 70
192
 0
VERTEX
 8
FULGOR
 10
1.1573
 20
9.193
 30
0.003
 70
192
 0
VERTEX
 8
FULGOR
 10
1.1794
 20
9.2011
 30
0.003
 70
192
 0
VERTEX
 8
FULGOR
 10
1.1993
 20
9.211
 30
0.003
 70
192
 0
VERTEX
 8
FULGOR
 10
0.8698
 20
9.2166
 30
0.003
 70
192
 0
VERTEX
 8
FULGOR
 10
1.2248
 20
9.2292
 30
0.003
 70
192
 0
VERTEX
 8
FULGOR
 10
0.8837
 20
9.2083
 30
0.003
 70
192
 0
VERTEX
 8
FULGOR
 10
0.9042
 20
9.1989
 30
0.003
 70
192
 0
VERTEX
 8
FULGOR
 10
1.2466
 20
9.2557
 30
0.003
 70
192
 0
VERTEX
 8
FULGOR
 10
0.997
 20
9.1786
 30
0.003
 70
192
 0
VERTEX
 8
FULGOR
 10
1.1272
 20
9.1852
 30
0.003
 70
192
 0
VERTEX
 8
FULGOR
 10
1.2128
 20
9.2196
 30
0.003
 70
192
 0
VERTEX
 8
FULGOR
 10
1.2595
 20
9.2932
 30
0.003
 70
192
 0
VERTEX
 8
FULGOR
 10
1.2601
 20
9.2984
 30
0.003
 70
192
 0
VERTEX
 8
FULGOR
 10
1.2606
 20
9.3092
 30
0.003
 70
192
 0
VERTEX
 8
FULGOR
 10
1.2601
 20
9.3201
 30
0.003
 70
192
 0
VERTEX
 8
FULGOR
 10
1.2353
 20
9.2399
 30
0.003
 70
192
 0
VERTEX
 8
FULGOR
 10
1.2413
 20
9.2476
 30
0.003
 70
192
 0
VERTEX
 8
FULGOR
 10
1.2531
 20
9.3496
 30
0.003
 70
192
 0
VERTEX
 8
FULGOR
 10
1.249
 20
9.3584
 30
0.003
 70
192
 0
VERTEX
 8
FULGOR
 10
1.2511
 20
9.2644
 30
0.003
 70
192
 0
VERTEX
 8
FULGOR
 10
1.2548
 20
9.2735
 30
0.003
 70
192
 0
VERTEX
 8
FULGOR
 10
1.2319
 20
9.3821
 30
0.003
 70
192
 0
VERTEX
 8
FULGOR
 10
1.2576
 20
9.2831
 30
0.003
 70
192
 0
VERTEX
 8
FULGOR
 10
1.2586
 20
9.3304
 30
0.003
 70
192
 0
VERTEX
 8
FULGOR
 10
1.1945
 20
9.4098
 30
0.003
 70
192
 0
VERTEX
 8
FULGOR
 10
1.174
 20
9.4193
 30
0.003
 70
192
 0
VERTEX
 8
FULGOR
 10
1.2563
 20
9.3402
 30
0.003
 70
192
 0
VERTEX
 8
FULGOR
 10
1.2441
 20
9.3668
 30
0.003
 70
192
 0
VERTEX
 8
FULGOR
 10
1.2384
 20
9.3747
 30
0.003
 70
192
 0
VERTEX
 8
FULGOR
 10
1.2209
 20
9.3924
 30
0.003
 70
192
 0
VERTEX
 8
FULGOR
 10
0.9903
 20
9.4388
 30
0.003
 70
192
 0
VERTEX
 8
FULGOR
 10
0.9511
 20
9.4329
 30
0.003
 70
192
 0
VERTEX
 8
FULGOR
 10
0.921
 20
9.4252
 30
0.003
 70
192
 0
VERTEX
 8
FULGOR
 10
1.2084
 20
9.4016
 30
0.003
 70
192
 0
VERTEX
 8
FULGOR
 10
1.1514
 20
9.4269
 30
0.003
 70
192
 0
VERTEX
 8
FULGOR
 10
1.1208
 20
9.4342
 30
0.003
 70
192
 0
VERTEX
 8
FULGOR
 10
1.0811
 20
9.4394
 30
0.003
 70
192
 0
VERTEX
 8
FULGOR
 10
1.0391
 20
9.4412
 30
0.003
 70
192
 0
VERTEX
 8
FULGOR
 10
0.8989
 20
9.4171
 30
0.003
 70
192
 0
VERTEX
 8
FULGOR
 10
0.879
 20
9.4073
 30
0.003
 70
192
 0
VERTEX
 8
FULGOR
 10
0.8655
 20
9.3987
 30
0.003
 70
192
 0
VERTEX
 8
FULGOR
 10
0.8535
 20
9.3892
 30
0.003
 70
192
 0
VERTEX
 8
FULGOR
 10
0.843
 20
9.3785
 30
0.003
 70
192
 0
VERTEX
 8
FULGOR
 10
0.8369
 20
9.3709
 30
0.003
 70
192
 0
VERTEX
 8
FULGOR
 10
0.8316
 20
9.3627
 30
0.003
 70
192
 0
VERTEX
 8
FULGOR
 10
0.8271
 20
9.3541
 30
0.003
 70
192
 0
VERTEX
 8
FULGOR
 10
0.8235
 20
9.345
 30
0.003
 70
192
 0
VERTEX
 8
FULGOR
 10
0.8207
 20
9.3354
 30
0.003
 70
192
 0
VERTEX
 8
FULGOR
 10
1.8076
 20
9.2746
 30
0.003
 70
192
 0
VERTEX
 8
FULGOR
 10
0.8188
 20
9.3253
 30
0.003
 70
192
 0
VERTEX
 8
FULGOR
 10
0.8182
 20
9.3201
 30
0.003
 70
192
 0
VERTEX
 8
FULGOR
 10
1.5828
 20
9.0841
 30
0.003
 70
192
 0
VERTEX
 8
FULGOR
 10
1.7226
 20
9.0841
 30
0.003
 70
192
 0
VERTEX
 8
FULGOR
 10
1.7226
 20
9.2746
 30
0.003
 70
192
 0
VERTEX
 8
FULGOR
 10
1.9063
 20
9.2294
 30
0.003
 70
192
 0
VERTEX
 8
FULGOR
 10
1.9171
 20
9.2179
 30
0.003
 70
192
 0
VERTEX
 8
FULGOR
 10
2.0152
 20
9.0841
 30
0.003
 70
192
 0
VERTEX
 8
FULGOR
 10
2.2646
 20
9.0841
 30
0.003
 70
192
 0
VERTEX
 8
FULGOR
 10
2.2311
 20
9.1015
 30
0.003
 70
192
 0
VERTEX
 8
FULGOR
 10
1.8538
 20
9.2653
 30
0.003
 70
192
 0
VERTEX
 8
FULGOR
 10
1.8653
 20
9.2599
 30
0.003
 70
192
 0
VERTEX
 8
FULGOR
 10
2.1825
 20
9.1349
 30
0.003
 70
192
 0
VERTEX
 8
FULGOR
 10
2.1461
 20
9.1687
 30
0.003
 70
192
 0
VERTEX
 8
FULGOR
 10
1.5828
 20
9.3545
 30
0.003
 70
192
 0
VERTEX
 8
FULGOR
 10
2.0999
 20
9.2308
 30
0.003
 70
192
 0
VERTEX
 8
FULGOR
 10
2.0774
 20
9.2561
 30
0.003
 70
192
 0
VERTEX
 8
FULGOR
 10
2.056
 20
9.2742
 30
0.003
 70
192
 0
VERTEX
 8
FULGOR
 10
1.8925
 20
9.2418
 30
0.003
 70
192
 0
VERTEX
 8
FULGOR
 10
1.1461
 20
9.0941
 30
0.003
 70
192
 0
VERTEX
 8
FULGOR
 10
2.0048
 20
9.3017
 30
0.003
 70
192
 0
VERTEX
 8
FULGOR
 10
2.2029
 20
9.1191
 30
0.003
 70
192
 0
VERTEX
 8
FULGOR
 10
2.0725
 20
9.33
 30
0.003
 70
192
 0
VERTEX
 8
FULGOR
 10
2.0355
 20
9.2876
 30
0.003
 70
192
 0
VERTEX
 8
FULGOR
 10
2.0963
 20
9.3494
 30
0.003
 70
192
 0
VERTEX
 8
FULGOR
 10
2.0197
 20
9.2959
 30
0.003
 70
192
 0
VERTEX
 8
FULGOR
 10
2.1188
 20
9.384
 30
0.003
 70
192
 0
VERTEX
 8
FULGOR
 10
2.1238
 20
9.4032
 30
0.003
 70
192
 0
VERTEX
 8
FULGOR
 10
2.0373
 20
9.3119
 30
0.003
 70
192
 0
VERTEX
 8
FULGOR
 10
2.1217
 20
9.4404
 30
0.003
 70
192
 0
VERTEX
 8
FULGOR
 10
2.1134
 20
9.4588
 30
0.003
 70
192
 0
VERTEX
 8
FULGOR
 10
2.1006
 20
9.4748
 30
0.003
 70
192
 0
VERTEX
 8
FULGOR
 10
2.0794
 20
9.4916
 30
0.003
 70
192
 0
VERTEX
 8
FULGOR
 10
2.1104
 20
9.3672
 30
0.003
 70
192
 0
VERTEX
 8
FULGOR
 10
1.977
 20
9.5272
 30
0.003
 70
192
 0
VERTEX
 8
FULGOR
 10
1.936
 20
9.5326
 30
0.003
 70
192
 0
VERTEX
 8
FULGOR
 10
2.1248
 20
9.4193
 30
0.003
 70
192
 0
VERTEX
 8
FULGOR
 10
1.7226
 20
9.4544
 30
0.003
 70
192
 0
VERTEX
 8
FULGOR
 10
2.0427
 20
9.5097
 30
0.003
 70
192
 0
VERTEX
 8
FULGOR
 10
1.8959
 20
9.5346
 30
0.003
 70
192
 0
VERTEX
 8
FULGOR
 10
1.5828
 20
9.5346
 30
0.003
 70
192
 0
VERTEX
 8
FULGOR
 10
1.7226
 20
9.3548
 30
0.003
 70
192
 0
VERTEX
 8
FULGOR
 10
1.85
 20
9.3546
 30
0.003
 70
192
 0
VERTEX
 8
FULGOR
 10
1.8863
 20
9.3576
 30
0.003
 70
192
 0
VERTEX
 8
FULGOR
 10
1.9273
 20
9.3722
 30
0.003
 70
192
 0
VERTEX
 8
FULGOR
 10
1.9363
 20
9.3795
 30
0.003
 70
192
 0
VERTEX
 8
FULGOR
 10
1.9418
 20
9.3865
 30
0.003
 70
192
 0
VERTEX
 8
FULGOR
 10
1.9468
 20
9.4111
 30
0.003
 70
192
 0
VERTEX
 8
FULGOR
 10
1.9445
 20
9.4198
 30
0.003
 70
192
 0
VERTEX
 8
FULGOR
 10
1.8788
 20
9.4529
 30
0.003
 70
192
 0
VERTEX
 8
FULGOR
 10
1.9243
 20
9.4403
 30
0.003
 70
192
 0
VERTEX
 8
FULGOR
 10
1.8629
 20
9.4542
 30
0.003
 70
192
 0
VERTEX
 8
FULGOR
 10
1.908
 20
9.4471
 30
0.003
 70
192
 0
VERTEX
 8
FULGOR
 10
1.895
 20
9.4504
 30
0.003
 70
192
 0
VERTEX
 8
FULGOR
 10
0.8847
 20
9.1022
 30
0.003
 70
192
 0
VERTEX
 8
FULGOR
 10
0.8296
 20
9.1161
 30
0.003
 70
192
 0
VERTEX
 8
FULGOR
 10
1.8458
 20
9.4544
 30
0.003
 70
192
 0
VERTEX
 8
FULGOR
 10
1.8429
 20
9.5346
 30
0.003
 70
192
 0
VERTEX
 8
FULGOR
 10
1.9397
 20
9.4274
 30
0.003
 70
192
 0
VERTEX
 8
FULGOR
 10
1.9337
 20
9.4338
 30
0.003
 70
192
 0
VERTEX
 8
FULGOR
 10
1.9471
 20
9.4025
 30
0.003
 70
192
 0
VERTEX
 8
FULGOR
 10
1.9455
 20
9.3944
 30
0.003
 70
192
 0
VERTEX
 8
FULGOR
 10
1.8075
 20
9.3546
 30
0.003
 70
192
 0
VERTEX
 8
FULGOR
 10
2.0101
 20
9.0911
 30
0.003
 70
192
 0
VERTEX
 8
FULGOR
 10
2.003
 20
9.101
 30
0.003
 70
192
 0
VERTEX
 8
FULGOR
 10
0.1321
 20
9.1818
 30
0.003
 70
192
 0
VERTEX
 8
FULGOR
 10
1.9901
 20
9.1186
 30
0.003
 70
192
 0
VERTEX
 8
FULGOR
 10
1.9782
 20
9.135
 30
0.003
 70
192
 0
VERTEX
 8
FULGOR
 10
0.1621
 20
9.178
 30
0.003
 70
192
 0
VERTEX
 8
FULGOR
 10
1.5828
 20
9.2744
 30
0.003
 70
192
 0
VERTEX
 8
FULGOR
 10
1.9462
 20
9.1791
 30
0.003
 70
192
 0
VERTEX
 8
FULGOR
 10
1.9342
 20
9.1956
 30
0.003
 70
192
 0
VERTEX
 8
FULGOR
 10
0
 20
0
 30
0
 70
128
 71
244
 72
245
 73
188
 74
3
 0
VERTEX
 8
FULGOR
 10
0
 20
0
 30
0
 70
128
 71
137
 72
135
 73
127
 74
120
 0
VERTEX
 8
FULGOR
 10
0
 20
0
 30
0
 70
128
 71
287
 72
288
 73
220
 74
219
 0
VERTEX
 8
FULGOR
 10
0
 20
0
 30
0
 70
128
 71
135
 72
134
 73
128
 74
127
 0
VERTEX
 8
FULGOR
 10
0
 20
0
 30
0
 70
128
 71
145
 72
144
 73
106
 74
99
 0
VERTEX
 8
FULGOR
 10
0
 20
0
 30
0
 70
128
 71
152
 72
148
 73
115
 74
112
 0
VERTEX
 8
FULGOR
 10
0
 20
0
 30
0
 70
128
 71
288
 72
289
 73
221
 74
220
 0
VERTEX
 8
FULGOR
 10
0
 20
0
 30
0
 70
128
 71
155
 72
152
 73
112
 74
109
 0
VERTEX
 8
FULGOR
 10
0
 20
0
 30
0
 70
128
 71
141
 72
155
 73
109
 74
103
 0
VERTEX
 8
FULGOR
 10
0
 20
0
 30
0
 70
128
 71
289
 72
290
 73
230
 74
221
 0
VERTEX
 8
FULGOR
 10
0
 20
0
 30
0
 70
128
 71
290
 72
292
 73
223
 74
230
 0
VERTEX
 8
FULGOR
 10
0
 20
0
 30
0
 70
128
 71
142
 72
141
 73
103
 74
108
 0
VERTEX
 8
FULGOR
 10
0
 20
0
 30
0
 70
128
 71
143
 72
142
 73
108
 74
107
 0
VERTEX
 8
FULGOR
 10
0
 20
0
 30
0
 70
128
 71
144
 72
143
 73
107
 74
106
 0
VERTEX
 8
FULGOR
 10
0
 20
0
 30
0
 70
128
 71
254
 72
255
 73
207
 74
206
 0
VERTEX
 8
FULGOR
 10
0
 20
0
 30
0
 70
128
 71
265
 72
254
 73
206
 74
199
 0
VERTEX
 8
FULGOR
 10
0
 20
0
 30
0
 70
128
 71
263
 72
265
 73
199
 74
198
 0
VERTEX
 8
FULGOR
 10
0
 20
0
 30
0
 70
128
 71
251
 72
240
 73
179
 74
178
 0
VERTEX
 8
FULGOR
 10
0
 20
0
 30
0
 70
128
 71
5
 72
8
 73
7
 74
6
 0
VERTEX
 8
FULGOR
 10
0
 20
0
 30
0
 70
128
 71
8
 72
5
 73
4
 74
4
 0
VERTEX
 8
FULGOR
 10
0
 20
0
 30
0
 70
128
 71
8
 72
4
 73
13
 74
2
 0
VERTEX
 8
FULGOR
 10
0
 20
0
 30
0
 70
128
 71
237
 72
238
 73
185
 74
346
 0
VERTEX
 8
FULGOR
 10
0
 20
0
 30
0
 70
128
 71
339
 72
340
 73
321
 74
328
 0
VERTEX
 8
FULGOR
 10
0
 20
0
 30
0
 70
128
 71
161
 72
174
 73
84
 74
89
 0
VERTEX
 8
FULGOR
 10
0
 20
0
 30
0
 70
128
 71
174
 72
159
 73
90
 74
84
 0
VERTEX
 8
FULGOR
 10
0
 20
0
 30
0
 70
128
 71
249
 72
237
 73
346
 74
184
 0
VERTEX
 8
FULGOR
 10
0
 20
0
 30
0
 70
128
 71
248
 72
249
 73
184
 74
347
 0
VERTEX
 8
FULGOR
 10
0
 20
0
 30
0
 70
128
 71
159
 72
173
 73
95
 74
90
 0
VERTEX
 8
FULGOR
 10
0
 20
0
 30
0
 70
128
 71
173
 72
157
 73
96
 74
95
 0
VERTEX
 8
FULGOR
 10
0
 20
0
 30
0
 70
128
 71
246
 72
248
 73
347
 74
183
 0
VERTEX
 8
FULGOR
 10
0
 20
0
 30
0
 70
128
 71
362
 72
307
 73
305
 74
359
 0
VERTEX
 8
FULGOR
 10
0
 20
0
 30
0
 70
128
 71
151
 72
150
 73
94
 74
93
 0
VERTEX
 8
FULGOR
 10
0
 20
0
 30
0
 70
128
 71
353
 72
352
 73
319
 74
318
 0
VERTEX
 8
FULGOR
 10
0
 20
0
 30
0
 70
128
 71
175
 72
161
 73
89
 74
88
 0
VERTEX
 8
FULGOR
 10
0
 20
0
 30
0
 70
128
 71
253
 72
247
 73
190
 74
189
 0
VERTEX
 8
FULGOR
 10
0
 20
0
 30
0
 70
128
 71
153
 72
166
 73
92
 74
91
 0
VERTEX
 8
FULGOR
 10
0
 20
0
 30
0
 70
128
 71
166
 72
151
 73
93
 74
92
 0
VERTEX
 8
FULGOR
 10
0
 20
0
 30
0
 70
128
 71
273
 72
274
 73
226
 74
210
 0
VERTEX
 8
FULGOR
 10
0
 20
0
 30
0
 70
128
 71
163
 72
175
 73
88
 74
81
 0
VERTEX
 8
FULGOR
 10
0
 20
0
 30
0
 70
128
 71
167
 72
154
 73
101
 74
100
 0
VERTEX
 8
FULGOR
 10
0
 20
0
 30
0
 70
128
 71
154
 72
153
 73
91
 74
101
 0
VERTEX
 8
FULGOR
 10
0
 20
0
 30
0
 70
128
 71
274
 72
275
 73
227
 74
226
 0
VERTEX
 8
FULGOR
 10
0
 20
0
 30
0
 70
128
 71
13
 72
12
 73
2
 74
2
 0
VERTEX
 8
FULGOR
 10
0
 20
0
 30
0
 70
128
 71
13
 72
4
 73
15
 74
14
 0
VERTEX
 8
FULGOR
 10
0
 20
0
 30
0
 70
128
 71
16
 72
74
 73
73
 74
9
 0
VERTEX
 8
FULGOR
 10
0
 20
0
 30
0
 70
128
 71
73
 72
72
 73
10
 74
9
 0
VERTEX
 8
FULGOR
 10
0
 20
0
 30
0
 70
128
 71
72
 72
82
 73
11
 74
10
 0
VERTEX
 8
FULGOR
 10
0
 20
0
 30
0
 70
128
 71
82
 72
70
 73
18
 74
17
 0
VERTEX
 8
FULGOR
 10
0
 20
0
 30
0
 70
128
 71
58
 72
57
 73
40
 74
39
 0
VERTEX
 8
FULGOR
 10
0
 20
0
 30
0
 70
128
 71
82
 72
17
 73
11
 74
11
 0
VERTEX
 8
FULGOR
 10
0
 20
0
 30
0
 70
128
 71
43
 72
58
 73
39
 74
38
 0
VERTEX
 8
FULGOR
 10
0
 20
0
 30
0
 70
128
 71
70
 72
69
 73
20
 74
19
 0
VERTEX
 8
FULGOR
 10
0
 20
0
 30
0
 70
128
 71
70
 72
19
 73
18
 74
18
 0
VERTEX
 8
FULGOR
 10
0
 20
0
 30
0
 70
128
 71
69
 72
68
 73
27
 74
20
 0
VERTEX
 8
FULGOR
 10
0
 20
0
 30
0
 70
128
 71
68
 72
67
 73
29
 74
27
 0
VERTEX
 8
FULGOR
 10
0
 20
0
 30
0
 70
128
 71
67
 72
66
 73
30
 74
29
 0
VERTEX
 8
FULGOR
 10
0
 20
0
 30
0
 70
128
 71
66
 72
78
 73
31
 74
30
 0
VERTEX
 8
FULGOR
 10
0
 20
0
 30
0
 70
128
 71
78
 72
77
 73
32
 74
31
 0
VERTEX
 8
FULGOR
 10
0
 20
0
 30
0
 70
128
 71
32
 72
77
 73
76
 74
21
 0
VERTEX
 8
FULGOR
 10
0
 20
0
 30
0
 70
128
 71
76
 72
62
 73
21
 74
21
 0
VERTEX
 8
FULGOR
 10
0
 20
0
 30
0
 70
128
 71
62
 72
61
 73
22
 74
21
 0
VERTEX
 8
FULGOR
 10
0
 20
0
 30
0
 70
128
 71
61
 72
75
 73
22
 74
22
 0
VERTEX
 8
FULGOR
 10
0
 20
0
 30
0
 70
128
 71
75
 72
59
 73
23
 74
22
 0
VERTEX
 8
FULGOR
 10
0
 20
0
 30
0
 70
128
 71
23
 72
59
 73
71
 74
24
 0
VERTEX
 8
FULGOR
 10
0
 20
0
 30
0
 70
128
 71
275
 72
281
 73
228
 74
227
 0
VERTEX
 8
FULGOR
 10
0
 20
0
 30
0
 70
128
 71
157
 72
156
 73
97
 74
96
 0
VERTEX
 8
FULGOR
 10
0
 20
0
 30
0
 70
128
 71
291
 72
296
 73
333
 74
354
 0
VERTEX
 8
FULGOR
 10
0
 20
0
 30
0
 70
128
 71
281
 72
282
 73
229
 74
228
 0
VERTEX
 8
FULGOR
 10
0
 20
0
 30
0
 70
128
 71
282
 72
283
 73
215
 74
229
 0
VERTEX
 8
FULGOR
 10
0
 20
0
 30
0
 70
128
 71
283
 72
284
 73
216
 74
215
 0
VERTEX
 8
FULGOR
 10
0
 20
0
 30
0
 70
128
 71
129
 72
1
 73
118
 74
117
 0
VERTEX
 8
FULGOR
 10
0
 20
0
 30
0
 70
128
 71
238
 72
251
 73
178
 74
185
 0
VERTEX
 8
FULGOR
 10
0
 20
0
 30
0
 70
128
 71
245
 72
253
 73
189
 74
188
 0
VERTEX
 8
FULGOR
 10
0
 20
0
 30
0
 70
128
 71
337
 72
338
 73
325
 74
316
 0
VERTEX
 8
FULGOR
 10
0
 20
0
 30
0
 70
128
 71
336
 72
337
 73
316
 74
314
 0
VERTEX
 8
FULGOR
 10
0
 20
0
 30
0
 70
128
 71
241
 72
252
 73
311
 74
186
 0
VERTEX
 8
FULGOR
 10
0
 20
0
 30
0
 70
128
 71
24
 72
71
 73
65
 74
25
 0
VERTEX
 8
FULGOR
 10
0
 20
0
 30
0
 70
128
 71
65
 72
64
 73
25
 74
25
 0
VERTEX
 8
FULGOR
 10
0
 20
0
 30
0
 70
128
 71
156
 72
167
 73
100
 74
97
 0
VERTEX
 8
FULGOR
 10
0
 20
0
 30
0
 70
128
 71
149
 72
162
 73
104
 74
102
 0
VERTEX
 8
FULGOR
 10
0
 20
0
 30
0
 70
128
 71
64
 72
63
 73
26
 74
25
 0
VERTEX
 8
FULGOR
 10
0
 20
0
 30
0
 70
128
 71
162
 72
160
 73
105
 74
104
 0
VERTEX
 8
FULGOR
 10
0
 20
0
 30
0
 70
128
 71
63
 72
60
 73
26
 74
26
 0
VERTEX
 8
FULGOR
 10
0
 20
0
 30
0
 70
128
 71
266
 72
269
 73
196
 74
195
 0
VERTEX
 8
FULGOR
 10
0
 20
0
 30
0
 70
128
 71
360
 72
129
 73
117
 74
126
 0
VERTEX
 8
FULGOR
 10
0
 20
0
 30
0
 70
128
 71
60
 72
53
 73
34
 74
26
 0
VERTEX
 8
FULGOR
 10
0
 20
0
 30
0
 70
128
 71
53
 72
52
 73
34
 74
34
 0
VERTEX
 8
FULGOR
 10
0
 20
0
 30
0
 70
128
 71
52
 72
51
 73
28
 74
34
 0
VERTEX
 8
FULGOR
 10
0
 20
0
 30
0
 70
128
 71
51
 72
50
 73
35
 74
28
 0
VERTEX
 8
FULGOR
 10
0
 20
0
 30
0
 70
128
 71
50
 72
49
 73
36
 74
35
 0
VERTEX
 8
FULGOR
 10
0
 20
0
 30
0
 70
128
 71
36
 72
49
 73
48
 74
37
 0
VERTEX
 8
FULGOR
 10
0
 20
0
 30
0
 70
128
 71
44
 72
43
 73
38
 74
56
 0
VERTEX
 8
FULGOR
 10
0
 20
0
 30
0
 70
128
 71
37
 72
48
 73
47
 74
41
 0
VERTEX
 8
FULGOR
 10
0
 20
0
 30
0
 70
128
 71
33
 72
47
 73
46
 74
42
 0
VERTEX
 8
FULGOR
 10
0
 20
0
 30
0
 70
128
 71
45
 72
55
 73
54
 74
54
 0
VERTEX
 8
FULGOR
 10
0
 20
0
 30
0
 70
128
 71
47
 72
33
 73
41
 74
41
 0
VERTEX
 8
FULGOR
 10
0
 20
0
 30
0
 70
128
 71
42
 72
46
 73
45
 74
54
 0
VERTEX
 8
FULGOR
 10
0
 20
0
 30
0
 70
128
 71
55
 72
45
 73
44
 74
56
 0
VERTEX
 8
FULGOR
 10
0
 20
0
 30
0
 70
128
 71
83
 72
80
 73
79
 74
85
 0
VERTEX
 8
FULGOR
 10
0
 20
0
 30
0
 70
128
 71
79
 72
87
 73
86
 74
85
 0
VERTEX
 8
FULGOR
 10
0
 20
0
 30
0
 70
128
 71
134
 72
124
 73
131
 74
128
 0
VERTEX
 8
FULGOR
 10
0
 20
0
 30
0
 70
128
 71
334
 72
335
 73
320
 74
312
 0
VERTEX
 8
FULGOR
 10
0
 20
0
 30
0
 70
128
 71
308
 72
307
 73
362
 74
363
 0
VERTEX
 8
FULGOR
 10
0
 20
0
 30
0
 70
128
 71
139
 72
357
 73
114
 74
113
 0
VERTEX
 8
FULGOR
 10
0
 20
0
 30
0
 70
128
 71
305
 72
304
 73
358
 74
359
 0
VERTEX
 8
FULGOR
 10
0
 20
0
 30
0
 70
128
 71
335
 72
336
 73
314
 74
320
 0
VERTEX
 8
FULGOR
 10
0
 20
0
 30
0
 70
128
 71
355
 72
356
 73
313
 74
301
 0
VERTEX
 8
FULGOR
 10
0
 20
0
 30
0
 70
128
 71
301
 72
300
 73
299
 74
355
 0
VERTEX
 8
FULGOR
 10
0
 20
0
 30
0
 70
128
 71
352
 72
339
 73
328
 74
319
 0
VERTEX
 8
FULGOR
 10
0
 20
0
 30
0
 70
128
 71
343
 72
348
 73
349
 74
331
 0
VERTEX
 8
FULGOR
 10
0
 20
0
 30
0
 70
128
 71
342
 72
344
 73
330
 74
324
 0
VERTEX
 8
FULGOR
 10
0
 20
0
 30
0
 70
128
 71
262
 72
263
 73
198
 74
197
 0
VERTEX
 8
FULGOR
 10
0
 20
0
 30
0
 70
128
 71
303
 72
312
 73
317
 74
310
 0
VERTEX
 8
FULGOR
 10
0
 20
0
 30
0
 70
128
 71
250
 72
262
 73
197
 74
187
 0
VERTEX
 8
FULGOR
 10
0
 20
0
 30
0
 70
128
 71
291
 72
354
 73
334
 74
302
 0
VERTEX
 8
FULGOR
 10
0
 20
0
 30
0
 70
128
 71
341
 72
343
 73
331
 74
327
 0
VERTEX
 8
FULGOR
 10
0
 20
0
 30
0
 70
128
 71
150
 72
149
 73
102
 74
94
 0
VERTEX
 8
FULGOR
 10
0
 20
0
 30
0
 70
128
 71
1
 72
138
 73
119
 74
118
 0
VERTEX
 8
FULGOR
 10
0
 20
0
 30
0
 70
128
 71
338
 72
353
 73
318
 74
325
 0
VERTEX
 8
FULGOR
 10
0
 20
0
 30
0
 70
128
 71
280
 72
273
 73
210
 74
222
 0
VERTEX
 8
FULGOR
 10
0
 20
0
 30
0
 70
128
 71
285
 72
286
 73
218
 74
217
 0
VERTEX
 8
FULGOR
 10
0
 20
0
 30
0
 70
128
 71
160
 72
158
 73
98
 74
105
 0
VERTEX
 8
FULGOR
 10
0
 20
0
 30
0
 70
128
 71
138
 72
137
 73
120
 74
119
 0
VERTEX
 8
FULGOR
 10
0
 20
0
 30
0
 70
128
 71
286
 72
287
 73
219
 74
218
 0
VERTEX
 8
FULGOR
 10
0
 20
0
 30
0
 70
128
 71
261
 72
270
 73
211
 74
209
 0
VERTEX
 8
FULGOR
 10
0
 20
0
 30
0
 70
128
 71
348
 72
329
 73
332
 74
349
 0
VERTEX
 8
FULGOR
 10
0
 20
0
 30
0
 70
128
 71
329
 72
333
 73
306
 74
332
 0
VERTEX
 8
FULGOR
 10
0
 20
0
 30
0
 70
128
 71
333
 72
296
 73
361
 74
306
 0
VERTEX
 8
FULGOR
 10
0
 20
0
 30
0
 70
128
 71
296
 72
295
 73
294
 74
361
 0
VERTEX
 8
FULGOR
 10
0
 20
0
 30
0
 70
128
 71
358
 72
304
 73
313
 74
356
 0
VERTEX
 8
FULGOR
 10
0
 20
0
 30
0
 70
128
 71
148
 72
147
 73
116
 74
115
 0
VERTEX
 8
FULGOR
 10
0
 20
0
 30
0
 70
128
 71
158
 72
145
 73
99
 74
98
 0
VERTEX
 8
FULGOR
 10
0
 20
0
 30
0
 70
128
 71
260
 72
261
 73
209
 74
208
 0
VERTEX
 8
FULGOR
 10
0
 20
0
 30
0
 70
128
 71
269
 72
260
 73
208
 74
196
 0
VERTEX
 8
FULGOR
 10
0
 20
0
 30
0
 70
128
 71
276
 72
267
 73
204
 74
203
 0
VERTEX
 8
FULGOR
 10
0
 20
0
 30
0
 70
128
 71
232
 72
242
 73
182
 74
180
 0
VERTEX
 8
FULGOR
 10
0
 20
0
 30
0
 70
128
 71
242
 72
246
 73
183
 74
182
 0
VERTEX
 8
FULGOR
 10
0
 20
0
 30
0
 70
128
 71
272
 72
276
 73
203
 74
202
 0
VERTEX
 8
FULGOR
 10
0
 20
0
 30
0
 70
128
 71
264
 72
272
 73
202
 74
201
 0
VERTEX
 8
FULGOR
 10
0
 20
0
 30
0
 70
128
 71
240
 72
241
 73
186
 74
179
 0
VERTEX
 8
FULGOR
 10
0
 20
0
 30
0
 70
128
 71
147
 72
136
 73
121
 74
116
 0
VERTEX
 8
FULGOR
 10
0
 20
0
 30
0
 70
128
 71
340
 72
350
 73
322
 74
321
 0
VERTEX
 8
FULGOR
 10
0
 20
0
 30
0
 70
128
 71
303
 72
302
 73
334
 74
312
 0
VERTEX
 8
FULGOR
 10
0
 20
0
 30
0
 70
128
 71
345
 72
341
 73
327
 74
326
 0
VERTEX
 8
FULGOR
 10
0
 20
0
 30
0
 70
128
 71
252
 72
243
 73
181
 74
311
 0
VERTEX
 8
FULGOR
 10
0
 20
0
 30
0
 70
128
 71
344
 72
345
 73
326
 74
330
 0
VERTEX
 8
FULGOR
 10
0
 20
0
 30
0
 70
128
 71
231
 72
232
 73
180
 74
172
 0
VERTEX
 8
FULGOR
 10
0
 20
0
 30
0
 70
128
 71
257
 72
266
 73
195
 74
194
 0
VERTEX
 8
FULGOR
 10
0
 20
0
 30
0
 70
128
 71
256
 72
257
 73
194
 74
193
 0
VERTEX
 8
FULGOR
 10
0
 20
0
 30
0
 70
128
 71
297
 72
310
 73
317
 74
315
 0
VERTEX
 8
FULGOR
 10
0
 20
0
 30
0
 70
128
 71
357
 72
130
 73
125
 74
114
 0
VERTEX
 8
FULGOR
 10
0
 20
0
 30
0
 70
128
 71
255
 72
256
 73
193
 74
207
 0
VERTEX
 8
FULGOR
 10
0
 20
0
 30
0
 70
128
 71
298
 72
297
 73
315
 74
309
 0
VERTEX
 8
FULGOR
 10
0
 20
0
 30
0
 70
128
 71
298
 72
309
 73
308
 74
363
 0
VERTEX
 8
FULGOR
 10
0
 20
0
 30
0
 70
128
 71
243
 72
244
 73
3
 74
181
 0
VERTEX
 8
FULGOR
 10
0
 20
0
 30
0
 70
128
 71
259
 72
250
 73
187
 74
192
 0
VERTEX
 8
FULGOR
 10
0
 20
0
 30
0
 70
128
 71
279
 72
280
 73
222
 74
214
 0
VERTEX
 8
FULGOR
 10
0
 20
0
 30
0
 70
128
 71
278
 72
279
 73
214
 74
213
 0
VERTEX
 8
FULGOR
 10
0
 20
0
 30
0
 70
128
 71
258
 72
259
 73
192
 74
191
 0
VERTEX
 8
FULGOR
 10
0
 20
0
 30
0
 70
128
 71
247
 72
258
 73
191
 74
190
 0
VERTEX
 8
FULGOR
 10
0
 20
0
 30
0
 70
128
 71
351
 72
342
 73
324
 74
323
 0
VERTEX
 8
FULGOR
 10
0
 20
0
 30
0
 70
128
 71
350
 72
351
 73
323
 74
322
 0
VERTEX
 8
FULGOR
 10
0
 20
0
 30
0
 70
128
 71
284
 72
285
 73
217
 74
216
 0
VERTEX
 8
FULGOR
 10
0
 20
0
 30
0
 70
128
 71
136
 72
146
 73
122
 74
121
 0
VERTEX
 8
FULGOR
 10
0
 20
0
 30
0
 70
128
 71
146
 72
140
 73
110
 74
122
 0
VERTEX
 8
FULGOR
 10
0
 20
0
 30
0
 70
128
 71
130
 72
360
 73
126
 74
125
 0
VERTEX
 8
FULGOR
 10
0
 20
0
 30
0
 70
128
 71
140
 72
133
 73
111
 74
110
 0
VERTEX
 8
FULGOR
 10
0
 20
0
 30
0
 70
128
 71
133
 72
132
 73
123
 74
111
 0
VERTEX
 8
FULGOR
 10
0
 20
0
 30
0
 70
128
 71
132
 72
139
 73
113
 74
123
 0
VERTEX
 8
FULGOR
 10
0
 20
0
 30
0
 70
128
 71
292
 72
293
 73
164
 74
223
 0
VERTEX
 8
FULGOR
 10
0
 20
0
 30
0
 70
128
 71
293
 72
224
 73
165
 74
164
 0
VERTEX
 8
FULGOR
 10
0
 20
0
 30
0
 70
128
 71
224
 72
225
 73
176
 74
165
 0
VERTEX
 8
FULGOR
 10
0
 20
0
 30
0
 70
128
 71
225
 72
233
 73
177
 74
176
 0
VERTEX
 8
FULGOR
 10
0
 20
0
 30
0
 70
128
 71
233
 72
234
 73
168
 74
177
 0
VERTEX
 8
FULGOR
 10
0
 20
0
 30
0
 70
128
 71
234
 72
235
 73
169
 74
168
 0
VERTEX
 8
FULGOR
 10
0
 20
0
 30
0
 70
128
 71
235
 72
236
 73
170
 74
169
 0
VERTEX
 8
FULGOR
 10
0
 20
0
 30
0
 70
128
 71
236
 72
239
 73
171
 74
170
 0
VERTEX
 8
FULGOR
 10
0
 20
0
 30
0
 70
128
 71
239
 72
231
 73
172
 74
171
 0
VERTEX
 8
FULGOR
 10
0
 20
0
 30
0
 70
128
 71
213
 72
212
 73
277
 74
278
 0
VERTEX
 8
FULGOR
 10
0
 20
0
 30
0
 70
128
 71
212
 72
205
 73
268
 74
277
 0
VERTEX
 8
FULGOR
 10
0
 20
0
 30
0
 70
128
 71
267
 72
268
 73
205
 74
204
 0
VERTEX
 8
FULGOR
 10
0
 20
0
 30
0
 70
128
 71
270
 72
271
 73
200
 74
211
 0
VERTEX
 8
FULGOR
 10
0
 20
0
 30
0
 70
128
 71
271
 72
264
 73
201
 74
200
 0
SEQEND
 0
POLYLINE
 8
MILANO
 66
1
 10
0.0
 20
0.0
 30
0.0
 70
64
 71
93
 72
47
 0
VERTEX
 8
MILANO
 10
0.2294
 20
8.7781
 30
0.003
 70
192
 0
VERTEX
 8
MILANO
 10
0.6196
 20
8.6257
 30
0.003
 70
192
 0
VERTEX
 8
MILANO
 10
0.6237
 20
8.5907
 30
0.003
 70
192
 0
VERTEX
 8
MILANO
 10
0.6385
 20
8.5589
 30
0.003
 70
192
 0
VERTEX
 8
MILANO
 10
0.6633
 20
8.534
 30
0.003
 70
192
 0
VERTEX
 8
MILANO
 10
0.6942
 20
8.517
 30
0.003
 70
192
 0
VERTEX
 8
MILANO
 10
0.728
 20
8.5071
 30
0.003
 70
192
 0
VERTEX
 8
MILANO
 10
0.7631
 20
8.5033
 30
0.003
 70
192
 0
VERTEX
 8
MILANO
 10
0.4723
 20
8.5499
 30
0.003
 70
192
 0
VERTEX
 8
MILANO
 10
0.7983
 20
8.506
 30
0.003
 70
192
 0
VERTEX
 8
MILANO
 10
0.8323
 20
8.5154
 30
0.003
 70
192
 0
VERTEX
 8
MILANO
 10
0.863
 20
8.5325
 30
0.003
 70
192
 0
VERTEX
 8
MILANO
 10
0.0818
 20
8.5701
 30
0.003
 70
192
 0
VERTEX
 8
MILANO
 10
0.1372
 20
8.4708
 30
0.003
 70
192
 0
VERTEX
 8
MILANO
 10
0.1828
 20
8.4708
 30
0.003
 70
192
 0
VERTEX
 8
MILANO
 10
0.887
 20
8.5582
 30
0.003
 70
192
 0
VERTEX
 8
MILANO
 10
0.9026
 20
8.5898
 30
0.003
 70
192
 0
VERTEX
 8
MILANO
 10
-0.1696
 20
8.4708
 30
0.003
 70
192
 0
VERTEX
 8
MILANO
 10
-0.0476
 20
8.6043
 30
0.003
 70
192
 0
VERTEX
 8
MILANO
 10
0.0631
 20
8.6043
 30
0.003
 70
192
 0
VERTEX
 8
MILANO
 10
0.9076
 20
8.6246
 30
0.003
 70
192
 0
VERTEX
 8
MILANO
 10
0.9031
 20
8.6595
 30
0.003
 70
192
 0
VERTEX
 8
MILANO
 10
0.8881
 20
8.6913
 30
0.003
 70
192
 0
VERTEX
 8
MILANO
 10
-0.3216
 20
8.7781
 30
0.003
 70
192
 0
VERTEX
 8
MILANO
 10
-0.3216
 20
8.5042
 30
0.003
 70
192
 0
VERTEX
 8
MILANO
 10
0.8639
 20
8.7169
 30
0.003
 70
192
 0
VERTEX
 8
MILANO
 10
0.8332
 20
8.7341
 30
0.003
 70
192
 0
VERTEX
 8
MILANO
 10
0.7992
 20
8.7434
 30
0.003
 70
192
 0
VERTEX
 8
MILANO
 10
-0.4764
 20
8.7781
 30
0.003
 70
192
 0
VERTEX
 8
MILANO
 10
-0.438
 20
8.7781
 30
0.003
 70
192
 0
VERTEX
 8
MILANO
 10
-0.438
 20
8.4708
 30
0.003
 70
192
 0
VERTEX
 8
MILANO
 10
-0.4764
 20
8.4708
 30
0.003
 70
192
 0
VERTEX
 8
MILANO
 10
-0.9387
 20
8.4708
 30
0.003
 70
192
 0
VERTEX
 8
MILANO
 10
-0.8908
 20
8.78
 30
0.003
 70
192
 0
VERTEX
 8
MILANO
 10
-0.5994
 20
8.78
 30
0.003
 70
192
 0
VERTEX
 8
MILANO
 10
-0.5851
 20
8.78
 30
0.003
 70
192
 0
VERTEX
 8
MILANO
 10
-0.5346
 20
8.4708
 30
0.003
 70
192
 0
VERTEX
 8
MILANO
 10
-0.5763
 20
8.4708
 30
0.003
 70
192
 0
VERTEX
 8
MILANO
 10
-0.7454
 20
8.4708
 30
0.003
 70
192
 0
VERTEX
 8
MILANO
 10
-0.8672
 20
8.6782
 30
0.003
 70
192
 0
VERTEX
 8
MILANO
 10
-0.185
 20
8.5042
 30
0.003
 70
192
 0
VERTEX
 8
MILANO
 10
-0.185
 20
8.4708
 30
0.003
 70
192
 0
VERTEX
 8
MILANO
 10
-0.3595
 20
8.4708
 30
0.003
 70
192
 0
VERTEX
 8
MILANO
 10
-0.8815
 20
8.78
 30
0.003
 70
192
 0
VERTEX
 8
MILANO
 10
-0.7377
 20
8.5339
 30
0.003
 70
192
 0
VERTEX
 8
MILANO
 10
-0.6098
 20
8.6782
 30
0.003
 70
192
 0
VERTEX
 8
MILANO
 10
-0.7267
 20
8.4708
 30
0.003
 70
192
 0
VERTEX
 8
MILANO
 10
-0.8974
 20
8.4708
 30
0.003
 70
192
 0
VERTEX
 8
MILANO
 10
0.7642
 20
8.7833
 30
0.003
 70
192
 0
VERTEX
 8
MILANO
 10
0.7181
 20
8.7808
 30
0.003
 70
192
 0
VERTEX
 8
MILANO
 10
0.6734
 20
8.7697
 30
0.003
 70
192
 0
VERTEX
 8
MILANO
 10
0.6339
 20
8.7462
 30
0.003
 70
192
 0
VERTEX
 8
MILANO
 10
0.6022
 20
8.7127
 30
0.003
 70
192
 0
VERTEX
 8
MILANO
 10
0.5816
 20
8.6716
 30
0.003
 70
192
 0
VERTEX
 8
MILANO
 10
0.5752
 20
8.626
 30
0.003
 70
192
 0
VERTEX
 8
MILANO
 10
0.5806
 20
8.5803
 30
0.003
 70
192
 0
VERTEX
 8
MILANO
 10
0.6
 20
8.5386
 30
0.003
 70
192
 0
VERTEX
 8
MILANO
 10
0.6325
 20
8.506
 30
0.003
 70
192
 0
VERTEX
 8
MILANO
 10
0.6728
 20
8.4838
 30
0.003
 70
192
 0
VERTEX
 8
MILANO
 10
0.7171
 20
8.4709
 30
0.003
 70
192
 0
VERTEX
 8
MILANO
 10
0.763
 20
8.4659
 30
0.003
 70
192
 0
VERTEX
 8
MILANO
 10
0.809
 20
8.4694
 30
0.003
 70
192
 0
VERTEX
 8
MILANO
 10
0.8534
 20
8.4817
 30
0.003
 70
192
 0
VERTEX
 8
MILANO
 10
0.8936
 20
8.5042
 30
0.003
 70
192
 0
VERTEX
 8
MILANO
 10
0.925
 20
8.5377
 30
0.003
 70
192
 0
VERTEX
 8
MILANO
 10
0.9454
 20
8.579
 30
0.003
 70
192
 0
VERTEX
 8
MILANO
 10
0.9519
 20
8.6246
 30
0.003
 70
192
 0
VERTEX
 8
MILANO
 10
0.946
 20
8.6702
 30
0.003
 70
192
 0
VERTEX
 8
MILANO
 10
0.9265
 20
8.7119
 30
0.003
 70
192
 0
VERTEX
 8
MILANO
 10
0.8948
 20
8.7453
 30
0.003
 70
192
 0
VERTEX
 8
MILANO
 10
0.2294
 20
8.4708
 30
0.003
 70
192
 0
VERTEX
 8
MILANO
 10
0.2698
 20
8.4708
 30
0.003
 70
192
 0
VERTEX
 8
MILANO
 10
0.2698
 20
8.6948
 30
0.003
 70
192
 0
VERTEX
 8
MILANO
 10
0.4991
 20
8.4708
 30
0.003
 70
192
 0
VERTEX
 8
MILANO
 10
0.5122
 20
8.4708
 30
0.003
 70
192
 0
VERTEX
 8
MILANO
 10
0.5122
 20
8.7781
 30
0.003
 70
192
 0
VERTEX
 8
MILANO
 10
0.4718
 20
8.7781
 30
0.003
 70
192
 0
VERTEX
 8
MILANO
 10
0.8546
 20
8.7677
 30
0.003
 70
192
 0
VERTEX
 8
MILANO
 10
0.2444
 20
8.7781
 30
0.003
 70
192
 0
VERTEX
 8
MILANO
 10
-0.1189
 20
8.4708
 30
0.003
 70
192
 0
VERTEX
 8
MILANO
 10
-0.0675
 20
8.5701
 30
0.003
 70
192
 0
VERTEX
 8
MILANO
 10
0.8102
 20
8.78
 30
0.003
 70
192
 0
VERTEX
 8
MILANO
 10
0.764
 20
8.746
 30
0.003
 70
192
 0
VERTEX
 8
MILANO
 10
0.7288
 20
8.7441
 30
0.003
 70
192
 0
VERTEX
 8
MILANO
 10
0.014
 20
8.7781
 30
0.003
 70
192
 0
VERTEX
 8
MILANO
 10
0.0009
 20
8.7781
 30
0.003
 70
192
 0
VERTEX
 8
MILANO
 10
0.6946
 20
8.7355
 30
0.003
 70
192
 0
VERTEX
 8
MILANO
 10
0.6644
 20
8.7176
 30
0.003
 70
192
 0
VERTEX
 8
MILANO
 10
0.6402
 20
8.692
 30
0.003
 70
192
 0
VERTEX
 8
MILANO
 10
0.0117
 20
8.7027
 30
0.003
 70
192
 0
VERTEX
 8
MILANO
 10
0.0026
 20
8.7027
 30
0.003
 70
192
 0
VERTEX
 8
MILANO
 10
-0.3628
 20
8.7781
 30
0.003
 70
192
 0
VERTEX
 8
MILANO
 10
0.6244
 20
8.6606
 30
0.003
 70
192
 0
VERTEX
 8
MILANO
 10
0
 20
0
 30
0
 70
128
 71
71
 72
1
 73
73
 74
72
 0
VERTEX
 8
MILANO
 10
0
 20
0
 30
0
 70
128
 71
1
 72
79
 73
73
 74
73
 0
VERTEX
 8
MILANO
 10
0
 20
0
 30
0
 70
128
 71
73
 72
79
 73
9
 74
74
 0
VERTEX
 8
MILANO
 10
0
 20
0
 30
0
 70
128
 71
76
 72
75
 73
9
 74
77
 0
VERTEX
 8
MILANO
 10
0
 20
0
 30
0
 70
128
 71
9
 72
75
 73
74
 74
74
 0
VERTEX
 8
MILANO
 10
0
 20
0
 30
0
 70
128
 71
18
 72
86
 73
19
 74
81
 0
VERTEX
 8
MILANO
 10
0
 20
0
 30
0
 70
128
 71
80
 72
18
 73
81
 74
81
 0
VERTEX
 8
MILANO
 10
0
 20
0
 30
0
 70
128
 71
86
 72
85
 73
90
 74
91
 0
VERTEX
 8
MILANO
 10
0
 20
0
 30
0
 70
128
 71
15
 72
13
 73
20
 74
20
 0
VERTEX
 8
MILANO
 10
0
 20
0
 30
0
 70
128
 71
86
 72
91
 73
19
 74
19
 0
VERTEX
 8
MILANO
 10
0
 20
0
 30
0
 70
128
 71
85
 72
15
 73
20
 74
90
 0
VERTEX
 8
MILANO
 10
0
 20
0
 30
0
 70
128
 71
13
 72
81
 73
19
 74
20
 0
VERTEX
 8
MILANO
 10
0
 20
0
 30
0
 70
128
 71
15
 72
14
 73
13
 74
13
 0
VERTEX
 8
MILANO
 10
0
 20
0
 30
0
 70
128
 71
92
 72
24
 73
25
 74
43
 0
VERTEX
 8
MILANO
 10
0
 20
0
 30
0
 70
128
 71
25
 72
41
 73
42
 74
43
 0
VERTEX
 8
MILANO
 10
0
 20
0
 30
0
 70
128
 71
29
 72
30
 73
31
 74
32
 0
VERTEX
 8
MILANO
 10
0
 20
0
 30
0
 70
128
 71
33
 72
34
 73
40
 74
48
 0
VERTEX
 8
MILANO
 10
0
 20
0
 30
0
 70
128
 71
34
 72
44
 73
40
 74
40
 0
VERTEX
 8
MILANO
 10
0
 20
0
 30
0
 70
128
 71
40
 72
44
 73
45
 74
39
 0
VERTEX
 8
MILANO
 10
0
 20
0
 30
0
 70
128
 71
45
 72
35
 73
46
 74
47
 0
VERTEX
 8
MILANO
 10
0
 20
0
 30
0
 70
128
 71
46
 72
36
 73
37
 74
38
 0
VERTEX
 8
MILANO
 10
0
 20
0
 30
0
 70
128
 71
45
 72
47
 73
39
 74
39
 0
VERTEX
 8
MILANO
 10
0
 20
0
 30
0
 70
128
 71
35
 72
36
 73
46
 74
46
 0
VERTEX
 8
MILANO
 10
0
 20
0
 30
0
 70
128
 71
50
 72
49
 73
83
 74
84
 0
VERTEX
 8
MILANO
 10
0
 20
0
 30
0
 70
128
 71
51
 72
50
 73
84
 74
87
 0
VERTEX
 8
MILANO
 10
0
 20
0
 30
0
 70
128
 71
5
 72
6
 73
59
 74
58
 0
VERTEX
 8
MILANO
 10
0
 20
0
 30
0
 70
128
 71
28
 72
83
 73
49
 74
82
 0
VERTEX
 8
MILANO
 10
0
 20
0
 30
0
 70
128
 71
27
 72
28
 73
82
 74
78
 0
VERTEX
 8
MILANO
 10
0
 20
0
 30
0
 70
128
 71
26
 72
27
 73
78
 74
70
 0
VERTEX
 8
MILANO
 10
0
 20
0
 30
0
 70
128
 71
23
 72
26
 73
70
 74
69
 0
VERTEX
 8
MILANO
 10
0
 20
0
 30
0
 70
128
 71
6
 72
7
 73
60
 74
59
 0
VERTEX
 8
MILANO
 10
0
 20
0
 30
0
 70
128
 71
7
 72
8
 73
61
 74
60
 0
VERTEX
 8
MILANO
 10
0
 20
0
 30
0
 70
128
 71
22
 72
23
 73
69
 74
68
 0
VERTEX
 8
MILANO
 10
0
 20
0
 30
0
 70
128
 71
21
 72
22
 73
68
 74
67
 0
VERTEX
 8
MILANO
 10
0
 20
0
 30
0
 70
128
 71
17
 72
21
 73
67
 74
66
 0
VERTEX
 8
MILANO
 10
0
 20
0
 30
0
 70
128
 71
16
 72
17
 73
66
 74
65
 0
VERTEX
 8
MILANO
 10
0
 20
0
 30
0
 70
128
 71
12
 72
16
 73
65
 74
64
 0
VERTEX
 8
MILANO
 10
0
 20
0
 30
0
 70
128
 71
11
 72
12
 73
64
 74
63
 0
VERTEX
 8
MILANO
 10
0
 20
0
 30
0
 70
128
 71
10
 72
11
 73
63
 74
62
 0
VERTEX
 8
MILANO
 10
0
 20
0
 30
0
 70
128
 71
4
 72
5
 73
58
 74
57
 0
VERTEX
 8
MILANO
 10
0
 20
0
 30
0
 70
128
 71
57
 72
56
 73
3
 74
4
 0
VERTEX
 8
MILANO
 10
0
 20
0
 30
0
 70
128
 71
56
 72
55
 73
2
 74
3
 0
VERTEX
 8
MILANO
 10
0
 20
0
 30
0
 70
128
 71
55
 72
54
 73
93
 74
2
 0
VERTEX
 8
MILANO
 10
0
 20
0
 30
0
 70
128
 71
54
 72
53
 73
89
 74
93
 0
VERTEX
 8
MILANO
 10
0
 20
0
 30
0
 70
128
 71
53
 72
52
 73
88
 74
89
 0
VERTEX
 8
MILANO
 10
0
 20
0
 30
0
 70
128
 71
52
 72
51
 73
87
 74
88
 0
VERTEX
 8
MILANO
 10
0
 20
0
 30
0
 70
128
 71
8
 72
10
 73
62
 74
61
 0
SEQEND
 0
POLYLINE
 8
P-RZA01680_VETRO
 66
1
 10
0.0
 20
0.0
 30
0.0
 70
64
 71
24
 72
16
 0
VERTEX
 8
P-RZA01680_VETRO
 10
-44.91
 20
-26
 30
-0.425
 70
192
 0
VERTEX
 8
P-RZA01680_VETRO
 10
-44.91
 20
-26
 30
0
 70
192
 0
VERTEX
 8
P-RZA01680_VETRO
 10
44.91
 20
-26
 30
-0.425
 70
192
 0
VERTEX
 8
P-RZA01680_VETRO
 10
44.91
 20
-26
 30
0
 70
192
 0
VERTEX
 8
P-RZA01680_VETRO
 10
44.91
 20
26
 30
-0.425
 70
192
 0
VERTEX
 8
P-RZA01680_VETRO
 10
44.91
 20
26
 30
0
 70
192
 0
VERTEX
 8
P-RZA01680_VETRO
 10
-44.91
 20
26
 30
-0.425
 70
192
 0
VERTEX
 8
P-RZA01680_VETRO
 10
-44.91
 20
26
 30
0
 70
192
 0
VERTEX
 8
P-RZA01680_VETRO
 10
-40.89
 20
13.51
 30
0
 70
192
 0
VERTEX
 8
P-RZA01680_VETRO
 10
40.89
 20
13.51
 30
0
 70
192
 0
VERTEX
 8
P-RZA01680_VETRO
 10
40.89
 20
21.49
 30
0
 70
192
 0
VERTEX
 8
P-RZA01680_VETRO
 10
-40.89
 20
21.49
 30
0
 70
192
 0
VERTEX
 8
P-RZA01680_VETRO
 10
-40.89
 20
13.51
 30
-0.425
 70
192
 0
VERTEX
 8
P-RZA01680_VETRO
 10
40.89
 20
13.51
 30
-0.425
 70
192
 0
VERTEX
 8
P-RZA01680_VETRO
 10
40.89
 20
21.49
 30
-0.425
 70
192
 0
VERTEX
 8
P-RZA01680_VETRO
 10
-40.89
 20
21.49
 30
-0.425
 70
192
 0
VERTEX
 8
P-RZA01680_VETRO
 10
-40.89
 20
13.51
 30
0
 70
192
 0
VERTEX
 8
P-RZA01680_VETRO
 10
40.89
 20
13.51
 30
0
 70
192
 0
VERTEX
 8
P-RZA01680_VETRO
 10
40.89
 20
21.49
 30
0
 70
192
 0
VERTEX
 8
P-RZA01680_VETRO
 10
-40.89
 20
21.49
 30
0
 70
192
 0
VERTEX
 8
P-RZA01680_VETRO
 10
-40.89
 20
13.51
 30
-0.425
 70
192
 0
VERTEX
 8
P-RZA01680_VETRO
 10
40.89
 20
13.51
 30
-0.425
 70
192
 0
VERTEX
 8
P-RZA01680_VETRO
 10
40.89
 20
21.49
 30
-0.425
 70
192
 0
VERTEX
 8
P-RZA01680_VETRO
 10
-40.89
 20
21.49
 30
-0.425
 70
192
 0
VERTEX
 8
P-RZA01680_VETRO
 10
0
 20
0
 30
0
 70
128
 71
1
 72
2
 73
4
 74
3
 0
VERTEX
 8
P-RZA01680_VETRO
 10
0
 20
0
 30
0
 70
128
 71
3
 72
4
 73
6
 74
5
 0
VERTEX
 8
P-RZA01680_VETRO
 10
0
 20
0
 30
0
 70
128
 71
5
 72
6
 73
8
 74
7
 0
VERTEX
 8
P-RZA01680_VETRO
 10
0
 20
0
 30
0
 70
128
 71
7
 72
8
 73
2
 74
1
 0
VERTEX
 8
P-RZA01680_VETRO
 10
0
 20
0
 30
0
 70
128
 71
9
 72
2
 73
8
 74
12
 0
VERTEX
 8
P-RZA01680_VETRO
 10
0
 20
0
 30
0
 70
128
 71
10
 72
11
 73
6
 74
4
 0
VERTEX
 8
P-RZA01680_VETRO
 10
0
 20
0
 30
0
 70
128
 71
11
 72
12
 73
8
 74
6
 0
VERTEX
 8
P-RZA01680_VETRO
 10
0
 20
0
 30
0
 70
128
 71
9
 72
10
 73
4
 74
2
 0
VERTEX
 8
P-RZA01680_VETRO
 10
0
 20
0
 30
0
 70
128
 71
14
 72
3
 73
5
 74
15
 0
VERTEX
 8
P-RZA01680_VETRO
 10
0
 20
0
 30
0
 70
128
 71
13
 72
16
 73
7
 74
1
 0
VERTEX
 8
P-RZA01680_VETRO
 10
0
 20
0
 30
0
 70
128
 71
16
 72
15
 73
5
 74
7
 0
VERTEX
 8
P-RZA01680_VETRO
 10
0
 20
0
 30
0
 70
128
 71
14
 72
13
 73
1
 74
3
 0
VERTEX
 8
P-RZA01680_VETRO
 10
0
 20
0
 30
0
 70
128
 71
17
 72
21
 73
22
 74
18
 0
VERTEX
 8
P-RZA01680_VETRO
 10
0
 20
0
 30
0
 70
128
 71
18
 72
22
 73
23
 74
19
 0
VERTEX
 8
P-RZA01680_VETRO
 10
0
 20
0
 30
0
 70
128
 71
24
 72
20
 73
19
 74
23
 0
VERTEX
 8
P-RZA01680_VETRO
 10
0
 20
0
 30
0
 70
128
 71
20
 72
24
 73
21
 74
17
 0
SEQEND
 0
ENDSEC
 0
EOF
