 0
SECTION
 2
HEADER
 9
$ACADVER
 1
AC1009
 0
ENDSEC
 0
SECTION
 2
TABLES
 0
TABLE
 2
LTYPE
 70
1
 0
LTYPE
 2
CONTINUOUS
 70
64
 3
solid line
 72
65
 73
0
 40
0.0
 0
ENDTAB
 0
TABLE
 2
LAYER
 70
6
 0
LAYER
 2
0
 70
0
 62
7
 6
CONTINUOUS
 0
LAYER
 2
FDDH_900_TRC_X
 70
64
 62
7
 6
CONTINUOUS
 0
LAYER
 2
TASTI
 70
64
 62
7
 6
CONTINUOUS
 0
LAYER
 2
DISCO
 70
64
 62
7
 6
CONTINUOUS
 0
LAYER
 2
DISCO_1
 70
64
 62
7
 6
CONTINUOUS
 0
LAYER
 2
DISCO_2
 70
64
 62
7
 6
CONTINUOUS
 0
LAYER
 2
DISCO_3
 70
64
 62
7
 6
CONTINUOUS
 0
LAYER
 2
DISCO_4
 70
64
 62
7
 6
CONTINUOUS
 0
LAYER
 2
DISCO_5
 70
64
 62
7
 6
CONTINUOUS
 0
LAYER
 2
DISCO_6
 70
64
 62
7
 6
CONTINUOUS
 0
LAYER
 2
DISCO_7
 70
64
 62
7
 6
CONTINUOUS
 0
LAYER
 2
DISCO_8
 70
64
 62
7
 6
CONTINUOUS
 0
LAYER
 2
LOGO_FULGOR_MILANO
 70
64
 62
7
 6
CONTINUOUS
 0
LAYER
 2
FULGOR
 70
64
 62
7
 6
CONTINUOUS
 0
LAYER
 2
MILANO
 70
64
 62
7
 6
CONTINUOUS
 0
LAYER
 2
MCS-N645
 70
64
 62
253
 6
CONTINUOUS
 0
LAYER
 2
MCS-N646
 70
64
 62
253
 6
CONTINUOUS
 0
LAYER
 2
LED
 70
64
 62
253
 6
CONTINUOUS
 0
LAYER
 2
LED_1
 70
64
 62
7
 6
CONTINUOUS
 0
LAYER
 2
MCS-A076
 70
64
 62
253
 6
CONTINUOUS
 0
LAYER
 2
MSA-N272
 70
64
 62
39
 6
CONTINUOUS
 0
LAYER
 2
MSA-N262
 70
64
 62
253
 6
CONTINUOUS
 0
LAYER
 2
MSA-B425
 70
64
 62
253
 6
CONTINUOUS
 0
LAYER
 2
MCS-N240
 70
64
 62
253
 6
CONTINUOUS
 0
LAYER
 2
LVT-B384
 70
64
 62
39
 6
CONTINUOUS
 0
ENDTAB
 0
ENDSEC
 0
SECTION
 2
BLOCKS
 0
ENDSEC
 0
SECTION
 2
ENTITIES
 0
POLYLINE
 8
DISCO
 66
1
 10
0.0
 20
0.0
 30
0.0
 70
64
 71
17
 72
16
 0
VERTEX
 8
DISCO
 10
30.1909
 20
-0.145
 30
28.3738
 70
192
 0
VERTEX
 8
DISCO
 10
30.7909
 20
-0.145
 30
28.3738
 70
192
 0
VERTEX
 8
DISCO
 10
30.7452
 20
0.0846
 30
28.3738
 70
192
 0
VERTEX
 8
DISCO
 10
30.6151
 20
0.2793
 30
28.3738
 70
192
 0
VERTEX
 8
DISCO
 10
30.4205
 20
0.4093
 30
28.3738
 70
192
 0
VERTEX
 8
DISCO
 10
30.1909
 20
0.455
 30
28.3738
 70
192
 0
VERTEX
 8
DISCO
 10
29.9612
 20
0.4093
 30
28.3738
 70
192
 0
VERTEX
 8
DISCO
 10
29.7666
 20
0.2793
 30
28.3738
 70
192
 0
VERTEX
 8
DISCO
 10
29.6365
 20
0.0846
 30
28.3738
 70
192
 0
VERTEX
 8
DISCO
 10
29.5909
 20
-0.145
 30
28.3738
 70
192
 0
VERTEX
 8
DISCO
 10
29.6365
 20
-0.3746
 30
28.3738
 70
192
 0
VERTEX
 8
DISCO
 10
29.7666
 20
-0.5693
 30
28.3738
 70
192
 0
VERTEX
 8
DISCO
 10
29.9612
 20
-0.6993
 30
28.3738
 70
192
 0
VERTEX
 8
DISCO
 10
30.1909
 20
-0.745
 30
28.3738
 70
192
 0
VERTEX
 8
DISCO
 10
30.4205
 20
-0.6993
 30
28.3738
 70
192
 0
VERTEX
 8
DISCO
 10
30.6151
 20
-0.5693
 30
28.3738
 70
192
 0
VERTEX
 8
DISCO
 10
30.7452
 20
-0.3746
 30
28.3738
 70
192
 0
VERTEX
 8
DISCO
 10
0
 20
0
 30
0
 70
128
 71
2
 72
1
 73
3
 74
3
 0
VERTEX
 8
DISCO
 10
0
 20
0
 30
0
 70
128
 71
3
 72
1
 73
4
 74
4
 0
VERTEX
 8
DISCO
 10
0
 20
0
 30
0
 70
128
 71
4
 72
1
 73
5
 74
5
 0
VERTEX
 8
DISCO
 10
0
 20
0
 30
0
 70
128
 71
5
 72
1
 73
6
 74
6
 0
VERTEX
 8
DISCO
 10
0
 20
0
 30
0
 70
128
 71
6
 72
1
 73
7
 74
7
 0
VERTEX
 8
DISCO
 10
0
 20
0
 30
0
 70
128
 71
7
 72
1
 73
8
 74
8
 0
VERTEX
 8
DISCO
 10
0
 20
0
 30
0
 70
128
 71
8
 72
1
 73
9
 74
9
 0
VERTEX
 8
DISCO
 10
0
 20
0
 30
0
 70
128
 71
9
 72
1
 73
10
 74
10
 0
VERTEX
 8
DISCO
 10
0
 20
0
 30
0
 70
128
 71
10
 72
1
 73
11
 74
11
 0
VERTEX
 8
DISCO
 10
0
 20
0
 30
0
 70
128
 71
11
 72
1
 73
12
 74
12
 0
VERTEX
 8
DISCO
 10
0
 20
0
 30
0
 70
128
 71
12
 72
1
 73
13
 74
13
 0
VERTEX
 8
DISCO
 10
0
 20
0
 30
0
 70
128
 71
13
 72
1
 73
14
 74
14
 0
VERTEX
 8
DISCO
 10
0
 20
0
 30
0
 70
128
 71
14
 72
1
 73
15
 74
15
 0
VERTEX
 8
DISCO
 10
0
 20
0
 30
0
 70
128
 71
15
 72
1
 73
16
 74
16
 0
VERTEX
 8
DISCO
 10
0
 20
0
 30
0
 70
128
 71
16
 72
1
 73
17
 74
17
 0
VERTEX
 8
DISCO
 10
0
 20
0
 30
0
 70
128
 71
17
 72
1
 73
2
 74
2
 0
SEQEND
 0
POLYLINE
 8
DISCO_1
 66
1
 10
0.0
 20
0.0
 30
0.0
 70
64
 71
17
 72
16
 0
VERTEX
 8
DISCO_1
 10
27.1917
 20
-0.145
 30
28.3738
 70
192
 0
VERTEX
 8
DISCO_1
 10
27.7917
 20
-0.145
 30
28.3738
 70
192
 0
VERTEX
 8
DISCO_1
 10
27.746
 20
0.0846
 30
28.3738
 70
192
 0
VERTEX
 8
DISCO_1
 10
27.616
 20
0.2793
 30
28.3738
 70
192
 0
VERTEX
 8
DISCO_1
 10
27.4213
 20
0.4093
 30
28.3738
 70
192
 0
VERTEX
 8
DISCO_1
 10
27.1917
 20
0.455
 30
28.3738
 70
192
 0
VERTEX
 8
DISCO_1
 10
26.9621
 20
0.4093
 30
28.3738
 70
192
 0
VERTEX
 8
DISCO_1
 10
26.7674
 20
0.2793
 30
28.3738
 70
192
 0
VERTEX
 8
DISCO_1
 10
26.6374
 20
0.0846
 30
28.3738
 70
192
 0
VERTEX
 8
DISCO_1
 10
26.5917
 20
-0.145
 30
28.3738
 70
192
 0
VERTEX
 8
DISCO_1
 10
26.6374
 20
-0.3746
 30
28.3738
 70
192
 0
VERTEX
 8
DISCO_1
 10
26.7674
 20
-0.5693
 30
28.3738
 70
192
 0
VERTEX
 8
DISCO_1
 10
26.9621
 20
-0.6993
 30
28.3738
 70
192
 0
VERTEX
 8
DISCO_1
 10
27.1917
 20
-0.745
 30
28.3738
 70
192
 0
VERTEX
 8
DISCO_1
 10
27.4213
 20
-0.6993
 30
28.3738
 70
192
 0
VERTEX
 8
DISCO_1
 10
27.616
 20
-0.5693
 30
28.3738
 70
192
 0
VERTEX
 8
DISCO_1
 10
27.746
 20
-0.3746
 30
28.3738
 70
192
 0
VERTEX
 8
DISCO_1
 10
0
 20
0
 30
0
 70
128
 71
2
 72
1
 73
3
 74
3
 0
VERTEX
 8
DISCO_1
 10
0
 20
0
 30
0
 70
128
 71
3
 72
1
 73
4
 74
4
 0
VERTEX
 8
DISCO_1
 10
0
 20
0
 30
0
 70
128
 71
4
 72
1
 73
5
 74
5
 0
VERTEX
 8
DISCO_1
 10
0
 20
0
 30
0
 70
128
 71
5
 72
1
 73
6
 74
6
 0
VERTEX
 8
DISCO_1
 10
0
 20
0
 30
0
 70
128
 71
6
 72
1
 73
7
 74
7
 0
VERTEX
 8
DISCO_1
 10
0
 20
0
 30
0
 70
128
 71
7
 72
1
 73
8
 74
8
 0
VERTEX
 8
DISCO_1
 10
0
 20
0
 30
0
 70
128
 71
8
 72
1
 73
9
 74
9
 0
VERTEX
 8
DISCO_1
 10
0
 20
0
 30
0
 70
128
 71
9
 72
1
 73
10
 74
10
 0
VERTEX
 8
DISCO_1
 10
0
 20
0
 30
0
 70
128
 71
10
 72
1
 73
11
 74
11
 0
VERTEX
 8
DISCO_1
 10
0
 20
0
 30
0
 70
128
 71
11
 72
1
 73
12
 74
12
 0
VERTEX
 8
DISCO_1
 10
0
 20
0
 30
0
 70
128
 71
12
 72
1
 73
13
 74
13
 0
VERTEX
 8
DISCO_1
 10
0
 20
0
 30
0
 70
128
 71
13
 72
1
 73
14
 74
14
 0
VERTEX
 8
DISCO_1
 10
0
 20
0
 30
0
 70
128
 71
14
 72
1
 73
15
 74
15
 0
VERTEX
 8
DISCO_1
 10
0
 20
0
 30
0
 70
128
 71
15
 72
1
 73
16
 74
16
 0
VERTEX
 8
DISCO_1
 10
0
 20
0
 30
0
 70
128
 71
16
 72
1
 73
17
 74
17
 0
VERTEX
 8
DISCO_1
 10
0
 20
0
 30
0
 70
128
 71
17
 72
1
 73
2
 74
2
 0
SEQEND
 0
POLYLINE
 8
DISCO_2
 66
1
 10
0.0
 20
0.0
 30
0.0
 70
64
 71
17
 72
16
 0
VERTEX
 8
DISCO_2
 10
22.3004
 20
-0.145
 30
28.3738
 70
192
 0
VERTEX
 8
DISCO_2
 10
22.9004
 20
-0.145
 30
28.3738
 70
192
 0
VERTEX
 8
DISCO_2
 10
22.8547
 20
0.0846
 30
28.3738
 70
192
 0
VERTEX
 8
DISCO_2
 10
22.7247
 20
0.2793
 30
28.3738
 70
192
 0
VERTEX
 8
DISCO_2
 10
22.53
 20
0.4093
 30
28.3738
 70
192
 0
VERTEX
 8
DISCO_2
 10
22.3004
 20
0.455
 30
28.3738
 70
192
 0
VERTEX
 8
DISCO_2
 10
22.0708
 20
0.4093
 30
28.3738
 70
192
 0
VERTEX
 8
DISCO_2
 10
21.8762
 20
0.2793
 30
28.3738
 70
192
 0
VERTEX
 8
DISCO_2
 10
21.7461
 20
0.0846
 30
28.3738
 70
192
 0
VERTEX
 8
DISCO_2
 10
21.7004
 20
-0.145
 30
28.3738
 70
192
 0
VERTEX
 8
DISCO_2
 10
21.7461
 20
-0.3746
 30
28.3738
 70
192
 0
VERTEX
 8
DISCO_2
 10
21.8762
 20
-0.5693
 30
28.3738
 70
192
 0
VERTEX
 8
DISCO_2
 10
22.0708
 20
-0.6993
 30
28.3738
 70
192
 0
VERTEX
 8
DISCO_2
 10
22.3004
 20
-0.745
 30
28.3738
 70
192
 0
VERTEX
 8
DISCO_2
 10
22.53
 20
-0.6993
 30
28.3738
 70
192
 0
VERTEX
 8
DISCO_2
 10
22.7247
 20
-0.5693
 30
28.3738
 70
192
 0
VERTEX
 8
DISCO_2
 10
22.8547
 20
-0.3746
 30
28.3738
 70
192
 0
VERTEX
 8
DISCO_2
 10
0
 20
0
 30
0
 70
128
 71
2
 72
1
 73
3
 74
3
 0
VERTEX
 8
DISCO_2
 10
0
 20
0
 30
0
 70
128
 71
3
 72
1
 73
4
 74
4
 0
VERTEX
 8
DISCO_2
 10
0
 20
0
 30
0
 70
128
 71
4
 72
1
 73
5
 74
5
 0
VERTEX
 8
DISCO_2
 10
0
 20
0
 30
0
 70
128
 71
5
 72
1
 73
6
 74
6
 0
VERTEX
 8
DISCO_2
 10
0
 20
0
 30
0
 70
128
 71
6
 72
1
 73
7
 74
7
 0
VERTEX
 8
DISCO_2
 10
0
 20
0
 30
0
 70
128
 71
7
 72
1
 73
8
 74
8
 0
VERTEX
 8
DISCO_2
 10
0
 20
0
 30
0
 70
128
 71
8
 72
1
 73
9
 74
9
 0
VERTEX
 8
DISCO_2
 10
0
 20
0
 30
0
 70
128
 71
9
 72
1
 73
10
 74
10
 0
VERTEX
 8
DISCO_2
 10
0
 20
0
 30
0
 70
128
 71
10
 72
1
 73
11
 74
11
 0
VERTEX
 8
DISCO_2
 10
0
 20
0
 30
0
 70
128
 71
11
 72
1
 73
12
 74
12
 0
VERTEX
 8
DISCO_2
 10
0
 20
0
 30
0
 70
128
 71
12
 72
1
 73
13
 74
13
 0
VERTEX
 8
DISCO_2
 10
0
 20
0
 30
0
 70
128
 71
13
 72
1
 73
14
 74
14
 0
VERTEX
 8
DISCO_2
 10
0
 20
0
 30
0
 70
128
 71
14
 72
1
 73
15
 74
15
 0
VERTEX
 8
DISCO_2
 10
0
 20
0
 30
0
 70
128
 71
15
 72
1
 73
16
 74
16
 0
VERTEX
 8
DISCO_2
 10
0
 20
0
 30
0
 70
128
 71
16
 72
1
 73
17
 74
17
 0
VERTEX
 8
DISCO_2
 10
0
 20
0
 30
0
 70
128
 71
17
 72
1
 73
2
 74
2
 0
SEQEND
 0
POLYLINE
 8
DISCO_3
 66
1
 10
0.0
 20
0.0
 30
0.0
 70
64
 71
17
 72
16
 0
VERTEX
 8
DISCO_3
 10
19.2906
 20
-0.145
 30
28.3738
 70
192
 0
VERTEX
 8
DISCO_3
 10
19.8906
 20
-0.145
 30
28.3738
 70
192
 0
VERTEX
 8
DISCO_3
 10
19.8449
 20
0.0846
 30
28.3738
 70
192
 0
VERTEX
 8
DISCO_3
 10
19.7149
 20
0.2793
 30
28.3738
 70
192
 0
VERTEX
 8
DISCO_3
 10
19.5202
 20
0.4093
 30
28.3738
 70
192
 0
VERTEX
 8
DISCO_3
 10
19.2906
 20
0.455
 30
28.3738
 70
192
 0
VERTEX
 8
DISCO_3
 10
19.061
 20
0.4093
 30
28.3738
 70
192
 0
VERTEX
 8
DISCO_3
 10
18.8663
 20
0.2793
 30
28.3738
 70
192
 0
VERTEX
 8
DISCO_3
 10
18.7363
 20
0.0846
 30
28.3738
 70
192
 0
VERTEX
 8
DISCO_3
 10
18.6906
 20
-0.145
 30
28.3738
 70
192
 0
VERTEX
 8
DISCO_3
 10
18.7363
 20
-0.3746
 30
28.3738
 70
192
 0
VERTEX
 8
DISCO_3
 10
18.8663
 20
-0.5693
 30
28.3738
 70
192
 0
VERTEX
 8
DISCO_3
 10
19.061
 20
-0.6993
 30
28.3738
 70
192
 0
VERTEX
 8
DISCO_3
 10
19.2906
 20
-0.745
 30
28.3738
 70
192
 0
VERTEX
 8
DISCO_3
 10
19.5202
 20
-0.6993
 30
28.3738
 70
192
 0
VERTEX
 8
DISCO_3
 10
19.7149
 20
-0.5693
 30
28.3738
 70
192
 0
VERTEX
 8
DISCO_3
 10
19.8449
 20
-0.3746
 30
28.3738
 70
192
 0
VERTEX
 8
DISCO_3
 10
0
 20
0
 30
0
 70
128
 71
2
 72
1
 73
3
 74
3
 0
VERTEX
 8
DISCO_3
 10
0
 20
0
 30
0
 70
128
 71
3
 72
1
 73
4
 74
4
 0
VERTEX
 8
DISCO_3
 10
0
 20
0
 30
0
 70
128
 71
4
 72
1
 73
5
 74
5
 0
VERTEX
 8
DISCO_3
 10
0
 20
0
 30
0
 70
128
 71
5
 72
1
 73
6
 74
6
 0
VERTEX
 8
DISCO_3
 10
0
 20
0
 30
0
 70
128
 71
6
 72
1
 73
7
 74
7
 0
VERTEX
 8
DISCO_3
 10
0
 20
0
 30
0
 70
128
 71
7
 72
1
 73
8
 74
8
 0
VERTEX
 8
DISCO_3
 10
0
 20
0
 30
0
 70
128
 71
8
 72
1
 73
9
 74
9
 0
VERTEX
 8
DISCO_3
 10
0
 20
0
 30
0
 70
128
 71
9
 72
1
 73
10
 74
10
 0
VERTEX
 8
DISCO_3
 10
0
 20
0
 30
0
 70
128
 71
10
 72
1
 73
11
 74
11
 0
VERTEX
 8
DISCO_3
 10
0
 20
0
 30
0
 70
128
 71
11
 72
1
 73
12
 74
12
 0
VERTEX
 8
DISCO_3
 10
0
 20
0
 30
0
 70
128
 71
12
 72
1
 73
13
 74
13
 0
VERTEX
 8
DISCO_3
 10
0
 20
0
 30
0
 70
128
 71
13
 72
1
 73
14
 74
14
 0
VERTEX
 8
DISCO_3
 10
0
 20
0
 30
0
 70
128
 71
14
 72
1
 73
15
 74
15
 0
VERTEX
 8
DISCO_3
 10
0
 20
0
 30
0
 70
128
 71
15
 72
1
 73
16
 74
16
 0
VERTEX
 8
DISCO_3
 10
0
 20
0
 30
0
 70
128
 71
16
 72
1
 73
17
 74
17
 0
VERTEX
 8
DISCO_3
 10
0
 20
0
 30
0
 70
128
 71
17
 72
1
 73
2
 74
2
 0
SEQEND
 0
POLYLINE
 8
DISCO_4
 66
1
 10
0.0
 20
0.0
 30
0.0
 70
64
 71
17
 72
16
 0
VERTEX
 8
DISCO_4
 10
16.2917
 20
-0.145
 30
28.3738
 70
192
 0
VERTEX
 8
DISCO_4
 10
16.8917
 20
-0.145
 30
28.3738
 70
192
 0
VERTEX
 8
DISCO_4
 10
16.846
 20
0.0846
 30
28.3738
 70
192
 0
VERTEX
 8
DISCO_4
 10
16.7159
 20
0.2793
 30
28.3738
 70
192
 0
VERTEX
 8
DISCO_4
 10
16.5213
 20
0.4093
 30
28.3738
 70
192
 0
VERTEX
 8
DISCO_4
 10
16.2917
 20
0.455
 30
28.3738
 70
192
 0
VERTEX
 8
DISCO_4
 10
16.062
 20
0.4093
 30
28.3738
 70
192
 0
VERTEX
 8
DISCO_4
 10
15.8674
 20
0.2793
 30
28.3738
 70
192
 0
VERTEX
 8
DISCO_4
 10
15.7373
 20
0.0846
 30
28.3738
 70
192
 0
VERTEX
 8
DISCO_4
 10
15.6917
 20
-0.145
 30
28.3738
 70
192
 0
VERTEX
 8
DISCO_4
 10
15.7373
 20
-0.3746
 30
28.3738
 70
192
 0
VERTEX
 8
DISCO_4
 10
15.8674
 20
-0.5693
 30
28.3738
 70
192
 0
VERTEX
 8
DISCO_4
 10
16.062
 20
-0.6993
 30
28.3738
 70
192
 0
VERTEX
 8
DISCO_4
 10
16.2917
 20
-0.745
 30
28.3738
 70
192
 0
VERTEX
 8
DISCO_4
 10
16.5213
 20
-0.6993
 30
28.3738
 70
192
 0
VERTEX
 8
DISCO_4
 10
16.7159
 20
-0.5693
 30
28.3738
 70
192
 0
VERTEX
 8
DISCO_4
 10
16.846
 20
-0.3746
 30
28.3738
 70
192
 0
VERTEX
 8
DISCO_4
 10
0
 20
0
 30
0
 70
128
 71
2
 72
1
 73
3
 74
3
 0
VERTEX
 8
DISCO_4
 10
0
 20
0
 30
0
 70
128
 71
3
 72
1
 73
4
 74
4
 0
VERTEX
 8
DISCO_4
 10
0
 20
0
 30
0
 70
128
 71
4
 72
1
 73
5
 74
5
 0
VERTEX
 8
DISCO_4
 10
0
 20
0
 30
0
 70
128
 71
5
 72
1
 73
6
 74
6
 0
VERTEX
 8
DISCO_4
 10
0
 20
0
 30
0
 70
128
 71
6
 72
1
 73
7
 74
7
 0
VERTEX
 8
DISCO_4
 10
0
 20
0
 30
0
 70
128
 71
7
 72
1
 73
8
 74
8
 0
VERTEX
 8
DISCO_4
 10
0
 20
0
 30
0
 70
128
 71
8
 72
1
 73
9
 74
9
 0
VERTEX
 8
DISCO_4
 10
0
 20
0
 30
0
 70
128
 71
9
 72
1
 73
10
 74
10
 0
VERTEX
 8
DISCO_4
 10
0
 20
0
 30
0
 70
128
 71
10
 72
1
 73
11
 74
11
 0
VERTEX
 8
DISCO_4
 10
0
 20
0
 30
0
 70
128
 71
11
 72
1
 73
12
 74
12
 0
VERTEX
 8
DISCO_4
 10
0
 20
0
 30
0
 70
128
 71
12
 72
1
 73
13
 74
13
 0
VERTEX
 8
DISCO_4
 10
0
 20
0
 30
0
 70
128
 71
13
 72
1
 73
14
 74
14
 0
VERTEX
 8
DISCO_4
 10
0
 20
0
 30
0
 70
128
 71
14
 72
1
 73
15
 74
15
 0
VERTEX
 8
DISCO_4
 10
0
 20
0
 30
0
 70
128
 71
15
 72
1
 73
16
 74
16
 0
VERTEX
 8
DISCO_4
 10
0
 20
0
 30
0
 70
128
 71
16
 72
1
 73
17
 74
17
 0
VERTEX
 8
DISCO_4
 10
0
 20
0
 30
0
 70
128
 71
17
 72
1
 73
2
 74
2
 0
SEQEND
 0
POLYLINE
 8
DISCO_5
 66
1
 10
0.0
 20
0.0
 30
0.0
 70
64
 71
17
 72
16
 0
VERTEX
 8
DISCO_5
 10
25.6489
 20
-0.145
 30
28.3738
 70
192
 0
VERTEX
 8
DISCO_5
 10
25.7735
 20
-0.145
 30
28.3738
 70
192
 0
VERTEX
 8
DISCO_5
 10
25.764
 20
-0.0973
 30
28.3738
 70
192
 0
VERTEX
 8
DISCO_5
 10
25.737
 20
-0.0569
 30
28.3738
 70
192
 0
VERTEX
 8
DISCO_5
 10
25.6966
 20
-0.0299
 30
28.3738
 70
192
 0
VERTEX
 8
DISCO_5
 10
25.6489
 20
-0.0204
 30
28.3738
 70
192
 0
VERTEX
 8
DISCO_5
 10
25.6012
 20
-0.0299
 30
28.3738
 70
192
 0
VERTEX
 8
DISCO_5
 10
25.5608
 20
-0.0569
 30
28.3738
 70
192
 0
VERTEX
 8
DISCO_5
 10
25.5338
 20
-0.0973
 30
28.3738
 70
192
 0
VERTEX
 8
DISCO_5
 10
25.5243
 20
-0.145
 30
28.3738
 70
192
 0
VERTEX
 8
DISCO_5
 10
25.5338
 20
-0.1927
 30
28.3738
 70
192
 0
VERTEX
 8
DISCO_5
 10
25.5608
 20
-0.2331
 30
28.3738
 70
192
 0
VERTEX
 8
DISCO_5
 10
25.6012
 20
-0.2601
 30
28.3738
 70
192
 0
VERTEX
 8
DISCO_5
 10
25.6489
 20
-0.2696
 30
28.3738
 70
192
 0
VERTEX
 8
DISCO_5
 10
25.6966
 20
-0.2601
 30
28.3738
 70
192
 0
VERTEX
 8
DISCO_5
 10
25.737
 20
-0.2331
 30
28.3738
 70
192
 0
VERTEX
 8
DISCO_5
 10
25.764
 20
-0.1927
 30
28.3738
 70
192
 0
VERTEX
 8
DISCO_5
 10
0
 20
0
 30
0
 70
128
 71
2
 72
1
 73
3
 74
3
 0
VERTEX
 8
DISCO_5
 10
0
 20
0
 30
0
 70
128
 71
3
 72
1
 73
4
 74
4
 0
VERTEX
 8
DISCO_5
 10
0
 20
0
 30
0
 70
128
 71
4
 72
1
 73
5
 74
5
 0
VERTEX
 8
DISCO_5
 10
0
 20
0
 30
0
 70
128
 71
5
 72
1
 73
6
 74
6
 0
VERTEX
 8
DISCO_5
 10
0
 20
0
 30
0
 70
128
 71
6
 72
1
 73
7
 74
7
 0
VERTEX
 8
DISCO_5
 10
0
 20
0
 30
0
 70
128
 71
7
 72
1
 73
8
 74
8
 0
VERTEX
 8
DISCO_5
 10
0
 20
0
 30
0
 70
128
 71
8
 72
1
 73
9
 74
9
 0
VERTEX
 8
DISCO_5
 10
0
 20
0
 30
0
 70
128
 71
9
 72
1
 73
10
 74
10
 0
VERTEX
 8
DISCO_5
 10
0
 20
0
 30
0
 70
128
 71
10
 72
1
 73
11
 74
11
 0
VERTEX
 8
DISCO_5
 10
0
 20
0
 30
0
 70
128
 71
11
 72
1
 73
12
 74
12
 0
VERTEX
 8
DISCO_5
 10
0
 20
0
 30
0
 70
128
 71
12
 72
1
 73
13
 74
13
 0
VERTEX
 8
DISCO_5
 10
0
 20
0
 30
0
 70
128
 71
13
 72
1
 73
14
 74
14
 0
VERTEX
 8
DISCO_5
 10
0
 20
0
 30
0
 70
128
 71
14
 72
1
 73
15
 74
15
 0
VERTEX
 8
DISCO_5
 10
0
 20
0
 30
0
 70
128
 71
15
 72
1
 73
16
 74
16
 0
VERTEX
 8
DISCO_5
 10
0
 20
0
 30
0
 70
128
 71
16
 72
1
 73
17
 74
17
 0
VERTEX
 8
DISCO_5
 10
0
 20
0
 30
0
 70
128
 71
17
 72
1
 73
2
 74
2
 0
SEQEND
 0
POLYLINE
 8
DISCO_6
 66
1
 10
0.0
 20
0.0
 30
0.0
 70
64
 71
17
 72
16
 0
VERTEX
 8
DISCO_6
 10
25.0497
 20
-0.145
 30
28.3738
 70
192
 0
VERTEX
 8
DISCO_6
 10
25.1743
 20
-0.145
 30
28.3738
 70
192
 0
VERTEX
 8
DISCO_6
 10
25.1648
 20
-0.0973
 30
28.3738
 70
192
 0
VERTEX
 8
DISCO_6
 10
25.1378
 20
-0.0569
 30
28.3738
 70
192
 0
VERTEX
 8
DISCO_6
 10
25.0974
 20
-0.0299
 30
28.3738
 70
192
 0
VERTEX
 8
DISCO_6
 10
25.0497
 20
-0.0204
 30
28.3738
 70
192
 0
VERTEX
 8
DISCO_6
 10
25.0021
 20
-0.0299
 30
28.3738
 70
192
 0
VERTEX
 8
DISCO_6
 10
24.9616
 20
-0.0569
 30
28.3738
 70
192
 0
VERTEX
 8
DISCO_6
 10
24.9346
 20
-0.0973
 30
28.3738
 70
192
 0
VERTEX
 8
DISCO_6
 10
24.9252
 20
-0.145
 30
28.3738
 70
192
 0
VERTEX
 8
DISCO_6
 10
24.9346
 20
-0.1927
 30
28.3738
 70
192
 0
VERTEX
 8
DISCO_6
 10
24.9616
 20
-0.2331
 30
28.3738
 70
192
 0
VERTEX
 8
DISCO_6
 10
25.0021
 20
-0.2601
 30
28.3738
 70
192
 0
VERTEX
 8
DISCO_6
 10
25.0497
 20
-0.2696
 30
28.3738
 70
192
 0
VERTEX
 8
DISCO_6
 10
25.0974
 20
-0.2601
 30
28.3738
 70
192
 0
VERTEX
 8
DISCO_6
 10
25.1378
 20
-0.2331
 30
28.3738
 70
192
 0
VERTEX
 8
DISCO_6
 10
25.1648
 20
-0.1927
 30
28.3738
 70
192
 0
VERTEX
 8
DISCO_6
 10
0
 20
0
 30
0
 70
128
 71
2
 72
1
 73
3
 74
3
 0
VERTEX
 8
DISCO_6
 10
0
 20
0
 30
0
 70
128
 71
3
 72
1
 73
4
 74
4
 0
VERTEX
 8
DISCO_6
 10
0
 20
0
 30
0
 70
128
 71
4
 72
1
 73
5
 74
5
 0
VERTEX
 8
DISCO_6
 10
0
 20
0
 30
0
 70
128
 71
5
 72
1
 73
6
 74
6
 0
VERTEX
 8
DISCO_6
 10
0
 20
0
 30
0
 70
128
 71
6
 72
1
 73
7
 74
7
 0
VERTEX
 8
DISCO_6
 10
0
 20
0
 30
0
 70
128
 71
7
 72
1
 73
8
 74
8
 0
VERTEX
 8
DISCO_6
 10
0
 20
0
 30
0
 70
128
 71
8
 72
1
 73
9
 74
9
 0
VERTEX
 8
DISCO_6
 10
0
 20
0
 30
0
 70
128
 71
9
 72
1
 73
10
 74
10
 0
VERTEX
 8
DISCO_6
 10
0
 20
0
 30
0
 70
128
 71
10
 72
1
 73
11
 74
11
 0
VERTEX
 8
DISCO_6
 10
0
 20
0
 30
0
 70
128
 71
11
 72
1
 73
12
 74
12
 0
VERTEX
 8
DISCO_6
 10
0
 20
0
 30
0
 70
128
 71
12
 72
1
 73
13
 74
13
 0
VERTEX
 8
DISCO_6
 10
0
 20
0
 30
0
 70
128
 71
13
 72
1
 73
14
 74
14
 0
VERTEX
 8
DISCO_6
 10
0
 20
0
 30
0
 70
128
 71
14
 72
1
 73
15
 74
15
 0
VERTEX
 8
DISCO_6
 10
0
 20
0
 30
0
 70
128
 71
15
 72
1
 73
16
 74
16
 0
VERTEX
 8
DISCO_6
 10
0
 20
0
 30
0
 70
128
 71
16
 72
1
 73
17
 74
17
 0
VERTEX
 8
DISCO_6
 10
0
 20
0
 30
0
 70
128
 71
17
 72
1
 73
2
 74
2
 0
SEQEND
 0
POLYLINE
 8
DISCO_7
 66
1
 10
0.0
 20
0.0
 30
0.0
 70
64
 71
17
 72
16
 0
VERTEX
 8
DISCO_7
 10
24.4509
 20
-0.145
 30
28.3738
 70
192
 0
VERTEX
 8
DISCO_7
 10
24.5755
 20
-0.145
 30
28.3738
 70
192
 0
VERTEX
 8
DISCO_7
 10
24.566
 20
-0.0973
 30
28.3738
 70
192
 0
VERTEX
 8
DISCO_7
 10
24.539
 20
-0.0569
 30
28.3738
 70
192
 0
VERTEX
 8
DISCO_7
 10
24.4986
 20
-0.0299
 30
28.3738
 70
192
 0
VERTEX
 8
DISCO_7
 10
24.4509
 20
-0.0204
 30
28.3738
 70
192
 0
VERTEX
 8
DISCO_7
 10
24.4033
 20
-0.0299
 30
28.3738
 70
192
 0
VERTEX
 8
DISCO_7
 10
24.3629
 20
-0.0569
 30
28.3738
 70
192
 0
VERTEX
 8
DISCO_7
 10
24.3358
 20
-0.0973
 30
28.3738
 70
192
 0
VERTEX
 8
DISCO_7
 10
24.3264
 20
-0.145
 30
28.3738
 70
192
 0
VERTEX
 8
DISCO_7
 10
24.3358
 20
-0.1927
 30
28.3738
 70
192
 0
VERTEX
 8
DISCO_7
 10
24.3629
 20
-0.2331
 30
28.3738
 70
192
 0
VERTEX
 8
DISCO_7
 10
24.4033
 20
-0.2601
 30
28.3738
 70
192
 0
VERTEX
 8
DISCO_7
 10
24.4509
 20
-0.2696
 30
28.3738
 70
192
 0
VERTEX
 8
DISCO_7
 10
24.4986
 20
-0.2601
 30
28.3738
 70
192
 0
VERTEX
 8
DISCO_7
 10
24.539
 20
-0.2331
 30
28.3738
 70
192
 0
VERTEX
 8
DISCO_7
 10
24.566
 20
-0.1927
 30
28.3738
 70
192
 0
VERTEX
 8
DISCO_7
 10
0
 20
0
 30
0
 70
128
 71
2
 72
1
 73
3
 74
3
 0
VERTEX
 8
DISCO_7
 10
0
 20
0
 30
0
 70
128
 71
3
 72
1
 73
4
 74
4
 0
VERTEX
 8
DISCO_7
 10
0
 20
0
 30
0
 70
128
 71
4
 72
1
 73
5
 74
5
 0
VERTEX
 8
DISCO_7
 10
0
 20
0
 30
0
 70
128
 71
5
 72
1
 73
6
 74
6
 0
VERTEX
 8
DISCO_7
 10
0
 20
0
 30
0
 70
128
 71
6
 72
1
 73
7
 74
7
 0
VERTEX
 8
DISCO_7
 10
0
 20
0
 30
0
 70
128
 71
7
 72
1
 73
8
 74
8
 0
VERTEX
 8
DISCO_7
 10
0
 20
0
 30
0
 70
128
 71
8
 72
1
 73
9
 74
9
 0
VERTEX
 8
DISCO_7
 10
0
 20
0
 30
0
 70
128
 71
9
 72
1
 73
10
 74
10
 0
VERTEX
 8
DISCO_7
 10
0
 20
0
 30
0
 70
128
 71
10
 72
1
 73
11
 74
11
 0
VERTEX
 8
DISCO_7
 10
0
 20
0
 30
0
 70
128
 71
11
 72
1
 73
12
 74
12
 0
VERTEX
 8
DISCO_7
 10
0
 20
0
 30
0
 70
128
 71
12
 72
1
 73
13
 74
13
 0
VERTEX
 8
DISCO_7
 10
0
 20
0
 30
0
 70
128
 71
13
 72
1
 73
14
 74
14
 0
VERTEX
 8
DISCO_7
 10
0
 20
0
 30
0
 70
128
 71
14
 72
1
 73
15
 74
15
 0
VERTEX
 8
DISCO_7
 10
0
 20
0
 30
0
 70
128
 71
15
 72
1
 73
16
 74
16
 0
VERTEX
 8
DISCO_7
 10
0
 20
0
 30
0
 70
128
 71
16
 72
1
 73
17
 74
17
 0
VERTEX
 8
DISCO_7
 10
0
 20
0
 30
0
 70
128
 71
17
 72
1
 73
2
 74
2
 0
SEQEND
 0
POLYLINE
 8
DISCO_8
 66
1
 10
0.0
 20
0.0
 30
0.0
 70
64
 71
17
 72
16
 0
VERTEX
 8
DISCO_8
 10
23.8459
 20
-0.145
 30
28.3738
 70
192
 0
VERTEX
 8
DISCO_8
 10
23.9704
 20
-0.145
 30
28.3738
 70
192
 0
VERTEX
 8
DISCO_8
 10
23.961
 20
-0.0973
 30
28.3738
 70
192
 0
VERTEX
 8
DISCO_8
 10
23.9339
 20
-0.0569
 30
28.3738
 70
192
 0
VERTEX
 8
DISCO_8
 10
23.8935
 20
-0.0299
 30
28.3738
 70
192
 0
VERTEX
 8
DISCO_8
 10
23.8459
 20
-0.0204
 30
28.3738
 70
192
 0
VERTEX
 8
DISCO_8
 10
23.7982
 20
-0.0299
 30
28.3738
 70
192
 0
VERTEX
 8
DISCO_8
 10
23.7578
 20
-0.0569
 30
28.3738
 70
192
 0
VERTEX
 8
DISCO_8
 10
23.7308
 20
-0.0973
 30
28.3738
 70
192
 0
VERTEX
 8
DISCO_8
 10
23.7213
 20
-0.145
 30
28.3738
 70
192
 0
VERTEX
 8
DISCO_8
 10
23.7308
 20
-0.1927
 30
28.3738
 70
192
 0
VERTEX
 8
DISCO_8
 10
23.7578
 20
-0.2331
 30
28.3738
 70
192
 0
VERTEX
 8
DISCO_8
 10
23.7982
 20
-0.2601
 30
28.3738
 70
192
 0
VERTEX
 8
DISCO_8
 10
23.8459
 20
-0.2696
 30
28.3738
 70
192
 0
VERTEX
 8
DISCO_8
 10
23.8935
 20
-0.2601
 30
28.3738
 70
192
 0
VERTEX
 8
DISCO_8
 10
23.9339
 20
-0.2331
 30
28.3738
 70
192
 0
VERTEX
 8
DISCO_8
 10
23.961
 20
-0.1927
 30
28.3738
 70
192
 0
VERTEX
 8
DISCO_8
 10
0
 20
0
 30
0
 70
128
 71
2
 72
1
 73
3
 74
3
 0
VERTEX
 8
DISCO_8
 10
0
 20
0
 30
0
 70
128
 71
3
 72
1
 73
4
 74
4
 0
VERTEX
 8
DISCO_8
 10
0
 20
0
 30
0
 70
128
 71
4
 72
1
 73
5
 74
5
 0
VERTEX
 8
DISCO_8
 10
0
 20
0
 30
0
 70
128
 71
5
 72
1
 73
6
 74
6
 0
VERTEX
 8
DISCO_8
 10
0
 20
0
 30
0
 70
128
 71
6
 72
1
 73
7
 74
7
 0
VERTEX
 8
DISCO_8
 10
0
 20
0
 30
0
 70
128
 71
7
 72
1
 73
8
 74
8
 0
VERTEX
 8
DISCO_8
 10
0
 20
0
 30
0
 70
128
 71
8
 72
1
 73
9
 74
9
 0
VERTEX
 8
DISCO_8
 10
0
 20
0
 30
0
 70
128
 71
9
 72
1
 73
10
 74
10
 0
VERTEX
 8
DISCO_8
 10
0
 20
0
 30
0
 70
128
 71
10
 72
1
 73
11
 74
11
 0
VERTEX
 8
DISCO_8
 10
0
 20
0
 30
0
 70
128
 71
11
 72
1
 73
12
 74
12
 0
VERTEX
 8
DISCO_8
 10
0
 20
0
 30
0
 70
128
 71
12
 72
1
 73
13
 74
13
 0
VERTEX
 8
DISCO_8
 10
0
 20
0
 30
0
 70
128
 71
13
 72
1
 73
14
 74
14
 0
VERTEX
 8
DISCO_8
 10
0
 20
0
 30
0
 70
128
 71
14
 72
1
 73
15
 74
15
 0
VERTEX
 8
DISCO_8
 10
0
 20
0
 30
0
 70
128
 71
15
 72
1
 73
16
 74
16
 0
VERTEX
 8
DISCO_8
 10
0
 20
0
 30
0
 70
128
 71
16
 72
1
 73
17
 74
17
 0
VERTEX
 8
DISCO_8
 10
0
 20
0
 30
0
 70
128
 71
17
 72
1
 73
2
 74
2
 0
SEQEND
 0
POLYLINE
 8
FULGOR
 66
1
 10
0.0
 20
0.0
 30
0.0
 70
64
 71
363
 72
183
 0
VERTEX
 8
FULGOR
 10
-31.439
 20
0.1803
 30
28.3727
 70
192
 0
VERTEX
 8
FULGOR
 10
-34.1282
 20
0.0787
 30
28.3727
 70
192
 0
VERTEX
 8
FULGOR
 10
-30.3305
 20
0.1045
 30
28.3727
 70
192
 0
VERTEX
 8
FULGOR
 10
-33.9752
 20
0.3723
 30
28.3727
 70
192
 0
VERTEX
 8
FULGOR
 10
-33.9752
 20
0.4647
 30
28.3727
 70
192
 0
VERTEX
 8
FULGOR
 10
-33.5997
 20
0.4647
 30
28.3727
 70
192
 0
VERTEX
 8
FULGOR
 10
-33.5997
 20
0.5742
 30
28.3727
 70
192
 0
VERTEX
 8
FULGOR
 10
-34.1282
 20
0.5742
 30
28.3727
 70
192
 0
VERTEX
 8
FULGOR
 10
-33.4443
 20
0.2941
 30
28.3727
 70
192
 0
VERTEX
 8
FULGOR
 10
-33.4431
 20
0.2709
 30
28.3727
 70
192
 0
VERTEX
 8
FULGOR
 10
-33.4395
 20
0.2495
 30
28.3727
 70
192
 0
VERTEX
 8
FULGOR
 10
-33.9752
 20
0.0787
 30
28.3727
 70
192
 0
VERTEX
 8
FULGOR
 10
-33.9752
 20
0.2841
 30
28.3727
 70
192
 0
VERTEX
 8
FULGOR
 10
-33.5997
 20
0.2841
 30
28.3727
 70
192
 0
VERTEX
 8
FULGOR
 10
-33.5997
 20
0.3723
 30
28.3727
 70
192
 0
VERTEX
 8
FULGOR
 10
-33.4443
 20
0.5742
 30
28.3727
 70
192
 0
VERTEX
 8
FULGOR
 10
-33.4339
 20
0.2298
 30
28.3727
 70
192
 0
VERTEX
 8
FULGOR
 10
-33.4262
 20
0.2118
 30
28.3727
 70
192
 0
VERTEX
 8
FULGOR
 10
-33.4167
 20
0.1952
 30
28.3727
 70
192
 0
VERTEX
 8
FULGOR
 10
-33.4055
 20
0.1802
 30
28.3727
 70
192
 0
VERTEX
 8
FULGOR
 10
-33.2696
 20
0.1045
 30
28.3727
 70
192
 0
VERTEX
 8
FULGOR
 10
-33.2171
 20
0.0936
 30
28.3727
 70
192
 0
VERTEX
 8
FULGOR
 10
-33.1319
 20
0.0846
 30
28.3727
 70
192
 0
VERTEX
 8
FULGOR
 10
-33.0435
 20
0.0817
 30
28.3727
 70
192
 0
VERTEX
 8
FULGOR
 10
-32.9446
 20
0.0853
 30
28.3727
 70
192
 0
VERTEX
 8
FULGOR
 10
-32.87
 20
0.0952
 30
28.3727
 70
192
 0
VERTEX
 8
FULGOR
 10
-33.3927
 20
0.1665
 30
28.3727
 70
192
 0
VERTEX
 8
FULGOR
 10
-32.7781
 20
0.1203
 30
28.3727
 70
192
 0
VERTEX
 8
FULGOR
 10
-33.3784
 20
0.1542
 30
28.3727
 70
192
 0
VERTEX
 8
FULGOR
 10
-33.3627
 20
0.1431
 30
28.3727
 70
192
 0
VERTEX
 8
FULGOR
 10
-33.3371
 20
0.1288
 30
28.3727
 70
192
 0
VERTEX
 8
FULGOR
 10
-33.3093
 20
0.1169
 30
28.3727
 70
192
 0
VERTEX
 8
FULGOR
 10
-32.6766
 20
0.1888
 30
28.3727
 70
192
 0
VERTEX
 8
FULGOR
 10
-32.8178
 20
0.1072
 30
28.3727
 70
192
 0
VERTEX
 8
FULGOR
 10
-32.7504
 20
0.1324
 30
28.3727
 70
192
 0
VERTEX
 8
FULGOR
 10
-32.7249
 20
0.1466
 30
28.3727
 70
192
 0
VERTEX
 8
FULGOR
 10
-32.7021
 20
0.1631
 30
28.3727
 70
192
 0
VERTEX
 8
FULGOR
 10
-32.6451
 20
0.2643
 30
28.3727
 70
192
 0
VERTEX
 8
FULGOR
 10
-32.6438
 20
0.2846
 30
28.3727
 70
192
 0
VERTEX
 8
FULGOR
 10
-32.6436
 20
0.5742
 30
28.3727
 70
192
 0
VERTEX
 8
FULGOR
 10
-32.6886
 20
0.1754
 30
28.3727
 70
192
 0
VERTEX
 8
FULGOR
 10
-32.6662
 20
0.2034
 30
28.3727
 70
192
 0
VERTEX
 8
FULGOR
 10
-32.7967
 20
0.2861
 30
28.3727
 70
192
 0
VERTEX
 8
FULGOR
 10
-32.7976
 20
0.2791
 30
28.3727
 70
192
 0
VERTEX
 8
FULGOR
 10
-32.7991
 20
0.2722
 30
28.3727
 70
192
 0
VERTEX
 8
FULGOR
 10
-32.8014
 20
0.2654
 30
28.3727
 70
192
 0
VERTEX
 8
FULGOR
 10
-32.8044
 20
0.2586
 30
28.3727
 70
192
 0
VERTEX
 8
FULGOR
 10
-32.8082
 20
0.252
 30
28.3727
 70
192
 0
VERTEX
 8
FULGOR
 10
-32.8127
 20
0.2454
 30
28.3727
 70
192
 0
VERTEX
 8
FULGOR
 10
-32.821
 20
0.236
 30
28.3727
 70
192
 0
VERTEX
 8
FULGOR
 10
-32.8311
 20
0.227
 30
28.3727
 70
192
 0
VERTEX
 8
FULGOR
 10
-32.8431
 20
0.2184
 30
28.3727
 70
192
 0
VERTEX
 8
FULGOR
 10
-32.857
 20
0.2105
 30
28.3727
 70
192
 0
VERTEX
 8
FULGOR
 10
-32.6577
 20
0.2192
 30
28.3727
 70
192
 0
VERTEX
 8
FULGOR
 10
-32.6511
 20
0.2362
 30
28.3727
 70
192
 0
VERTEX
 8
FULGOR
 10
-32.6465
 20
0.2546
 30
28.3727
 70
192
 0
VERTEX
 8
FULGOR
 10
-32.7965
 20
0.5742
 30
28.3727
 70
192
 0
VERTEX
 8
FULGOR
 10
-32.7965
 20
0.2931
 30
28.3727
 70
192
 0
VERTEX
 8
FULGOR
 10
-33.1306
 20
0.1814
 30
28.3727
 70
192
 0
VERTEX
 8
FULGOR
 10
-32.8786
 20
0.201
 30
28.3727
 70
192
 0
VERTEX
 8
FULGOR
 10
-33.203
 20
0.1949
 30
28.3727
 70
192
 0
VERTEX
 8
FULGOR
 10
-33.2254
 20
0.203
 30
28.3727
 70
192
 0
VERTEX
 8
FULGOR
 10
-32.9039
 20
0.1928
 30
28.3727
 70
192
 0
VERTEX
 8
FULGOR
 10
-32.9408
 20
0.1847
 30
28.3727
 70
192
 0
VERTEX
 8
FULGOR
 10
-32.9838
 20
0.1794
 30
28.3727
 70
192
 0
VERTEX
 8
FULGOR
 10
-33.2693
 20
0.2329
 30
28.3727
 70
192
 0
VERTEX
 8
FULGOR
 10
-33.2746
 20
0.2396
 30
28.3727
 70
192
 0
VERTEX
 8
FULGOR
 10
-33.2792
 20
0.2466
 30
28.3727
 70
192
 0
VERTEX
 8
FULGOR
 10
-33.283
 20
0.2541
 30
28.3727
 70
192
 0
VERTEX
 8
FULGOR
 10
-33.2861
 20
0.2619
 30
28.3727
 70
192
 0
VERTEX
 8
FULGOR
 10
-33.044
 20
0.1772
 30
28.3727
 70
192
 0
VERTEX
 8
FULGOR
 10
-33.2907
 20
0.283
 30
28.3727
 70
192
 0
VERTEX
 8
FULGOR
 10
-33.2914
 20
0.2969
 30
28.3727
 70
192
 0
VERTEX
 8
FULGOR
 10
-33.2914
 20
0.5742
 30
28.3727
 70
192
 0
VERTEX
 8
FULGOR
 10
-33.1769
 20
0.1883
 30
28.3727
 70
192
 0
VERTEX
 8
FULGOR
 10
-33.2399
 20
0.21
 30
28.3727
 70
192
 0
VERTEX
 8
FULGOR
 10
-33.2525
 20
0.2179
 30
28.3727
 70
192
 0
VERTEX
 8
FULGOR
 10
-33.2632
 20
0.2266
 30
28.3727
 70
192
 0
VERTEX
 8
FULGOR
 10
-32.3357
 20
0.1882
 30
28.3727
 70
192
 0
VERTEX
 8
FULGOR
 10
-32.3357
 20
0.5742
 30
28.3727
 70
192
 0
VERTEX
 8
FULGOR
 10
-31.1204
 20
0.5286
 30
28.3727
 70
192
 0
VERTEX
 8
FULGOR
 10
-33.2884
 20
0.27
 30
28.3727
 70
192
 0
VERTEX
 8
FULGOR
 10
-32.4888
 20
0.5742
 30
28.3727
 70
192
 0
VERTEX
 8
FULGOR
 10
-31.423
 20
0.5738
 30
28.3727
 70
192
 0
VERTEX
 8
FULGOR
 10
-32.4888
 20
0.0787
 30
28.3727
 70
192
 0
VERTEX
 8
FULGOR
 10
-31.9602
 20
0.0787
 30
28.3727
 70
192
 0
VERTEX
 8
FULGOR
 10
-31.9602
 20
0.1882
 30
28.3727
 70
192
 0
VERTEX
 8
FULGOR
 10
-31.2068
 20
0.5481
 30
28.3727
 70
192
 0
VERTEX
 8
FULGOR
 10
-31.2984
 20
0.5627
 30
28.3727
 70
192
 0
VERTEX
 8
FULGOR
 10
-31.4926
 20
0.5737
 30
28.3727
 70
192
 0
VERTEX
 8
FULGOR
 10
-31.7611
 20
0.4987
 30
28.3727
 70
192
 0
VERTEX
 8
FULGOR
 10
-31.7871
 20
0.4817
 30
28.3727
 70
192
 0
VERTEX
 8
FULGOR
 10
-31.8092
 20
0.4641
 30
28.3727
 70
192
 0
VERTEX
 8
FULGOR
 10
-31.8278
 20
0.4459
 30
28.3727
 70
192
 0
VERTEX
 8
FULGOR
 10
-31.5557
 20
0.5674
 30
28.3727
 70
192
 0
VERTEX
 8
FULGOR
 10
-31.6118
 20
0.5565
 30
28.3727
 70
192
 0
VERTEX
 8
FULGOR
 10
-31.6669
 20
0.5407
 30
28.3727
 70
192
 0
VERTEX
 8
FULGOR
 10
-31.8698
 20
0.3788
 30
28.3727
 70
192
 0
VERTEX
 8
FULGOR
 10
-31.8742
 20
0.3645
 30
28.3727
 70
192
 0
VERTEX
 8
FULGOR
 10
-31.7166
 20
0.5213
 30
28.3727
 70
192
 0
VERTEX
 8
FULGOR
 10
-31.742
 20
0.5091
 30
28.3727
 70
192
 0
VERTEX
 8
FULGOR
 10
-31.8424
 20
0.4286
 30
28.3727
 70
192
 0
VERTEX
 8
FULGOR
 10
-31.8785
 20
0.3065
 30
28.3727
 70
192
 0
VERTEX
 8
FULGOR
 10
-31.853
 20
0.4132
 30
28.3727
 70
192
 0
VERTEX
 8
FULGOR
 10
-31.8622
 20
0.3967
 30
28.3727
 70
192
 0
VERTEX
 8
FULGOR
 10
-31.8774
 20
0.3495
 30
28.3727
 70
192
 0
VERTEX
 8
FULGOR
 10
-31.8787
 20
0.3391
 30
28.3727
 70
192
 0
VERTEX
 8
FULGOR
 10
-31.8795
 20
0.3229
 30
28.3727
 70
192
 0
VERTEX
 8
FULGOR
 10
-31.8756
 20
0.2905
 30
28.3727
 70
192
 0
VERTEX
 8
FULGOR
 10
-31.8113
 20
0.1914
 30
28.3727
 70
192
 0
VERTEX
 8
FULGOR
 10
-31.787
 20
0.1718
 30
28.3727
 70
192
 0
VERTEX
 8
FULGOR
 10
-31.871
 20
0.2749
 30
28.3727
 70
192
 0
VERTEX
 8
FULGOR
 10
-31.7198
 20
0.1323
 30
28.3727
 70
192
 0
VERTEX
 8
FULGOR
 10
-31.683
 20
0.117
 30
28.3727
 70
192
 0
VERTEX
 8
FULGOR
 10
-31.8646
 20
0.2597
 30
28.3727
 70
192
 0
VERTEX
 8
FULGOR
 10
-31.8567
 20
0.245
 30
28.3727
 70
192
 0
VERTEX
 8
FULGOR
 10
-31.51
 20
0.0812
 30
28.3727
 70
192
 0
VERTEX
 8
FULGOR
 10
-31.4622
 20
0.0789
 30
28.3727
 70
192
 0
VERTEX
 8
FULGOR
 10
-31.423
 20
0.0791
 30
28.3727
 70
192
 0
VERTEX
 8
FULGOR
 10
-31.361
 20
0.0827
 30
28.3727
 70
192
 0
VERTEX
 8
FULGOR
 10
-31.8438
 20
0.2261
 30
28.3727
 70
192
 0
VERTEX
 8
FULGOR
 10
-31.8286
 20
0.2083
 30
28.3727
 70
192
 0
VERTEX
 8
FULGOR
 10
-31.7547
 20
0.1506
 30
28.3727
 70
192
 0
VERTEX
 8
FULGOR
 10
-31.2962
 20
0.336
 30
28.3727
 70
192
 0
VERTEX
 8
FULGOR
 10
-31.633
 20
0.1013
 30
28.3727
 70
192
 0
VERTEX
 8
FULGOR
 10
-31.5778
 20
0.0895
 30
28.3727
 70
192
 0
VERTEX
 8
FULGOR
 10
-31.2839
 20
0.0928
 30
28.3727
 70
192
 0
VERTEX
 8
FULGOR
 10
-31.1204
 20
0.1243
 30
28.3727
 70
192
 0
VERTEX
 8
FULGOR
 10
-31.4678
 20
0.1805
 30
28.3727
 70
192
 0
VERTEX
 8
FULGOR
 10
-31.5014
 20
0.1832
 30
28.3727
 70
192
 0
VERTEX
 8
FULGOR
 10
-31.1204
 20
0.336
 30
28.3727
 70
192
 0
VERTEX
 8
FULGOR
 10
-31.5643
 20
0.1973
 30
28.3727
 70
192
 0
VERTEX
 8
FULGOR
 10
-31.5871
 20
0.2062
 30
28.3727
 70
192
 0
VERTEX
 8
FULGOR
 10
-31.2963
 20
0.1909
 30
28.3727
 70
192
 0
VERTEX
 8
FULGOR
 10
-31.3163
 20
0.1872
 30
28.3727
 70
192
 0
VERTEX
 8
FULGOR
 10
-31.6399
 20
0.2397
 30
28.3727
 70
192
 0
VERTEX
 8
FULGOR
 10
-31.3714
 20
0.1816
 30
28.3727
 70
192
 0
VERTEX
 8
FULGOR
 10
-31.4119
 20
0.18
 30
28.3727
 70
192
 0
VERTEX
 8
FULGOR
 10
-31.5337
 20
0.1888
 30
28.3727
 70
192
 0
VERTEX
 8
FULGOR
 10
-31.6082
 20
0.2168
 30
28.3727
 70
192
 0
VERTEX
 8
FULGOR
 10
-31.6787
 20
0.3013
 30
28.3727
 70
192
 0
VERTEX
 8
FULGOR
 10
-31.681
 20
0.3118
 30
28.3727
 70
192
 0
VERTEX
 8
FULGOR
 10
-31.6825
 20
0.3226
 30
28.3727
 70
192
 0
VERTEX
 8
FULGOR
 10
-31.683
 20
0.3339
 30
28.3727
 70
192
 0
VERTEX
 8
FULGOR
 10
-31.6823
 20
0.3451
 30
28.3727
 70
192
 0
VERTEX
 8
FULGOR
 10
-31.6272
 20
0.2293
 30
28.3727
 70
192
 0
VERTEX
 8
FULGOR
 10
-31.6512
 20
0.2512
 30
28.3727
 70
192
 0
VERTEX
 8
FULGOR
 10
-31.661
 20
0.2636
 30
28.3727
 70
192
 0
VERTEX
 8
FULGOR
 10
-31.6684
 20
0.385
 30
28.3727
 70
192
 0
VERTEX
 8
FULGOR
 10
-31.6624
 20
0.3937
 30
28.3727
 70
192
 0
VERTEX
 8
FULGOR
 10
-31.6556
 20
0.4019
 30
28.3727
 70
192
 0
VERTEX
 8
FULGOR
 10
-31.6691
 20
0.2769
 30
28.3727
 70
192
 0
VERTEX
 8
FULGOR
 10
-31.6307
 20
0.4238
 30
28.3727
 70
192
 0
VERTEX
 8
FULGOR
 10
-31.6162
 20
0.4331
 30
28.3727
 70
192
 0
VERTEX
 8
FULGOR
 10
-31.6755
 20
0.2912
 30
28.3727
 70
192
 0
VERTEX
 8
FULGOR
 10
-31.5675
 20
0.4548
 30
28.3727
 70
192
 0
VERTEX
 8
FULGOR
 10
-31.5387
 20
0.463
 30
28.3727
 70
192
 0
VERTEX
 8
FULGOR
 10
-31.6805
 20
0.3558
 30
28.3727
 70
192
 0
VERTEX
 8
FULGOR
 10
-31.4883
 20
0.471
 30
28.3727
 70
192
 0
VERTEX
 8
FULGOR
 10
-31.6775
 20
0.3661
 30
28.3727
 70
192
 0
VERTEX
 8
FULGOR
 10
-31.3651
 20
0.4669
 30
28.3727
 70
192
 0
VERTEX
 8
FULGOR
 10
-31.6735
 20
0.3758
 30
28.3727
 70
192
 0
VERTEX
 8
FULGOR
 10
-31.1204
 20
0.4228
 30
28.3727
 70
192
 0
VERTEX
 8
FULGOR
 10
-30.9651
 20
0.3264
 30
28.3727
 70
192
 0
VERTEX
 8
FULGOR
 10
-30.9638
 20
0.3044
 30
28.3727
 70
192
 0
VERTEX
 8
FULGOR
 10
-31.6439
 20
0.4134
 30
28.3727
 70
192
 0
VERTEX
 8
FULGOR
 10
-31.5953
 20
0.4439
 30
28.3727
 70
192
 0
VERTEX
 8
FULGOR
 10
-30.9456
 20
0.2456
 30
28.3727
 70
192
 0
VERTEX
 8
FULGOR
 10
-30.9353
 20
0.2283
 30
28.3727
 70
192
 0
VERTEX
 8
FULGOR
 10
-30.923
 20
0.2121
 30
28.3727
 70
192
 0
VERTEX
 8
FULGOR
 10
-30.9091
 20
0.1971
 30
28.3727
 70
192
 0
VERTEX
 8
FULGOR
 10
-30.8852
 20
0.1764
 30
28.3727
 70
192
 0
VERTEX
 8
FULGOR
 10
-31.5046
 20
0.4693
 30
28.3727
 70
192
 0
VERTEX
 8
FULGOR
 10
-31.4678
 20
0.4718
 30
28.3727
 70
192
 0
VERTEX
 8
FULGOR
 10
-31.2697
 20
0.4532
 30
28.3727
 70
192
 0
VERTEX
 8
FULGOR
 10
-30.96
 20
0.2836
 30
28.3727
 70
192
 0
VERTEX
 8
FULGOR
 10
-30.9539
 20
0.264
 30
28.3727
 70
192
 0
VERTEX
 8
FULGOR
 10
-30.589
 20
0.0827
 30
28.3727
 70
192
 0
VERTEX
 8
FULGOR
 10
-30.5249
 20
0.0801
 30
28.3727
 70
192
 0
VERTEX
 8
FULGOR
 10
-30.8581
 20
0.1581
 30
28.3727
 70
192
 0
VERTEX
 8
FULGOR
 10
-30.3681
 20
0.0953
 30
28.3727
 70
192
 0
VERTEX
 8
FULGOR
 10
-30.8285
 20
0.142
 30
28.3727
 70
192
 0
VERTEX
 8
FULGOR
 10
-30.7858
 20
0.1238
 30
28.3727
 70
192
 0
VERTEX
 8
FULGOR
 10
-30.7288
 20
0.1059
 30
28.3727
 70
192
 0
VERTEX
 8
FULGOR
 10
-30.6582
 20
0.0911
 30
28.3727
 70
192
 0
VERTEX
 8
FULGOR
 10
-30.4496
 20
0.0837
 30
28.3727
 70
192
 0
VERTEX
 8
FULGOR
 10
-30.1338
 20
0.2045
 30
28.3727
 70
192
 0
VERTEX
 8
FULGOR
 10
-30.298
 20
0.1124
 30
28.3727
 70
192
 0
VERTEX
 8
FULGOR
 10
-30.2424
 20
0.1325
 30
28.3727
 70
192
 0
VERTEX
 8
FULGOR
 10
-30.2015
 20
0.1526
 30
28.3727
 70
192
 0
VERTEX
 8
FULGOR
 10
-30.1735
 20
0.1701
 30
28.3727
 70
192
 0
VERTEX
 8
FULGOR
 10
-30.1485
 20
0.1899
 30
28.3727
 70
192
 0
VERTEX
 8
FULGOR
 10
-30.0862
 20
0.3043
 30
28.3727
 70
192
 0
VERTEX
 8
FULGOR
 10
-30.0849
 20
0.3263
 30
28.3727
 70
192
 0
VERTEX
 8
FULGOR
 10
-30.0862
 20
0.3483
 30
28.3727
 70
192
 0
VERTEX
 8
FULGOR
 10
-30.0899
 20
0.3691
 30
28.3727
 70
192
 0
VERTEX
 8
FULGOR
 10
-30.1207
 20
0.2201
 30
28.3727
 70
192
 0
VERTEX
 8
FULGOR
 10
-30.1094
 20
0.2368
 30
28.3727
 70
192
 0
VERTEX
 8
FULGOR
 10
-30.1
 20
0.2546
 30
28.3727
 70
192
 0
VERTEX
 8
FULGOR
 10
-30.1267
 20
0.4405
 30
28.3727
 70
192
 0
VERTEX
 8
FULGOR
 10
-30.1407
 20
0.4556
 30
28.3727
 70
192
 0
VERTEX
 8
FULGOR
 10
-30.1646
 20
0.4762
 30
28.3727
 70
192
 0
VERTEX
 8
FULGOR
 10
-30.1916
 20
0.4945
 30
28.3727
 70
192
 0
VERTEX
 8
FULGOR
 10
-30.2212
 20
0.5107
 30
28.3727
 70
192
 0
VERTEX
 8
FULGOR
 10
-30.264
 20
0.5289
 30
28.3727
 70
192
 0
VERTEX
 8
FULGOR
 10
-30.0928
 20
0.2736
 30
28.3727
 70
192
 0
VERTEX
 8
FULGOR
 10
-30.0878
 20
0.2937
 30
28.3727
 70
192
 0
VERTEX
 8
FULGOR
 10
-30.096
 20
0.3887
 30
28.3727
 70
192
 0
VERTEX
 8
FULGOR
 10
-30.1042
 20
0.4071
 30
28.3727
 70
192
 0
VERTEX
 8
FULGOR
 10
-30.6003
 20
0.5692
 30
28.3727
 70
192
 0
VERTEX
 8
FULGOR
 10
-30.1145
 20
0.4243
 30
28.3727
 70
192
 0
VERTEX
 8
FULGOR
 10
-30.321
 20
0.5469
 30
28.3727
 70
192
 0
VERTEX
 8
FULGOR
 10
-30.3916
 20
0.5618
 30
28.3727
 70
192
 0
VERTEX
 8
FULGOR
 10
-30.4609
 20
0.5702
 30
28.3727
 70
192
 0
VERTEX
 8
FULGOR
 10
-30.8766
 20
0.4828
 30
28.3727
 70
192
 0
VERTEX
 8
FULGOR
 10
-30.9016
 20
0.463
 30
28.3727
 70
192
 0
VERTEX
 8
FULGOR
 10
-30.9164
 20
0.4484
 30
28.3727
 70
192
 0
VERTEX
 8
FULGOR
 10
-30.9295
 20
0.4328
 30
28.3727
 70
192
 0
VERTEX
 8
FULGOR
 10
-30.9408
 20
0.4161
 30
28.3727
 70
192
 0
VERTEX
 8
FULGOR
 10
-30.9501
 20
0.3983
 30
28.3727
 70
192
 0
VERTEX
 8
FULGOR
 10
-30.9573
 20
0.3793
 30
28.3727
 70
192
 0
VERTEX
 8
FULGOR
 10
-30.5249
 20
0.5728
 30
28.3727
 70
192
 0
VERTEX
 8
FULGOR
 10
-30.9638
 20
0.3485
 30
28.3727
 70
192
 0
VERTEX
 8
FULGOR
 10
-30.7673
 20
0.3263
 30
28.3727
 70
192
 0
VERTEX
 8
FULGOR
 10
-30.7668
 20
0.3144
 30
28.3727
 70
192
 0
VERTEX
 8
FULGOR
 10
-30.6818
 20
0.5577
 30
28.3727
 70
192
 0
VERTEX
 8
FULGOR
 10
-30.752
 20
0.5405
 30
28.3727
 70
192
 0
VERTEX
 8
FULGOR
 10
-30.8077
 20
0.5205
 30
28.3727
 70
192
 0
VERTEX
 8
FULGOR
 10
-30.8487
 20
0.5004
 30
28.3727
 70
192
 0
VERTEX
 8
FULGOR
 10
-30.9622
 20
0.359
 30
28.3727
 70
192
 0
VERTEX
 8
FULGOR
 10
-30.7431
 20
0.2541
 30
28.3727
 70
192
 0
VERTEX
 8
FULGOR
 10
-30.736
 20
0.2459
 30
28.3727
 70
192
 0
VERTEX
 8
FULGOR
 10
-30.7652
 20
0.303
 30
28.3727
 70
192
 0
VERTEX
 8
FULGOR
 10
-30.7627
 20
0.2921
 30
28.3727
 70
192
 0
VERTEX
 8
FULGOR
 10
-30.7591
 20
0.2818
 30
28.3727
 70
192
 0
VERTEX
 8
FULGOR
 10
-30.7547
 20
0.2721
 30
28.3727
 70
192
 0
VERTEX
 8
FULGOR
 10
-30.648
 20
0.1965
 30
28.3727
 70
192
 0
VERTEX
 8
FULGOR
 10
-30.6144
 20
0.1885
 30
28.3727
 70
192
 0
VERTEX
 8
FULGOR
 10
-30.7493
 20
0.2628
 30
28.3727
 70
192
 0
VERTEX
 8
FULGOR
 10
-30.5249
 20
0.1807
 30
28.3727
 70
192
 0
VERTEX
 8
FULGOR
 10
-30.4714
 20
0.1833
 30
28.3727
 70
192
 0
VERTEX
 8
FULGOR
 10
-30.724
 20
0.2346
 30
28.3727
 70
192
 0
VERTEX
 8
FULGOR
 10
-30.3955
 20
0.1984
 30
28.3727
 70
192
 0
VERTEX
 8
FULGOR
 10
-30.3714
 20
0.2074
 30
28.3727
 70
192
 0
VERTEX
 8
FULGOR
 10
-30.3495
 20
0.2183
 30
28.3727
 70
192
 0
VERTEX
 8
FULGOR
 10
-30.7103
 20
0.2244
 30
28.3727
 70
192
 0
VERTEX
 8
FULGOR
 10
-30.3216
 20
0.2383
 30
28.3727
 70
192
 0
VERTEX
 8
FULGOR
 10
-30.6951
 20
0.2153
 30
28.3727
 70
192
 0
VERTEX
 8
FULGOR
 10
-30.6727
 20
0.2049
 30
28.3727
 70
192
 0
VERTEX
 8
FULGOR
 10
-30.2977
 20
0.2675
 30
28.3727
 70
192
 0
VERTEX
 8
FULGOR
 10
-30.571
 20
0.1826
 30
28.3727
 70
192
 0
VERTEX
 8
FULGOR
 10
-30.4285
 20
0.1899
 30
28.3727
 70
192
 0
VERTEX
 8
FULGOR
 10
-30.3348
 20
0.2278
 30
28.3727
 70
192
 0
VERTEX
 8
FULGOR
 10
-30.2836
 20
0.3086
 30
28.3727
 70
192
 0
VERTEX
 8
FULGOR
 10
-30.283
 20
0.3144
 30
28.3727
 70
192
 0
VERTEX
 8
FULGOR
 10
-30.2824
 20
0.3263
 30
28.3727
 70
192
 0
VERTEX
 8
FULGOR
 10
-30.283
 20
0.3382
 30
28.3727
 70
192
 0
VERTEX
 8
FULGOR
 10
-30.3101
 20
0.25
 30
28.3727
 70
192
 0
VERTEX
 8
FULGOR
 10
-30.3035
 20
0.2585
 30
28.3727
 70
192
 0
VERTEX
 8
FULGOR
 10
-30.2907
 20
0.3707
 30
28.3727
 70
192
 0
VERTEX
 8
FULGOR
 10
-30.2951
 20
0.3804
 30
28.3727
 70
192
 0
VERTEX
 8
FULGOR
 10
-30.2928
 20
0.2769
 30
28.3727
 70
192
 0
VERTEX
 8
FULGOR
 10
-30.2888
 20
0.287
 30
28.3727
 70
192
 0
VERTEX
 8
FULGOR
 10
-30.3138
 20
0.4065
 30
28.3727
 70
192
 0
VERTEX
 8
FULGOR
 10
-30.2857
 20
0.2975
 30
28.3727
 70
192
 0
VERTEX
 8
FULGOR
 10
-30.2845
 20
0.3496
 30
28.3727
 70
192
 0
VERTEX
 8
FULGOR
 10
-30.3548
 20
0.437
 30
28.3727
 70
192
 0
VERTEX
 8
FULGOR
 10
-30.3773
 20
0.4473
 30
28.3727
 70
192
 0
VERTEX
 8
FULGOR
 10
-30.2871
 20
0.3604
 30
28.3727
 70
192
 0
VERTEX
 8
FULGOR
 10
-30.3005
 20
0.3896
 30
28.3727
 70
192
 0
VERTEX
 8
FULGOR
 10
-30.3067
 20
0.3983
 30
28.3727
 70
192
 0
VERTEX
 8
FULGOR
 10
-30.3258
 20
0.4178
 30
28.3727
 70
192
 0
VERTEX
 8
FULGOR
 10
-30.5784
 20
0.4689
 30
28.3727
 70
192
 0
VERTEX
 8
FULGOR
 10
-30.6213
 20
0.4624
 30
28.3727
 70
192
 0
VERTEX
 8
FULGOR
 10
-30.6543
 20
0.4539
 30
28.3727
 70
192
 0
VERTEX
 8
FULGOR
 10
-30.3396
 20
0.4279
 30
28.3727
 70
192
 0
VERTEX
 8
FULGOR
 10
-30.402
 20
0.4558
 30
28.3727
 70
192
 0
VERTEX
 8
FULGOR
 10
-30.4355
 20
0.4637
 30
28.3727
 70
192
 0
VERTEX
 8
FULGOR
 10
-30.4789
 20
0.4695
 30
28.3727
 70
192
 0
VERTEX
 8
FULGOR
 10
-30.5249
 20
0.4714
 30
28.3727
 70
192
 0
VERTEX
 8
FULGOR
 10
-30.6784
 20
0.445
 30
28.3727
 70
192
 0
VERTEX
 8
FULGOR
 10
-30.7003
 20
0.4342
 30
28.3727
 70
192
 0
VERTEX
 8
FULGOR
 10
-30.715
 20
0.4248
 30
28.3727
 70
192
 0
VERTEX
 8
FULGOR
 10
-30.7282
 20
0.4142
 30
28.3727
 70
192
 0
VERTEX
 8
FULGOR
 10
-30.7396
 20
0.4025
 30
28.3727
 70
192
 0
VERTEX
 8
FULGOR
 10
-30.7463
 20
0.3941
 30
28.3727
 70
192
 0
VERTEX
 8
FULGOR
 10
-30.7521
 20
0.3852
 30
28.3727
 70
192
 0
VERTEX
 8
FULGOR
 10
-30.757
 20
0.3757
 30
28.3727
 70
192
 0
VERTEX
 8
FULGOR
 10
-30.761
 20
0.3657
 30
28.3727
 70
192
 0
VERTEX
 8
FULGOR
 10
-30.7641
 20
0.3551
 30
28.3727
 70
192
 0
VERTEX
 8
FULGOR
 10
-29.6834
 20
0.2882
 30
28.3727
 70
192
 0
VERTEX
 8
FULGOR
 10
-30.7662
 20
0.344
 30
28.3727
 70
192
 0
VERTEX
 8
FULGOR
 10
-30.7668
 20
0.3382
 30
28.3727
 70
192
 0
VERTEX
 8
FULGOR
 10
-29.9296
 20
0.0787
 30
28.3727
 70
192
 0
VERTEX
 8
FULGOR
 10
-29.7766
 20
0.0787
 30
28.3727
 70
192
 0
VERTEX
 8
FULGOR
 10
-29.7766
 20
0.2882
 30
28.3727
 70
192
 0
VERTEX
 8
FULGOR
 10
-29.5754
 20
0.2385
 30
28.3727
 70
192
 0
VERTEX
 8
FULGOR
 10
-29.5636
 20
0.2259
 30
28.3727
 70
192
 0
VERTEX
 8
FULGOR
 10
-29.4561
 20
0.0787
 30
28.3727
 70
192
 0
VERTEX
 8
FULGOR
 10
-29.1831
 20
0.0787
 30
28.3727
 70
192
 0
VERTEX
 8
FULGOR
 10
-29.2198
 20
0.0978
 30
28.3727
 70
192
 0
VERTEX
 8
FULGOR
 10
-29.6328
 20
0.2779
 30
28.3727
 70
192
 0
VERTEX
 8
FULGOR
 10
-29.6203
 20
0.272
 30
28.3727
 70
192
 0
VERTEX
 8
FULGOR
 10
-29.2729
 20
0.1345
 30
28.3727
 70
192
 0
VERTEX
 8
FULGOR
 10
-29.3128
 20
0.1717
 30
28.3727
 70
192
 0
VERTEX
 8
FULGOR
 10
-29.9296
 20
0.3762
 30
28.3727
 70
192
 0
VERTEX
 8
FULGOR
 10
-29.3634
 20
0.24
 30
28.3727
 70
192
 0
VERTEX
 8
FULGOR
 10
-29.3881
 20
0.2679
 30
28.3727
 70
192
 0
VERTEX
 8
FULGOR
 10
-29.4115
 20
0.2878
 30
28.3727
 70
192
 0
VERTEX
 8
FULGOR
 10
-29.5905
 20
0.2521
 30
28.3727
 70
192
 0
VERTEX
 8
FULGOR
 10
-30.4077
 20
0.0896
 30
28.3727
 70
192
 0
VERTEX
 8
FULGOR
 10
-29.4675
 20
0.318
 30
28.3727
 70
192
 0
VERTEX
 8
FULGOR
 10
-29.2506
 20
0.1171
 30
28.3727
 70
192
 0
VERTEX
 8
FULGOR
 10
-29.3934
 20
0.3491
 30
28.3727
 70
192
 0
VERTEX
 8
FULGOR
 10
-29.434
 20
0.3025
 30
28.3727
 70
192
 0
VERTEX
 8
FULGOR
 10
-29.3673
 20
0.3705
 30
28.3727
 70
192
 0
VERTEX
 8
FULGOR
 10
-29.4513
 20
0.3117
 30
28.3727
 70
192
 0
VERTEX
 8
FULGOR
 10
-29.3427
 20
0.4086
 30
28.3727
 70
192
 0
VERTEX
 8
FULGOR
 10
-29.3373
 20
0.4297
 30
28.3727
 70
192
 0
VERTEX
 8
FULGOR
 10
-29.432
 20
0.3292
 30
28.3727
 70
192
 0
VERTEX
 8
FULGOR
 10
-29.3395
 20
0.4705
 30
28.3727
 70
192
 0
VERTEX
 8
FULGOR
 10
-29.3487
 20
0.4908
 30
28.3727
 70
192
 0
VERTEX
 8
FULGOR
 10
-29.3627
 20
0.5084
 30
28.3727
 70
192
 0
VERTEX
 8
FULGOR
 10
-29.3858
 20
0.5269
 30
28.3727
 70
192
 0
VERTEX
 8
FULGOR
 10
-29.3519
 20
0.3901
 30
28.3727
 70
192
 0
VERTEX
 8
FULGOR
 10
-29.498
 20
0.5661
 30
28.3727
 70
192
 0
VERTEX
 8
FULGOR
 10
-29.5429
 20
0.572
 30
28.3727
 70
192
 0
VERTEX
 8
FULGOR
 10
-29.3361
 20
0.4474
 30
28.3727
 70
192
 0
VERTEX
 8
FULGOR
 10
-29.7766
 20
0.486
 30
28.3727
 70
192
 0
VERTEX
 8
FULGOR
 10
-29.426
 20
0.5468
 30
28.3727
 70
192
 0
VERTEX
 8
FULGOR
 10
-29.5867
 20
0.5742
 30
28.3727
 70
192
 0
VERTEX
 8
FULGOR
 10
-29.9296
 20
0.5742
 30
28.3727
 70
192
 0
VERTEX
 8
FULGOR
 10
-29.7766
 20
0.3764
 30
28.3727
 70
192
 0
VERTEX
 8
FULGOR
 10
-29.637
 20
0.3762
 30
28.3727
 70
192
 0
VERTEX
 8
FULGOR
 10
-29.5973
 20
0.3795
 30
28.3727
 70
192
 0
VERTEX
 8
FULGOR
 10
-29.5524
 20
0.3956
 30
28.3727
 70
192
 0
VERTEX
 8
FULGOR
 10
-29.5426
 20
0.4036
 30
28.3727
 70
192
 0
VERTEX
 8
FULGOR
 10
-29.5365
 20
0.4113
 30
28.3727
 70
192
 0
VERTEX
 8
FULGOR
 10
-29.531
 20
0.4383
 30
28.3727
 70
192
 0
VERTEX
 8
FULGOR
 10
-29.5336
 20
0.448
 30
28.3727
 70
192
 0
VERTEX
 8
FULGOR
 10
-29.6055
 20
0.4843
 30
28.3727
 70
192
 0
VERTEX
 8
FULGOR
 10
-29.5557
 20
0.4705
 30
28.3727
 70
192
 0
VERTEX
 8
FULGOR
 10
-29.6229
 20
0.4857
 30
28.3727
 70
192
 0
VERTEX
 8
FULGOR
 10
-29.5735
 20
0.4779
 30
28.3727
 70
192
 0
VERTEX
 8
FULGOR
 10
-29.5878
 20
0.4815
 30
28.3727
 70
192
 0
VERTEX
 8
FULGOR
 10
-30.694
 20
0.0986
 30
28.3727
 70
192
 0
VERTEX
 8
FULGOR
 10
-30.7544
 20
0.1139
 30
28.3727
 70
192
 0
VERTEX
 8
FULGOR
 10
-29.6417
 20
0.486
 30
28.3727
 70
192
 0
VERTEX
 8
FULGOR
 10
-29.6448
 20
0.5742
 30
28.3727
 70
192
 0
VERTEX
 8
FULGOR
 10
-29.5388
 20
0.4563
 30
28.3727
 70
192
 0
VERTEX
 8
FULGOR
 10
-29.5454
 20
0.4633
 30
28.3727
 70
192
 0
VERTEX
 8
FULGOR
 10
-29.5307
 20
0.4289
 30
28.3727
 70
192
 0
VERTEX
 8
FULGOR
 10
-29.5325
 20
0.42
 30
28.3727
 70
192
 0
VERTEX
 8
FULGOR
 10
-29.6836
 20
0.3763
 30
28.3727
 70
192
 0
VERTEX
 8
FULGOR
 10
-29.4617
 20
0.0864
 30
28.3727
 70
192
 0
VERTEX
 8
FULGOR
 10
-29.4695
 20
0.0972
 30
28.3727
 70
192
 0
VERTEX
 8
FULGOR
 10
-31.518
 20
0.1861
 30
28.3727
 70
192
 0
VERTEX
 8
FULGOR
 10
-29.4836
 20
0.1166
 30
28.3727
 70
192
 0
VERTEX
 8
FULGOR
 10
-29.4967
 20
0.1347
 30
28.3727
 70
192
 0
VERTEX
 8
FULGOR
 10
-31.4852
 20
0.1819
 30
28.3727
 70
192
 0
VERTEX
 8
FULGOR
 10
-29.9296
 20
0.288
 30
28.3727
 70
192
 0
VERTEX
 8
FULGOR
 10
-29.5317
 20
0.1832
 30
28.3727
 70
192
 0
VERTEX
 8
FULGOR
 10
-29.5449
 20
0.2013
 30
28.3727
 70
192
 0
VERTEX
 8
FULGOR
 10
0
 20
0
 30
0
 70
128
 71
244
 72
245
 73
188
 74
3
 0
VERTEX
 8
FULGOR
 10
0
 20
0
 30
0
 70
128
 71
137
 72
135
 73
127
 74
120
 0
VERTEX
 8
FULGOR
 10
0
 20
0
 30
0
 70
128
 71
287
 72
288
 73
220
 74
219
 0
VERTEX
 8
FULGOR
 10
0
 20
0
 30
0
 70
128
 71
135
 72
134
 73
128
 74
127
 0
VERTEX
 8
FULGOR
 10
0
 20
0
 30
0
 70
128
 71
145
 72
144
 73
106
 74
99
 0
VERTEX
 8
FULGOR
 10
0
 20
0
 30
0
 70
128
 71
152
 72
148
 73
115
 74
112
 0
VERTEX
 8
FULGOR
 10
0
 20
0
 30
0
 70
128
 71
288
 72
289
 73
221
 74
220
 0
VERTEX
 8
FULGOR
 10
0
 20
0
 30
0
 70
128
 71
155
 72
152
 73
112
 74
109
 0
VERTEX
 8
FULGOR
 10
0
 20
0
 30
0
 70
128
 71
141
 72
155
 73
109
 74
103
 0
VERTEX
 8
FULGOR
 10
0
 20
0
 30
0
 70
128
 71
289
 72
290
 73
230
 74
221
 0
VERTEX
 8
FULGOR
 10
0
 20
0
 30
0
 70
128
 71
290
 72
292
 73
223
 74
230
 0
VERTEX
 8
FULGOR
 10
0
 20
0
 30
0
 70
128
 71
142
 72
141
 73
103
 74
108
 0
VERTEX
 8
FULGOR
 10
0
 20
0
 30
0
 70
128
 71
143
 72
142
 73
108
 74
107
 0
VERTEX
 8
FULGOR
 10
0
 20
0
 30
0
 70
128
 71
144
 72
143
 73
107
 74
106
 0
VERTEX
 8
FULGOR
 10
0
 20
0
 30
0
 70
128
 71
254
 72
255
 73
207
 74
206
 0
VERTEX
 8
FULGOR
 10
0
 20
0
 30
0
 70
128
 71
265
 72
254
 73
206
 74
199
 0
VERTEX
 8
FULGOR
 10
0
 20
0
 30
0
 70
128
 71
263
 72
265
 73
199
 74
198
 0
VERTEX
 8
FULGOR
 10
0
 20
0
 30
0
 70
128
 71
251
 72
240
 73
179
 74
178
 0
VERTEX
 8
FULGOR
 10
0
 20
0
 30
0
 70
128
 71
5
 72
8
 73
7
 74
6
 0
VERTEX
 8
FULGOR
 10
0
 20
0
 30
0
 70
128
 71
8
 72
5
 73
4
 74
4
 0
VERTEX
 8
FULGOR
 10
0
 20
0
 30
0
 70
128
 71
8
 72
4
 73
13
 74
2
 0
VERTEX
 8
FULGOR
 10
0
 20
0
 30
0
 70
128
 71
237
 72
238
 73
185
 74
346
 0
VERTEX
 8
FULGOR
 10
0
 20
0
 30
0
 70
128
 71
339
 72
340
 73
321
 74
328
 0
VERTEX
 8
FULGOR
 10
0
 20
0
 30
0
 70
128
 71
161
 72
174
 73
84
 74
89
 0
VERTEX
 8
FULGOR
 10
0
 20
0
 30
0
 70
128
 71
174
 72
159
 73
90
 74
84
 0
VERTEX
 8
FULGOR
 10
0
 20
0
 30
0
 70
128
 71
249
 72
237
 73
346
 74
184
 0
VERTEX
 8
FULGOR
 10
0
 20
0
 30
0
 70
128
 71
248
 72
249
 73
184
 74
347
 0
VERTEX
 8
FULGOR
 10
0
 20
0
 30
0
 70
128
 71
159
 72
173
 73
95
 74
90
 0
VERTEX
 8
FULGOR
 10
0
 20
0
 30
0
 70
128
 71
173
 72
157
 73
96
 74
95
 0
VERTEX
 8
FULGOR
 10
0
 20
0
 30
0
 70
128
 71
246
 72
248
 73
347
 74
183
 0
VERTEX
 8
FULGOR
 10
0
 20
0
 30
0
 70
128
 71
362
 72
307
 73
305
 74
359
 0
VERTEX
 8
FULGOR
 10
0
 20
0
 30
0
 70
128
 71
151
 72
150
 73
94
 74
93
 0
VERTEX
 8
FULGOR
 10
0
 20
0
 30
0
 70
128
 71
353
 72
352
 73
319
 74
318
 0
VERTEX
 8
FULGOR
 10
0
 20
0
 30
0
 70
128
 71
175
 72
161
 73
89
 74
88
 0
VERTEX
 8
FULGOR
 10
0
 20
0
 30
0
 70
128
 71
253
 72
247
 73
190
 74
189
 0
VERTEX
 8
FULGOR
 10
0
 20
0
 30
0
 70
128
 71
153
 72
166
 73
92
 74
91
 0
VERTEX
 8
FULGOR
 10
0
 20
0
 30
0
 70
128
 71
166
 72
151
 73
93
 74
92
 0
VERTEX
 8
FULGOR
 10
0
 20
0
 30
0
 70
128
 71
273
 72
274
 73
226
 74
210
 0
VERTEX
 8
FULGOR
 10
0
 20
0
 30
0
 70
128
 71
163
 72
175
 73
88
 74
81
 0
VERTEX
 8
FULGOR
 10
0
 20
0
 30
0
 70
128
 71
167
 72
154
 73
101
 74
100
 0
VERTEX
 8
FULGOR
 10
0
 20
0
 30
0
 70
128
 71
154
 72
153
 73
91
 74
101
 0
VERTEX
 8
FULGOR
 10
0
 20
0
 30
0
 70
128
 71
274
 72
275
 73
227
 74
226
 0
VERTEX
 8
FULGOR
 10
0
 20
0
 30
0
 70
128
 71
13
 72
12
 73
2
 74
2
 0
VERTEX
 8
FULGOR
 10
0
 20
0
 30
0
 70
128
 71
13
 72
4
 73
15
 74
14
 0
VERTEX
 8
FULGOR
 10
0
 20
0
 30
0
 70
128
 71
16
 72
74
 73
73
 74
9
 0
VERTEX
 8
FULGOR
 10
0
 20
0
 30
0
 70
128
 71
73
 72
72
 73
10
 74
9
 0
VERTEX
 8
FULGOR
 10
0
 20
0
 30
0
 70
128
 71
72
 72
82
 73
11
 74
10
 0
VERTEX
 8
FULGOR
 10
0
 20
0
 30
0
 70
128
 71
82
 72
70
 73
18
 74
17
 0
VERTEX
 8
FULGOR
 10
0
 20
0
 30
0
 70
128
 71
58
 72
57
 73
40
 74
39
 0
VERTEX
 8
FULGOR
 10
0
 20
0
 30
0
 70
128
 71
82
 72
17
 73
11
 74
11
 0
VERTEX
 8
FULGOR
 10
0
 20
0
 30
0
 70
128
 71
43
 72
58
 73
39
 74
38
 0
VERTEX
 8
FULGOR
 10
0
 20
0
 30
0
 70
128
 71
70
 72
69
 73
20
 74
19
 0
VERTEX
 8
FULGOR
 10
0
 20
0
 30
0
 70
128
 71
70
 72
19
 73
18
 74
18
 0
VERTEX
 8
FULGOR
 10
0
 20
0
 30
0
 70
128
 71
69
 72
68
 73
27
 74
20
 0
VERTEX
 8
FULGOR
 10
0
 20
0
 30
0
 70
128
 71
68
 72
67
 73
29
 74
27
 0
VERTEX
 8
FULGOR
 10
0
 20
0
 30
0
 70
128
 71
67
 72
66
 73
30
 74
29
 0
VERTEX
 8
FULGOR
 10
0
 20
0
 30
0
 70
128
 71
66
 72
78
 73
31
 74
30
 0
VERTEX
 8
FULGOR
 10
0
 20
0
 30
0
 70
128
 71
78
 72
77
 73
32
 74
31
 0
VERTEX
 8
FULGOR
 10
0
 20
0
 30
0
 70
128
 71
32
 72
77
 73
76
 74
21
 0
VERTEX
 8
FULGOR
 10
0
 20
0
 30
0
 70
128
 71
76
 72
62
 73
21
 74
21
 0
VERTEX
 8
FULGOR
 10
0
 20
0
 30
0
 70
128
 71
62
 72
61
 73
22
 74
21
 0
VERTEX
 8
FULGOR
 10
0
 20
0
 30
0
 70
128
 71
61
 72
75
 73
22
 74
22
 0
VERTEX
 8
FULGOR
 10
0
 20
0
 30
0
 70
128
 71
75
 72
59
 73
23
 74
22
 0
VERTEX
 8
FULGOR
 10
0
 20
0
 30
0
 70
128
 71
23
 72
59
 73
71
 74
24
 0
VERTEX
 8
FULGOR
 10
0
 20
0
 30
0
 70
128
 71
275
 72
281
 73
228
 74
227
 0
VERTEX
 8
FULGOR
 10
0
 20
0
 30
0
 70
128
 71
157
 72
156
 73
97
 74
96
 0
VERTEX
 8
FULGOR
 10
0
 20
0
 30
0
 70
128
 71
291
 72
296
 73
333
 74
354
 0
VERTEX
 8
FULGOR
 10
0
 20
0
 30
0
 70
128
 71
281
 72
282
 73
229
 74
228
 0
VERTEX
 8
FULGOR
 10
0
 20
0
 30
0
 70
128
 71
282
 72
283
 73
215
 74
229
 0
VERTEX
 8
FULGOR
 10
0
 20
0
 30
0
 70
128
 71
283
 72
284
 73
216
 74
215
 0
VERTEX
 8
FULGOR
 10
0
 20
0
 30
0
 70
128
 71
129
 72
1
 73
118
 74
117
 0
VERTEX
 8
FULGOR
 10
0
 20
0
 30
0
 70
128
 71
238
 72
251
 73
178
 74
185
 0
VERTEX
 8
FULGOR
 10
0
 20
0
 30
0
 70
128
 71
245
 72
253
 73
189
 74
188
 0
VERTEX
 8
FULGOR
 10
0
 20
0
 30
0
 70
128
 71
337
 72
338
 73
325
 74
316
 0
VERTEX
 8
FULGOR
 10
0
 20
0
 30
0
 70
128
 71
336
 72
337
 73
316
 74
314
 0
VERTEX
 8
FULGOR
 10
0
 20
0
 30
0
 70
128
 71
241
 72
252
 73
311
 74
186
 0
VERTEX
 8
FULGOR
 10
0
 20
0
 30
0
 70
128
 71
24
 72
71
 73
65
 74
25
 0
VERTEX
 8
FULGOR
 10
0
 20
0
 30
0
 70
128
 71
65
 72
64
 73
25
 74
25
 0
VERTEX
 8
FULGOR
 10
0
 20
0
 30
0
 70
128
 71
156
 72
167
 73
100
 74
97
 0
VERTEX
 8
FULGOR
 10
0
 20
0
 30
0
 70
128
 71
149
 72
162
 73
104
 74
102
 0
VERTEX
 8
FULGOR
 10
0
 20
0
 30
0
 70
128
 71
64
 72
63
 73
26
 74
25
 0
VERTEX
 8
FULGOR
 10
0
 20
0
 30
0
 70
128
 71
162
 72
160
 73
105
 74
104
 0
VERTEX
 8
FULGOR
 10
0
 20
0
 30
0
 70
128
 71
63
 72
60
 73
26
 74
26
 0
VERTEX
 8
FULGOR
 10
0
 20
0
 30
0
 70
128
 71
266
 72
269
 73
196
 74
195
 0
VERTEX
 8
FULGOR
 10
0
 20
0
 30
0
 70
128
 71
360
 72
129
 73
117
 74
126
 0
VERTEX
 8
FULGOR
 10
0
 20
0
 30
0
 70
128
 71
60
 72
53
 73
34
 74
26
 0
VERTEX
 8
FULGOR
 10
0
 20
0
 30
0
 70
128
 71
53
 72
52
 73
34
 74
34
 0
VERTEX
 8
FULGOR
 10
0
 20
0
 30
0
 70
128
 71
52
 72
51
 73
28
 74
34
 0
VERTEX
 8
FULGOR
 10
0
 20
0
 30
0
 70
128
 71
51
 72
50
 73
35
 74
28
 0
VERTEX
 8
FULGOR
 10
0
 20
0
 30
0
 70
128
 71
50
 72
49
 73
36
 74
35
 0
VERTEX
 8
FULGOR
 10
0
 20
0
 30
0
 70
128
 71
36
 72
49
 73
48
 74
37
 0
VERTEX
 8
FULGOR
 10
0
 20
0
 30
0
 70
128
 71
44
 72
43
 73
38
 74
56
 0
VERTEX
 8
FULGOR
 10
0
 20
0
 30
0
 70
128
 71
37
 72
48
 73
47
 74
41
 0
VERTEX
 8
FULGOR
 10
0
 20
0
 30
0
 70
128
 71
33
 72
47
 73
46
 74
42
 0
VERTEX
 8
FULGOR
 10
0
 20
0
 30
0
 70
128
 71
45
 72
55
 73
54
 74
54
 0
VERTEX
 8
FULGOR
 10
0
 20
0
 30
0
 70
128
 71
47
 72
33
 73
41
 74
41
 0
VERTEX
 8
FULGOR
 10
0
 20
0
 30
0
 70
128
 71
42
 72
46
 73
45
 74
54
 0
VERTEX
 8
FULGOR
 10
0
 20
0
 30
0
 70
128
 71
55
 72
45
 73
44
 74
56
 0
VERTEX
 8
FULGOR
 10
0
 20
0
 30
0
 70
128
 71
83
 72
80
 73
79
 74
85
 0
VERTEX
 8
FULGOR
 10
0
 20
0
 30
0
 70
128
 71
79
 72
87
 73
86
 74
85
 0
VERTEX
 8
FULGOR
 10
0
 20
0
 30
0
 70
128
 71
134
 72
124
 73
131
 74
128
 0
VERTEX
 8
FULGOR
 10
0
 20
0
 30
0
 70
128
 71
334
 72
335
 73
320
 74
312
 0
VERTEX
 8
FULGOR
 10
0
 20
0
 30
0
 70
128
 71
308
 72
307
 73
362
 74
363
 0
VERTEX
 8
FULGOR
 10
0
 20
0
 30
0
 70
128
 71
139
 72
357
 73
114
 74
113
 0
VERTEX
 8
FULGOR
 10
0
 20
0
 30
0
 70
128
 71
305
 72
304
 73
358
 74
359
 0
VERTEX
 8
FULGOR
 10
0
 20
0
 30
0
 70
128
 71
335
 72
336
 73
314
 74
320
 0
VERTEX
 8
FULGOR
 10
0
 20
0
 30
0
 70
128
 71
355
 72
356
 73
313
 74
301
 0
VERTEX
 8
FULGOR
 10
0
 20
0
 30
0
 70
128
 71
301
 72
300
 73
299
 74
355
 0
VERTEX
 8
FULGOR
 10
0
 20
0
 30
0
 70
128
 71
352
 72
339
 73
328
 74
319
 0
VERTEX
 8
FULGOR
 10
0
 20
0
 30
0
 70
128
 71
343
 72
348
 73
349
 74
331
 0
VERTEX
 8
FULGOR
 10
0
 20
0
 30
0
 70
128
 71
342
 72
344
 73
330
 74
324
 0
VERTEX
 8
FULGOR
 10
0
 20
0
 30
0
 70
128
 71
262
 72
263
 73
198
 74
197
 0
VERTEX
 8
FULGOR
 10
0
 20
0
 30
0
 70
128
 71
303
 72
312
 73
317
 74
310
 0
VERTEX
 8
FULGOR
 10
0
 20
0
 30
0
 70
128
 71
250
 72
262
 73
197
 74
187
 0
VERTEX
 8
FULGOR
 10
0
 20
0
 30
0
 70
128
 71
291
 72
354
 73
334
 74
302
 0
VERTEX
 8
FULGOR
 10
0
 20
0
 30
0
 70
128
 71
341
 72
343
 73
331
 74
327
 0
VERTEX
 8
FULGOR
 10
0
 20
0
 30
0
 70
128
 71
150
 72
149
 73
102
 74
94
 0
VERTEX
 8
FULGOR
 10
0
 20
0
 30
0
 70
128
 71
1
 72
138
 73
119
 74
118
 0
VERTEX
 8
FULGOR
 10
0
 20
0
 30
0
 70
128
 71
338
 72
353
 73
318
 74
325
 0
VERTEX
 8
FULGOR
 10
0
 20
0
 30
0
 70
128
 71
280
 72
273
 73
210
 74
222
 0
VERTEX
 8
FULGOR
 10
0
 20
0
 30
0
 70
128
 71
285
 72
286
 73
218
 74
217
 0
VERTEX
 8
FULGOR
 10
0
 20
0
 30
0
 70
128
 71
160
 72
158
 73
98
 74
105
 0
VERTEX
 8
FULGOR
 10
0
 20
0
 30
0
 70
128
 71
138
 72
137
 73
120
 74
119
 0
VERTEX
 8
FULGOR
 10
0
 20
0
 30
0
 70
128
 71
286
 72
287
 73
219
 74
218
 0
VERTEX
 8
FULGOR
 10
0
 20
0
 30
0
 70
128
 71
261
 72
270
 73
211
 74
209
 0
VERTEX
 8
FULGOR
 10
0
 20
0
 30
0
 70
128
 71
348
 72
329
 73
332
 74
349
 0
VERTEX
 8
FULGOR
 10
0
 20
0
 30
0
 70
128
 71
329
 72
333
 73
306
 74
332
 0
VERTEX
 8
FULGOR
 10
0
 20
0
 30
0
 70
128
 71
333
 72
296
 73
361
 74
306
 0
VERTEX
 8
FULGOR
 10
0
 20
0
 30
0
 70
128
 71
296
 72
295
 73
294
 74
361
 0
VERTEX
 8
FULGOR
 10
0
 20
0
 30
0
 70
128
 71
358
 72
304
 73
313
 74
356
 0
VERTEX
 8
FULGOR
 10
0
 20
0
 30
0
 70
128
 71
148
 72
147
 73
116
 74
115
 0
VERTEX
 8
FULGOR
 10
0
 20
0
 30
0
 70
128
 71
158
 72
145
 73
99
 74
98
 0
VERTEX
 8
FULGOR
 10
0
 20
0
 30
0
 70
128
 71
260
 72
261
 73
209
 74
208
 0
VERTEX
 8
FULGOR
 10
0
 20
0
 30
0
 70
128
 71
269
 72
260
 73
208
 74
196
 0
VERTEX
 8
FULGOR
 10
0
 20
0
 30
0
 70
128
 71
276
 72
267
 73
204
 74
203
 0
VERTEX
 8
FULGOR
 10
0
 20
0
 30
0
 70
128
 71
232
 72
242
 73
182
 74
180
 0
VERTEX
 8
FULGOR
 10
0
 20
0
 30
0
 70
128
 71
242
 72
246
 73
183
 74
182
 0
VERTEX
 8
FULGOR
 10
0
 20
0
 30
0
 70
128
 71
272
 72
276
 73
203
 74
202
 0
VERTEX
 8
FULGOR
 10
0
 20
0
 30
0
 70
128
 71
264
 72
272
 73
202
 74
201
 0
VERTEX
 8
FULGOR
 10
0
 20
0
 30
0
 70
128
 71
240
 72
241
 73
186
 74
179
 0
VERTEX
 8
FULGOR
 10
0
 20
0
 30
0
 70
128
 71
147
 72
136
 73
121
 74
116
 0
VERTEX
 8
FULGOR
 10
0
 20
0
 30
0
 70
128
 71
340
 72
350
 73
322
 74
321
 0
VERTEX
 8
FULGOR
 10
0
 20
0
 30
0
 70
128
 71
303
 72
302
 73
334
 74
312
 0
VERTEX
 8
FULGOR
 10
0
 20
0
 30
0
 70
128
 71
345
 72
341
 73
327
 74
326
 0
VERTEX
 8
FULGOR
 10
0
 20
0
 30
0
 70
128
 71
252
 72
243
 73
181
 74
311
 0
VERTEX
 8
FULGOR
 10
0
 20
0
 30
0
 70
128
 71
344
 72
345
 73
326
 74
330
 0
VERTEX
 8
FULGOR
 10
0
 20
0
 30
0
 70
128
 71
231
 72
232
 73
180
 74
172
 0
VERTEX
 8
FULGOR
 10
0
 20
0
 30
0
 70
128
 71
257
 72
266
 73
195
 74
194
 0
VERTEX
 8
FULGOR
 10
0
 20
0
 30
0
 70
128
 71
256
 72
257
 73
194
 74
193
 0
VERTEX
 8
FULGOR
 10
0
 20
0
 30
0
 70
128
 71
297
 72
310
 73
317
 74
315
 0
VERTEX
 8
FULGOR
 10
0
 20
0
 30
0
 70
128
 71
357
 72
130
 73
125
 74
114
 0
VERTEX
 8
FULGOR
 10
0
 20
0
 30
0
 70
128
 71
255
 72
256
 73
193
 74
207
 0
VERTEX
 8
FULGOR
 10
0
 20
0
 30
0
 70
128
 71
298
 72
297
 73
315
 74
309
 0
VERTEX
 8
FULGOR
 10
0
 20
0
 30
0
 70
128
 71
298
 72
309
 73
308
 74
363
 0
VERTEX
 8
FULGOR
 10
0
 20
0
 30
0
 70
128
 71
243
 72
244
 73
3
 74
181
 0
VERTEX
 8
FULGOR
 10
0
 20
0
 30
0
 70
128
 71
259
 72
250
 73
187
 74
192
 0
VERTEX
 8
FULGOR
 10
0
 20
0
 30
0
 70
128
 71
279
 72
280
 73
222
 74
214
 0
VERTEX
 8
FULGOR
 10
0
 20
0
 30
0
 70
128
 71
278
 72
279
 73
214
 74
213
 0
VERTEX
 8
FULGOR
 10
0
 20
0
 30
0
 70
128
 71
258
 72
259
 73
192
 74
191
 0
VERTEX
 8
FULGOR
 10
0
 20
0
 30
0
 70
128
 71
247
 72
258
 73
191
 74
190
 0
VERTEX
 8
FULGOR
 10
0
 20
0
 30
0
 70
128
 71
351
 72
342
 73
324
 74
323
 0
VERTEX
 8
FULGOR
 10
0
 20
0
 30
0
 70
128
 71
350
 72
351
 73
323
 74
322
 0
VERTEX
 8
FULGOR
 10
0
 20
0
 30
0
 70
128
 71
284
 72
285
 73
217
 74
216
 0
VERTEX
 8
FULGOR
 10
0
 20
0
 30
0
 70
128
 71
136
 72
146
 73
122
 74
121
 0
VERTEX
 8
FULGOR
 10
0
 20
0
 30
0
 70
128
 71
146
 72
140
 73
110
 74
122
 0
VERTEX
 8
FULGOR
 10
0
 20
0
 30
0
 70
128
 71
130
 72
360
 73
126
 74
125
 0
VERTEX
 8
FULGOR
 10
0
 20
0
 30
0
 70
128
 71
140
 72
133
 73
111
 74
110
 0
VERTEX
 8
FULGOR
 10
0
 20
0
 30
0
 70
128
 71
133
 72
132
 73
123
 74
111
 0
VERTEX
 8
FULGOR
 10
0
 20
0
 30
0
 70
128
 71
132
 72
139
 73
113
 74
123
 0
VERTEX
 8
FULGOR
 10
0
 20
0
 30
0
 70
128
 71
292
 72
293
 73
164
 74
223
 0
VERTEX
 8
FULGOR
 10
0
 20
0
 30
0
 70
128
 71
293
 72
224
 73
165
 74
164
 0
VERTEX
 8
FULGOR
 10
0
 20
0
 30
0
 70
128
 71
224
 72
225
 73
176
 74
165
 0
VERTEX
 8
FULGOR
 10
0
 20
0
 30
0
 70
128
 71
225
 72
233
 73
177
 74
176
 0
VERTEX
 8
FULGOR
 10
0
 20
0
 30
0
 70
128
 71
233
 72
234
 73
168
 74
177
 0
VERTEX
 8
FULGOR
 10
0
 20
0
 30
0
 70
128
 71
234
 72
235
 73
169
 74
168
 0
VERTEX
 8
FULGOR
 10
0
 20
0
 30
0
 70
128
 71
235
 72
236
 73
170
 74
169
 0
VERTEX
 8
FULGOR
 10
0
 20
0
 30
0
 70
128
 71
236
 72
239
 73
171
 74
170
 0
VERTEX
 8
FULGOR
 10
0
 20
0
 30
0
 70
128
 71
239
 72
231
 73
172
 74
171
 0
VERTEX
 8
FULGOR
 10
0
 20
0
 30
0
 70
128
 71
213
 72
212
 73
277
 74
278
 0
VERTEX
 8
FULGOR
 10
0
 20
0
 30
0
 70
128
 71
212
 72
205
 73
268
 74
277
 0
VERTEX
 8
FULGOR
 10
0
 20
0
 30
0
 70
128
 71
267
 72
268
 73
205
 74
204
 0
VERTEX
 8
FULGOR
 10
0
 20
0
 30
0
 70
128
 71
270
 72
271
 73
200
 74
211
 0
VERTEX
 8
FULGOR
 10
0
 20
0
 30
0
 70
128
 71
271
 72
264
 73
201
 74
200
 0
SEQEND
 0
POLYLINE
 8
MILANO
 66
1
 10
0.0
 20
0.0
 30
0.0
 70
64
 71
93
 72
47
 0
VERTEX
 8
MILANO
 10
-31.4115
 20
-0.2579
 30
28.3728
 70
192
 0
VERTEX
 8
MILANO
 10
-30.9843
 20
-0.4256
 30
28.3728
 70
192
 0
VERTEX
 8
MILANO
 10
-30.9798
 20
-0.464
 30
28.3728
 70
192
 0
VERTEX
 8
MILANO
 10
-30.9636
 20
-0.4991
 30
28.3728
 70
192
 0
VERTEX
 8
MILANO
 10
-30.9364
 20
-0.5265
 30
28.3728
 70
192
 0
VERTEX
 8
MILANO
 10
-30.9026
 20
-0.5452
 30
28.3728
 70
192
 0
VERTEX
 8
MILANO
 10
-30.8655
 20
-0.556
 30
28.3728
 70
192
 0
VERTEX
 8
MILANO
 10
-30.8271
 20
-0.5602
 30
28.3728
 70
192
 0
VERTEX
 8
MILANO
 10
-31.1455
 20
-0.5089
 30
28.3728
 70
192
 0
VERTEX
 8
MILANO
 10
-30.7886
 20
-0.5573
 30
28.3728
 70
192
 0
VERTEX
 8
MILANO
 10
-30.7514
 20
-0.547
 30
28.3728
 70
192
 0
VERTEX
 8
MILANO
 10
-30.7178
 20
-0.5281
 30
28.3728
 70
192
 0
VERTEX
 8
MILANO
 10
-31.5731
 20
-0.4867
 30
28.3728
 70
192
 0
VERTEX
 8
MILANO
 10
-31.5124
 20
-0.596
 30
28.3728
 70
192
 0
VERTEX
 8
MILANO
 10
-31.4626
 20
-0.596
 30
28.3728
 70
192
 0
VERTEX
 8
MILANO
 10
-30.6914
 20
-0.4998
 30
28.3728
 70
192
 0
VERTEX
 8
MILANO
 10
-30.6744
 20
-0.4651
 30
28.3728
 70
192
 0
VERTEX
 8
MILANO
 10
-31.8483
 20
-0.596
 30
28.3728
 70
192
 0
VERTEX
 8
MILANO
 10
-31.7148
 20
-0.4492
 30
28.3728
 70
192
 0
VERTEX
 8
MILANO
 10
-31.5936
 20
-0.4492
 30
28.3728
 70
192
 0
VERTEX
 8
MILANO
 10
-30.6689
 20
-0.4268
 30
28.3728
 70
192
 0
VERTEX
 8
MILANO
 10
-30.6739
 20
-0.3884
 30
28.3728
 70
192
 0
VERTEX
 8
MILANO
 10
-30.6902
 20
-0.3534
 30
28.3728
 70
192
 0
VERTEX
 8
MILANO
 10
-32.0149
 20
-0.2579
 30
28.3728
 70
192
 0
VERTEX
 8
MILANO
 10
-32.0149
 20
-0.5592
 30
28.3728
 70
192
 0
VERTEX
 8
MILANO
 10
-30.7167
 20
-0.3253
 30
28.3728
 70
192
 0
VERTEX
 8
MILANO
 10
-30.7504
 20
-0.3064
 30
28.3728
 70
192
 0
VERTEX
 8
MILANO
 10
-30.7876
 20
-0.2961
 30
28.3728
 70
192
 0
VERTEX
 8
MILANO
 10
-32.1844
 20
-0.2579
 30
28.3728
 70
192
 0
VERTEX
 8
MILANO
 10
-32.1423
 20
-0.2579
 30
28.3728
 70
192
 0
VERTEX
 8
MILANO
 10
-32.1423
 20
-0.596
 30
28.3728
 70
192
 0
VERTEX
 8
MILANO
 10
-32.1844
 20
-0.596
 30
28.3728
 70
192
 0
VERTEX
 8
MILANO
 10
-32.6905
 20
-0.596
 30
28.3728
 70
192
 0
VERTEX
 8
MILANO
 10
-32.6381
 20
-0.2558
 30
28.3728
 70
192
 0
VERTEX
 8
MILANO
 10
-32.319
 20
-0.2558
 30
28.3728
 70
192
 0
VERTEX
 8
MILANO
 10
-32.3034
 20
-0.2558
 30
28.3728
 70
192
 0
VERTEX
 8
MILANO
 10
-32.2481
 20
-0.596
 30
28.3728
 70
192
 0
VERTEX
 8
MILANO
 10
-32.2937
 20
-0.596
 30
28.3728
 70
192
 0
VERTEX
 8
MILANO
 10
-32.4788
 20
-0.596
 30
28.3728
 70
192
 0
VERTEX
 8
MILANO
 10
-32.6123
 20
-0.3678
 30
28.3728
 70
192
 0
VERTEX
 8
MILANO
 10
-31.8652
 20
-0.5592
 30
28.3728
 70
192
 0
VERTEX
 8
MILANO
 10
-31.8652
 20
-0.596
 30
28.3728
 70
192
 0
VERTEX
 8
MILANO
 10
-32.0563
 20
-0.596
 30
28.3728
 70
192
 0
VERTEX
 8
MILANO
 10
-32.6279
 20
-0.2558
 30
28.3728
 70
192
 0
VERTEX
 8
MILANO
 10
-32.4704
 20
-0.5266
 30
28.3728
 70
192
 0
VERTEX
 8
MILANO
 10
-32.3304
 20
-0.3678
 30
28.3728
 70
192
 0
VERTEX
 8
MILANO
 10
-32.4584
 20
-0.596
 30
28.3728
 70
192
 0
VERTEX
 8
MILANO
 10
-32.6453
 20
-0.596
 30
28.3728
 70
192
 0
VERTEX
 8
MILANO
 10
-30.826
 20
-0.2522
 30
28.3728
 70
192
 0
VERTEX
 8
MILANO
 10
-30.8764
 20
-0.2549
 30
28.3728
 70
192
 0
VERTEX
 8
MILANO
 10
-30.9254
 20
-0.2672
 30
28.3728
 70
192
 0
VERTEX
 8
MILANO
 10
-30.9686
 20
-0.293
 30
28.3728
 70
192
 0
VERTEX
 8
MILANO
 10
-31.0033
 20
-0.3299
 30
28.3728
 70
192
 0
VERTEX
 8
MILANO
 10
-31.0259
 20
-0.3751
 30
28.3728
 70
192
 0
VERTEX
 8
MILANO
 10
-31.0328
 20
-0.4252
 30
28.3728
 70
192
 0
VERTEX
 8
MILANO
 10
-31.0269
 20
-0.4755
 30
28.3728
 70
192
 0
VERTEX
 8
MILANO
 10
-31.0057
 20
-0.5214
 30
28.3728
 70
192
 0
VERTEX
 8
MILANO
 10
-30.9702
 20
-0.5572
 30
28.3728
 70
192
 0
VERTEX
 8
MILANO
 10
-30.926
 20
-0.5816
 30
28.3728
 70
192
 0
VERTEX
 8
MILANO
 10
-30.8775
 20
-0.5958
 30
28.3728
 70
192
 0
VERTEX
 8
MILANO
 10
-30.8273
 20
-0.6013
 30
28.3728
 70
192
 0
VERTEX
 8
MILANO
 10
-30.7769
 20
-0.5975
 30
28.3728
 70
192
 0
VERTEX
 8
MILANO
 10
-30.7283
 20
-0.584
 30
28.3728
 70
192
 0
VERTEX
 8
MILANO
 10
-30.6842
 20
-0.5593
 30
28.3728
 70
192
 0
VERTEX
 8
MILANO
 10
-30.6498
 20
-0.5223
 30
28.3728
 70
192
 0
VERTEX
 8
MILANO
 10
-30.6276
 20
-0.4769
 30
28.3728
 70
192
 0
VERTEX
 8
MILANO
 10
-30.6204
 20
-0.4268
 30
28.3728
 70
192
 0
VERTEX
 8
MILANO
 10
-30.6269
 20
-0.3766
 30
28.3728
 70
192
 0
VERTEX
 8
MILANO
 10
-30.6483
 20
-0.3308
 30
28.3728
 70
192
 0
VERTEX
 8
MILANO
 10
-30.6829
 20
-0.294
 30
28.3728
 70
192
 0
VERTEX
 8
MILANO
 10
-31.4115
 20
-0.596
 30
28.3728
 70
192
 0
VERTEX
 8
MILANO
 10
-31.3673
 20
-0.596
 30
28.3728
 70
192
 0
VERTEX
 8
MILANO
 10
-31.3673
 20
-0.3495
 30
28.3728
 70
192
 0
VERTEX
 8
MILANO
 10
-31.1162
 20
-0.596
 30
28.3728
 70
192
 0
VERTEX
 8
MILANO
 10
-31.1018
 20
-0.596
 30
28.3728
 70
192
 0
VERTEX
 8
MILANO
 10
-31.1018
 20
-0.2579
 30
28.3728
 70
192
 0
VERTEX
 8
MILANO
 10
-31.1461
 20
-0.2579
 30
28.3728
 70
192
 0
VERTEX
 8
MILANO
 10
-30.7269
 20
-0.2693
 30
28.3728
 70
192
 0
VERTEX
 8
MILANO
 10
-31.395
 20
-0.2579
 30
28.3728
 70
192
 0
VERTEX
 8
MILANO
 10
-31.7929
 20
-0.596
 30
28.3728
 70
192
 0
VERTEX
 8
MILANO
 10
-31.7366
 20
-0.4867
 30
28.3728
 70
192
 0
VERTEX
 8
MILANO
 10
-30.7756
 20
-0.2559
 30
28.3728
 70
192
 0
VERTEX
 8
MILANO
 10
-30.8261
 20
-0.2933
 30
28.3728
 70
192
 0
VERTEX
 8
MILANO
 10
-30.8647
 20
-0.2954
 30
28.3728
 70
192
 0
VERTEX
 8
MILANO
 10
-31.6474
 20
-0.2579
 30
28.3728
 70
192
 0
VERTEX
 8
MILANO
 10
-31.6617
 20
-0.2579
 30
28.3728
 70
192
 0
VERTEX
 8
MILANO
 10
-30.9021
 20
-0.3048
 30
28.3728
 70
192
 0
VERTEX
 8
MILANO
 10
-30.9352
 20
-0.3245
 30
28.3728
 70
192
 0
VERTEX
 8
MILANO
 10
-30.9617
 20
-0.3527
 30
28.3728
 70
192
 0
VERTEX
 8
MILANO
 10
-31.6499
 20
-0.3409
 30
28.3728
 70
192
 0
VERTEX
 8
MILANO
 10
-31.6598
 20
-0.3409
 30
28.3728
 70
192
 0
VERTEX
 8
MILANO
 10
-32.06
 20
-0.2579
 30
28.3728
 70
192
 0
VERTEX
 8
MILANO
 10
-30.979
 20
-0.3872
 30
28.3728
 70
192
 0
VERTEX
 8
MILANO
 10
0
 20
0
 30
0
 70
128
 71
71
 72
1
 73
73
 74
72
 0
VERTEX
 8
MILANO
 10
0
 20
0
 30
0
 70
128
 71
1
 72
79
 73
73
 74
73
 0
VERTEX
 8
MILANO
 10
0
 20
0
 30
0
 70
128
 71
73
 72
79
 73
9
 74
74
 0
VERTEX
 8
MILANO
 10
0
 20
0
 30
0
 70
128
 71
76
 72
75
 73
9
 74
77
 0
VERTEX
 8
MILANO
 10
0
 20
0
 30
0
 70
128
 71
9
 72
75
 73
74
 74
74
 0
VERTEX
 8
MILANO
 10
0
 20
0
 30
0
 70
128
 71
18
 72
86
 73
19
 74
81
 0
VERTEX
 8
MILANO
 10
0
 20
0
 30
0
 70
128
 71
80
 72
18
 73
81
 74
81
 0
VERTEX
 8
MILANO
 10
0
 20
0
 30
0
 70
128
 71
86
 72
85
 73
90
 74
91
 0
VERTEX
 8
MILANO
 10
0
 20
0
 30
0
 70
128
 71
15
 72
13
 73
20
 74
20
 0
VERTEX
 8
MILANO
 10
0
 20
0
 30
0
 70
128
 71
86
 72
91
 73
19
 74
19
 0
VERTEX
 8
MILANO
 10
0
 20
0
 30
0
 70
128
 71
85
 72
15
 73
20
 74
90
 0
VERTEX
 8
MILANO
 10
0
 20
0
 30
0
 70
128
 71
13
 72
81
 73
19
 74
20
 0
VERTEX
 8
MILANO
 10
0
 20
0
 30
0
 70
128
 71
15
 72
14
 73
13
 74
13
 0
VERTEX
 8
MILANO
 10
0
 20
0
 30
0
 70
128
 71
92
 72
24
 73
25
 74
43
 0
VERTEX
 8
MILANO
 10
0
 20
0
 30
0
 70
128
 71
25
 72
41
 73
42
 74
43
 0
VERTEX
 8
MILANO
 10
0
 20
0
 30
0
 70
128
 71
29
 72
30
 73
31
 74
32
 0
VERTEX
 8
MILANO
 10
0
 20
0
 30
0
 70
128
 71
33
 72
34
 73
40
 74
48
 0
VERTEX
 8
MILANO
 10
0
 20
0
 30
0
 70
128
 71
34
 72
44
 73
40
 74
40
 0
VERTEX
 8
MILANO
 10
0
 20
0
 30
0
 70
128
 71
40
 72
44
 73
45
 74
39
 0
VERTEX
 8
MILANO
 10
0
 20
0
 30
0
 70
128
 71
45
 72
35
 73
46
 74
47
 0
VERTEX
 8
MILANO
 10
0
 20
0
 30
0
 70
128
 71
46
 72
36
 73
37
 74
38
 0
VERTEX
 8
MILANO
 10
0
 20
0
 30
0
 70
128
 71
45
 72
47
 73
39
 74
39
 0
VERTEX
 8
MILANO
 10
0
 20
0
 30
0
 70
128
 71
35
 72
36
 73
46
 74
46
 0
VERTEX
 8
MILANO
 10
0
 20
0
 30
0
 70
128
 71
50
 72
49
 73
83
 74
84
 0
VERTEX
 8
MILANO
 10
0
 20
0
 30
0
 70
128
 71
51
 72
50
 73
84
 74
87
 0
VERTEX
 8
MILANO
 10
0
 20
0
 30
0
 70
128
 71
5
 72
6
 73
59
 74
58
 0
VERTEX
 8
MILANO
 10
0
 20
0
 30
0
 70
128
 71
28
 72
83
 73
49
 74
82
 0
VERTEX
 8
MILANO
 10
0
 20
0
 30
0
 70
128
 71
27
 72
28
 73
82
 74
78
 0
VERTEX
 8
MILANO
 10
0
 20
0
 30
0
 70
128
 71
26
 72
27
 73
78
 74
70
 0
VERTEX
 8
MILANO
 10
0
 20
0
 30
0
 70
128
 71
23
 72
26
 73
70
 74
69
 0
VERTEX
 8
MILANO
 10
0
 20
0
 30
0
 70
128
 71
6
 72
7
 73
60
 74
59
 0
VERTEX
 8
MILANO
 10
0
 20
0
 30
0
 70
128
 71
7
 72
8
 73
61
 74
60
 0
VERTEX
 8
MILANO
 10
0
 20
0
 30
0
 70
128
 71
22
 72
23
 73
69
 74
68
 0
VERTEX
 8
MILANO
 10
0
 20
0
 30
0
 70
128
 71
21
 72
22
 73
68
 74
67
 0
VERTEX
 8
MILANO
 10
0
 20
0
 30
0
 70
128
 71
17
 72
21
 73
67
 74
66
 0
VERTEX
 8
MILANO
 10
0
 20
0
 30
0
 70
128
 71
16
 72
17
 73
66
 74
65
 0
VERTEX
 8
MILANO
 10
0
 20
0
 30
0
 70
128
 71
12
 72
16
 73
65
 74
64
 0
VERTEX
 8
MILANO
 10
0
 20
0
 30
0
 70
128
 71
11
 72
12
 73
64
 74
63
 0
VERTEX
 8
MILANO
 10
0
 20
0
 30
0
 70
128
 71
10
 72
11
 73
63
 74
62
 0
VERTEX
 8
MILANO
 10
0
 20
0
 30
0
 70
128
 71
4
 72
5
 73
58
 74
57
 0
VERTEX
 8
MILANO
 10
0
 20
0
 30
0
 70
128
 71
57
 72
56
 73
3
 74
4
 0
VERTEX
 8
MILANO
 10
0
 20
0
 30
0
 70
128
 71
56
 72
55
 73
2
 74
3
 0
VERTEX
 8
MILANO
 10
0
 20
0
 30
0
 70
128
 71
55
 72
54
 73
93
 74
2
 0
VERTEX
 8
MILANO
 10
0
 20
0
 30
0
 70
128
 71
54
 72
53
 73
89
 74
93
 0
VERTEX
 8
MILANO
 10
0
 20
0
 30
0
 70
128
 71
53
 72
52
 73
88
 74
89
 0
VERTEX
 8
MILANO
 10
0
 20
0
 30
0
 70
128
 71
52
 72
51
 73
87
 74
88
 0
VERTEX
 8
MILANO
 10
0
 20
0
 30
0
 70
128
 71
8
 72
10
 73
62
 74
61
 0
SEQEND
 0
POLYLINE
 8
MCS-N645
 66
1
 10
0.0
 20
0.0
 30
0.0
 70
64
 71
8
 72
6
 0
VERTEX
 8
MCS-N645
 10
-34.28
 20
-2.13
 30
14.0314
 70
192
 0
VERTEX
 8
MCS-N645
 10
-34.28
 20
-2.13
 30
19.5314
 70
192
 0
VERTEX
 8
MCS-N645
 10
-31.62
 20
-2.13
 30
14.0314
 70
192
 0
VERTEX
 8
MCS-N645
 10
-31.62
 20
-2.13
 30
19.5314
 70
192
 0
VERTEX
 8
MCS-N645
 10
-31.62
 20
2.31
 30
14.0314
 70
192
 0
VERTEX
 8
MCS-N645
 10
-31.62
 20
2.31
 30
19.5314
 70
192
 0
VERTEX
 8
MCS-N645
 10
-34.28
 20
2.31
 30
14.0314
 70
192
 0
VERTEX
 8
MCS-N645
 10
-34.28
 20
2.31
 30
19.5314
 70
192
 0
VERTEX
 8
MCS-N645
 10
0
 20
0
 30
0
 70
128
 71
1
 72
2
 73
4
 74
3
 0
VERTEX
 8
MCS-N645
 10
0
 20
0
 30
0
 70
128
 71
3
 72
4
 73
6
 74
5
 0
VERTEX
 8
MCS-N645
 10
0
 20
0
 30
0
 70
128
 71
5
 72
6
 73
8
 74
7
 0
VERTEX
 8
MCS-N645
 10
0
 20
0
 30
0
 70
128
 71
7
 72
8
 73
2
 74
1
 0
VERTEX
 8
MCS-N645
 10
0
 20
0
 30
0
 70
128
 71
2
 72
8
 73
6
 74
4
 0
VERTEX
 8
MCS-N645
 10
0
 20
0
 30
0
 70
128
 71
7
 72
1
 73
3
 74
5
 0
SEQEND
 0
POLYLINE
 8
MCS-N646
 66
1
 10
0.0
 20
0.0
 30
0.0
 70
64
 71
8
 72
6
 0
VERTEX
 8
MCS-N646
 10
34.28
 20
2.31
 30
14.0314
 70
192
 0
VERTEX
 8
MCS-N646
 10
34.28
 20
2.31
 30
19.5314
 70
192
 0
VERTEX
 8
MCS-N646
 10
31.62
 20
2.31
 30
14.0314
 70
192
 0
VERTEX
 8
MCS-N646
 10
31.62
 20
2.31
 30
19.5314
 70
192
 0
VERTEX
 8
MCS-N646
 10
31.62
 20
-2.13
 30
14.0314
 70
192
 0
VERTEX
 8
MCS-N646
 10
31.62
 20
-2.13
 30
19.5314
 70
192
 0
VERTEX
 8
MCS-N646
 10
34.28
 20
-2.13
 30
14.0314
 70
192
 0
VERTEX
 8
MCS-N646
 10
34.28
 20
-2.13
 30
19.5314
 70
192
 0
VERTEX
 8
MCS-N646
 10
0
 20
0
 30
0
 70
128
 71
1
 72
2
 73
4
 74
3
 0
VERTEX
 8
MCS-N646
 10
0
 20
0
 30
0
 70
128
 71
3
 72
4
 73
6
 74
5
 0
VERTEX
 8
MCS-N646
 10
0
 20
0
 30
0
 70
128
 71
5
 72
6
 73
8
 74
7
 0
VERTEX
 8
MCS-N646
 10
0
 20
0
 30
0
 70
128
 71
7
 72
8
 73
2
 74
1
 0
VERTEX
 8
MCS-N646
 10
0
 20
0
 30
0
 70
128
 71
2
 72
8
 73
6
 74
4
 0
VERTEX
 8
MCS-N646
 10
0
 20
0
 30
0
 70
128
 71
7
 72
1
 73
3
 74
5
 0
SEQEND
 0
POLYLINE
 8
LED
 66
1
 10
0.0
 20
0.0
 30
0.0
 70
64
 71
12
 72
9
 0
VERTEX
 8
LED
 10
-26.113
 20
-1.7735
 30
24.5032
 70
192
 0
VERTEX
 8
LED
 10
-26.113
 20
-2.0749
 30
24.2922
 70
192
 0
VERTEX
 8
LED
 10
-26.113
 20
-0.6302
 30
22.8704
 70
192
 0
VERTEX
 8
LED
 10
-26.113
 20
-0.9316
 30
22.6593
 70
192
 0
VERTEX
 8
LED
 10
25.603
 20
-0.6302
 30
22.8704
 70
192
 0
VERTEX
 8
LED
 10
25.603
 20
-0.9316
 30
22.6593
 70
192
 0
VERTEX
 8
LED
 10
25.603
 20
-1.7735
 30
24.5032
 70
192
 0
VERTEX
 8
LED
 10
25.603
 20
-2.0749
 30
24.2922
 70
192
 0
VERTEX
 8
LED
 10
-25.813
 20
-1.9029
 30
24.0464
 70
192
 0
VERTEX
 8
LED
 10
-25.813
 20
-1.1037
 30
22.9051
 70
192
 0
VERTEX
 8
LED
 10
25.303
 20
-1.1037
 30
22.9051
 70
192
 0
VERTEX
 8
LED
 10
25.303
 20
-1.9029
 30
24.0464
 70
192
 0
VERTEX
 8
LED
 10
0
 20
0
 30
0
 70
128
 71
1
 72
2
 73
4
 74
3
 0
VERTEX
 8
LED
 10
0
 20
0
 30
0
 70
128
 71
3
 72
4
 73
6
 74
5
 0
VERTEX
 8
LED
 10
0
 20
0
 30
0
 70
128
 71
5
 72
6
 73
8
 74
7
 0
VERTEX
 8
LED
 10
0
 20
0
 30
0
 70
128
 71
7
 72
8
 73
2
 74
1
 0
VERTEX
 8
LED
 10
0
 20
0
 30
0
 70
128
 71
10
 72
4
 73
2
 74
9
 0
VERTEX
 8
LED
 10
0
 20
0
 30
0
 70
128
 71
7
 72
1
 73
3
 74
5
 0
VERTEX
 8
LED
 10
0
 20
0
 30
0
 70
128
 71
9
 72
2
 73
8
 74
12
 0
VERTEX
 8
LED
 10
0
 20
0
 30
0
 70
128
 71
12
 72
8
 73
6
 74
11
 0
VERTEX
 8
LED
 10
0
 20
0
 30
0
 70
128
 71
11
 72
6
 73
4
 74
10
 0
SEQEND
 0
POLYLINE
 8
LED_1
 66
1
 10
0.0
 20
0.0
 30
0.0
 70
64
 71
4
 72
1
 0
VERTEX
 8
LED_1
 10
-25.813
 20
-1.9029
 30
24.0464
 70
192
 0
VERTEX
 8
LED_1
 10
-25.813
 20
-1.1037
 30
22.9051
 70
192
 0
VERTEX
 8
LED_1
 10
25.303
 20
-1.1037
 30
22.9051
 70
192
 0
VERTEX
 8
LED_1
 10
25.303
 20
-1.9029
 30
24.0464
 70
192
 0
VERTEX
 8
LED_1
 10
0
 20
0
 30
0
 70
128
 71
1
 72
4
 73
3
 74
2
 0
SEQEND
 0
POLYLINE
 8
MCS-A076
 66
1
 10
0.0
 20
0.0
 30
0.0
 70
64
 71
12
 72
10
 0
VERTEX
 8
MCS-A076
 10
-33.9
 20
1.081
 30
20.0814
 70
192
 0
VERTEX
 8
MCS-A076
 10
-33.9
 20
-3.12
 30
27.4722
 70
192
 0
VERTEX
 8
MCS-A076
 10
33.9
 20
1.081
 30
20.0814
 70
192
 0
VERTEX
 8
MCS-A076
 10
33.9
 20
-3.12
 30
27.4722
 70
192
 0
VERTEX
 8
MCS-A076
 10
33.9
 20
2.68
 30
20.0814
 70
192
 0
VERTEX
 8
MCS-A076
 10
33.9
 20
2.68
 30
27.4722
 70
192
 0
VERTEX
 8
MCS-A076
 10
-33.9
 20
2.68
 30
20.0814
 70
192
 0
VERTEX
 8
MCS-A076
 10
-33.9
 20
2.68
 30
27.4722
 70
192
 0
VERTEX
 8
MCS-A076
 10
-33.9
 20
-3.12
 30
26.0826
 70
192
 0
VERTEX
 8
MCS-A076
 10
33.9
 20
-3.12
 30
26.0826
 70
192
 0
VERTEX
 8
MCS-A076
 10
33.9
 20
2.68
 30
26.0826
 70
192
 0
VERTEX
 8
MCS-A076
 10
-33.9
 20
2.68
 30
26.0826
 70
192
 0
VERTEX
 8
MCS-A076
 10
0
 20
0
 30
0
 70
128
 71
1
 72
9
 73
10
 74
3
 0
VERTEX
 8
MCS-A076
 10
0
 20
0
 30
0
 70
128
 71
3
 72
10
 73
11
 74
5
 0
VERTEX
 8
MCS-A076
 10
0
 20
0
 30
0
 70
128
 71
5
 72
11
 73
12
 74
7
 0
VERTEX
 8
MCS-A076
 10
0
 20
0
 30
0
 70
128
 71
7
 72
12
 73
9
 74
1
 0
VERTEX
 8
MCS-A076
 10
0
 20
0
 30
0
 70
128
 71
2
 72
8
 73
6
 74
4
 0
VERTEX
 8
MCS-A076
 10
0
 20
0
 30
0
 70
128
 71
7
 72
1
 73
3
 74
5
 0
VERTEX
 8
MCS-A076
 10
0
 20
0
 30
0
 70
128
 71
9
 72
2
 73
4
 74
10
 0
VERTEX
 8
MCS-A076
 10
0
 20
0
 30
0
 70
128
 71
10
 72
4
 73
6
 74
11
 0
VERTEX
 8
MCS-A076
 10
0
 20
0
 30
0
 70
128
 71
11
 72
6
 73
8
 74
12
 0
VERTEX
 8
MCS-A076
 10
0
 20
0
 30
0
 70
128
 71
12
 72
8
 73
2
 74
9
 0
SEQEND
 0
POLYLINE
 8
MSA-N272
 66
1
 10
0.0
 20
0.0
 30
0.0
 70
64
 71
8
 72
6
 0
VERTEX
 8
MSA-N272
 10
-33.85
 20
-3.1402
 30
-2.2327
 70
192
 0
VERTEX
 8
MSA-N272
 10
-33.85
 20
-3.1402
 30
20.1213
 70
192
 0
VERTEX
 8
MSA-N272
 10
33.85
 20
-3.1402
 30
-2.2327
 70
192
 0
VERTEX
 8
MSA-N272
 10
33.85
 20
-3.1402
 30
20.1213
 70
192
 0
VERTEX
 8
MSA-N272
 10
33.85
 20
-1.6992
 30
-2.2327
 70
192
 0
VERTEX
 8
MSA-N272
 10
33.85
 20
-1.6992
 30
20.1213
 70
192
 0
VERTEX
 8
MSA-N272
 10
-33.85
 20
-1.6992
 30
-2.2327
 70
192
 0
VERTEX
 8
MSA-N272
 10
-33.85
 20
-1.6992
 30
20.1213
 70
192
 0
VERTEX
 8
MSA-N272
 10
0
 20
0
 30
0
 70
128
 71
1
 72
2
 73
4
 74
3
 0
VERTEX
 8
MSA-N272
 10
0
 20
0
 30
0
 70
128
 71
3
 72
4
 73
6
 74
5
 0
VERTEX
 8
MSA-N272
 10
0
 20
0
 30
0
 70
128
 71
5
 72
6
 73
8
 74
7
 0
VERTEX
 8
MSA-N272
 10
0
 20
0
 30
0
 70
128
 71
7
 72
8
 73
2
 74
1
 0
VERTEX
 8
MSA-N272
 10
0
 20
0
 30
0
 70
128
 71
2
 72
8
 73
6
 74
4
 0
VERTEX
 8
MSA-N272
 10
0
 20
0
 30
0
 70
128
 71
7
 72
1
 73
3
 74
5
 0
SEQEND
 0
POLYLINE
 8
MSA-N262
 66
1
 10
0.0
 20
0.0
 30
0.0
 70
64
 71
36
 72
34
 0
VERTEX
 8
MSA-N262
 10
-37.5
 20
2.6795
 30
-6.8589
 70
192
 0
VERTEX
 8
MSA-N262
 10
-37.5
 20
2.6795
 30
27.4722
 70
192
 0
VERTEX
 8
MSA-N262
 10
37.5
 20
2.6795
 30
-6.8589
 70
192
 0
VERTEX
 8
MSA-N262
 10
37.5
 20
2.6795
 30
27.4722
 70
192
 0
VERTEX
 8
MSA-N262
 10
37.5
 20
2.7599
 30
-6.8589
 70
192
 0
VERTEX
 8
MSA-N262
 10
37.5
 20
2.7599
 30
27.4722
 70
192
 0
VERTEX
 8
MSA-N262
 10
-37.5
 20
2.7599
 30
-6.8589
 70
192
 0
VERTEX
 8
MSA-N262
 10
-37.5
 20
2.7599
 30
27.4722
 70
192
 0
VERTEX
 8
MSA-N262
 10
33.9
 20
2.6795
 30
27.4722
 70
192
 0
VERTEX
 8
MSA-N262
 10
33.9
 20
2.6795
 30
-6.8589
 70
192
 0
VERTEX
 8
MSA-N262
 10
33.9
 20
2.7599
 30
27.4722
 70
192
 0
VERTEX
 8
MSA-N262
 10
33.9
 20
2.7599
 30
-6.8589
 70
192
 0
VERTEX
 8
MSA-N262
 10
-33.8999
 20
2.6795
 30
27.4722
 70
192
 0
VERTEX
 8
MSA-N262
 10
-33.8999
 20
2.6795
 30
-6.8589
 70
192
 0
VERTEX
 8
MSA-N262
 10
-33.8999
 20
2.7599
 30
27.4722
 70
192
 0
VERTEX
 8
MSA-N262
 10
-33.8999
 20
2.7599
 30
-6.8589
 70
192
 0
VERTEX
 8
MSA-N262
 10
-37.5
 20
2.6795
 30
-1.7984
 70
192
 0
VERTEX
 8
MSA-N262
 10
-33.8999
 20
2.6795
 30
-1.7984
 70
192
 0
VERTEX
 8
MSA-N262
 10
37.5
 20
2.6795
 30
-1.7984
 70
192
 0
VERTEX
 8
MSA-N262
 10
37.5
 20
2.7599
 30
-1.7984
 70
192
 0
VERTEX
 8
MSA-N262
 10
33.9
 20
2.7599
 30
-1.7984
 70
192
 0
VERTEX
 8
MSA-N262
 10
-37.5
 20
2.7599
 30
-1.7984
 70
192
 0
VERTEX
 8
MSA-N262
 10
33.9
 20
2.6795
 30
-1.7984
 70
192
 0
VERTEX
 8
MSA-N262
 10
-33.8999
 20
2.7599
 30
-1.7984
 70
192
 0
VERTEX
 8
MSA-N262
 10
-37.5
 20
-3.2401
 30
-6.8589
 70
192
 0
VERTEX
 8
MSA-N262
 10
-37.5
 20
-3.2401
 30
27.4722
 70
192
 0
VERTEX
 8
MSA-N262
 10
37.5
 20
-3.2401
 30
-6.8589
 70
192
 0
VERTEX
 8
MSA-N262
 10
37.5
 20
-3.2401
 30
27.4722
 70
192
 0
VERTEX
 8
MSA-N262
 10
33.9
 20
-3.2401
 30
27.4722
 70
192
 0
VERTEX
 8
MSA-N262
 10
33.9
 20
-3.2401
 30
-6.8589
 70
192
 0
VERTEX
 8
MSA-N262
 10
-33.8999
 20
-3.2401
 30
27.4722
 70
192
 0
VERTEX
 8
MSA-N262
 10
-33.8999
 20
-3.2401
 30
-6.8589
 70
192
 0
VERTEX
 8
MSA-N262
 10
-37.5
 20
-3.2401
 30
-1.7984
 70
192
 0
VERTEX
 8
MSA-N262
 10
-33.8999
 20
-3.2401
 30
-1.7984
 70
192
 0
VERTEX
 8
MSA-N262
 10
37.5
 20
-3.2401
 30
-1.7984
 70
192
 0
VERTEX
 8
MSA-N262
 10
33.9
 20
-3.2401
 30
-1.7984
 70
192
 0
VERTEX
 8
MSA-N262
 10
0
 20
0
 30
0
 70
128
 71
25
 72
33
 73
34
 74
32
 0
VERTEX
 8
MSA-N262
 10
0
 20
0
 30
0
 70
128
 71
3
 72
19
 73
20
 74
5
 0
VERTEX
 8
MSA-N262
 10
0
 20
0
 30
0
 70
128
 71
5
 72
20
 73
21
 74
12
 0
VERTEX
 8
MSA-N262
 10
0
 20
0
 30
0
 70
128
 71
7
 72
22
 73
17
 74
1
 0
VERTEX
 8
MSA-N262
 10
0
 20
0
 30
0
 70
128
 71
2
 72
8
 73
15
 74
13
 0
VERTEX
 8
MSA-N262
 10
0
 20
0
 30
0
 70
128
 71
7
 72
1
 73
14
 74
16
 0
VERTEX
 8
MSA-N262
 10
0
 20
0
 30
0
 70
128
 71
29
 72
28
 73
35
 74
36
 0
VERTEX
 8
MSA-N262
 10
0
 20
0
 30
0
 70
128
 71
11
 72
15
 73
24
 74
21
 0
VERTEX
 8
MSA-N262
 10
0
 20
0
 30
0
 70
128
 71
11
 72
6
 73
4
 74
9
 0
VERTEX
 8
MSA-N262
 10
0
 20
0
 30
0
 70
128
 71
10
 72
3
 73
5
 74
12
 0
VERTEX
 8
MSA-N262
 10
0
 20
0
 30
0
 70
128
 71
13
 72
9
 73
23
 74
18
 0
VERTEX
 8
MSA-N262
 10
0
 20
0
 30
0
 70
128
 71
15
 72
11
 73
9
 74
13
 0
VERTEX
 8
MSA-N262
 10
0
 20
0
 30
0
 70
128
 71
14
 72
10
 73
12
 74
16
 0
VERTEX
 8
MSA-N262
 10
0
 20
0
 30
0
 70
128
 71
15
 72
8
 73
22
 74
24
 0
VERTEX
 8
MSA-N262
 10
0
 20
0
 30
0
 70
128
 71
33
 72
26
 73
31
 74
34
 0
VERTEX
 8
MSA-N262
 10
0
 20
0
 30
0
 70
128
 71
19
 72
4
 73
6
 74
20
 0
VERTEX
 8
MSA-N262
 10
0
 20
0
 30
0
 70
128
 71
20
 72
6
 73
11
 74
21
 0
VERTEX
 8
MSA-N262
 10
0
 20
0
 30
0
 70
128
 71
22
 72
8
 73
2
 74
17
 0
VERTEX
 8
MSA-N262
 10
0
 20
0
 30
0
 70
128
 71
35
 72
27
 73
30
 74
36
 0
VERTEX
 8
MSA-N262
 10
0
 20
0
 30
0
 70
128
 71
24
 72
16
 73
12
 74
21
 0
VERTEX
 8
MSA-N262
 10
0
 20
0
 30
0
 70
128
 71
36
 72
30
 73
32
 74
34
 0
VERTEX
 8
MSA-N262
 10
0
 20
0
 30
0
 70
128
 71
22
 72
7
 73
16
 74
24
 0
VERTEX
 8
MSA-N262
 10
0
 20
0
 30
0
 70
128
 71
25
 72
1
 73
17
 74
33
 0
VERTEX
 8
MSA-N262
 10
0
 20
0
 30
0
 70
128
 71
32
 72
14
 73
1
 74
25
 0
VERTEX
 8
MSA-N262
 10
0
 20
0
 30
0
 70
128
 71
29
 72
9
 73
4
 74
28
 0
VERTEX
 8
MSA-N262
 10
0
 20
0
 30
0
 70
128
 71
28
 72
4
 73
19
 74
35
 0
VERTEX
 8
MSA-N262
 10
0
 20
0
 30
0
 70
128
 71
36
 72
23
 73
9
 74
29
 0
VERTEX
 8
MSA-N262
 10
0
 20
0
 30
0
 70
128
 71
33
 72
17
 73
2
 74
26
 0
VERTEX
 8
MSA-N262
 10
0
 20
0
 30
0
 70
128
 71
26
 72
2
 73
13
 74
31
 0
VERTEX
 8
MSA-N262
 10
0
 20
0
 30
0
 70
128
 71
31
 72
13
 73
18
 74
34
 0
VERTEX
 8
MSA-N262
 10
0
 20
0
 30
0
 70
128
 71
35
 72
19
 73
3
 74
27
 0
VERTEX
 8
MSA-N262
 10
0
 20
0
 30
0
 70
128
 71
27
 72
3
 73
10
 74
30
 0
VERTEX
 8
MSA-N262
 10
0
 20
0
 30
0
 70
128
 71
30
 72
10
 73
14
 74
32
 0
VERTEX
 8
MSA-N262
 10
0
 20
0
 30
0
 70
128
 71
34
 72
18
 73
23
 74
36
 0
SEQEND
 0
POLYLINE
 8
MSA-B425
 66
1
 10
0.0
 20
0.0
 30
0.0
 70
64
 71
322
 72
322
 0
VERTEX
 8
MSA-B425
 10
-45
 20
-6.24
 30
1.53
 70
192
 0
VERTEX
 8
MSA-B425
 10
-45
 20
-6.24
 30
1.69
 70
192
 0
VERTEX
 8
MSA-B425
 10
45
 20
-6.24
 30
1.53
 70
192
 0
VERTEX
 8
MSA-B425
 10
45
 20
-6.24
 30
1.69
 70
192
 0
VERTEX
 8
MSA-B425
 10
45
 20
5.76
 30
1.53
 70
192
 0
VERTEX
 8
MSA-B425
 10
45
 20
5.76
 30
1.69
 70
192
 0
VERTEX
 8
MSA-B425
 10
-45
 20
5.76
 30
1.53
 70
192
 0
VERTEX
 8
MSA-B425
 10
-45
 20
5.76
 30
1.69
 70
192
 0
VERTEX
 8
MSA-B425
 10
41.85
 20
-6.24
 30
1.69
 70
192
 0
VERTEX
 8
MSA-B425
 10
41.85
 20
-6.24
 30
1.53
 70
192
 0
VERTEX
 8
MSA-B425
 10
41.85
 20
5.76
 30
1.69
 70
192
 0
VERTEX
 8
MSA-B425
 10
41.85
 20
5.76
 30
1.53
 70
192
 0
VERTEX
 8
MSA-B425
 10
45
 20
3.92
 30
1.69
 70
192
 0
VERTEX
 8
MSA-B425
 10
45
 20
3.92
 30
1.53
 70
192
 0
VERTEX
 8
MSA-B425
 10
-45
 20
3.92
 30
1.69
 70
192
 0
VERTEX
 8
MSA-B425
 10
-45
 20
3.92
 30
1.53
 70
192
 0
VERTEX
 8
MSA-B425
 10
41.85
 20
3.92
 30
1.69
 70
192
 0
VERTEX
 8
MSA-B425
 10
41.85
 20
3.92
 30
1.53
 70
192
 0
VERTEX
 8
MSA-B425
 10
45
 20
-4.4001
 30
1.69
 70
192
 0
VERTEX
 8
MSA-B425
 10
45
 20
-4.4001
 30
1.53
 70
192
 0
VERTEX
 8
MSA-B425
 10
-45
 20
-4.4001
 30
1.69
 70
192
 0
VERTEX
 8
MSA-B425
 10
41.85
 20
-4.4001
 30
1.69
 70
192
 0
VERTEX
 8
MSA-B425
 10
41.85
 20
-4.4001
 30
1.53
 70
192
 0
VERTEX
 8
MSA-B425
 10
-45
 20
-4.4001
 30
1.53
 70
192
 0
VERTEX
 8
MSA-B425
 10
-41.8499
 20
-6.24
 30
1.69
 70
192
 0
VERTEX
 8
MSA-B425
 10
-41.8499
 20
-6.24
 30
1.53
 70
192
 0
VERTEX
 8
MSA-B425
 10
-41.8499
 20
-4.4001
 30
1.69
 70
192
 0
VERTEX
 8
MSA-B425
 10
-41.8499
 20
3.92
 30
1.53
 70
192
 0
VERTEX
 8
MSA-B425
 10
-41.8499
 20
5.76
 30
1.53
 70
192
 0
VERTEX
 8
MSA-B425
 10
-41.8499
 20
5.76
 30
1.69
 70
192
 0
VERTEX
 8
MSA-B425
 10
-41.8499
 20
3.92
 30
1.69
 70
192
 0
VERTEX
 8
MSA-B425
 10
-41.8499
 20
-4.4001
 30
1.53
 70
192
 0
VERTEX
 8
MSA-B425
 10
45
 20
-4.5002
 30
1.69
 70
192
 0
VERTEX
 8
MSA-B425
 10
45
 20
-4.5002
 30
1.53
 70
192
 0
VERTEX
 8
MSA-B425
 10
-45
 20
-4.5002
 30
1.69
 70
192
 0
VERTEX
 8
MSA-B425
 10
-41.8499
 20
-4.5002
 30
1.69
 70
192
 0
VERTEX
 8
MSA-B425
 10
41.85
 20
-4.5002
 30
1.53
 70
192
 0
VERTEX
 8
MSA-B425
 10
-45
 20
-4.5002
 30
1.53
 70
192
 0
VERTEX
 8
MSA-B425
 10
-41.8499
 20
-4.5002
 30
1.53
 70
192
 0
VERTEX
 8
MSA-B425
 10
41.85
 20
-4.5002
 30
1.69
 70
192
 0
VERTEX
 8
MSA-B425
 10
-45
 20
4.02
 30
1.69
 70
192
 0
VERTEX
 8
MSA-B425
 10
-45
 20
4.02
 30
1.53
 70
192
 0
VERTEX
 8
MSA-B425
 10
-41.8499
 20
4.02
 30
1.53
 70
192
 0
VERTEX
 8
MSA-B425
 10
45
 20
4.02
 30
1.69
 70
192
 0
VERTEX
 8
MSA-B425
 10
41.85
 20
4.02
 30
1.69
 70
192
 0
VERTEX
 8
MSA-B425
 10
45
 20
4.02
 30
1.53
 70
192
 0
VERTEX
 8
MSA-B425
 10
-41.8499
 20
4.02
 30
1.69
 70
192
 0
VERTEX
 8
MSA-B425
 10
41.85
 20
4.02
 30
1.53
 70
192
 0
VERTEX
 8
MSA-B425
 10
-41.85
 20
-6.24
 30
1.69
 70
192
 0
VERTEX
 8
MSA-B425
 10
-41.85
 20
-6.24
 30
1.53
 70
192
 0
VERTEX
 8
MSA-B425
 10
-41.85
 20
-4.5002
 30
1.69
 70
192
 0
VERTEX
 8
MSA-B425
 10
-41.85
 20
4.02
 30
1.53
 70
192
 0
VERTEX
 8
MSA-B425
 10
-41.85
 20
5.76
 30
1.53
 70
192
 0
VERTEX
 8
MSA-B425
 10
-41.85
 20
4.02
 30
1.69
 70
192
 0
VERTEX
 8
MSA-B425
 10
-41.85
 20
3.92
 30
1.69
 70
192
 0
VERTEX
 8
MSA-B425
 10
-41.85
 20
-4.4001
 30
1.53
 70
192
 0
VERTEX
 8
MSA-B425
 10
-41.85
 20
3.92
 30
1.53
 70
192
 0
VERTEX
 8
MSA-B425
 10
-41.85
 20
-4.4001
 30
1.69
 70
192
 0
VERTEX
 8
MSA-B425
 10
-41.85
 20
-4.5002
 30
1.53
 70
192
 0
VERTEX
 8
MSA-B425
 10
-41.85
 20
5.76
 30
1.69
 70
192
 0
VERTEX
 8
MSA-B425
 10
41.8499
 20
5.76
 30
1.69
 70
192
 0
VERTEX
 8
MSA-B425
 10
41.8499
 20
5.76
 30
1.53
 70
192
 0
VERTEX
 8
MSA-B425
 10
41.8499
 20
-6.24
 30
1.69
 70
192
 0
VERTEX
 8
MSA-B425
 10
41.8499
 20
-6.24
 30
1.53
 70
192
 0
VERTEX
 8
MSA-B425
 10
41.8499
 20
-4.4001
 30
1.69
 70
192
 0
VERTEX
 8
MSA-B425
 10
41.8499
 20
-4.5002
 30
1.69
 70
192
 0
VERTEX
 8
MSA-B425
 10
41.8499
 20
3.92
 30
1.53
 70
192
 0
VERTEX
 8
MSA-B425
 10
41.8499
 20
4.02
 30
1.53
 70
192
 0
VERTEX
 8
MSA-B425
 10
41.8499
 20
4.02
 30
1.69
 70
192
 0
VERTEX
 8
MSA-B425
 10
41.8499
 20
-4.4001
 30
1.53
 70
192
 0
VERTEX
 8
MSA-B425
 10
41.8499
 20
3.92
 30
1.69
 70
192
 0
VERTEX
 8
MSA-B425
 10
41.8499
 20
-4.5002
 30
1.53
 70
192
 0
VERTEX
 8
MSA-B425
 10
41.9496
 20
5.76
 30
1.69
 70
192
 0
VERTEX
 8
MSA-B425
 10
41.9496
 20
5.76
 30
1.53
 70
192
 0
VERTEX
 8
MSA-B425
 10
41.9496
 20
-6.24
 30
1.69
 70
192
 0
VERTEX
 8
MSA-B425
 10
41.9496
 20
-6.24
 30
1.53
 70
192
 0
VERTEX
 8
MSA-B425
 10
41.9496
 20
4.02
 30
1.69
 70
192
 0
VERTEX
 8
MSA-B425
 10
41.9496
 20
-4.5002
 30
1.53
 70
192
 0
VERTEX
 8
MSA-B425
 10
41.9496
 20
-4.4001
 30
1.69
 70
192
 0
VERTEX
 8
MSA-B425
 10
41.9496
 20
3.92
 30
1.69
 70
192
 0
VERTEX
 8
MSA-B425
 10
41.9496
 20
4.02
 30
1.53
 70
192
 0
VERTEX
 8
MSA-B425
 10
41.9496
 20
3.92
 30
1.53
 70
192
 0
VERTEX
 8
MSA-B425
 10
41.9496
 20
-4.4001
 30
1.53
 70
192
 0
VERTEX
 8
MSA-B425
 10
41.9496
 20
-4.5002
 30
1.69
 70
192
 0
VERTEX
 8
MSA-B425
 10
-41.9499
 20
-6.24
 30
1.69
 70
192
 0
VERTEX
 8
MSA-B425
 10
-41.9499
 20
-6.24
 30
1.53
 70
192
 0
VERTEX
 8
MSA-B425
 10
-41.9499
 20
-4.5002
 30
1.69
 70
192
 0
VERTEX
 8
MSA-B425
 10
-41.9499
 20
4.02
 30
1.53
 70
192
 0
VERTEX
 8
MSA-B425
 10
-41.9499
 20
5.76
 30
1.53
 70
192
 0
VERTEX
 8
MSA-B425
 10
-41.9499
 20
4.02
 30
1.69
 70
192
 0
VERTEX
 8
MSA-B425
 10
-41.9499
 20
3.92
 30
1.69
 70
192
 0
VERTEX
 8
MSA-B425
 10
-41.9499
 20
-4.4001
 30
1.53
 70
192
 0
VERTEX
 8
MSA-B425
 10
-41.9499
 20
3.92
 30
1.53
 70
192
 0
VERTEX
 8
MSA-B425
 10
-41.9499
 20
-4.4001
 30
1.69
 70
192
 0
VERTEX
 8
MSA-B425
 10
-41.9499
 20
-4.5002
 30
1.53
 70
192
 0
VERTEX
 8
MSA-B425
 10
-41.9499
 20
5.76
 30
1.69
 70
192
 0
VERTEX
 8
MSA-B425
 10
41.85
 20
3.92
 30
0.5998
 70
192
 0
VERTEX
 8
MSA-B425
 10
41.85
 20
-4.4001
 30
0.5998
 70
192
 0
VERTEX
 8
MSA-B425
 10
-41.8499
 20
3.92
 30
0.5998
 70
192
 0
VERTEX
 8
MSA-B425
 10
-41.8499
 20
-4.4001
 30
0.5998
 70
192
 0
VERTEX
 8
MSA-B425
 10
41.85
 20
-4.5002
 30
0.5998
 70
192
 0
VERTEX
 8
MSA-B425
 10
-41.8499
 20
-4.5002
 30
0.5998
 70
192
 0
VERTEX
 8
MSA-B425
 10
-41.8499
 20
4.02
 30
0.5998
 70
192
 0
VERTEX
 8
MSA-B425
 10
41.85
 20
4.02
 30
0.5998
 70
192
 0
VERTEX
 8
MSA-B425
 10
41.8499
 20
3.92
 30
0.5998
 70
192
 0
VERTEX
 8
MSA-B425
 10
41.8499
 20
4.02
 30
0.5998
 70
192
 0
VERTEX
 8
MSA-B425
 10
41.8499
 20
-4.4001
 30
0.5998
 70
192
 0
VERTEX
 8
MSA-B425
 10
41.8499
 20
-4.5002
 30
0.5998
 70
192
 0
VERTEX
 8
MSA-B425
 10
41.9496
 20
-4.5002
 30
0.5998
 70
192
 0
VERTEX
 8
MSA-B425
 10
41.9496
 20
4.02
 30
0.5998
 70
192
 0
VERTEX
 8
MSA-B425
 10
41.9496
 20
3.92
 30
0.5998
 70
192
 0
VERTEX
 8
MSA-B425
 10
41.9496
 20
-4.4001
 30
0.5998
 70
192
 0
VERTEX
 8
MSA-B425
 10
41.85
 20
3.92
 30
0.7598
 70
192
 0
VERTEX
 8
MSA-B425
 10
41.85
 20
-4.4001
 30
0.7598
 70
192
 0
VERTEX
 8
MSA-B425
 10
-41.8499
 20
-4.4001
 30
0.7598
 70
192
 0
VERTEX
 8
MSA-B425
 10
-41.8499
 20
3.92
 30
0.7598
 70
192
 0
VERTEX
 8
MSA-B425
 10
41.8499
 20
-4.4001
 30
0.7598
 70
192
 0
VERTEX
 8
MSA-B425
 10
41.8499
 20
3.92
 30
0.7598
 70
192
 0
VERTEX
 8
MSA-B425
 10
-41.85
 20
4.02
 30
0.5998
 70
192
 0
VERTEX
 8
MSA-B425
 10
-41.85
 20
-4.4001
 30
0.5998
 70
192
 0
VERTEX
 8
MSA-B425
 10
-41.85
 20
3.92
 30
0.5998
 70
192
 0
VERTEX
 8
MSA-B425
 10
-41.85
 20
-4.5002
 30
0.5998
 70
192
 0
VERTEX
 8
MSA-B425
 10
-41.9499
 20
4.02
 30
0.5998
 70
192
 0
VERTEX
 8
MSA-B425
 10
-41.9499
 20
-4.4001
 30
0.5998
 70
192
 0
VERTEX
 8
MSA-B425
 10
-41.9499
 20
3.92
 30
0.5998
 70
192
 0
VERTEX
 8
MSA-B425
 10
-41.9499
 20
-4.5002
 30
0.5998
 70
192
 0
VERTEX
 8
MSA-B425
 10
-38.0001
 20
-6.24
 30
1.69
 70
192
 0
VERTEX
 8
MSA-B425
 10
-38.0001
 20
-6.24
 30
1.53
 70
192
 0
VERTEX
 8
MSA-B425
 10
-38.0001
 20
-4.4001
 30
1.69
 70
192
 0
VERTEX
 8
MSA-B425
 10
-38.0001
 20
-4.5002
 30
1.69
 70
192
 0
VERTEX
 8
MSA-B425
 10
-38.0001
 20
3.92
 30
0.5998
 70
192
 0
VERTEX
 8
MSA-B425
 10
-38.0001
 20
4.02
 30
0.5998
 70
192
 0
VERTEX
 8
MSA-B425
 10
-38.0001
 20
5.76
 30
1.69
 70
192
 0
VERTEX
 8
MSA-B425
 10
-38.0001
 20
4.02
 30
1.69
 70
192
 0
VERTEX
 8
MSA-B425
 10
-38.0001
 20
4.02
 30
1.53
 70
192
 0
VERTEX
 8
MSA-B425
 10
-38.0001
 20
-4.4001
 30
0.5998
 70
192
 0
VERTEX
 8
MSA-B425
 10
-38.0001
 20
3.92
 30
0.7598
 70
192
 0
VERTEX
 8
MSA-B425
 10
-38.0001
 20
-4.4001
 30
0.7598
 70
192
 0
VERTEX
 8
MSA-B425
 10
-38.0001
 20
-4.5002
 30
1.53
 70
192
 0
VERTEX
 8
MSA-B425
 10
-38.0001
 20
5.76
 30
1.53
 70
192
 0
VERTEX
 8
MSA-B425
 10
-38.0001
 20
-4.5002
 30
0.5998
 70
192
 0
VERTEX
 8
MSA-B425
 10
-38.0001
 20
3.92
 30
1.69
 70
192
 0
VERTEX
 8
MSA-B425
 10
-37.9001
 20
3.92
 30
0.5998
 70
192
 0
VERTEX
 8
MSA-B425
 10
-37.9001
 20
4.02
 30
0.5998
 70
192
 0
VERTEX
 8
MSA-B425
 10
-37.9001
 20
5.76
 30
1.69
 70
192
 0
VERTEX
 8
MSA-B425
 10
-37.9001
 20
5.76
 30
1.53
 70
192
 0
VERTEX
 8
MSA-B425
 10
-37.9001
 20
-6.24
 30
1.69
 70
192
 0
VERTEX
 8
MSA-B425
 10
-37.9001
 20
-4.5002
 30
1.69
 70
192
 0
VERTEX
 8
MSA-B425
 10
-37.9001
 20
-4.4001
 30
0.5998
 70
192
 0
VERTEX
 8
MSA-B425
 10
-37.9001
 20
-4.5002
 30
0.5998
 70
192
 0
VERTEX
 8
MSA-B425
 10
-37.9001
 20
-4.5002
 30
1.53
 70
192
 0
VERTEX
 8
MSA-B425
 10
-37.9001
 20
4.02
 30
1.53
 70
192
 0
VERTEX
 8
MSA-B425
 10
-37.9001
 20
3.92
 30
1.69
 70
192
 0
VERTEX
 8
MSA-B425
 10
-37.9001
 20
4.02
 30
1.69
 70
192
 0
VERTEX
 8
MSA-B425
 10
-37.9001
 20
-4.4001
 30
1.69
 70
192
 0
VERTEX
 8
MSA-B425
 10
-37.9001
 20
-4.4001
 30
0.7598
 70
192
 0
VERTEX
 8
MSA-B425
 10
-37.9001
 20
-6.24
 30
1.53
 70
192
 0
VERTEX
 8
MSA-B425
 10
-37.9001
 20
3.92
 30
0.7598
 70
192
 0
VERTEX
 8
MSA-B425
 10
38
 20
5.76
 30
1.69
 70
192
 0
VERTEX
 8
MSA-B425
 10
38
 20
5.76
 30
1.53
 70
192
 0
VERTEX
 8
MSA-B425
 10
38
 20
-6.24
 30
1.69
 70
192
 0
VERTEX
 8
MSA-B425
 10
38
 20
-4.5002
 30
1.69
 70
192
 0
VERTEX
 8
MSA-B425
 10
38
 20
-4.4001
 30
0.5998
 70
192
 0
VERTEX
 8
MSA-B425
 10
38
 20
-4.5002
 30
0.5998
 70
192
 0
VERTEX
 8
MSA-B425
 10
38
 20
4.02
 30
1.53
 70
192
 0
VERTEX
 8
MSA-B425
 10
38
 20
3.92
 30
1.69
 70
192
 0
VERTEX
 8
MSA-B425
 10
38
 20
4.02
 30
1.69
 70
192
 0
VERTEX
 8
MSA-B425
 10
38
 20
4.02
 30
0.5998
 70
192
 0
VERTEX
 8
MSA-B425
 10
38
 20
-4.4001
 30
1.69
 70
192
 0
VERTEX
 8
MSA-B425
 10
38
 20
-4.4001
 30
0.7598
 70
192
 0
VERTEX
 8
MSA-B425
 10
38
 20
3.92
 30
0.5998
 70
192
 0
VERTEX
 8
MSA-B425
 10
38
 20
-4.5002
 30
1.53
 70
192
 0
VERTEX
 8
MSA-B425
 10
38
 20
-6.24
 30
1.53
 70
192
 0
VERTEX
 8
MSA-B425
 10
38
 20
3.92
 30
0.7598
 70
192
 0
VERTEX
 8
MSA-B425
 10
37.8995
 20
3.92
 30
0.5998
 70
192
 0
VERTEX
 8
MSA-B425
 10
37.8995
 20
4.02
 30
0.5998
 70
192
 0
VERTEX
 8
MSA-B425
 10
37.8995
 20
-4.5002
 30
1.53
 70
192
 0
VERTEX
 8
MSA-B425
 10
37.8995
 20
-4.5002
 30
0.5998
 70
192
 0
VERTEX
 8
MSA-B425
 10
37.8995
 20
-6.24
 30
1.69
 70
192
 0
VERTEX
 8
MSA-B425
 10
37.8995
 20
-6.24
 30
1.53
 70
192
 0
VERTEX
 8
MSA-B425
 10
37.8995
 20
-4.4001
 30
1.69
 70
192
 0
VERTEX
 8
MSA-B425
 10
37.8995
 20
-4.5002
 30
1.69
 70
192
 0
VERTEX
 8
MSA-B425
 10
37.8995
 20
5.76
 30
1.69
 70
192
 0
VERTEX
 8
MSA-B425
 10
37.8995
 20
4.02
 30
1.69
 70
192
 0
VERTEX
 8
MSA-B425
 10
37.8995
 20
-4.4001
 30
0.5998
 70
192
 0
VERTEX
 8
MSA-B425
 10
37.8995
 20
3.92
 30
0.7598
 70
192
 0
VERTEX
 8
MSA-B425
 10
37.8995
 20
-4.4001
 30
0.7598
 70
192
 0
VERTEX
 8
MSA-B425
 10
37.8995
 20
3.92
 30
1.69
 70
192
 0
VERTEX
 8
MSA-B425
 10
37.8995
 20
5.76
 30
1.53
 70
192
 0
VERTEX
 8
MSA-B425
 10
37.8995
 20
4.02
 30
1.53
 70
192
 0
VERTEX
 8
MSA-B425
 10
-37.9001
 20
3.2197
 30
0.7598
 70
192
 0
VERTEX
 8
MSA-B425
 10
-38.0001
 20
3.2197
 30
0.7598
 70
192
 0
VERTEX
 8
MSA-B425
 10
-45
 20
3.2197
 30
1.69
 70
192
 0
VERTEX
 8
MSA-B425
 10
-45
 20
3.2197
 30
1.53
 70
192
 0
VERTEX
 8
MSA-B425
 10
-41.9499
 20
3.2197
 30
1.53
 70
192
 0
VERTEX
 8
MSA-B425
 10
41.85
 20
3.2197
 30
1.69
 70
192
 0
VERTEX
 8
MSA-B425
 10
41.9496
 20
3.2197
 30
1.69
 70
192
 0
VERTEX
 8
MSA-B425
 10
45
 20
3.2197
 30
1.69
 70
192
 0
VERTEX
 8
MSA-B425
 10
37.8995
 20
3.2197
 30
0.7598
 70
192
 0
VERTEX
 8
MSA-B425
 10
45
 20
3.2197
 30
1.53
 70
192
 0
VERTEX
 8
MSA-B425
 10
37.8995
 20
3.2197
 30
0.5998
 70
192
 0
VERTEX
 8
MSA-B425
 10
-37.9001
 20
3.2197
 30
0.5998
 70
192
 0
VERTEX
 8
MSA-B425
 10
-41.9499
 20
3.2197
 30
1.69
 70
192
 0
VERTEX
 8
MSA-B425
 10
-41.85
 20
3.2197
 30
0.5998
 70
192
 0
VERTEX
 8
MSA-B425
 10
-41.9499
 20
3.2197
 30
0.5998
 70
192
 0
VERTEX
 8
MSA-B425
 10
41.9496
 20
3.2197
 30
1.53
 70
192
 0
VERTEX
 8
MSA-B425
 10
-38.0001
 20
3.2197
 30
0.5998
 70
192
 0
VERTEX
 8
MSA-B425
 10
-41.8499
 20
3.2197
 30
0.5998
 70
192
 0
VERTEX
 8
MSA-B425
 10
-41.8499
 20
3.2197
 30
0.7598
 70
192
 0
VERTEX
 8
MSA-B425
 10
-41.8499
 20
3.2197
 30
1.53
 70
192
 0
VERTEX
 8
MSA-B425
 10
-41.85
 20
3.2197
 30
1.53
 70
192
 0
VERTEX
 8
MSA-B425
 10
-41.8499
 20
3.2197
 30
1.69
 70
192
 0
VERTEX
 8
MSA-B425
 10
-41.85
 20
3.2197
 30
1.69
 70
192
 0
VERTEX
 8
MSA-B425
 10
41.85
 20
3.2197
 30
0.5998
 70
192
 0
VERTEX
 8
MSA-B425
 10
41.8499
 20
3.2197
 30
0.5998
 70
192
 0
VERTEX
 8
MSA-B425
 10
41.85
 20
3.2197
 30
0.7598
 70
192
 0
VERTEX
 8
MSA-B425
 10
41.8499
 20
3.2197
 30
0.7598
 70
192
 0
VERTEX
 8
MSA-B425
 10
41.9496
 20
3.2197
 30
0.5998
 70
192
 0
VERTEX
 8
MSA-B425
 10
38
 20
3.2197
 30
0.5998
 70
192
 0
VERTEX
 8
MSA-B425
 10
38
 20
3.2197
 30
0.7598
 70
192
 0
VERTEX
 8
MSA-B425
 10
45
 20
3.1599
 30
1.69
 70
192
 0
VERTEX
 8
MSA-B425
 10
45
 20
3.1599
 30
1.53
 70
192
 0
VERTEX
 8
MSA-B425
 10
37.8995
 20
3.1599
 30
-0.0001
 70
192
 0
VERTEX
 8
MSA-B425
 10
-37.9001
 20
3.1599
 30
-0.0001
 70
192
 0
VERTEX
 8
MSA-B425
 10
-45
 20
3.1599
 30
1.69
 70
192
 0
VERTEX
 8
MSA-B425
 10
-41.9499
 20
3.1599
 30
1.69
 70
192
 0
VERTEX
 8
MSA-B425
 10
-41.85
 20
3.1599
 30
0.5998
 70
192
 0
VERTEX
 8
MSA-B425
 10
-41.9499
 20
3.1599
 30
0.5998
 70
192
 0
VERTEX
 8
MSA-B425
 10
41.9496
 20
3.1599
 30
1.53
 70
192
 0
VERTEX
 8
MSA-B425
 10
-38.0001
 20
3.1599
 30
0.5998
 70
192
 0
VERTEX
 8
MSA-B425
 10
-41.8499
 20
3.1599
 30
0.5998
 70
192
 0
VERTEX
 8
MSA-B425
 10
-41.8499
 20
3.1599
 30
1.53
 70
192
 0
VERTEX
 8
MSA-B425
 10
-41.85
 20
3.1599
 30
1.53
 70
192
 0
VERTEX
 8
MSA-B425
 10
41.85
 20
3.1599
 30
0.5998
 70
192
 0
VERTEX
 8
MSA-B425
 10
41.8499
 20
3.1599
 30
0.5998
 70
192
 0
VERTEX
 8
MSA-B425
 10
41.85
 20
3.1599
 30
1.69
 70
192
 0
VERTEX
 8
MSA-B425
 10
41.9496
 20
3.1599
 30
1.69
 70
192
 0
VERTEX
 8
MSA-B425
 10
41.9496
 20
3.1599
 30
0.5998
 70
192
 0
VERTEX
 8
MSA-B425
 10
-45
 20
3.1599
 30
1.53
 70
192
 0
VERTEX
 8
MSA-B425
 10
-41.8499
 20
3.1599
 30
1.69
 70
192
 0
VERTEX
 8
MSA-B425
 10
-41.8499
 20
3.1599
 30
0.7598
 70
192
 0
VERTEX
 8
MSA-B425
 10
38
 20
3.1599
 30
0.5998
 70
192
 0
VERTEX
 8
MSA-B425
 10
-37.9001
 20
3.1599
 30
0.7598
 70
192
 0
VERTEX
 8
MSA-B425
 10
-38.0001
 20
3.1599
 30
0.7598
 70
192
 0
VERTEX
 8
MSA-B425
 10
-41.9499
 20
3.1599
 30
1.53
 70
192
 0
VERTEX
 8
MSA-B425
 10
37.8995
 20
3.1599
 30
0.7598
 70
192
 0
VERTEX
 8
MSA-B425
 10
-41.85
 20
3.1599
 30
1.69
 70
192
 0
VERTEX
 8
MSA-B425
 10
41.85
 20
3.1599
 30
0.7598
 70
192
 0
VERTEX
 8
MSA-B425
 10
41.8499
 20
3.1599
 30
0.7598
 70
192
 0
VERTEX
 8
MSA-B425
 10
38
 20
3.1599
 30
0.7598
 70
192
 0
VERTEX
 8
MSA-B425
 10
45
 20
-3.6402
 30
1.69
 70
192
 0
VERTEX
 8
MSA-B425
 10
45
 20
-3.6402
 30
1.53
 70
192
 0
VERTEX
 8
MSA-B425
 10
37.8995
 20
-3.6402
 30
-0.0001
 70
192
 0
VERTEX
 8
MSA-B425
 10
-37.9001
 20
-3.6402
 30
-0.0001
 70
192
 0
VERTEX
 8
MSA-B425
 10
-45
 20
-3.6402
 30
1.69
 70
192
 0
VERTEX
 8
MSA-B425
 10
-41.9499
 20
-3.6402
 30
1.69
 70
192
 0
VERTEX
 8
MSA-B425
 10
-41.85
 20
-3.6402
 30
0.5998
 70
192
 0
VERTEX
 8
MSA-B425
 10
-41.9499
 20
-3.6402
 30
0.5998
 70
192
 0
VERTEX
 8
MSA-B425
 10
41.9496
 20
-3.6402
 30
1.53
 70
192
 0
VERTEX
 8
MSA-B425
 10
-38.0001
 20
-3.6402
 30
0.5998
 70
192
 0
VERTEX
 8
MSA-B425
 10
-41.8499
 20
-3.6402
 30
0.5998
 70
192
 0
VERTEX
 8
MSA-B425
 10
-41.8499
 20
-3.6402
 30
1.53
 70
192
 0
VERTEX
 8
MSA-B425
 10
-41.85
 20
-3.6402
 30
1.53
 70
192
 0
VERTEX
 8
MSA-B425
 10
-41.85
 20
-3.6402
 30
1.69
 70
192
 0
VERTEX
 8
MSA-B425
 10
41.85
 20
-3.6402
 30
0.5998
 70
192
 0
VERTEX
 8
MSA-B425
 10
41.8499
 20
-3.6402
 30
0.5998
 70
192
 0
VERTEX
 8
MSA-B425
 10
41.85
 20
-3.6402
 30
1.69
 70
192
 0
VERTEX
 8
MSA-B425
 10
41.9496
 20
-3.6402
 30
1.69
 70
192
 0
VERTEX
 8
MSA-B425
 10
41.9496
 20
-3.6402
 30
0.5998
 70
192
 0
VERTEX
 8
MSA-B425
 10
-41.8499
 20
-3.6402
 30
1.69
 70
192
 0
VERTEX
 8
MSA-B425
 10
-41.8499
 20
-3.6402
 30
0.7598
 70
192
 0
VERTEX
 8
MSA-B425
 10
38
 20
-3.6402
 30
0.5998
 70
192
 0
VERTEX
 8
MSA-B425
 10
-41.9499
 20
-3.6402
 30
1.53
 70
192
 0
VERTEX
 8
MSA-B425
 10
-45
 20
-3.6402
 30
1.53
 70
192
 0
VERTEX
 8
MSA-B425
 10
-37.9001
 20
-3.6402
 30
0.7598
 70
192
 0
VERTEX
 8
MSA-B425
 10
-38.0001
 20
-3.6402
 30
0.7598
 70
192
 0
VERTEX
 8
MSA-B425
 10
37.8995
 20
-3.6402
 30
0.7598
 70
192
 0
VERTEX
 8
MSA-B425
 10
41.85
 20
-3.6402
 30
0.7598
 70
192
 0
VERTEX
 8
MSA-B425
 10
41.8499
 20
-3.6402
 30
0.7598
 70
192
 0
VERTEX
 8
MSA-B425
 10
38
 20
-3.6402
 30
0.7598
 70
192
 0
VERTEX
 8
MSA-B425
 10
45
 20
-3.7004
 30
1.69
 70
192
 0
VERTEX
 8
MSA-B425
 10
45
 20
-3.7004
 30
1.53
 70
192
 0
VERTEX
 8
MSA-B425
 10
37.8995
 20
-3.7004
 30
0.5998
 70
192
 0
VERTEX
 8
MSA-B425
 10
-37.9001
 20
-3.7004
 30
0.5998
 70
192
 0
VERTEX
 8
MSA-B425
 10
-45
 20
-3.7004
 30
1.69
 70
192
 0
VERTEX
 8
MSA-B425
 10
-41.9499
 20
-3.7004
 30
1.69
 70
192
 0
VERTEX
 8
MSA-B425
 10
-41.85
 20
-3.7004
 30
0.5998
 70
192
 0
VERTEX
 8
MSA-B425
 10
-41.9499
 20
-3.7004
 30
0.5998
 70
192
 0
VERTEX
 8
MSA-B425
 10
41.9496
 20
-3.7004
 30
1.53
 70
192
 0
VERTEX
 8
MSA-B425
 10
-41.9499
 20
-3.7004
 30
1.53
 70
192
 0
VERTEX
 8
MSA-B425
 10
-38.0001
 20
-3.7004
 30
0.5998
 70
192
 0
VERTEX
 8
MSA-B425
 10
-41.8499
 20
-3.7004
 30
0.5998
 70
192
 0
VERTEX
 8
MSA-B425
 10
-41.85
 20
-3.7004
 30
1.69
 70
192
 0
VERTEX
 8
MSA-B425
 10
-41.8499
 20
-3.7004
 30
1.53
 70
192
 0
VERTEX
 8
MSA-B425
 10
-41.85
 20
-3.7004
 30
1.53
 70
192
 0
VERTEX
 8
MSA-B425
 10
41.85
 20
-3.7004
 30
0.5998
 70
192
 0
VERTEX
 8
MSA-B425
 10
41.8499
 20
-3.7004
 30
0.5998
 70
192
 0
VERTEX
 8
MSA-B425
 10
41.85
 20
-3.7004
 30
1.69
 70
192
 0
VERTEX
 8
MSA-B425
 10
41.9496
 20
-3.7004
 30
1.69
 70
192
 0
VERTEX
 8
MSA-B425
 10
41.9496
 20
-3.7004
 30
0.5998
 70
192
 0
VERTEX
 8
MSA-B425
 10
-41.8499
 20
-3.7004
 30
1.69
 70
192
 0
VERTEX
 8
MSA-B425
 10
-41.8499
 20
-3.7004
 30
0.7598
 70
192
 0
VERTEX
 8
MSA-B425
 10
38
 20
-3.7004
 30
0.5998
 70
192
 0
VERTEX
 8
MSA-B425
 10
-45
 20
-3.7004
 30
1.53
 70
192
 0
VERTEX
 8
MSA-B425
 10
-37.9001
 20
-3.7004
 30
0.7598
 70
192
 0
VERTEX
 8
MSA-B425
 10
-38.0001
 20
-3.7004
 30
0.7598
 70
192
 0
VERTEX
 8
MSA-B425
 10
37.8995
 20
-3.7004
 30
0.7598
 70
192
 0
VERTEX
 8
MSA-B425
 10
41.85
 20
-3.7004
 30
0.7598
 70
192
 0
VERTEX
 8
MSA-B425
 10
41.8499
 20
-3.7004
 30
0.7598
 70
192
 0
VERTEX
 8
MSA-B425
 10
38
 20
-3.7004
 30
0.7598
 70
192
 0
VERTEX
 8
MSA-B425
 10
37.8995
 20
3.2197
 30
-0.0001
 70
192
 0
VERTEX
 8
MSA-B425
 10
-37.9001
 20
3.2197
 30
-0.0001
 70
192
 0
VERTEX
 8
MSA-B425
 10
-38.0001
 20
3.2197
 30
-0.0001
 70
192
 0
VERTEX
 8
MSA-B425
 10
38
 20
3.2197
 30
-0.0001
 70
192
 0
VERTEX
 8
MSA-B425
 10
-38.0001
 20
3.1599
 30
-0.0001
 70
192
 0
VERTEX
 8
MSA-B425
 10
38
 20
3.1599
 30
-0.0001
 70
192
 0
VERTEX
 8
MSA-B425
 10
-38.0001
 20
-3.6402
 30
-0.0001
 70
192
 0
VERTEX
 8
MSA-B425
 10
38
 20
-3.6402
 30
-0.0001
 70
192
 0
VERTEX
 8
MSA-B425
 10
37.8995
 20
-3.7004
 30
-0.0001
 70
192
 0
VERTEX
 8
MSA-B425
 10
-37.9001
 20
-3.7004
 30
-0.0001
 70
192
 0
VERTEX
 8
MSA-B425
 10
-38.0001
 20
-3.7004
 30
-0.0001
 70
192
 0
VERTEX
 8
MSA-B425
 10
38
 20
-3.7004
 30
-0.0001
 70
192
 0
VERTEX
 8
MSA-B425
 10
0
 20
0
 30
0
 70
128
 71
1
 72
2
 73
85
 74
86
 0
VERTEX
 8
MSA-B425
 10
0
 20
0
 30
0
 70
128
 71
3
 72
4
 73
33
 74
34
 0
VERTEX
 8
MSA-B425
 10
0
 20
0
 30
0
 70
128
 71
5
 72
6
 73
73
 74
74
 0
VERTEX
 8
MSA-B425
 10
0
 20
0
 30
0
 70
128
 71
7
 72
8
 73
41
 74
42
 0
VERTEX
 8
MSA-B425
 10
0
 20
0
 30
0
 70
128
 71
2
 72
35
 73
87
 74
85
 0
VERTEX
 8
MSA-B425
 10
0
 20
0
 30
0
 70
128
 71
7
 72
42
 73
88
 74
89
 0
VERTEX
 8
MSA-B425
 10
0
 20
0
 30
0
 70
128
 71
9
 72
75
 73
76
 74
10
 0
VERTEX
 8
MSA-B425
 10
0
 20
0
 30
0
 70
128
 71
11
 72
61
 73
62
 74
12
 0
VERTEX
 8
MSA-B425
 10
0
 20
0
 30
0
 70
128
 71
11
 72
73
 73
77
 74
45
 0
VERTEX
 8
MSA-B425
 10
0
 20
0
 30
0
 70
128
 71
10
 72
76
 73
78
 74
37
 0
VERTEX
 8
MSA-B425
 10
0
 20
0
 30
0
 70
128
 71
13
 72
44
 73
46
 74
14
 0
VERTEX
 8
MSA-B425
 10
0
 20
0
 30
0
 70
128
 71
15
 72
193
 73
194
 74
16
 0
VERTEX
 8
MSA-B425
 10
0
 20
0
 30
0
 70
128
 71
15
 72
41
 73
90
 74
91
 0
VERTEX
 8
MSA-B425
 10
0
 20
0
 30
0
 70
128
 71
16
 72
194
 73
195
 74
93
 0
VERTEX
 8
MSA-B425
 10
0
 20
0
 30
0
 70
128
 71
13
 72
198
 73
197
 74
80
 0
VERTEX
 8
MSA-B425
 10
0
 20
0
 30
0
 70
128
 71
14
 72
46
 73
81
 74
82
 0
VERTEX
 8
MSA-B425
 10
0
 20
0
 30
0
 70
128
 71
19
 72
281
 73
282
 74
20
 0
VERTEX
 8
MSA-B425
 10
0
 20
0
 30
0
 70
128
 71
21
 72
285
 73
286
 74
94
 0
VERTEX
 8
MSA-B425
 10
0
 20
0
 30
0
 70
128
 71
20
 72
282
 73
289
 74
83
 0
VERTEX
 8
MSA-B425
 10
0
 20
0
 30
0
 70
128
 71
21
 72
35
 73
38
 74
24
 0
VERTEX
 8
MSA-B425
 10
0
 20
0
 30
0
 70
128
 71
24
 72
38
 73
95
 74
92
 0
VERTEX
 8
MSA-B425
 10
0
 20
0
 30
0
 70
128
 71
19
 72
33
 73
84
 74
79
 0
VERTEX
 8
MSA-B425
 10
0
 20
0
 30
0
 70
128
 71
25
 72
127
 73
128
 74
26
 0
VERTEX
 8
MSA-B425
 10
0
 20
0
 30
0
 70
128
 71
27
 72
129
 73
130
 74
36
 0
VERTEX
 8
MSA-B425
 10
0
 20
0
 30
0
 70
128
 71
99
 72
131
 73
132
 74
103
 0
VERTEX
 8
MSA-B425
 10
0
 20
0
 30
0
 70
128
 71
30
 72
60
 73
53
 74
29
 0
VERTEX
 8
MSA-B425
 10
0
 20
0
 30
0
 70
128
 71
30
 72
133
 73
134
 74
47
 0
VERTEX
 8
MSA-B425
 10
0
 20
0
 30
0
 70
128
 71
100
 72
136
 73
291
 74
292
 0
VERTEX
 8
MSA-B425
 10
0
 20
0
 30
0
 70
128
 71
116
 72
137
 73
192
 74
209
 0
VERTEX
 8
MSA-B425
 10
0
 20
0
 30
0
 70
128
 71
26
 72
128
 73
139
 74
39
 0
VERTEX
 8
MSA-B425
 10
0
 20
0
 30
0
 70
128
 71
33
 72
19
 73
20
 74
34
 0
VERTEX
 8
MSA-B425
 10
0
 20
0
 30
0
 70
128
 71
35
 72
21
 73
94
 74
87
 0
VERTEX
 8
MSA-B425
 10
0
 20
0
 30
0
 70
128
 71
34
 72
20
 73
83
 74
78
 0
VERTEX
 8
MSA-B425
 10
0
 20
0
 30
0
 70
128
 71
35
 72
2
 73
1
 74
38
 0
VERTEX
 8
MSA-B425
 10
0
 20
0
 30
0
 70
128
 71
38
 72
1
 73
86
 74
95
 0
VERTEX
 8
MSA-B425
 10
0
 20
0
 30
0
 70
128
 71
33
 72
4
 73
75
 74
84
 0
VERTEX
 8
MSA-B425
 10
0
 20
0
 30
0
 70
128
 71
40
 72
9
 73
63
 74
66
 0
VERTEX
 8
MSA-B425
 10
0
 20
0
 30
0
 70
128
 71
37
 72
23
 73
70
 74
72
 0
VERTEX
 8
MSA-B425
 10
0
 20
0
 30
0
 70
128
 71
41
 72
15
 73
16
 74
42
 0
VERTEX
 8
MSA-B425
 10
0
 20
0
 30
0
 70
128
 71
42
 72
16
 73
93
 74
88
 0
VERTEX
 8
MSA-B425
 10
0
 20
0
 30
0
 70
128
 71
44
 72
13
 73
80
 74
77
 0
VERTEX
 8
MSA-B425
 10
0
 20
0
 30
0
 70
128
 71
44
 72
6
 73
5
 74
46
 0
VERTEX
 8
MSA-B425
 10
0
 20
0
 30
0
 70
128
 71
41
 72
8
 73
96
 74
90
 0
VERTEX
 8
MSA-B425
 10
0
 20
0
 30
0
 70
128
 71
46
 72
5
 73
74
 74
81
 0
VERTEX
 8
MSA-B425
 10
0
 20
0
 30
0
 70
128
 71
48
 72
12
 73
62
 74
68
 0
VERTEX
 8
MSA-B425
 10
0
 20
0
 30
0
 70
128
 71
45
 72
17
 73
71
 74
69
 0
VERTEX
 8
MSA-B425
 10
0
 20
0
 30
0
 70
128
 71
49
 72
25
 73
26
 74
50
 0
VERTEX
 8
MSA-B425
 10
0
 20
0
 30
0
 70
128
 71
51
 72
36
 73
25
 74
49
 0
VERTEX
 8
MSA-B425
 10
0
 20
0
 30
0
 70
128
 71
52
 72
43
 73
29
 74
53
 0
VERTEX
 8
MSA-B425
 10
0
 20
0
 30
0
 70
128
 71
54
 72
47
 73
31
 74
55
 0
VERTEX
 8
MSA-B425
 10
0
 20
0
 30
0
 70
128
 71
56
 72
32
 73
294
 74
295
 0
VERTEX
 8
MSA-B425
 10
0
 20
0
 30
0
 70
128
 71
55
 72
31
 73
212
 74
213
 0
VERTEX
 8
MSA-B425
 10
0
 20
0
 30
0
 70
128
 71
59
 72
39
 73
32
 74
56
 0
VERTEX
 8
MSA-B425
 10
0
 20
0
 30
0
 70
128
 71
60
 72
96
 73
89
 74
53
 0
VERTEX
 8
MSA-B425
 10
0
 20
0
 30
0
 70
128
 71
58
 72
27
 73
36
 74
51
 0
VERTEX
 8
MSA-B425
 10
0
 20
0
 30
0
 70
128
 71
50
 72
26
 73
39
 74
59
 0
VERTEX
 8
MSA-B425
 10
0
 20
0
 30
0
 70
128
 71
57
 72
28
 73
43
 74
52
 0
VERTEX
 8
MSA-B425
 10
0
 20
0
 30
0
 70
128
 71
60
 72
30
 73
47
 74
54
 0
VERTEX
 8
MSA-B425
 10
0
 20
0
 30
0
 70
128
 71
61
 72
159
 73
160
 74
62
 0
VERTEX
 8
MSA-B425
 10
0
 20
0
 30
0
 70
128
 71
63
 72
9
 73
10
 74
64
 0
VERTEX
 8
MSA-B425
 10
0
 20
0
 30
0
 70
128
 71
65
 72
22
 73
40
 74
66
 0
VERTEX
 8
MSA-B425
 10
0
 20
0
 30
0
 70
128
 71
67
 72
18
 73
48
 74
68
 0
VERTEX
 8
MSA-B425
 10
0
 20
0
 30
0
 70
128
 71
61
 72
11
 73
45
 74
69
 0
VERTEX
 8
MSA-B425
 10
0
 20
0
 30
0
 70
128
 71
107
 72
98
 73
296
 74
297
 0
VERTEX
 8
MSA-B425
 10
0
 20
0
 30
0
 70
128
 71
118
 72
113
 73
216
 74
217
 0
VERTEX
 8
MSA-B425
 10
0
 20
0
 30
0
 70
128
 71
64
 72
10
 73
37
 74
72
 0
VERTEX
 8
MSA-B425
 10
0
 20
0
 30
0
 70
128
 71
63
 72
161
 73
162
 74
66
 0
VERTEX
 8
MSA-B425
 10
0
 20
0
 30
0
 70
128
 71
107
 72
163
 73
164
 74
108
 0
VERTEX
 8
MSA-B425
 10
0
 20
0
 30
0
 70
128
 71
62
 72
160
 73
165
 74
68
 0
VERTEX
 8
MSA-B425
 10
0
 20
0
 30
0
 70
128
 71
71
 72
166
 73
167
 74
69
 0
VERTEX
 8
MSA-B425
 10
0
 20
0
 30
0
 70
128
 71
73
 72
11
 73
12
 74
74
 0
VERTEX
 8
MSA-B425
 10
0
 20
0
 30
0
 70
128
 71
75
 72
4
 73
3
 74
76
 0
VERTEX
 8
MSA-B425
 10
0
 20
0
 30
0
 70
128
 71
73
 72
6
 73
44
 74
77
 0
VERTEX
 8
MSA-B425
 10
0
 20
0
 30
0
 70
128
 71
76
 72
3
 73
34
 74
78
 0
VERTEX
 8
MSA-B425
 10
0
 20
0
 30
0
 70
128
 71
79
 72
22
 73
298
 74
299
 0
VERTEX
 8
MSA-B425
 10
0
 20
0
 30
0
 70
128
 71
110
 72
104
 73
97
 74
111
 0
VERTEX
 8
MSA-B425
 10
0
 20
0
 30
0
 70
128
 71
111
 72
97
 73
214
 74
218
 0
VERTEX
 8
MSA-B425
 10
0
 20
0
 30
0
 70
128
 71
84
 72
40
 73
22
 74
79
 0
VERTEX
 8
MSA-B425
 10
0
 20
0
 30
0
 70
128
 71
112
 72
98
 73
101
 74
109
 0
VERTEX
 8
MSA-B425
 10
0
 20
0
 30
0
 70
128
 71
75
 72
9
 73
40
 74
84
 0
VERTEX
 8
MSA-B425
 10
0
 20
0
 30
0
 70
128
 71
80
 72
17
 73
45
 74
77
 0
VERTEX
 8
MSA-B425
 10
0
 20
0
 30
0
 70
128
 71
74
 72
12
 73
48
 74
81
 0
VERTEX
 8
MSA-B425
 10
0
 20
0
 30
0
 70
128
 71
85
 72
49
 73
50
 74
86
 0
VERTEX
 8
MSA-B425
 10
0
 20
0
 30
0
 70
128
 71
87
 72
51
 73
49
 74
85
 0
VERTEX
 8
MSA-B425
 10
0
 20
0
 30
0
 70
128
 71
88
 72
52
 73
53
 74
89
 0
VERTEX
 8
MSA-B425
 10
0
 20
0
 30
0
 70
128
 71
90
 72
54
 73
55
 74
91
 0
VERTEX
 8
MSA-B425
 10
0
 20
0
 30
0
 70
128
 71
124
 72
120
 73
287
 74
288
 0
VERTEX
 8
MSA-B425
 10
0
 20
0
 30
0
 70
128
 71
91
 72
55
 73
213
 74
203
 0
VERTEX
 8
MSA-B425
 10
0
 20
0
 30
0
 70
128
 71
126
 72
122
 73
120
 74
124
 0
VERTEX
 8
MSA-B425
 10
0
 20
0
 30
0
 70
128
 71
94
 72
58
 73
51
 74
87
 0
VERTEX
 8
MSA-B425
 10
0
 20
0
 30
0
 70
128
 71
86
 72
50
 73
59
 74
95
 0
VERTEX
 8
MSA-B425
 10
0
 20
0
 30
0
 70
128
 71
125
 72
121
 73
119
 74
123
 0
VERTEX
 8
MSA-B425
 10
0
 20
0
 30
0
 70
128
 71
96
 72
60
 73
54
 74
90
 0
VERTEX
 8
MSA-B425
 10
0
 20
0
 30
0
 70
128
 71
96
 72
8
 73
7
 74
89
 0
VERTEX
 8
MSA-B425
 10
0
 20
0
 30
0
 70
128
 71
105
 72
67
 73
68
 74
106
 0
VERTEX
 8
MSA-B425
 10
0
 20
0
 30
0
 70
128
 71
106
 72
68
 73
165
 74
168
 0
VERTEX
 8
MSA-B425
 10
0
 20
0
 30
0
 70
128
 71
103
 72
43
 73
28
 74
99
 0
VERTEX
 8
MSA-B425
 10
0
 20
0
 30
0
 70
128
 71
99
 72
28
 73
210
 74
208
 0
VERTEX
 8
MSA-B425
 10
0
 20
0
 30
0
 70
128
 71
107
 72
70
 73
23
 74
98
 0
VERTEX
 8
MSA-B425
 10
0
 20
0
 30
0
 70
128
 71
97
 72
18
 73
67
 74
105
 0
VERTEX
 8
MSA-B425
 10
0
 20
0
 30
0
 70
128
 71
100
 72
32
 73
39
 74
102
 0
VERTEX
 8
MSA-B425
 10
0
 20
0
 30
0
 70
128
 71
102
 72
39
 73
139
 74
141
 0
VERTEX
 8
MSA-B425
 10
0
 20
0
 30
0
 70
128
 71
108
 72
72
 73
70
 74
107
 0
VERTEX
 8
MSA-B425
 10
0
 20
0
 30
0
 70
128
 71
110
 72
81
 73
48
 74
104
 0
VERTEX
 8
MSA-B425
 10
0
 20
0
 30
0
 70
128
 71
104
 72
48
 73
18
 74
97
 0
VERTEX
 8
MSA-B425
 10
0
 20
0
 30
0
 70
128
 71
111
 72
82
 73
81
 74
110
 0
VERTEX
 8
MSA-B425
 10
0
 20
0
 30
0
 70
128
 71
112
 72
83
 73
289
 74
300
 0
VERTEX
 8
MSA-B425
 10
0
 20
0
 30
0
 70
128
 71
98
 72
23
 73
37
 74
101
 0
VERTEX
 8
MSA-B425
 10
0
 20
0
 30
0
 70
128
 71
101
 72
37
 73
78
 74
109
 0
VERTEX
 8
MSA-B425
 10
0
 20
0
 30
0
 70
128
 71
109
 72
78
 73
83
 74
112
 0
VERTEX
 8
MSA-B425
 10
0
 20
0
 30
0
 70
128
 71
116
 72
31
 73
142
 74
137
 0
VERTEX
 8
MSA-B425
 10
0
 20
0
 30
0
 70
128
 71
117
 72
65
 73
169
 74
170
 0
VERTEX
 8
MSA-B425
 10
0
 20
0
 30
0
 70
128
 71
115
 72
27
 73
301
 74
302
 0
VERTEX
 8
MSA-B425
 10
0
 20
0
 30
0
 70
128
 71
118
 72
71
 73
17
 74
113
 0
VERTEX
 8
MSA-B425
 10
0
 20
0
 30
0
 70
128
 71
113
 72
17
 73
196
 74
216
 0
VERTEX
 8
MSA-B425
 10
0
 20
0
 30
0
 70
128
 71
114
 72
22
 73
65
 74
117
 0
VERTEX
 8
MSA-B425
 10
0
 20
0
 30
0
 70
128
 71
120
 72
56
 73
295
 74
287
 0
VERTEX
 8
MSA-B425
 10
0
 20
0
 30
0
 70
128
 71
125
 72
93
 73
195
 74
205
 0
VERTEX
 8
MSA-B425
 10
0
 20
0
 30
0
 70
128
 71
126
 72
95
 73
59
 74
122
 0
VERTEX
 8
MSA-B425
 10
0
 20
0
 30
0
 70
128
 71
122
 72
59
 73
56
 74
120
 0
VERTEX
 8
MSA-B425
 10
0
 20
0
 30
0
 70
128
 71
124
 72
92
 73
95
 74
126
 0
VERTEX
 8
MSA-B425
 10
0
 20
0
 30
0
 70
128
 71
121
 72
57
 73
52
 74
119
 0
VERTEX
 8
MSA-B425
 10
0
 20
0
 30
0
 70
128
 71
119
 72
52
 73
88
 74
123
 0
VERTEX
 8
MSA-B425
 10
0
 20
0
 30
0
 70
128
 71
123
 72
88
 73
93
 74
125
 0
VERTEX
 8
MSA-B425
 10
0
 20
0
 30
0
 70
128
 71
127
 72
147
 73
157
 74
128
 0
VERTEX
 8
MSA-B425
 10
0
 20
0
 30
0
 70
128
 71
129
 72
155
 73
148
 74
130
 0
VERTEX
 8
MSA-B425
 10
0
 20
0
 30
0
 70
128
 71
131
 72
143
 73
144
 74
132
 0
VERTEX
 8
MSA-B425
 10
0
 20
0
 30
0
 70
128
 71
133
 72
145
 73
154
 74
134
 0
VERTEX
 8
MSA-B425
 10
0
 20
0
 30
0
 70
128
 71
135
 72
43
 73
103
 74
132
 0
VERTEX
 8
MSA-B425
 10
0
 20
0
 30
0
 70
128
 71
136
 72
149
 73
284
 74
291
 0
VERTEX
 8
MSA-B425
 10
0
 20
0
 30
0
 70
128
 71
137
 72
158
 73
191
 74
192
 0
VERTEX
 8
MSA-B425
 10
0
 20
0
 30
0
 70
128
 71
128
 72
157
 73
151
 74
139
 0
VERTEX
 8
MSA-B425
 10
0
 20
0
 30
0
 70
128
 71
133
 72
30
 73
29
 74
140
 0
VERTEX
 8
MSA-B425
 10
0
 20
0
 30
0
 70
128
 71
127
 72
25
 73
36
 74
130
 0
VERTEX
 8
MSA-B425
 10
0
 20
0
 30
0
 70
128
 71
136
 72
100
 73
102
 74
141
 0
VERTEX
 8
MSA-B425
 10
0
 20
0
 30
0
 70
128
 71
140
 72
29
 73
43
 74
135
 0
VERTEX
 8
MSA-B425
 10
0
 20
0
 30
0
 70
128
 71
142
 72
31
 73
47
 74
134
 0
VERTEX
 8
MSA-B425
 10
0
 20
0
 30
0
 70
128
 71
139
 72
151
 73
150
 74
141
 0
VERTEX
 8
MSA-B425
 10
0
 20
0
 30
0
 70
128
 71
142
 72
153
 73
158
 74
137
 0
VERTEX
 8
MSA-B425
 10
0
 20
0
 30
0
 70
128
 71
129
 72
27
 73
115
 74
138
 0
VERTEX
 8
MSA-B425
 10
0
 20
0
 30
0
 70
128
 71
143
 72
175
 73
176
 74
144
 0
VERTEX
 8
MSA-B425
 10
0
 20
0
 30
0
 70
128
 71
145
 72
133
 73
140
 74
146
 0
VERTEX
 8
MSA-B425
 10
0
 20
0
 30
0
 70
128
 71
147
 72
127
 73
130
 74
148
 0
VERTEX
 8
MSA-B425
 10
0
 20
0
 30
0
 70
128
 71
149
 72
136
 73
141
 74
150
 0
VERTEX
 8
MSA-B425
 10
0
 20
0
 30
0
 70
128
 71
151
 72
177
 73
178
 74
150
 0
VERTEX
 8
MSA-B425
 10
0
 20
0
 30
0
 70
128
 71
146
 72
140
 73
135
 74
152
 0
VERTEX
 8
MSA-B425
 10
0
 20
0
 30
0
 70
128
 71
153
 72
142
 73
134
 74
154
 0
VERTEX
 8
MSA-B425
 10
0
 20
0
 30
0
 70
128
 71
152
 72
135
 73
132
 74
144
 0
VERTEX
 8
MSA-B425
 10
0
 20
0
 30
0
 70
128
 71
155
 72
129
 73
138
 74
156
 0
VERTEX
 8
MSA-B425
 10
0
 20
0
 30
0
 70
128
 71
147
 72
179
 73
180
 74
157
 0
VERTEX
 8
MSA-B425
 10
0
 20
0
 30
0
 70
128
 71
155
 72
181
 73
182
 74
148
 0
VERTEX
 8
MSA-B425
 10
0
 20
0
 30
0
 70
128
 71
145
 72
183
 73
184
 74
154
 0
VERTEX
 8
MSA-B425
 10
0
 20
0
 30
0
 70
128
 71
149
 72
185
 73
283
 74
284
 0
VERTEX
 8
MSA-B425
 10
0
 20
0
 30
0
 70
128
 71
158
 72
186
 73
199
 74
191
 0
VERTEX
 8
MSA-B425
 10
0
 20
0
 30
0
 70
128
 71
157
 72
180
 73
177
 74
151
 0
VERTEX
 8
MSA-B425
 10
0
 20
0
 30
0
 70
128
 71
153
 72
188
 73
186
 74
158
 0
VERTEX
 8
MSA-B425
 10
0
 20
0
 30
0
 70
128
 71
159
 72
183
 73
189
 74
160
 0
VERTEX
 8
MSA-B425
 10
0
 20
0
 30
0
 70
128
 71
161
 72
179
 73
182
 74
162
 0
VERTEX
 8
MSA-B425
 10
0
 20
0
 30
0
 70
128
 71
163
 72
185
 73
178
 74
164
 0
VERTEX
 8
MSA-B425
 10
0
 20
0
 30
0
 70
128
 71
160
 72
189
 73
190
 74
165
 0
VERTEX
 8
MSA-B425
 10
0
 20
0
 30
0
 70
128
 71
166
 72
188
 73
184
 74
167
 0
VERTEX
 8
MSA-B425
 10
0
 20
0
 30
0
 70
128
 71
165
 72
190
 73
176
 74
168
 0
VERTEX
 8
MSA-B425
 10
0
 20
0
 30
0
 70
128
 71
169
 72
181
 73
187
 74
170
 0
VERTEX
 8
MSA-B425
 10
0
 20
0
 30
0
 70
128
 71
171
 72
105
 73
106
 74
168
 0
VERTEX
 8
MSA-B425
 10
0
 20
0
 30
0
 70
128
 71
172
 72
72
 73
108
 74
164
 0
VERTEX
 8
MSA-B425
 10
0
 20
0
 30
0
 70
128
 71
161
 72
63
 73
64
 74
173
 0
VERTEX
 8
MSA-B425
 10
0
 20
0
 30
0
 70
128
 71
169
 72
65
 73
66
 74
162
 0
VERTEX
 8
MSA-B425
 10
0
 20
0
 30
0
 70
128
 71
159
 72
61
 73
69
 74
167
 0
VERTEX
 8
MSA-B425
 10
0
 20
0
 30
0
 70
128
 71
163
 72
107
 73
297
 74
303
 0
VERTEX
 8
MSA-B425
 10
0
 20
0
 30
0
 70
128
 71
174
 72
118
 73
217
 74
220
 0
VERTEX
 8
MSA-B425
 10
0
 20
0
 30
0
 70
128
 71
173
 72
64
 73
72
 74
172
 0
VERTEX
 8
MSA-B425
 10
0
 20
0
 30
0
 70
128
 71
166
 72
71
 73
118
 74
174
 0
VERTEX
 8
MSA-B425
 10
0
 20
0
 30
0
 70
128
 71
175
 72
171
 73
168
 74
176
 0
VERTEX
 8
MSA-B425
 10
0
 20
0
 30
0
 70
128
 71
177
 72
172
 73
164
 74
178
 0
VERTEX
 8
MSA-B425
 10
0
 20
0
 30
0
 70
128
 71
179
 72
161
 73
173
 74
180
 0
VERTEX
 8
MSA-B425
 10
0
 20
0
 30
0
 70
128
 71
181
 72
169
 73
162
 74
182
 0
VERTEX
 8
MSA-B425
 10
0
 20
0
 30
0
 70
128
 71
183
 72
159
 73
167
 74
184
 0
VERTEX
 8
MSA-B425
 10
0
 20
0
 30
0
 70
128
 71
185
 72
163
 73
303
 74
283
 0
VERTEX
 8
MSA-B425
 10
0
 20
0
 30
0
 70
128
 71
186
 72
174
 73
220
 74
199
 0
VERTEX
 8
MSA-B425
 10
0
 20
0
 30
0
 70
128
 71
180
 72
173
 73
172
 74
177
 0
VERTEX
 8
MSA-B425
 10
0
 20
0
 30
0
 70
128
 71
188
 72
166
 73
174
 74
186
 0
VERTEX
 8
MSA-B425
 10
0
 20
0
 30
0
 70
128
 71
183
 72
145
 73
146
 74
189
 0
VERTEX
 8
MSA-B425
 10
0
 20
0
 30
0
 70
128
 71
179
 72
147
 73
148
 74
182
 0
VERTEX
 8
MSA-B425
 10
0
 20
0
 30
0
 70
128
 71
185
 72
149
 73
150
 74
178
 0
VERTEX
 8
MSA-B425
 10
0
 20
0
 30
0
 70
128
 71
189
 72
146
 73
152
 74
190
 0
VERTEX
 8
MSA-B425
 10
0
 20
0
 30
0
 70
128
 71
188
 72
153
 73
154
 74
184
 0
VERTEX
 8
MSA-B425
 10
0
 20
0
 30
0
 70
128
 71
190
 72
152
 73
144
 74
176
 0
VERTEX
 8
MSA-B425
 10
0
 20
0
 30
0
 70
128
 71
181
 72
155
 73
156
 74
187
 0
VERTEX
 8
MSA-B425
 10
0
 20
0
 30
0
 70
128
 71
191
 72
243
 73
244
 74
192
 0
VERTEX
 8
MSA-B425
 10
0
 20
0
 30
0
 70
128
 71
193
 72
225
 73
239
 74
194
 0
VERTEX
 8
MSA-B425
 10
0
 20
0
 30
0
 70
128
 71
194
 72
239
 73
245
 74
195
 0
VERTEX
 8
MSA-B425
 10
0
 20
0
 30
0
 70
128
 71
196
 72
17
 73
80
 74
197
 0
VERTEX
 8
MSA-B425
 10
0
 20
0
 30
0
 70
128
 71
198
 72
221
 73
237
 74
197
 0
VERTEX
 8
MSA-B425
 10
0
 20
0
 30
0
 70
128
 71
199
 72
246
 73
243
 74
191
 0
VERTEX
 8
MSA-B425
 10
0
 20
0
 30
0
 70
128
 71
198
 72
13
 73
14
 74
200
 0
VERTEX
 8
MSA-B425
 10
0
 20
0
 30
0
 70
128
 71
201
 72
175
 73
143
 74
202
 0
VERTEX
 8
MSA-B425
 10
0
 20
0
 30
0
 70
128
 71
193
 72
15
 73
91
 74
203
 0
VERTEX
 8
MSA-B425
 10
0
 20
0
 30
0
 70
128
 71
204
 72
121
 73
125
 74
205
 0
VERTEX
 8
MSA-B425
 10
0
 20
0
 30
0
 70
128
 71
200
 72
14
 73
82
 74
206
 0
VERTEX
 8
MSA-B425
 10
0
 20
0
 30
0
 70
128
 71
207
 72
131
 73
99
 74
208
 0
VERTEX
 8
MSA-B425
 10
0
 20
0
 30
0
 70
128
 71
192
 72
244
 73
241
 74
209
 0
VERTEX
 8
MSA-B425
 10
0
 20
0
 30
0
 70
128
 71
210
 72
28
 73
57
 74
211
 0
VERTEX
 8
MSA-B425
 10
0
 20
0
 30
0
 70
128
 71
212
 72
240
 73
247
 74
213
 0
VERTEX
 8
MSA-B425
 10
0
 20
0
 30
0
 70
128
 71
214
 72
97
 73
105
 74
215
 0
VERTEX
 8
MSA-B425
 10
0
 20
0
 30
0
 70
128
 71
216
 72
248
 73
249
 74
217
 0
VERTEX
 8
MSA-B425
 10
0
 20
0
 30
0
 70
128
 71
202
 72
143
 73
131
 74
207
 0
VERTEX
 8
MSA-B425
 10
0
 20
0
 30
0
 70
128
 71
214
 72
234
 73
238
 74
218
 0
VERTEX
 8
MSA-B425
 10
0
 20
0
 30
0
 70
128
 71
213
 72
247
 73
226
 74
203
 0
VERTEX
 8
MSA-B425
 10
0
 20
0
 30
0
 70
128
 71
210
 72
232
 73
231
 74
208
 0
VERTEX
 8
MSA-B425
 10
0
 20
0
 30
0
 70
128
 71
206
 72
82
 73
111
 74
218
 0
VERTEX
 8
MSA-B425
 10
0
 20
0
 30
0
 70
128
 71
212
 72
31
 73
116
 74
209
 0
VERTEX
 8
MSA-B425
 10
0
 20
0
 30
0
 70
128
 71
196
 72
236
 73
248
 74
216
 0
VERTEX
 8
MSA-B425
 10
0
 20
0
 30
0
 70
128
 71
211
 72
57
 73
121
 74
204
 0
VERTEX
 8
MSA-B425
 10
0
 20
0
 30
0
 70
128
 71
195
 72
245
 73
228
 74
205
 0
VERTEX
 8
MSA-B425
 10
0
 20
0
 30
0
 70
128
 71
215
 72
105
 73
171
 74
219
 0
VERTEX
 8
MSA-B425
 10
0
 20
0
 30
0
 70
128
 71
217
 72
249
 73
250
 74
220
 0
VERTEX
 8
MSA-B425
 10
0
 20
0
 30
0
 70
128
 71
219
 72
171
 73
175
 74
201
 0
VERTEX
 8
MSA-B425
 10
0
 20
0
 30
0
 70
128
 71
220
 72
250
 73
246
 74
199
 0
VERTEX
 8
MSA-B425
 10
0
 20
0
 30
0
 70
128
 71
221
 72
198
 73
200
 74
222
 0
VERTEX
 8
MSA-B425
 10
0
 20
0
 30
0
 70
128
 71
223
 72
311
 73
312
 74
224
 0
VERTEX
 8
MSA-B425
 10
0
 20
0
 30
0
 70
128
 71
225
 72
193
 73
203
 74
226
 0
VERTEX
 8
MSA-B425
 10
0
 20
0
 30
0
 70
128
 71
227
 72
204
 73
205
 74
228
 0
VERTEX
 8
MSA-B425
 10
0
 20
0
 30
0
 70
128
 71
222
 72
200
 73
206
 74
229
 0
VERTEX
 8
MSA-B425
 10
0
 20
0
 30
0
 70
128
 71
230
 72
207
 73
208
 74
231
 0
VERTEX
 8
MSA-B425
 10
0
 20
0
 30
0
 70
128
 71
232
 72
210
 73
211
 74
233
 0
VERTEX
 8
MSA-B425
 10
0
 20
0
 30
0
 70
128
 71
234
 72
214
 73
215
 74
235
 0
VERTEX
 8
MSA-B425
 10
0
 20
0
 30
0
 70
128
 71
236
 72
196
 73
197
 74
237
 0
VERTEX
 8
MSA-B425
 10
0
 20
0
 30
0
 70
128
 71
229
 72
206
 73
218
 74
238
 0
VERTEX
 8
MSA-B425
 10
0
 20
0
 30
0
 70
128
 71
225
 72
255
 73
274
 74
239
 0
VERTEX
 8
MSA-B425
 10
0
 20
0
 30
0
 70
128
 71
240
 72
212
 73
209
 74
241
 0
VERTEX
 8
MSA-B425
 10
0
 20
0
 30
0
 70
128
 71
233
 72
211
 73
204
 74
227
 0
VERTEX
 8
MSA-B425
 10
0
 20
0
 30
0
 70
128
 71
224
 72
312
 73
313
 74
315
 0
VERTEX
 8
MSA-B425
 10
0
 20
0
 30
0
 70
128
 71
235
 72
215
 73
219
 74
242
 0
VERTEX
 8
MSA-B425
 10
0
 20
0
 30
0
 70
128
 71
316
 72
314
 73
311
 74
223
 0
VERTEX
 8
MSA-B425
 10
0
 20
0
 30
0
 70
128
 71
243
 72
275
 73
276
 74
244
 0
VERTEX
 8
MSA-B425
 10
0
 20
0
 30
0
 70
128
 71
239
 72
274
 73
273
 74
245
 0
VERTEX
 8
MSA-B425
 10
0
 20
0
 30
0
 70
128
 71
221
 72
251
 73
268
 74
237
 0
VERTEX
 8
MSA-B425
 10
0
 20
0
 30
0
 70
128
 71
322
 72
303
 73
272
 74
318
 0
VERTEX
 8
MSA-B425
 10
0
 20
0
 30
0
 70
128
 71
244
 72
276
 73
271
 74
241
 0
VERTEX
 8
MSA-B425
 10
0
 20
0
 30
0
 70
128
 71
240
 72
270
 73
264
 74
247
 0
VERTEX
 8
MSA-B425
 10
0
 20
0
 30
0
 70
128
 71
248
 72
278
 73
279
 74
249
 0
VERTEX
 8
MSA-B425
 10
0
 20
0
 30
0
 70
128
 71
234
 72
265
 73
269
 74
238
 0
VERTEX
 8
MSA-B425
 10
0
 20
0
 30
0
 70
128
 71
247
 72
264
 73
256
 74
226
 0
VERTEX
 8
MSA-B425
 10
0
 20
0
 30
0
 70
128
 71
232
 72
262
 73
261
 74
231
 0
VERTEX
 8
MSA-B425
 10
0
 20
0
 30
0
 70
128
 71
236
 72
267
 73
278
 74
248
 0
VERTEX
 8
MSA-B425
 10
0
 20
0
 30
0
 70
128
 71
245
 72
273
 73
258
 74
228
 0
VERTEX
 8
MSA-B425
 10
0
 20
0
 30
0
 70
128
 71
249
 72
279
 73
280
 74
250
 0
VERTEX
 8
MSA-B425
 10
0
 20
0
 30
0
 70
128
 71
250
 72
280
 73
277
 74
246
 0
VERTEX
 8
MSA-B425
 10
0
 20
0
 30
0
 70
128
 71
251
 72
221
 73
222
 74
252
 0
VERTEX
 8
MSA-B425
 10
0
 20
0
 30
0
 70
128
 71
319
 72
283
 73
303
 74
322
 0
VERTEX
 8
MSA-B425
 10
0
 20
0
 30
0
 70
128
 71
255
 72
225
 73
226
 74
256
 0
VERTEX
 8
MSA-B425
 10
0
 20
0
 30
0
 70
128
 71
257
 72
227
 73
228
 74
258
 0
VERTEX
 8
MSA-B425
 10
0
 20
0
 30
0
 70
128
 71
252
 72
222
 73
229
 74
259
 0
VERTEX
 8
MSA-B425
 10
0
 20
0
 30
0
 70
128
 71
260
 72
230
 73
231
 74
261
 0
VERTEX
 8
MSA-B425
 10
0
 20
0
 30
0
 70
128
 71
262
 72
232
 73
233
 74
263
 0
VERTEX
 8
MSA-B425
 10
0
 20
0
 30
0
 70
128
 71
264
 72
293
 73
286
 74
256
 0
VERTEX
 8
MSA-B425
 10
0
 20
0
 30
0
 70
128
 71
265
 72
234
 73
235
 74
266
 0
VERTEX
 8
MSA-B425
 10
0
 20
0
 30
0
 70
128
 71
267
 72
236
 73
237
 74
268
 0
VERTEX
 8
MSA-B425
 10
0
 20
0
 30
0
 70
128
 71
259
 72
229
 73
238
 74
269
 0
VERTEX
 8
MSA-B425
 10
0
 20
0
 30
0
 70
128
 71
270
 72
240
 73
241
 74
271
 0
VERTEX
 8
MSA-B425
 10
0
 20
0
 30
0
 70
128
 71
263
 72
233
 73
227
 74
257
 0
VERTEX
 8
MSA-B425
 10
0
 20
0
 30
0
 70
128
 71
254
 72
224
 73
315
 74
317
 0
VERTEX
 8
MSA-B425
 10
0
 20
0
 30
0
 70
128
 71
251
 72
281
 73
299
 74
268
 0
VERTEX
 8
MSA-B425
 10
0
 20
0
 30
0
 70
128
 71
266
 72
235
 73
242
 74
272
 0
VERTEX
 8
MSA-B425
 10
0
 20
0
 30
0
 70
128
 71
273
 72
290
 73
288
 74
258
 0
VERTEX
 8
MSA-B425
 10
0
 20
0
 30
0
 70
128
 71
318
 72
316
 73
223
 74
253
 0
VERTEX
 8
MSA-B425
 10
0
 20
0
 30
0
 70
128
 71
255
 72
285
 73
304
 74
274
 0
VERTEX
 8
MSA-B425
 10
0
 20
0
 30
0
 70
128
 71
275
 72
305
 73
306
 74
276
 0
VERTEX
 8
MSA-B425
 10
0
 20
0
 30
0
 70
128
 71
274
 72
304
 73
290
 74
273
 0
VERTEX
 8
MSA-B425
 10
0
 20
0
 30
0
 70
128
 71
277
 72
307
 73
305
 74
275
 0
VERTEX
 8
MSA-B425
 10
0
 20
0
 30
0
 70
128
 71
276
 72
306
 73
302
 74
271
 0
VERTEX
 8
MSA-B425
 10
0
 20
0
 30
0
 70
128
 71
270
 72
301
 73
293
 74
264
 0
VERTEX
 8
MSA-B425
 10
0
 20
0
 30
0
 70
128
 71
278
 72
308
 73
309
 74
279
 0
VERTEX
 8
MSA-B425
 10
0
 20
0
 30
0
 70
128
 71
265
 72
296
 73
300
 74
269
 0
VERTEX
 8
MSA-B425
 10
0
 20
0
 30
0
 70
128
 71
262
 72
294
 73
292
 74
261
 0
VERTEX
 8
MSA-B425
 10
0
 20
0
 30
0
 70
128
 71
267
 72
298
 73
308
 74
278
 0
VERTEX
 8
MSA-B425
 10
0
 20
0
 30
0
 70
128
 71
279
 72
309
 73
310
 74
280
 0
VERTEX
 8
MSA-B425
 10
0
 20
0
 30
0
 70
128
 71
280
 72
310
 73
307
 74
277
 0
VERTEX
 8
MSA-B425
 10
0
 20
0
 30
0
 70
128
 71
281
 72
251
 73
252
 74
282
 0
VERTEX
 8
MSA-B425
 10
0
 20
0
 30
0
 70
128
 71
319
 72
253
 73
254
 74
320
 0
VERTEX
 8
MSA-B425
 10
0
 20
0
 30
0
 70
128
 71
285
 72
255
 73
256
 74
286
 0
VERTEX
 8
MSA-B425
 10
0
 20
0
 30
0
 70
128
 71
287
 72
257
 73
258
 74
288
 0
VERTEX
 8
MSA-B425
 10
0
 20
0
 30
0
 70
128
 71
282
 72
252
 73
259
 74
289
 0
VERTEX
 8
MSA-B425
 10
0
 20
0
 30
0
 70
128
 71
290
 72
92
 73
124
 74
288
 0
VERTEX
 8
MSA-B425
 10
0
 20
0
 30
0
 70
128
 71
291
 72
260
 73
261
 74
292
 0
VERTEX
 8
MSA-B425
 10
0
 20
0
 30
0
 70
128
 71
293
 72
58
 73
94
 74
286
 0
VERTEX
 8
MSA-B425
 10
0
 20
0
 30
0
 70
128
 71
294
 72
262
 73
263
 74
295
 0
VERTEX
 8
MSA-B425
 10
0
 20
0
 30
0
 70
128
 71
296
 72
265
 73
266
 74
297
 0
VERTEX
 8
MSA-B425
 10
0
 20
0
 30
0
 70
128
 71
298
 72
267
 73
268
 74
299
 0
VERTEX
 8
MSA-B425
 10
0
 20
0
 30
0
 70
128
 71
289
 72
259
 73
269
 74
300
 0
VERTEX
 8
MSA-B425
 10
0
 20
0
 30
0
 70
128
 71
301
 72
270
 73
271
 74
302
 0
VERTEX
 8
MSA-B425
 10
0
 20
0
 30
0
 70
128
 71
295
 72
263
 73
257
 74
287
 0
VERTEX
 8
MSA-B425
 10
0
 20
0
 30
0
 70
128
 71
320
 72
254
 73
317
 74
321
 0
VERTEX
 8
MSA-B425
 10
0
 20
0
 30
0
 70
128
 71
297
 72
266
 73
272
 74
303
 0
VERTEX
 8
MSA-B425
 10
0
 20
0
 30
0
 70
128
 71
322
 72
318
 73
253
 74
319
 0
VERTEX
 8
MSA-B425
 10
0
 20
0
 30
0
 70
128
 71
281
 72
19
 73
79
 74
299
 0
VERTEX
 8
MSA-B425
 10
0
 20
0
 30
0
 70
128
 71
285
 72
21
 73
24
 74
304
 0
VERTEX
 8
MSA-B425
 10
0
 20
0
 30
0
 70
128
 71
305
 72
156
 73
138
 74
306
 0
VERTEX
 8
MSA-B425
 10
0
 20
0
 30
0
 70
128
 71
304
 72
24
 73
92
 74
290
 0
VERTEX
 8
MSA-B425
 10
0
 20
0
 30
0
 70
128
 71
307
 72
187
 73
156
 74
305
 0
VERTEX
 8
MSA-B425
 10
0
 20
0
 30
0
 70
128
 71
306
 72
138
 73
115
 74
302
 0
VERTEX
 8
MSA-B425
 10
0
 20
0
 30
0
 70
128
 71
301
 72
27
 73
58
 74
293
 0
VERTEX
 8
MSA-B425
 10
0
 20
0
 30
0
 70
128
 71
308
 72
114
 73
117
 74
309
 0
VERTEX
 8
MSA-B425
 10
0
 20
0
 30
0
 70
128
 71
296
 72
98
 73
112
 74
300
 0
VERTEX
 8
MSA-B425
 10
0
 20
0
 30
0
 70
128
 71
294
 72
32
 73
100
 74
292
 0
VERTEX
 8
MSA-B425
 10
0
 20
0
 30
0
 70
128
 71
298
 72
22
 73
114
 74
308
 0
VERTEX
 8
MSA-B425
 10
0
 20
0
 30
0
 70
128
 71
309
 72
117
 73
170
 74
310
 0
VERTEX
 8
MSA-B425
 10
0
 20
0
 30
0
 70
128
 71
310
 72
170
 73
187
 74
307
 0
VERTEX
 8
MSA-B425
 10
0
 20
0
 30
0
 70
128
 71
311
 72
201
 73
202
 74
312
 0
VERTEX
 8
MSA-B425
 10
0
 20
0
 30
0
 70
128
 71
312
 72
202
 73
207
 74
313
 0
VERTEX
 8
MSA-B425
 10
0
 20
0
 30
0
 70
128
 71
313
 72
207
 73
230
 74
315
 0
VERTEX
 8
MSA-B425
 10
0
 20
0
 30
0
 70
128
 71
316
 72
242
 73
219
 74
314
 0
VERTEX
 8
MSA-B425
 10
0
 20
0
 30
0
 70
128
 71
314
 72
219
 73
201
 74
311
 0
VERTEX
 8
MSA-B425
 10
0
 20
0
 30
0
 70
128
 71
315
 72
230
 73
260
 74
317
 0
VERTEX
 8
MSA-B425
 10
0
 20
0
 30
0
 70
128
 71
318
 72
272
 73
242
 74
316
 0
VERTEX
 8
MSA-B425
 10
0
 20
0
 30
0
 70
128
 71
320
 72
284
 73
283
 74
319
 0
VERTEX
 8
MSA-B425
 10
0
 20
0
 30
0
 70
128
 71
317
 72
260
 73
291
 74
321
 0
VERTEX
 8
MSA-B425
 10
0
 20
0
 30
0
 70
128
 71
321
 72
291
 73
284
 74
320
 0
VERTEX
 8
MSA-B425
 10
0
 20
0
 30
0
 70
128
 71
275
 72
243
 73
224
 74
254
 0
VERTEX
 8
MSA-B425
 10
0
 20
0
 30
0
 70
128
 71
243
 72
246
 73
223
 74
224
 0
VERTEX
 8
MSA-B425
 10
0
 20
0
 30
0
 70
128
 71
246
 72
277
 73
253
 74
223
 0
VERTEX
 8
MSA-B425
 10
0
 20
0
 30
0
 70
128
 71
277
 72
275
 73
254
 74
253
 0
SEQEND
 0
POLYLINE
 8
MCS-N240
 66
1
 10
0.0
 20
0.0
 30
0.0
 70
64
 71
8
 72
6
 0
VERTEX
 8
MCS-N240
 10
-41.4
 20
-4.04
 30
27.4714
 70
192
 0
VERTEX
 8
MCS-N240
 10
-41.4
 20
-4.04
 30
27.5514
 70
192
 0
VERTEX
 8
MCS-N240
 10
41.6
 20
-4.04
 30
27.4714
 70
192
 0
VERTEX
 8
MCS-N240
 10
41.6
 20
-4.04
 30
27.5514
 70
192
 0
VERTEX
 8
MCS-N240
 10
41.6
 20
3.56
 30
27.4714
 70
192
 0
VERTEX
 8
MCS-N240
 10
41.6
 20
3.56
 30
27.5514
 70
192
 0
VERTEX
 8
MCS-N240
 10
-41.4
 20
3.56
 30
27.4714
 70
192
 0
VERTEX
 8
MCS-N240
 10
-41.4
 20
3.56
 30
27.5514
 70
192
 0
VERTEX
 8
MCS-N240
 10
0
 20
0
 30
0
 70
128
 71
1
 72
2
 73
4
 74
3
 0
VERTEX
 8
MCS-N240
 10
0
 20
0
 30
0
 70
128
 71
3
 72
4
 73
6
 74
5
 0
VERTEX
 8
MCS-N240
 10
0
 20
0
 30
0
 70
128
 71
5
 72
6
 73
8
 74
7
 0
VERTEX
 8
MCS-N240
 10
0
 20
0
 30
0
 70
128
 71
7
 72
8
 73
2
 74
1
 0
VERTEX
 8
MCS-N240
 10
0
 20
0
 30
0
 70
128
 71
2
 72
8
 73
6
 74
4
 0
VERTEX
 8
MCS-N240
 10
0
 20
0
 30
0
 70
128
 71
7
 72
1
 73
3
 74
5
 0
SEQEND
 0
POLYLINE
 8
LVT-B384
 66
1
 10
0.0
 20
0.0
 30
0.0
 70
64
 71
8
 72
6
 0
VERTEX
 8
LVT-B384
 10
-41.65
 20
-4.09
 30
27.5714
 70
192
 0
VERTEX
 8
LVT-B384
 10
-41.65
 20
-4.09
 30
28.3714
 70
192
 0
VERTEX
 8
LVT-B384
 10
41.65
 20
-4.09
 30
27.5714
 70
192
 0
VERTEX
 8
LVT-B384
 10
41.65
 20
-4.09
 30
28.3714
 70
192
 0
VERTEX
 8
LVT-B384
 10
41.65
 20
3.81
 30
27.5714
 70
192
 0
VERTEX
 8
LVT-B384
 10
41.65
 20
3.81
 30
28.3714
 70
192
 0
VERTEX
 8
LVT-B384
 10
-41.65
 20
3.81
 30
27.5714
 70
192
 0
VERTEX
 8
LVT-B384
 10
-41.65
 20
3.81
 30
28.3714
 70
192
 0
VERTEX
 8
LVT-B384
 10
0
 20
0
 30
0
 70
128
 71
1
 72
2
 73
4
 74
3
 0
VERTEX
 8
LVT-B384
 10
0
 20
0
 30
0
 70
128
 71
3
 72
4
 73
6
 74
5
 0
VERTEX
 8
LVT-B384
 10
0
 20
0
 30
0
 70
128
 71
5
 72
6
 73
8
 74
7
 0
VERTEX
 8
LVT-B384
 10
0
 20
0
 30
0
 70
128
 71
7
 72
8
 73
2
 74
1
 0
VERTEX
 8
LVT-B384
 10
0
 20
0
 30
0
 70
128
 71
2
 72
8
 73
6
 74
4
 0
VERTEX
 8
LVT-B384
 10
0
 20
0
 30
0
 70
128
 71
7
 72
1
 73
3
 74
5
 0
SEQEND
 0
ENDSEC
 0
EOF
