 0
SECTION
 2
HEADER
 9
$ACADVER
 1
AC1009
 0
ENDSEC
 0
SECTION
 2
TABLES
 0
TABLE
 2
LTYPE
 70
1
 0
LTYPE
 2
CONTINUOUS
 70
64
 3
solid line
 72
65
 73
0
 40
0.0
 0
ENDTAB
 0
TABLE
 2
LAYER
 70
6
 0
LAYER
 2
0
 70
0
 62
7
 6
CONTINUOUS
 0
LAYER
 2
FPHD_52_TS_BK
 70
64
 62
7
 6
CONTINUOUS
 0
LAYER
 2
LOGO_FULGOR_MILANO
 70
64
 62
7
 6
CONTINUOUS
 0
LAYER
 2
FULGOR
 70
64
 62
7
 6
CONTINUOUS
 0
LAYER
 2
MILANO
 70
64
 62
7
 6
CONTINUOUS
 0
LAYER
 2
CUBO
 70
64
 62
39
 6
CONTINUOUS
 0
LAYER
 2
CUBO_1
 70
64
 62
39
 6
CONTINUOUS
 0
LAYER
 2
TASTI
 70
64
 62
7
 6
CONTINUOUS
 0
LAYER
 2
DISCO
 70
64
 62
7
 6
CONTINUOUS
 0
LAYER
 2
DISCO_1
 70
64
 62
7
 6
CONTINUOUS
 0
LAYER
 2
DISCO_2
 70
64
 62
7
 6
CONTINUOUS
 0
LAYER
 2
DISCO_3
 70
64
 62
7
 6
CONTINUOUS
 0
LAYER
 2
DISCO_4
 70
64
 62
7
 6
CONTINUOUS
 0
LAYER
 2
PIANO_3
 70
64
 62
7
 6
CONTINUOUS
 0
LAYER
 2
PIANO_2
 70
64
 62
7
 6
CONTINUOUS
 0
LAYER
 2
PIANO_1
 70
64
 62
7
 6
CONTINUOUS
 0
LAYER
 2
PIANO
 70
64
 62
7
 6
CONTINUOUS
 0
LAYER
 2
PIANO_4
 70
64
 62
7
 6
CONTINUOUS
 0
LAYER
 2
DISCO_5
 70
64
 62
7
 6
CONTINUOUS
 0
ENDTAB
 0
ENDSEC
 0
SECTION
 2
BLOCKS
 0
ENDSEC
 0
SECTION
 2
ENTITIES
 0
POLYLINE
 8
FULGOR
 66
1
 10
0.0
 20
0.0
 30
0.0
 70
64
 71
363
 72
183
 0
VERTEX
 8
FULGOR
 10
-0.802
 20
-19.0276
 30
0.4015
 70
192
 0
VERTEX
 8
FULGOR
 10
-3.4912
 20
-19.1292
 30
0.4015
 70
192
 0
VERTEX
 8
FULGOR
 10
0.3065
 20
-19.1034
 30
0.4015
 70
192
 0
VERTEX
 8
FULGOR
 10
-3.3382
 20
-18.8356
 30
0.4015
 70
192
 0
VERTEX
 8
FULGOR
 10
-3.3382
 20
-18.7431
 30
0.4015
 70
192
 0
VERTEX
 8
FULGOR
 10
-2.9627
 20
-18.7431
 30
0.4015
 70
192
 0
VERTEX
 8
FULGOR
 10
-2.9627
 20
-18.6336
 30
0.4015
 70
192
 0
VERTEX
 8
FULGOR
 10
-3.4912
 20
-18.6336
 30
0.4015
 70
192
 0
VERTEX
 8
FULGOR
 10
-2.8073
 20
-18.9138
 30
0.4015
 70
192
 0
VERTEX
 8
FULGOR
 10
-2.806
 20
-18.9369
 30
0.4015
 70
192
 0
VERTEX
 8
FULGOR
 10
-2.8025
 20
-18.9583
 30
0.4015
 70
192
 0
VERTEX
 8
FULGOR
 10
-3.3382
 20
-19.1292
 30
0.4015
 70
192
 0
VERTEX
 8
FULGOR
 10
-3.3382
 20
-18.9238
 30
0.4015
 70
192
 0
VERTEX
 8
FULGOR
 10
-2.9627
 20
-18.9238
 30
0.4015
 70
192
 0
VERTEX
 8
FULGOR
 10
-2.9627
 20
-18.8356
 30
0.4015
 70
192
 0
VERTEX
 8
FULGOR
 10
-2.8073
 20
-18.6336
 30
0.4015
 70
192
 0
VERTEX
 8
FULGOR
 10
-2.7969
 20
-18.978
 30
0.4015
 70
192
 0
VERTEX
 8
FULGOR
 10
-2.7892
 20
-18.9961
 30
0.4015
 70
192
 0
VERTEX
 8
FULGOR
 10
-2.7797
 20
-19.0126
 30
0.4015
 70
192
 0
VERTEX
 8
FULGOR
 10
-2.7685
 20
-19.0277
 30
0.4015
 70
192
 0
VERTEX
 8
FULGOR
 10
-2.6326
 20
-19.1034
 30
0.4015
 70
192
 0
VERTEX
 8
FULGOR
 10
-2.5801
 20
-19.1142
 30
0.4015
 70
192
 0
VERTEX
 8
FULGOR
 10
-2.4949
 20
-19.1233
 30
0.4015
 70
192
 0
VERTEX
 8
FULGOR
 10
-2.4064
 20
-19.1261
 30
0.4015
 70
192
 0
VERTEX
 8
FULGOR
 10
-2.3076
 20
-19.1225
 30
0.4015
 70
192
 0
VERTEX
 8
FULGOR
 10
-2.233
 20
-19.1126
 30
0.4015
 70
192
 0
VERTEX
 8
FULGOR
 10
-2.7556
 20
-19.0413
 30
0.4015
 70
192
 0
VERTEX
 8
FULGOR
 10
-2.1411
 20
-19.0876
 30
0.4015
 70
192
 0
VERTEX
 8
FULGOR
 10
-2.7413
 20
-19.0537
 30
0.4015
 70
192
 0
VERTEX
 8
FULGOR
 10
-2.7257
 20
-19.0647
 30
0.4015
 70
192
 0
VERTEX
 8
FULGOR
 10
-2.7001
 20
-19.0791
 30
0.4015
 70
192
 0
VERTEX
 8
FULGOR
 10
-2.6723
 20
-19.091
 30
0.4015
 70
192
 0
VERTEX
 8
FULGOR
 10
-2.0395
 20
-19.019
 30
0.4015
 70
192
 0
VERTEX
 8
FULGOR
 10
-2.1807
 20
-19.1007
 30
0.4015
 70
192
 0
VERTEX
 8
FULGOR
 10
-2.1134
 20
-19.0755
 30
0.4015
 70
192
 0
VERTEX
 8
FULGOR
 10
-2.0879
 20
-19.0613
 30
0.4015
 70
192
 0
VERTEX
 8
FULGOR
 10
-2.0651
 20
-19.0448
 30
0.4015
 70
192
 0
VERTEX
 8
FULGOR
 10
-2.008
 20
-18.9436
 30
0.4015
 70
192
 0
VERTEX
 8
FULGOR
 10
-2.0068
 20
-18.9232
 30
0.4015
 70
192
 0
VERTEX
 8
FULGOR
 10
-2.0066
 20
-18.6336
 30
0.4015
 70
192
 0
VERTEX
 8
FULGOR
 10
-2.0515
 20
-19.0325
 30
0.4015
 70
192
 0
VERTEX
 8
FULGOR
 10
-2.0292
 20
-19.0044
 30
0.4015
 70
192
 0
VERTEX
 8
FULGOR
 10
-2.1597
 20
-18.9218
 30
0.4015
 70
192
 0
VERTEX
 8
FULGOR
 10
-2.1605
 20
-18.9287
 30
0.4015
 70
192
 0
VERTEX
 8
FULGOR
 10
-2.1621
 20
-18.9356
 30
0.4015
 70
192
 0
VERTEX
 8
FULGOR
 10
-2.1644
 20
-18.9425
 30
0.4015
 70
192
 0
VERTEX
 8
FULGOR
 10
-2.1674
 20
-18.9492
 30
0.4015
 70
192
 0
VERTEX
 8
FULGOR
 10
-2.1712
 20
-18.9559
 30
0.4015
 70
192
 0
VERTEX
 8
FULGOR
 10
-2.1757
 20
-18.9624
 30
0.4015
 70
192
 0
VERTEX
 8
FULGOR
 10
-2.184
 20
-18.9719
 30
0.4015
 70
192
 0
VERTEX
 8
FULGOR
 10
-2.1941
 20
-18.9809
 30
0.4015
 70
192
 0
VERTEX
 8
FULGOR
 10
-2.2061
 20
-18.9894
 30
0.4015
 70
192
 0
VERTEX
 8
FULGOR
 10
-2.22
 20
-18.9973
 30
0.4015
 70
192
 0
VERTEX
 8
FULGOR
 10
-2.0207
 20
-18.9886
 30
0.4015
 70
192
 0
VERTEX
 8
FULGOR
 10
-2.0141
 20
-18.9716
 30
0.4015
 70
192
 0
VERTEX
 8
FULGOR
 10
-2.0095
 20
-18.9533
 30
0.4015
 70
192
 0
VERTEX
 8
FULGOR
 10
-2.1595
 20
-18.6336
 30
0.4015
 70
192
 0
VERTEX
 8
FULGOR
 10
-2.1595
 20
-18.9148
 30
0.4015
 70
192
 0
VERTEX
 8
FULGOR
 10
-2.4936
 20
-19.0265
 30
0.4015
 70
192
 0
VERTEX
 8
FULGOR
 10
-2.2416
 20
-19.0069
 30
0.4015
 70
192
 0
VERTEX
 8
FULGOR
 10
-2.566
 20
-19.013
 30
0.4015
 70
192
 0
VERTEX
 8
FULGOR
 10
-2.5884
 20
-19.0049
 30
0.4015
 70
192
 0
VERTEX
 8
FULGOR
 10
-2.2669
 20
-19.0151
 30
0.4015
 70
192
 0
VERTEX
 8
FULGOR
 10
-2.3038
 20
-19.0231
 30
0.4015
 70
192
 0
VERTEX
 8
FULGOR
 10
-2.3468
 20
-19.0284
 30
0.4015
 70
192
 0
VERTEX
 8
FULGOR
 10
-2.6323
 20
-18.9749
 30
0.4015
 70
192
 0
VERTEX
 8
FULGOR
 10
-2.6376
 20
-18.9683
 30
0.4015
 70
192
 0
VERTEX
 8
FULGOR
 10
-2.6422
 20
-18.9612
 30
0.4015
 70
192
 0
VERTEX
 8
FULGOR
 10
-2.646
 20
-18.9538
 30
0.4015
 70
192
 0
VERTEX
 8
FULGOR
 10
-2.6491
 20
-18.946
 30
0.4015
 70
192
 0
VERTEX
 8
FULGOR
 10
-2.407
 20
-19.0306
 30
0.4015
 70
192
 0
VERTEX
 8
FULGOR
 10
-2.6537
 20
-18.9248
 30
0.4015
 70
192
 0
VERTEX
 8
FULGOR
 10
-2.6544
 20
-18.911
 30
0.4015
 70
192
 0
VERTEX
 8
FULGOR
 10
-2.6544
 20
-18.6336
 30
0.4015
 70
192
 0
VERTEX
 8
FULGOR
 10
-2.5399
 20
-19.0195
 30
0.4015
 70
192
 0
VERTEX
 8
FULGOR
 10
-2.6029
 20
-18.9979
 30
0.4015
 70
192
 0
VERTEX
 8
FULGOR
 10
-2.6155
 20
-18.99
 30
0.4015
 70
192
 0
VERTEX
 8
FULGOR
 10
-2.6261
 20
-18.9812
 30
0.4015
 70
192
 0
VERTEX
 8
FULGOR
 10
-1.6987
 20
-19.0197
 30
0.4015
 70
192
 0
VERTEX
 8
FULGOR
 10
-1.6987
 20
-18.6336
 30
0.4015
 70
192
 0
VERTEX
 8
FULGOR
 10
-0.4834
 20
-18.6792
 30
0.4015
 70
192
 0
VERTEX
 8
FULGOR
 10
-2.6514
 20
-18.9378
 30
0.4015
 70
192
 0
VERTEX
 8
FULGOR
 10
-1.8518
 20
-18.6336
 30
0.4015
 70
192
 0
VERTEX
 8
FULGOR
 10
-0.786
 20
-18.634
 30
0.4015
 70
192
 0
VERTEX
 8
FULGOR
 10
-1.8518
 20
-19.1292
 30
0.4015
 70
192
 0
VERTEX
 8
FULGOR
 10
-1.3232
 20
-19.1292
 30
0.4015
 70
192
 0
VERTEX
 8
FULGOR
 10
-1.3232
 20
-19.0197
 30
0.4015
 70
192
 0
VERTEX
 8
FULGOR
 10
-0.5698
 20
-18.6597
 30
0.4015
 70
192
 0
VERTEX
 8
FULGOR
 10
-0.6613
 20
-18.6451
 30
0.4015
 70
192
 0
VERTEX
 8
FULGOR
 10
-0.8556
 20
-18.6342
 30
0.4015
 70
192
 0
VERTEX
 8
FULGOR
 10
-1.1241
 20
-18.7092
 30
0.4015
 70
192
 0
VERTEX
 8
FULGOR
 10
-1.1501
 20
-18.7262
 30
0.4015
 70
192
 0
VERTEX
 8
FULGOR
 10
-1.1721
 20
-18.7438
 30
0.4015
 70
192
 0
VERTEX
 8
FULGOR
 10
-1.1908
 20
-18.762
 30
0.4015
 70
192
 0
VERTEX
 8
FULGOR
 10
-0.9187
 20
-18.6405
 30
0.4015
 70
192
 0
VERTEX
 8
FULGOR
 10
-0.9748
 20
-18.6513
 30
0.4015
 70
192
 0
VERTEX
 8
FULGOR
 10
-1.0298
 20
-18.6672
 30
0.4015
 70
192
 0
VERTEX
 8
FULGOR
 10
-1.2328
 20
-18.8291
 30
0.4015
 70
192
 0
VERTEX
 8
FULGOR
 10
-1.2372
 20
-18.8433
 30
0.4015
 70
192
 0
VERTEX
 8
FULGOR
 10
-1.0795
 20
-18.6865
 30
0.4015
 70
192
 0
VERTEX
 8
FULGOR
 10
-1.105
 20
-18.6987
 30
0.4015
 70
192
 0
VERTEX
 8
FULGOR
 10
-1.2054
 20
-18.7793
 30
0.4015
 70
192
 0
VERTEX
 8
FULGOR
 10
-1.2415
 20
-18.9014
 30
0.4015
 70
192
 0
VERTEX
 8
FULGOR
 10
-1.2159
 20
-18.7946
 30
0.4015
 70
192
 0
VERTEX
 8
FULGOR
 10
-1.2252
 20
-18.8112
 30
0.4015
 70
192
 0
VERTEX
 8
FULGOR
 10
-1.2403
 20
-18.8583
 30
0.4015
 70
192
 0
VERTEX
 8
FULGOR
 10
-1.2417
 20
-18.8687
 30
0.4015
 70
192
 0
VERTEX
 8
FULGOR
 10
-1.2425
 20
-18.885
 30
0.4015
 70
192
 0
VERTEX
 8
FULGOR
 10
-1.2386
 20
-18.9174
 30
0.4015
 70
192
 0
VERTEX
 8
FULGOR
 10
-1.1743
 20
-19.0165
 30
0.4015
 70
192
 0
VERTEX
 8
FULGOR
 10
-1.15
 20
-19.0361
 30
0.4015
 70
192
 0
VERTEX
 8
FULGOR
 10
-1.2339
 20
-18.933
 30
0.4015
 70
192
 0
VERTEX
 8
FULGOR
 10
-1.0828
 20
-19.0756
 30
0.4015
 70
192
 0
VERTEX
 8
FULGOR
 10
-1.046
 20
-19.0909
 30
0.4015
 70
192
 0
VERTEX
 8
FULGOR
 10
-1.2276
 20
-18.9482
 30
0.4015
 70
192
 0
VERTEX
 8
FULGOR
 10
-1.2197
 20
-18.9629
 30
0.4015
 70
192
 0
VERTEX
 8
FULGOR
 10
-0.873
 20
-19.1266
 30
0.4015
 70
192
 0
VERTEX
 8
FULGOR
 10
-0.8252
 20
-19.1289
 30
0.4015
 70
192
 0
VERTEX
 8
FULGOR
 10
-0.786
 20
-19.1287
 30
0.4015
 70
192
 0
VERTEX
 8
FULGOR
 10
-0.7239
 20
-19.1251
 30
0.4015
 70
192
 0
VERTEX
 8
FULGOR
 10
-1.2068
 20
-18.9817
 30
0.4015
 70
192
 0
VERTEX
 8
FULGOR
 10
-1.1916
 20
-18.9996
 30
0.4015
 70
192
 0
VERTEX
 8
FULGOR
 10
-1.1177
 20
-19.0572
 30
0.4015
 70
192
 0
VERTEX
 8
FULGOR
 10
-0.6592
 20
-18.8719
 30
0.4015
 70
192
 0
VERTEX
 8
FULGOR
 10
-0.996
 20
-19.1065
 30
0.4015
 70
192
 0
VERTEX
 8
FULGOR
 10
-0.9408
 20
-19.1183
 30
0.4015
 70
192
 0
VERTEX
 8
FULGOR
 10
-0.6469
 20
-19.115
 30
0.4015
 70
192
 0
VERTEX
 8
FULGOR
 10
-0.4834
 20
-19.0836
 30
0.4015
 70
192
 0
VERTEX
 8
FULGOR
 10
-0.8308
 20
-19.0273
 30
0.4015
 70
192
 0
VERTEX
 8
FULGOR
 10
-0.8644
 20
-19.0246
 30
0.4015
 70
192
 0
VERTEX
 8
FULGOR
 10
-0.4834
 20
-18.8719
 30
0.4015
 70
192
 0
VERTEX
 8
FULGOR
 10
-0.9273
 20
-19.0105
 30
0.4015
 70
192
 0
VERTEX
 8
FULGOR
 10
-0.9501
 20
-19.0017
 30
0.4015
 70
192
 0
VERTEX
 8
FULGOR
 10
-0.6593
 20
-19.0169
 30
0.4015
 70
192
 0
VERTEX
 8
FULGOR
 10
-0.6793
 20
-19.0206
 30
0.4015
 70
192
 0
VERTEX
 8
FULGOR
 10
-1.0029
 20
-18.9681
 30
0.4015
 70
192
 0
VERTEX
 8
FULGOR
 10
-0.7343
 20
-19.0263
 30
0.4015
 70
192
 0
VERTEX
 8
FULGOR
 10
-0.7749
 20
-19.0278
 30
0.4015
 70
192
 0
VERTEX
 8
FULGOR
 10
-0.8967
 20
-19.019
 30
0.4015
 70
192
 0
VERTEX
 8
FULGOR
 10
-0.9711
 20
-18.991
 30
0.4015
 70
192
 0
VERTEX
 8
FULGOR
 10
-1.0417
 20
-18.9066
 30
0.4015
 70
192
 0
VERTEX
 8
FULGOR
 10
-1.044
 20
-18.8961
 30
0.4015
 70
192
 0
VERTEX
 8
FULGOR
 10
-1.0455
 20
-18.8852
 30
0.4015
 70
192
 0
VERTEX
 8
FULGOR
 10
-1.0459
 20
-18.8739
 30
0.4015
 70
192
 0
VERTEX
 8
FULGOR
 10
-1.0453
 20
-18.8627
 30
0.4015
 70
192
 0
VERTEX
 8
FULGOR
 10
-0.9901
 20
-18.9786
 30
0.4015
 70
192
 0
VERTEX
 8
FULGOR
 10
-1.0142
 20
-18.9567
 30
0.4015
 70
192
 0
VERTEX
 8
FULGOR
 10
-1.024
 20
-18.9443
 30
0.4015
 70
192
 0
VERTEX
 8
FULGOR
 10
-1.0314
 20
-18.8229
 30
0.4015
 70
192
 0
VERTEX
 8
FULGOR
 10
-1.0254
 20
-18.8141
 30
0.4015
 70
192
 0
VERTEX
 8
FULGOR
 10
-1.0186
 20
-18.8059
 30
0.4015
 70
192
 0
VERTEX
 8
FULGOR
 10
-1.0321
 20
-18.9309
 30
0.4015
 70
192
 0
VERTEX
 8
FULGOR
 10
-0.9937
 20
-18.7841
 30
0.4015
 70
192
 0
VERTEX
 8
FULGOR
 10
-0.9792
 20
-18.7748
 30
0.4015
 70
192
 0
VERTEX
 8
FULGOR
 10
-1.0385
 20
-18.9166
 30
0.4015
 70
192
 0
VERTEX
 8
FULGOR
 10
-0.9304
 20
-18.753
 30
0.4015
 70
192
 0
VERTEX
 8
FULGOR
 10
-0.9017
 20
-18.7448
 30
0.4015
 70
192
 0
VERTEX
 8
FULGOR
 10
-1.0435
 20
-18.852
 30
0.4015
 70
192
 0
VERTEX
 8
FULGOR
 10
-0.8513
 20
-18.7369
 30
0.4015
 70
192
 0
VERTEX
 8
FULGOR
 10
-1.0405
 20
-18.8418
 30
0.4015
 70
192
 0
VERTEX
 8
FULGOR
 10
-0.7281
 20
-18.741
 30
0.4015
 70
192
 0
VERTEX
 8
FULGOR
 10
-1.0364
 20
-18.8321
 30
0.4015
 70
192
 0
VERTEX
 8
FULGOR
 10
-0.4834
 20
-18.785
 30
0.4015
 70
192
 0
VERTEX
 8
FULGOR
 10
-0.328
 20
-18.8814
 30
0.4015
 70
192
 0
VERTEX
 8
FULGOR
 10
-0.3267
 20
-18.9034
 30
0.4015
 70
192
 0
VERTEX
 8
FULGOR
 10
-1.0069
 20
-18.7945
 30
0.4015
 70
192
 0
VERTEX
 8
FULGOR
 10
-0.9583
 20
-18.764
 30
0.4015
 70
192
 0
VERTEX
 8
FULGOR
 10
-0.3086
 20
-18.9623
 30
0.4015
 70
192
 0
VERTEX
 8
FULGOR
 10
-0.2982
 20
-18.9796
 30
0.4015
 70
192
 0
VERTEX
 8
FULGOR
 10
-0.286
 20
-18.9957
 30
0.4015
 70
192
 0
VERTEX
 8
FULGOR
 10
-0.272
 20
-19.0108
 30
0.4015
 70
192
 0
VERTEX
 8
FULGOR
 10
-0.2481
 20
-19.0314
 30
0.4015
 70
192
 0
VERTEX
 8
FULGOR
 10
-0.8676
 20
-18.7386
 30
0.4015
 70
192
 0
VERTEX
 8
FULGOR
 10
-0.8308
 20
-18.7361
 30
0.4015
 70
192
 0
VERTEX
 8
FULGOR
 10
-0.6327
 20
-18.7546
 30
0.4015
 70
192
 0
VERTEX
 8
FULGOR
 10
-0.323
 20
-18.9243
 30
0.4015
 70
192
 0
VERTEX
 8
FULGOR
 10
-0.3169
 20
-18.9439
 30
0.4015
 70
192
 0
VERTEX
 8
FULGOR
 10
0.048
 20
-19.1251
 30
0.4015
 70
192
 0
VERTEX
 8
FULGOR
 10
0.1121
 20
-19.1277
 30
0.4015
 70
192
 0
VERTEX
 8
FULGOR
 10
-0.2211
 20
-19.0497
 30
0.4015
 70
192
 0
VERTEX
 8
FULGOR
 10
0.2689
 20
-19.1126
 30
0.4015
 70
192
 0
VERTEX
 8
FULGOR
 10
-0.1915
 20
-19.0658
 30
0.4015
 70
192
 0
VERTEX
 8
FULGOR
 10
-0.1488
 20
-19.0841
 30
0.4015
 70
192
 0
VERTEX
 8
FULGOR
 10
-0.0918
 20
-19.102
 30
0.4015
 70
192
 0
VERTEX
 8
FULGOR
 10
-0.0212
 20
-19.1168
 30
0.4015
 70
192
 0
VERTEX
 8
FULGOR
 10
0.1874
 20
-19.1242
 30
0.4015
 70
192
 0
VERTEX
 8
FULGOR
 10
0.5033
 20
-19.0034
 30
0.4015
 70
192
 0
VERTEX
 8
FULGOR
 10
0.339
 20
-19.0954
 30
0.4015
 70
192
 0
VERTEX
 8
FULGOR
 10
0.3946
 20
-19.0754
 30
0.4015
 70
192
 0
VERTEX
 8
FULGOR
 10
0.4356
 20
-19.0553
 30
0.4015
 70
192
 0
VERTEX
 8
FULGOR
 10
0.4635
 20
-19.0377
 30
0.4015
 70
192
 0
VERTEX
 8
FULGOR
 10
0.4885
 20
-19.0179
 30
0.4015
 70
192
 0
VERTEX
 8
FULGOR
 10
0.5508
 20
-18.9036
 30
0.4015
 70
192
 0
VERTEX
 8
FULGOR
 10
0.5521
 20
-18.8816
 30
0.4015
 70
192
 0
VERTEX
 8
FULGOR
 10
0.5508
 20
-18.8595
 30
0.4015
 70
192
 0
VERTEX
 8
FULGOR
 10
0.5471
 20
-18.8388
 30
0.4015
 70
192
 0
VERTEX
 8
FULGOR
 10
0.5164
 20
-18.9878
 30
0.4015
 70
192
 0
VERTEX
 8
FULGOR
 10
0.5277
 20
-18.9711
 30
0.4015
 70
192
 0
VERTEX
 8
FULGOR
 10
0.537
 20
-18.9533
 30
0.4015
 70
192
 0
VERTEX
 8
FULGOR
 10
0.5103
 20
-18.7673
 30
0.4015
 70
192
 0
VERTEX
 8
FULGOR
 10
0.4963
 20
-18.7523
 30
0.4015
 70
192
 0
VERTEX
 8
FULGOR
 10
0.4724
 20
-18.7317
 30
0.4015
 70
192
 0
VERTEX
 8
FULGOR
 10
0.4454
 20
-18.7133
 30
0.4015
 70
192
 0
VERTEX
 8
FULGOR
 10
0.4158
 20
-18.6972
 30
0.4015
 70
192
 0
VERTEX
 8
FULGOR
 10
0.373
 20
-18.6789
 30
0.4015
 70
192
 0
VERTEX
 8
FULGOR
 10
0.5442
 20
-18.9343
 30
0.4015
 70
192
 0
VERTEX
 8
FULGOR
 10
0.5492
 20
-18.9141
 30
0.4015
 70
192
 0
VERTEX
 8
FULGOR
 10
0.541
 20
-18.8192
 30
0.4015
 70
192
 0
VERTEX
 8
FULGOR
 10
0.5328
 20
-18.8008
 30
0.4015
 70
192
 0
VERTEX
 8
FULGOR
 10
0.0368
 20
-18.6386
 30
0.4015
 70
192
 0
VERTEX
 8
FULGOR
 10
0.5225
 20
-18.7835
 30
0.4015
 70
192
 0
VERTEX
 8
FULGOR
 10
0.316
 20
-18.661
 30
0.4015
 70
192
 0
VERTEX
 8
FULGOR
 10
0.2454
 20
-18.6461
 30
0.4015
 70
192
 0
VERTEX
 8
FULGOR
 10
0.1761
 20
-18.6377
 30
0.4015
 70
192
 0
VERTEX
 8
FULGOR
 10
-0.2396
 20
-18.725
 30
0.4015
 70
192
 0
VERTEX
 8
FULGOR
 10
-0.2646
 20
-18.7449
 30
0.4015
 70
192
 0
VERTEX
 8
FULGOR
 10
-0.2794
 20
-18.7594
 30
0.4015
 70
192
 0
VERTEX
 8
FULGOR
 10
-0.2925
 20
-18.775
 30
0.4015
 70
192
 0
VERTEX
 8
FULGOR
 10
-0.3038
 20
-18.7917
 30
0.4015
 70
192
 0
VERTEX
 8
FULGOR
 10
-0.3131
 20
-18.8096
 30
0.4015
 70
192
 0
VERTEX
 8
FULGOR
 10
-0.3203
 20
-18.8286
 30
0.4015
 70
192
 0
VERTEX
 8
FULGOR
 10
0.1121
 20
-18.6351
 30
0.4015
 70
192
 0
VERTEX
 8
FULGOR
 10
-0.3268
 20
-18.8594
 30
0.4015
 70
192
 0
VERTEX
 8
FULGOR
 10
-0.1303
 20
-18.8816
 30
0.4015
 70
192
 0
VERTEX
 8
FULGOR
 10
-0.1298
 20
-18.8935
 30
0.4015
 70
192
 0
VERTEX
 8
FULGOR
 10
-0.0448
 20
-18.6502
 30
0.4015
 70
192
 0
VERTEX
 8
FULGOR
 10
-0.115
 20
-18.6674
 30
0.4015
 70
192
 0
VERTEX
 8
FULGOR
 10
-0.1706
 20
-18.6874
 30
0.4015
 70
192
 0
VERTEX
 8
FULGOR
 10
-0.2117
 20
-18.7075
 30
0.4015
 70
192
 0
VERTEX
 8
FULGOR
 10
-0.3252
 20
-18.8488
 30
0.4015
 70
192
 0
VERTEX
 8
FULGOR
 10
-0.1061
 20
-18.9537
 30
0.4015
 70
192
 0
VERTEX
 8
FULGOR
 10
-0.099
 20
-18.9619
 30
0.4015
 70
192
 0
VERTEX
 8
FULGOR
 10
-0.1282
 20
-18.9049
 30
0.4015
 70
192
 0
VERTEX
 8
FULGOR
 10
-0.1257
 20
-18.9157
 30
0.4015
 70
192
 0
VERTEX
 8
FULGOR
 10
-0.1221
 20
-18.926
 30
0.4015
 70
192
 0
VERTEX
 8
FULGOR
 10
-0.1177
 20
-18.9358
 30
0.4015
 70
192
 0
VERTEX
 8
FULGOR
 10
-0.011
 20
-19.0114
 30
0.4015
 70
192
 0
VERTEX
 8
FULGOR
 10
0.0226
 20
-19.0194
 30
0.4015
 70
192
 0
VERTEX
 8
FULGOR
 10
-0.1123
 20
-18.945
 30
0.4015
 70
192
 0
VERTEX
 8
FULGOR
 10
0.1121
 20
-19.0271
 30
0.4015
 70
192
 0
VERTEX
 8
FULGOR
 10
0.1656
 20
-19.0245
 30
0.4015
 70
192
 0
VERTEX
 8
FULGOR
 10
-0.087
 20
-18.9733
 30
0.4015
 70
192
 0
VERTEX
 8
FULGOR
 10
0.2415
 20
-19.0094
 30
0.4015
 70
192
 0
VERTEX
 8
FULGOR
 10
0.2657
 20
-19.0004
 30
0.4015
 70
192
 0
VERTEX
 8
FULGOR
 10
0.2875
 20
-18.9895
 30
0.4015
 70
192
 0
VERTEX
 8
FULGOR
 10
-0.0733
 20
-18.9834
 30
0.4015
 70
192
 0
VERTEX
 8
FULGOR
 10
0.3154
 20
-18.9695
 30
0.4015
 70
192
 0
VERTEX
 8
FULGOR
 10
-0.0581
 20
-18.9925
 30
0.4015
 70
192
 0
VERTEX
 8
FULGOR
 10
-0.0356
 20
-19.0029
 30
0.4015
 70
192
 0
VERTEX
 8
FULGOR
 10
0.3393
 20
-18.9404
 30
0.4015
 70
192
 0
VERTEX
 8
FULGOR
 10
0.066
 20
-19.0252
 30
0.4015
 70
192
 0
VERTEX
 8
FULGOR
 10
0.2085
 20
-19.018
 30
0.4015
 70
192
 0
VERTEX
 8
FULGOR
 10
0.3023
 20
-18.9801
 30
0.4015
 70
192
 0
VERTEX
 8
FULGOR
 10
0.3534
 20
-18.8992
 30
0.4015
 70
192
 0
VERTEX
 8
FULGOR
 10
0.3541
 20
-18.8935
 30
0.4015
 70
192
 0
VERTEX
 8
FULGOR
 10
0.3546
 20
-18.8816
 30
0.4015
 70
192
 0
VERTEX
 8
FULGOR
 10
0.3541
 20
-18.8696
 30
0.4015
 70
192
 0
VERTEX
 8
FULGOR
 10
0.3269
 20
-18.9578
 30
0.4015
 70
192
 0
VERTEX
 8
FULGOR
 10
0.3335
 20
-18.9494
 30
0.4015
 70
192
 0
VERTEX
 8
FULGOR
 10
0.3464
 20
-18.8372
 30
0.4015
 70
192
 0
VERTEX
 8
FULGOR
 10
0.3419
 20
-18.8274
 30
0.4015
 70
192
 0
VERTEX
 8
FULGOR
 10
0.3442
 20
-18.9309
 30
0.4015
 70
192
 0
VERTEX
 8
FULGOR
 10
0.3483
 20
-18.9209
 30
0.4015
 70
192
 0
VERTEX
 8
FULGOR
 10
0.3232
 20
-18.8014
 30
0.4015
 70
192
 0
VERTEX
 8
FULGOR
 10
0.3513
 20
-18.9103
 30
0.4015
 70
192
 0
VERTEX
 8
FULGOR
 10
0.3525
 20
-18.8583
 30
0.4015
 70
192
 0
VERTEX
 8
FULGOR
 10
0.2822
 20
-18.7709
 30
0.4015
 70
192
 0
VERTEX
 8
FULGOR
 10
0.2598
 20
-18.7605
 30
0.4015
 70
192
 0
VERTEX
 8
FULGOR
 10
0.3499
 20
-18.8475
 30
0.4015
 70
192
 0
VERTEX
 8
FULGOR
 10
0.3365
 20
-18.8182
 30
0.4015
 70
192
 0
VERTEX
 8
FULGOR
 10
0.3303
 20
-18.8095
 30
0.4015
 70
192
 0
VERTEX
 8
FULGOR
 10
0.3112
 20
-18.7901
 30
0.4015
 70
192
 0
VERTEX
 8
FULGOR
 10
0.0586
 20
-18.739
 30
0.4015
 70
192
 0
VERTEX
 8
FULGOR
 10
0.0157
 20
-18.7455
 30
0.4015
 70
192
 0
VERTEX
 8
FULGOR
 10
-0.0172
 20
-18.754
 30
0.4015
 70
192
 0
VERTEX
 8
FULGOR
 10
0.2975
 20
-18.7799
 30
0.4015
 70
192
 0
VERTEX
 8
FULGOR
 10
0.2351
 20
-18.7521
 30
0.4015
 70
192
 0
VERTEX
 8
FULGOR
 10
0.2015
 20
-18.7441
 30
0.4015
 70
192
 0
VERTEX
 8
FULGOR
 10
0.1581
 20
-18.7383
 30
0.4015
 70
192
 0
VERTEX
 8
FULGOR
 10
0.1121
 20
-18.7364
 30
0.4015
 70
192
 0
VERTEX
 8
FULGOR
 10
-0.0414
 20
-18.7629
 30
0.4015
 70
192
 0
VERTEX
 8
FULGOR
 10
-0.0633
 20
-18.7737
 30
0.4015
 70
192
 0
VERTEX
 8
FULGOR
 10
-0.078
 20
-18.7831
 30
0.4015
 70
192
 0
VERTEX
 8
FULGOR
 10
-0.0911
 20
-18.7936
 30
0.4015
 70
192
 0
VERTEX
 8
FULGOR
 10
-0.1026
 20
-18.8053
 30
0.4015
 70
192
 0
VERTEX
 8
FULGOR
 10
-0.1093
 20
-18.8137
 30
0.4015
 70
192
 0
VERTEX
 8
FULGOR
 10
-0.1151
 20
-18.8227
 30
0.4015
 70
192
 0
VERTEX
 8
FULGOR
 10
-0.12
 20
-18.8322
 30
0.4015
 70
192
 0
VERTEX
 8
FULGOR
 10
-0.124
 20
-18.8422
 30
0.4015
 70
192
 0
VERTEX
 8
FULGOR
 10
-0.1271
 20
-18.8528
 30
0.4015
 70
192
 0
VERTEX
 8
FULGOR
 10
0.9536
 20
-18.9197
 30
0.4015
 70
192
 0
VERTEX
 8
FULGOR
 10
-0.1291
 20
-18.8639
 30
0.4015
 70
192
 0
VERTEX
 8
FULGOR
 10
-0.1298
 20
-18.8696
 30
0.4015
 70
192
 0
VERTEX
 8
FULGOR
 10
0.7074
 20
-19.1292
 30
0.4015
 70
192
 0
VERTEX
 8
FULGOR
 10
0.8605
 20
-19.1292
 30
0.4015
 70
192
 0
VERTEX
 8
FULGOR
 10
0.8605
 20
-18.9197
 30
0.4015
 70
192
 0
VERTEX
 8
FULGOR
 10
1.0616
 20
-18.9693
 30
0.4015
 70
192
 0
VERTEX
 8
FULGOR
 10
1.0735
 20
-18.982
 30
0.4015
 70
192
 0
VERTEX
 8
FULGOR
 10
1.1809
 20
-19.1292
 30
0.4015
 70
192
 0
VERTEX
 8
FULGOR
 10
1.4539
 20
-19.1292
 30
0.4015
 70
192
 0
VERTEX
 8
FULGOR
 10
1.4173
 20
-19.11
 30
0.4015
 70
192
 0
VERTEX
 8
FULGOR
 10
1.0042
 20
-18.9299
 30
0.4015
 70
192
 0
VERTEX
 8
FULGOR
 10
1.0167
 20
-18.9358
 30
0.4015
 70
192
 0
VERTEX
 8
FULGOR
 10
1.3641
 20
-19.0733
 30
0.4015
 70
192
 0
VERTEX
 8
FULGOR
 10
1.3242
 20
-19.0361
 30
0.4015
 70
192
 0
VERTEX
 8
FULGOR
 10
0.7074
 20
-18.8317
 30
0.4015
 70
192
 0
VERTEX
 8
FULGOR
 10
1.2736
 20
-18.9678
 30
0.4015
 70
192
 0
VERTEX
 8
FULGOR
 10
1.2489
 20
-18.94
 30
0.4015
 70
192
 0
VERTEX
 8
FULGOR
 10
1.2255
 20
-18.9201
 30
0.4015
 70
192
 0
VERTEX
 8
FULGOR
 10
1.0465
 20
-18.9557
 30
0.4015
 70
192
 0
VERTEX
 8
FULGOR
 10
0.2293
 20
-19.1182
 30
0.4015
 70
192
 0
VERTEX
 8
FULGOR
 10
1.1695
 20
-18.8899
 30
0.4015
 70
192
 0
VERTEX
 8
FULGOR
 10
1.3864
 20
-19.0907
 30
0.4015
 70
192
 0
VERTEX
 8
FULGOR
 10
1.2436
 20
-18.8587
 30
0.4015
 70
192
 0
VERTEX
 8
FULGOR
 10
1.2031
 20
-18.9053
 30
0.4015
 70
192
 0
VERTEX
 8
FULGOR
 10
1.2697
 20
-18.8373
 30
0.4015
 70
192
 0
VERTEX
 8
FULGOR
 10
1.1858
 20
-18.8962
 30
0.4015
 70
192
 0
VERTEX
 8
FULGOR
 10
1.2943
 20
-18.7993
 30
0.4015
 70
192
 0
VERTEX
 8
FULGOR
 10
1.2997
 20
-18.7781
 30
0.4015
 70
192
 0
VERTEX
 8
FULGOR
 10
1.205
 20
-18.8787
 30
0.4015
 70
192
 0
VERTEX
 8
FULGOR
 10
1.2975
 20
-18.7373
 30
0.4015
 70
192
 0
VERTEX
 8
FULGOR
 10
1.2884
 20
-18.717
 30
0.4015
 70
192
 0
VERTEX
 8
FULGOR
 10
1.2744
 20
-18.6994
 30
0.4015
 70
192
 0
VERTEX
 8
FULGOR
 10
1.2512
 20
-18.6809
 30
0.4015
 70
192
 0
VERTEX
 8
FULGOR
 10
1.2851
 20
-18.8177
 30
0.4015
 70
192
 0
VERTEX
 8
FULGOR
 10
1.139
 20
-18.6418
 30
0.4015
 70
192
 0
VERTEX
 8
FULGOR
 10
1.0942
 20
-18.6358
 30
0.4015
 70
192
 0
VERTEX
 8
FULGOR
 10
1.3009
 20
-18.7605
 30
0.4015
 70
192
 0
VERTEX
 8
FULGOR
 10
0.8605
 20
-18.7218
 30
0.4015
 70
192
 0
VERTEX
 8
FULGOR
 10
1.211
 20
-18.661
 30
0.4015
 70
192
 0
VERTEX
 8
FULGOR
 10
1.0503
 20
-18.6336
 30
0.4015
 70
192
 0
VERTEX
 8
FULGOR
 10
0.7074
 20
-18.6336
 30
0.4015
 70
192
 0
VERTEX
 8
FULGOR
 10
0.8605
 20
-18.8314
 30
0.4015
 70
192
 0
VERTEX
 8
FULGOR
 10
1
 20
-18.8317
 30
0.4015
 70
192
 0
VERTEX
 8
FULGOR
 10
1.0397
 20
-18.8284
 30
0.4015
 70
192
 0
VERTEX
 8
FULGOR
 10
1.0846
 20
-18.8122
 30
0.4015
 70
192
 0
VERTEX
 8
FULGOR
 10
1.0945
 20
-18.8042
 30
0.4015
 70
192
 0
VERTEX
 8
FULGOR
 10
1.1005
 20
-18.7966
 30
0.4015
 70
192
 0
VERTEX
 8
FULGOR
 10
1.106
 20
-18.7695
 30
0.4015
 70
192
 0
VERTEX
 8
FULGOR
 10
1.1034
 20
-18.7599
 30
0.4015
 70
192
 0
VERTEX
 8
FULGOR
 10
1.0316
 20
-18.7235
 30
0.4015
 70
192
 0
VERTEX
 8
FULGOR
 10
1.0814
 20
-18.7373
 30
0.4015
 70
192
 0
VERTEX
 8
FULGOR
 10
1.0141
 20
-18.7221
 30
0.4015
 70
192
 0
VERTEX
 8
FULGOR
 10
1.0635
 20
-18.7299
 30
0.4015
 70
192
 0
VERTEX
 8
FULGOR
 10
1.0493
 20
-18.7263
 30
0.4015
 70
192
 0
VERTEX
 8
FULGOR
 10
-0.057
 20
-19.1093
 30
0.4015
 70
192
 0
VERTEX
 8
FULGOR
 10
-0.1173
 20
-19.0939
 30
0.4015
 70
192
 0
VERTEX
 8
FULGOR
 10
0.9953
 20
-18.7218
 30
0.4015
 70
192
 0
VERTEX
 8
FULGOR
 10
0.9922
 20
-18.6336
 30
0.4015
 70
192
 0
VERTEX
 8
FULGOR
 10
1.0982
 20
-18.7515
 30
0.4015
 70
192
 0
VERTEX
 8
FULGOR
 10
1.0916
 20
-18.7445
 30
0.4015
 70
192
 0
VERTEX
 8
FULGOR
 10
1.1063
 20
-18.7789
 30
0.4015
 70
192
 0
VERTEX
 8
FULGOR
 10
1.1045
 20
-18.7879
 30
0.4015
 70
192
 0
VERTEX
 8
FULGOR
 10
0.9534
 20
-18.8316
 30
0.4015
 70
192
 0
VERTEX
 8
FULGOR
 10
1.1753
 20
-19.1215
 30
0.4015
 70
192
 0
VERTEX
 8
FULGOR
 10
1.1675
 20
-19.1106
 30
0.4015
 70
192
 0
VERTEX
 8
FULGOR
 10
-0.881
 20
-19.0217
 30
0.4015
 70
192
 0
VERTEX
 8
FULGOR
 10
1.1534
 20
-19.0912
 30
0.4015
 70
192
 0
VERTEX
 8
FULGOR
 10
1.1403
 20
-19.0732
 30
0.4015
 70
192
 0
VERTEX
 8
FULGOR
 10
-0.8482
 20
-19.0259
 30
0.4015
 70
192
 0
VERTEX
 8
FULGOR
 10
0.7074
 20
-18.9198
 30
0.4015
 70
192
 0
VERTEX
 8
FULGOR
 10
1.1053
 20
-19.0246
 30
0.4015
 70
192
 0
VERTEX
 8
FULGOR
 10
1.0922
 20
-19.0065
 30
0.4015
 70
192
 0
VERTEX
 8
FULGOR
 10
0
 20
0
 30
0
 70
128
 71
244
 72
245
 73
188
 74
3
 0
VERTEX
 8
FULGOR
 10
0
 20
0
 30
0
 70
128
 71
137
 72
135
 73
127
 74
120
 0
VERTEX
 8
FULGOR
 10
0
 20
0
 30
0
 70
128
 71
287
 72
288
 73
220
 74
219
 0
VERTEX
 8
FULGOR
 10
0
 20
0
 30
0
 70
128
 71
135
 72
134
 73
128
 74
127
 0
VERTEX
 8
FULGOR
 10
0
 20
0
 30
0
 70
128
 71
145
 72
144
 73
106
 74
99
 0
VERTEX
 8
FULGOR
 10
0
 20
0
 30
0
 70
128
 71
152
 72
148
 73
115
 74
112
 0
VERTEX
 8
FULGOR
 10
0
 20
0
 30
0
 70
128
 71
288
 72
289
 73
221
 74
220
 0
VERTEX
 8
FULGOR
 10
0
 20
0
 30
0
 70
128
 71
155
 72
152
 73
112
 74
109
 0
VERTEX
 8
FULGOR
 10
0
 20
0
 30
0
 70
128
 71
141
 72
155
 73
109
 74
103
 0
VERTEX
 8
FULGOR
 10
0
 20
0
 30
0
 70
128
 71
289
 72
290
 73
230
 74
221
 0
VERTEX
 8
FULGOR
 10
0
 20
0
 30
0
 70
128
 71
290
 72
292
 73
223
 74
230
 0
VERTEX
 8
FULGOR
 10
0
 20
0
 30
0
 70
128
 71
142
 72
141
 73
103
 74
108
 0
VERTEX
 8
FULGOR
 10
0
 20
0
 30
0
 70
128
 71
143
 72
142
 73
108
 74
107
 0
VERTEX
 8
FULGOR
 10
0
 20
0
 30
0
 70
128
 71
144
 72
143
 73
107
 74
106
 0
VERTEX
 8
FULGOR
 10
0
 20
0
 30
0
 70
128
 71
254
 72
255
 73
207
 74
206
 0
VERTEX
 8
FULGOR
 10
0
 20
0
 30
0
 70
128
 71
265
 72
254
 73
206
 74
199
 0
VERTEX
 8
FULGOR
 10
0
 20
0
 30
0
 70
128
 71
263
 72
265
 73
199
 74
198
 0
VERTEX
 8
FULGOR
 10
0
 20
0
 30
0
 70
128
 71
251
 72
240
 73
179
 74
178
 0
VERTEX
 8
FULGOR
 10
0
 20
0
 30
0
 70
128
 71
5
 72
8
 73
7
 74
6
 0
VERTEX
 8
FULGOR
 10
0
 20
0
 30
0
 70
128
 71
8
 72
5
 73
4
 74
4
 0
VERTEX
 8
FULGOR
 10
0
 20
0
 30
0
 70
128
 71
8
 72
4
 73
13
 74
2
 0
VERTEX
 8
FULGOR
 10
0
 20
0
 30
0
 70
128
 71
237
 72
238
 73
185
 74
346
 0
VERTEX
 8
FULGOR
 10
0
 20
0
 30
0
 70
128
 71
339
 72
340
 73
321
 74
328
 0
VERTEX
 8
FULGOR
 10
0
 20
0
 30
0
 70
128
 71
161
 72
174
 73
84
 74
89
 0
VERTEX
 8
FULGOR
 10
0
 20
0
 30
0
 70
128
 71
174
 72
159
 73
90
 74
84
 0
VERTEX
 8
FULGOR
 10
0
 20
0
 30
0
 70
128
 71
249
 72
237
 73
346
 74
184
 0
VERTEX
 8
FULGOR
 10
0
 20
0
 30
0
 70
128
 71
248
 72
249
 73
184
 74
347
 0
VERTEX
 8
FULGOR
 10
0
 20
0
 30
0
 70
128
 71
159
 72
173
 73
95
 74
90
 0
VERTEX
 8
FULGOR
 10
0
 20
0
 30
0
 70
128
 71
173
 72
157
 73
96
 74
95
 0
VERTEX
 8
FULGOR
 10
0
 20
0
 30
0
 70
128
 71
246
 72
248
 73
347
 74
183
 0
VERTEX
 8
FULGOR
 10
0
 20
0
 30
0
 70
128
 71
362
 72
307
 73
305
 74
359
 0
VERTEX
 8
FULGOR
 10
0
 20
0
 30
0
 70
128
 71
151
 72
150
 73
94
 74
93
 0
VERTEX
 8
FULGOR
 10
0
 20
0
 30
0
 70
128
 71
353
 72
352
 73
319
 74
318
 0
VERTEX
 8
FULGOR
 10
0
 20
0
 30
0
 70
128
 71
175
 72
161
 73
89
 74
88
 0
VERTEX
 8
FULGOR
 10
0
 20
0
 30
0
 70
128
 71
253
 72
247
 73
190
 74
189
 0
VERTEX
 8
FULGOR
 10
0
 20
0
 30
0
 70
128
 71
153
 72
166
 73
92
 74
91
 0
VERTEX
 8
FULGOR
 10
0
 20
0
 30
0
 70
128
 71
166
 72
151
 73
93
 74
92
 0
VERTEX
 8
FULGOR
 10
0
 20
0
 30
0
 70
128
 71
273
 72
274
 73
226
 74
210
 0
VERTEX
 8
FULGOR
 10
0
 20
0
 30
0
 70
128
 71
163
 72
175
 73
88
 74
81
 0
VERTEX
 8
FULGOR
 10
0
 20
0
 30
0
 70
128
 71
167
 72
154
 73
101
 74
100
 0
VERTEX
 8
FULGOR
 10
0
 20
0
 30
0
 70
128
 71
154
 72
153
 73
91
 74
101
 0
VERTEX
 8
FULGOR
 10
0
 20
0
 30
0
 70
128
 71
274
 72
275
 73
227
 74
226
 0
VERTEX
 8
FULGOR
 10
0
 20
0
 30
0
 70
128
 71
13
 72
12
 73
2
 74
2
 0
VERTEX
 8
FULGOR
 10
0
 20
0
 30
0
 70
128
 71
13
 72
4
 73
15
 74
14
 0
VERTEX
 8
FULGOR
 10
0
 20
0
 30
0
 70
128
 71
16
 72
74
 73
73
 74
9
 0
VERTEX
 8
FULGOR
 10
0
 20
0
 30
0
 70
128
 71
73
 72
72
 73
10
 74
9
 0
VERTEX
 8
FULGOR
 10
0
 20
0
 30
0
 70
128
 71
72
 72
82
 73
11
 74
10
 0
VERTEX
 8
FULGOR
 10
0
 20
0
 30
0
 70
128
 71
82
 72
70
 73
18
 74
17
 0
VERTEX
 8
FULGOR
 10
0
 20
0
 30
0
 70
128
 71
58
 72
57
 73
40
 74
39
 0
VERTEX
 8
FULGOR
 10
0
 20
0
 30
0
 70
128
 71
82
 72
17
 73
11
 74
11
 0
VERTEX
 8
FULGOR
 10
0
 20
0
 30
0
 70
128
 71
43
 72
58
 73
39
 74
38
 0
VERTEX
 8
FULGOR
 10
0
 20
0
 30
0
 70
128
 71
70
 72
69
 73
20
 74
19
 0
VERTEX
 8
FULGOR
 10
0
 20
0
 30
0
 70
128
 71
70
 72
19
 73
18
 74
18
 0
VERTEX
 8
FULGOR
 10
0
 20
0
 30
0
 70
128
 71
69
 72
68
 73
27
 74
20
 0
VERTEX
 8
FULGOR
 10
0
 20
0
 30
0
 70
128
 71
68
 72
67
 73
29
 74
27
 0
VERTEX
 8
FULGOR
 10
0
 20
0
 30
0
 70
128
 71
67
 72
66
 73
30
 74
29
 0
VERTEX
 8
FULGOR
 10
0
 20
0
 30
0
 70
128
 71
66
 72
78
 73
31
 74
30
 0
VERTEX
 8
FULGOR
 10
0
 20
0
 30
0
 70
128
 71
78
 72
77
 73
32
 74
31
 0
VERTEX
 8
FULGOR
 10
0
 20
0
 30
0
 70
128
 71
32
 72
77
 73
76
 74
21
 0
VERTEX
 8
FULGOR
 10
0
 20
0
 30
0
 70
128
 71
76
 72
62
 73
21
 74
21
 0
VERTEX
 8
FULGOR
 10
0
 20
0
 30
0
 70
128
 71
62
 72
61
 73
22
 74
21
 0
VERTEX
 8
FULGOR
 10
0
 20
0
 30
0
 70
128
 71
61
 72
75
 73
22
 74
22
 0
VERTEX
 8
FULGOR
 10
0
 20
0
 30
0
 70
128
 71
75
 72
59
 73
23
 74
22
 0
VERTEX
 8
FULGOR
 10
0
 20
0
 30
0
 70
128
 71
23
 72
59
 73
71
 74
24
 0
VERTEX
 8
FULGOR
 10
0
 20
0
 30
0
 70
128
 71
275
 72
281
 73
228
 74
227
 0
VERTEX
 8
FULGOR
 10
0
 20
0
 30
0
 70
128
 71
157
 72
156
 73
97
 74
96
 0
VERTEX
 8
FULGOR
 10
0
 20
0
 30
0
 70
128
 71
291
 72
296
 73
333
 74
354
 0
VERTEX
 8
FULGOR
 10
0
 20
0
 30
0
 70
128
 71
281
 72
282
 73
229
 74
228
 0
VERTEX
 8
FULGOR
 10
0
 20
0
 30
0
 70
128
 71
282
 72
283
 73
215
 74
229
 0
VERTEX
 8
FULGOR
 10
0
 20
0
 30
0
 70
128
 71
283
 72
284
 73
216
 74
215
 0
VERTEX
 8
FULGOR
 10
0
 20
0
 30
0
 70
128
 71
129
 72
1
 73
118
 74
117
 0
VERTEX
 8
FULGOR
 10
0
 20
0
 30
0
 70
128
 71
238
 72
251
 73
178
 74
185
 0
VERTEX
 8
FULGOR
 10
0
 20
0
 30
0
 70
128
 71
245
 72
253
 73
189
 74
188
 0
VERTEX
 8
FULGOR
 10
0
 20
0
 30
0
 70
128
 71
337
 72
338
 73
325
 74
316
 0
VERTEX
 8
FULGOR
 10
0
 20
0
 30
0
 70
128
 71
336
 72
337
 73
316
 74
314
 0
VERTEX
 8
FULGOR
 10
0
 20
0
 30
0
 70
128
 71
241
 72
252
 73
311
 74
186
 0
VERTEX
 8
FULGOR
 10
0
 20
0
 30
0
 70
128
 71
24
 72
71
 73
65
 74
25
 0
VERTEX
 8
FULGOR
 10
0
 20
0
 30
0
 70
128
 71
65
 72
64
 73
25
 74
25
 0
VERTEX
 8
FULGOR
 10
0
 20
0
 30
0
 70
128
 71
156
 72
167
 73
100
 74
97
 0
VERTEX
 8
FULGOR
 10
0
 20
0
 30
0
 70
128
 71
149
 72
162
 73
104
 74
102
 0
VERTEX
 8
FULGOR
 10
0
 20
0
 30
0
 70
128
 71
64
 72
63
 73
26
 74
25
 0
VERTEX
 8
FULGOR
 10
0
 20
0
 30
0
 70
128
 71
162
 72
160
 73
105
 74
104
 0
VERTEX
 8
FULGOR
 10
0
 20
0
 30
0
 70
128
 71
63
 72
60
 73
26
 74
26
 0
VERTEX
 8
FULGOR
 10
0
 20
0
 30
0
 70
128
 71
266
 72
269
 73
196
 74
195
 0
VERTEX
 8
FULGOR
 10
0
 20
0
 30
0
 70
128
 71
360
 72
129
 73
117
 74
126
 0
VERTEX
 8
FULGOR
 10
0
 20
0
 30
0
 70
128
 71
60
 72
53
 73
34
 74
26
 0
VERTEX
 8
FULGOR
 10
0
 20
0
 30
0
 70
128
 71
53
 72
52
 73
34
 74
34
 0
VERTEX
 8
FULGOR
 10
0
 20
0
 30
0
 70
128
 71
52
 72
51
 73
28
 74
34
 0
VERTEX
 8
FULGOR
 10
0
 20
0
 30
0
 70
128
 71
51
 72
50
 73
35
 74
28
 0
VERTEX
 8
FULGOR
 10
0
 20
0
 30
0
 70
128
 71
50
 72
49
 73
36
 74
35
 0
VERTEX
 8
FULGOR
 10
0
 20
0
 30
0
 70
128
 71
36
 72
49
 73
48
 74
37
 0
VERTEX
 8
FULGOR
 10
0
 20
0
 30
0
 70
128
 71
44
 72
43
 73
38
 74
56
 0
VERTEX
 8
FULGOR
 10
0
 20
0
 30
0
 70
128
 71
37
 72
48
 73
47
 74
41
 0
VERTEX
 8
FULGOR
 10
0
 20
0
 30
0
 70
128
 71
33
 72
47
 73
46
 74
42
 0
VERTEX
 8
FULGOR
 10
0
 20
0
 30
0
 70
128
 71
45
 72
55
 73
54
 74
54
 0
VERTEX
 8
FULGOR
 10
0
 20
0
 30
0
 70
128
 71
47
 72
33
 73
41
 74
41
 0
VERTEX
 8
FULGOR
 10
0
 20
0
 30
0
 70
128
 71
42
 72
46
 73
45
 74
54
 0
VERTEX
 8
FULGOR
 10
0
 20
0
 30
0
 70
128
 71
55
 72
45
 73
44
 74
56
 0
VERTEX
 8
FULGOR
 10
0
 20
0
 30
0
 70
128
 71
83
 72
80
 73
79
 74
85
 0
VERTEX
 8
FULGOR
 10
0
 20
0
 30
0
 70
128
 71
79
 72
87
 73
86
 74
85
 0
VERTEX
 8
FULGOR
 10
0
 20
0
 30
0
 70
128
 71
134
 72
124
 73
131
 74
128
 0
VERTEX
 8
FULGOR
 10
0
 20
0
 30
0
 70
128
 71
334
 72
335
 73
320
 74
312
 0
VERTEX
 8
FULGOR
 10
0
 20
0
 30
0
 70
128
 71
308
 72
307
 73
362
 74
363
 0
VERTEX
 8
FULGOR
 10
0
 20
0
 30
0
 70
128
 71
139
 72
357
 73
114
 74
113
 0
VERTEX
 8
FULGOR
 10
0
 20
0
 30
0
 70
128
 71
305
 72
304
 73
358
 74
359
 0
VERTEX
 8
FULGOR
 10
0
 20
0
 30
0
 70
128
 71
335
 72
336
 73
314
 74
320
 0
VERTEX
 8
FULGOR
 10
0
 20
0
 30
0
 70
128
 71
355
 72
356
 73
313
 74
301
 0
VERTEX
 8
FULGOR
 10
0
 20
0
 30
0
 70
128
 71
301
 72
300
 73
299
 74
355
 0
VERTEX
 8
FULGOR
 10
0
 20
0
 30
0
 70
128
 71
352
 72
339
 73
328
 74
319
 0
VERTEX
 8
FULGOR
 10
0
 20
0
 30
0
 70
128
 71
343
 72
348
 73
349
 74
331
 0
VERTEX
 8
FULGOR
 10
0
 20
0
 30
0
 70
128
 71
342
 72
344
 73
330
 74
324
 0
VERTEX
 8
FULGOR
 10
0
 20
0
 30
0
 70
128
 71
262
 72
263
 73
198
 74
197
 0
VERTEX
 8
FULGOR
 10
0
 20
0
 30
0
 70
128
 71
303
 72
312
 73
317
 74
310
 0
VERTEX
 8
FULGOR
 10
0
 20
0
 30
0
 70
128
 71
250
 72
262
 73
197
 74
187
 0
VERTEX
 8
FULGOR
 10
0
 20
0
 30
0
 70
128
 71
291
 72
354
 73
334
 74
302
 0
VERTEX
 8
FULGOR
 10
0
 20
0
 30
0
 70
128
 71
341
 72
343
 73
331
 74
327
 0
VERTEX
 8
FULGOR
 10
0
 20
0
 30
0
 70
128
 71
150
 72
149
 73
102
 74
94
 0
VERTEX
 8
FULGOR
 10
0
 20
0
 30
0
 70
128
 71
1
 72
138
 73
119
 74
118
 0
VERTEX
 8
FULGOR
 10
0
 20
0
 30
0
 70
128
 71
338
 72
353
 73
318
 74
325
 0
VERTEX
 8
FULGOR
 10
0
 20
0
 30
0
 70
128
 71
280
 72
273
 73
210
 74
222
 0
VERTEX
 8
FULGOR
 10
0
 20
0
 30
0
 70
128
 71
285
 72
286
 73
218
 74
217
 0
VERTEX
 8
FULGOR
 10
0
 20
0
 30
0
 70
128
 71
160
 72
158
 73
98
 74
105
 0
VERTEX
 8
FULGOR
 10
0
 20
0
 30
0
 70
128
 71
138
 72
137
 73
120
 74
119
 0
VERTEX
 8
FULGOR
 10
0
 20
0
 30
0
 70
128
 71
286
 72
287
 73
219
 74
218
 0
VERTEX
 8
FULGOR
 10
0
 20
0
 30
0
 70
128
 71
261
 72
270
 73
211
 74
209
 0
VERTEX
 8
FULGOR
 10
0
 20
0
 30
0
 70
128
 71
348
 72
329
 73
332
 74
349
 0
VERTEX
 8
FULGOR
 10
0
 20
0
 30
0
 70
128
 71
329
 72
333
 73
306
 74
332
 0
VERTEX
 8
FULGOR
 10
0
 20
0
 30
0
 70
128
 71
333
 72
296
 73
361
 74
306
 0
VERTEX
 8
FULGOR
 10
0
 20
0
 30
0
 70
128
 71
296
 72
295
 73
294
 74
361
 0
VERTEX
 8
FULGOR
 10
0
 20
0
 30
0
 70
128
 71
358
 72
304
 73
313
 74
356
 0
VERTEX
 8
FULGOR
 10
0
 20
0
 30
0
 70
128
 71
148
 72
147
 73
116
 74
115
 0
VERTEX
 8
FULGOR
 10
0
 20
0
 30
0
 70
128
 71
158
 72
145
 73
99
 74
98
 0
VERTEX
 8
FULGOR
 10
0
 20
0
 30
0
 70
128
 71
260
 72
261
 73
209
 74
208
 0
VERTEX
 8
FULGOR
 10
0
 20
0
 30
0
 70
128
 71
269
 72
260
 73
208
 74
196
 0
VERTEX
 8
FULGOR
 10
0
 20
0
 30
0
 70
128
 71
276
 72
267
 73
204
 74
203
 0
VERTEX
 8
FULGOR
 10
0
 20
0
 30
0
 70
128
 71
232
 72
242
 73
182
 74
180
 0
VERTEX
 8
FULGOR
 10
0
 20
0
 30
0
 70
128
 71
242
 72
246
 73
183
 74
182
 0
VERTEX
 8
FULGOR
 10
0
 20
0
 30
0
 70
128
 71
272
 72
276
 73
203
 74
202
 0
VERTEX
 8
FULGOR
 10
0
 20
0
 30
0
 70
128
 71
264
 72
272
 73
202
 74
201
 0
VERTEX
 8
FULGOR
 10
0
 20
0
 30
0
 70
128
 71
240
 72
241
 73
186
 74
179
 0
VERTEX
 8
FULGOR
 10
0
 20
0
 30
0
 70
128
 71
147
 72
136
 73
121
 74
116
 0
VERTEX
 8
FULGOR
 10
0
 20
0
 30
0
 70
128
 71
340
 72
350
 73
322
 74
321
 0
VERTEX
 8
FULGOR
 10
0
 20
0
 30
0
 70
128
 71
303
 72
302
 73
334
 74
312
 0
VERTEX
 8
FULGOR
 10
0
 20
0
 30
0
 70
128
 71
345
 72
341
 73
327
 74
326
 0
VERTEX
 8
FULGOR
 10
0
 20
0
 30
0
 70
128
 71
252
 72
243
 73
181
 74
311
 0
VERTEX
 8
FULGOR
 10
0
 20
0
 30
0
 70
128
 71
344
 72
345
 73
326
 74
330
 0
VERTEX
 8
FULGOR
 10
0
 20
0
 30
0
 70
128
 71
231
 72
232
 73
180
 74
172
 0
VERTEX
 8
FULGOR
 10
0
 20
0
 30
0
 70
128
 71
257
 72
266
 73
195
 74
194
 0
VERTEX
 8
FULGOR
 10
0
 20
0
 30
0
 70
128
 71
256
 72
257
 73
194
 74
193
 0
VERTEX
 8
FULGOR
 10
0
 20
0
 30
0
 70
128
 71
297
 72
310
 73
317
 74
315
 0
VERTEX
 8
FULGOR
 10
0
 20
0
 30
0
 70
128
 71
357
 72
130
 73
125
 74
114
 0
VERTEX
 8
FULGOR
 10
0
 20
0
 30
0
 70
128
 71
255
 72
256
 73
193
 74
207
 0
VERTEX
 8
FULGOR
 10
0
 20
0
 30
0
 70
128
 71
298
 72
297
 73
315
 74
309
 0
VERTEX
 8
FULGOR
 10
0
 20
0
 30
0
 70
128
 71
298
 72
309
 73
308
 74
363
 0
VERTEX
 8
FULGOR
 10
0
 20
0
 30
0
 70
128
 71
243
 72
244
 73
3
 74
181
 0
VERTEX
 8
FULGOR
 10
0
 20
0
 30
0
 70
128
 71
259
 72
250
 73
187
 74
192
 0
VERTEX
 8
FULGOR
 10
0
 20
0
 30
0
 70
128
 71
279
 72
280
 73
222
 74
214
 0
VERTEX
 8
FULGOR
 10
0
 20
0
 30
0
 70
128
 71
278
 72
279
 73
214
 74
213
 0
VERTEX
 8
FULGOR
 10
0
 20
0
 30
0
 70
128
 71
258
 72
259
 73
192
 74
191
 0
VERTEX
 8
FULGOR
 10
0
 20
0
 30
0
 70
128
 71
247
 72
258
 73
191
 74
190
 0
VERTEX
 8
FULGOR
 10
0
 20
0
 30
0
 70
128
 71
351
 72
342
 73
324
 74
323
 0
VERTEX
 8
FULGOR
 10
0
 20
0
 30
0
 70
128
 71
350
 72
351
 73
323
 74
322
 0
VERTEX
 8
FULGOR
 10
0
 20
0
 30
0
 70
128
 71
284
 72
285
 73
217
 74
216
 0
VERTEX
 8
FULGOR
 10
0
 20
0
 30
0
 70
128
 71
136
 72
146
 73
122
 74
121
 0
VERTEX
 8
FULGOR
 10
0
 20
0
 30
0
 70
128
 71
146
 72
140
 73
110
 74
122
 0
VERTEX
 8
FULGOR
 10
0
 20
0
 30
0
 70
128
 71
130
 72
360
 73
126
 74
125
 0
VERTEX
 8
FULGOR
 10
0
 20
0
 30
0
 70
128
 71
140
 72
133
 73
111
 74
110
 0
VERTEX
 8
FULGOR
 10
0
 20
0
 30
0
 70
128
 71
133
 72
132
 73
123
 74
111
 0
VERTEX
 8
FULGOR
 10
0
 20
0
 30
0
 70
128
 71
132
 72
139
 73
113
 74
123
 0
VERTEX
 8
FULGOR
 10
0
 20
0
 30
0
 70
128
 71
292
 72
293
 73
164
 74
223
 0
VERTEX
 8
FULGOR
 10
0
 20
0
 30
0
 70
128
 71
293
 72
224
 73
165
 74
164
 0
VERTEX
 8
FULGOR
 10
0
 20
0
 30
0
 70
128
 71
224
 72
225
 73
176
 74
165
 0
VERTEX
 8
FULGOR
 10
0
 20
0
 30
0
 70
128
 71
225
 72
233
 73
177
 74
176
 0
VERTEX
 8
FULGOR
 10
0
 20
0
 30
0
 70
128
 71
233
 72
234
 73
168
 74
177
 0
VERTEX
 8
FULGOR
 10
0
 20
0
 30
0
 70
128
 71
234
 72
235
 73
169
 74
168
 0
VERTEX
 8
FULGOR
 10
0
 20
0
 30
0
 70
128
 71
235
 72
236
 73
170
 74
169
 0
VERTEX
 8
FULGOR
 10
0
 20
0
 30
0
 70
128
 71
236
 72
239
 73
171
 74
170
 0
VERTEX
 8
FULGOR
 10
0
 20
0
 30
0
 70
128
 71
239
 72
231
 73
172
 74
171
 0
VERTEX
 8
FULGOR
 10
0
 20
0
 30
0
 70
128
 71
213
 72
212
 73
277
 74
278
 0
VERTEX
 8
FULGOR
 10
0
 20
0
 30
0
 70
128
 71
212
 72
205
 73
268
 74
277
 0
VERTEX
 8
FULGOR
 10
0
 20
0
 30
0
 70
128
 71
267
 72
268
 73
205
 74
204
 0
VERTEX
 8
FULGOR
 10
0
 20
0
 30
0
 70
128
 71
270
 72
271
 73
200
 74
211
 0
VERTEX
 8
FULGOR
 10
0
 20
0
 30
0
 70
128
 71
271
 72
264
 73
201
 74
200
 0
SEQEND
 0
POLYLINE
 8
MILANO
 66
1
 10
0.0
 20
0.0
 30
0.0
 70
64
 71
93
 72
47
 0
VERTEX
 8
MILANO
 10
-0.7745
 20
-19.4658
 30
0.4016
 70
192
 0
VERTEX
 8
MILANO
 10
-0.3473
 20
-19.6334
 30
0.4016
 70
192
 0
VERTEX
 8
MILANO
 10
-0.3428
 20
-19.6719
 30
0.4016
 70
192
 0
VERTEX
 8
MILANO
 10
-0.3266
 20
-19.7069
 30
0.4016
 70
192
 0
VERTEX
 8
MILANO
 10
-0.2994
 20
-19.7343
 30
0.4016
 70
192
 0
VERTEX
 8
MILANO
 10
-0.2656
 20
-19.753
 30
0.4016
 70
192
 0
VERTEX
 8
MILANO
 10
-0.2285
 20
-19.7639
 30
0.4016
 70
192
 0
VERTEX
 8
MILANO
 10
-0.1901
 20
-19.7681
 30
0.4016
 70
192
 0
VERTEX
 8
MILANO
 10
-0.5085
 20
-19.7168
 30
0.4016
 70
192
 0
VERTEX
 8
MILANO
 10
-0.1516
 20
-19.7651
 30
0.4016
 70
192
 0
VERTEX
 8
MILANO
 10
-0.1144
 20
-19.7548
 30
0.4016
 70
192
 0
VERTEX
 8
MILANO
 10
-0.0807
 20
-19.7359
 30
0.4016
 70
192
 0
VERTEX
 8
MILANO
 10
-0.9361
 20
-19.6946
 30
0.4016
 70
192
 0
VERTEX
 8
MILANO
 10
-0.8754
 20
-19.8039
 30
0.4016
 70
192
 0
VERTEX
 8
MILANO
 10
-0.8255
 20
-19.8039
 30
0.4016
 70
192
 0
VERTEX
 8
MILANO
 10
-0.0544
 20
-19.7077
 30
0.4016
 70
192
 0
VERTEX
 8
MILANO
 10
-0.0374
 20
-19.673
 30
0.4016
 70
192
 0
VERTEX
 8
MILANO
 10
-1.2113
 20
-19.8039
 30
0.4016
 70
192
 0
VERTEX
 8
MILANO
 10
-1.0778
 20
-19.657
 30
0.4016
 70
192
 0
VERTEX
 8
MILANO
 10
-0.9566
 20
-19.657
 30
0.4016
 70
192
 0
VERTEX
 8
MILANO
 10
-0.0319
 20
-19.6346
 30
0.4016
 70
192
 0
VERTEX
 8
MILANO
 10
-0.0369
 20
-19.5962
 30
0.4016
 70
192
 0
VERTEX
 8
MILANO
 10
-0.0532
 20
-19.5612
 30
0.4016
 70
192
 0
VERTEX
 8
MILANO
 10
-1.3779
 20
-19.4658
 30
0.4016
 70
192
 0
VERTEX
 8
MILANO
 10
-1.3779
 20
-19.767
 30
0.4016
 70
192
 0
VERTEX
 8
MILANO
 10
-0.0797
 20
-19.5331
 30
0.4016
 70
192
 0
VERTEX
 8
MILANO
 10
-0.1134
 20
-19.5142
 30
0.4016
 70
192
 0
VERTEX
 8
MILANO
 10
-0.1506
 20
-19.504
 30
0.4016
 70
192
 0
VERTEX
 8
MILANO
 10
-1.5473
 20
-19.4658
 30
0.4016
 70
192
 0
VERTEX
 8
MILANO
 10
-1.5053
 20
-19.4658
 30
0.4016
 70
192
 0
VERTEX
 8
MILANO
 10
-1.5053
 20
-19.8039
 30
0.4016
 70
192
 0
VERTEX
 8
MILANO
 10
-1.5473
 20
-19.8039
 30
0.4016
 70
192
 0
VERTEX
 8
MILANO
 10
-2.0535
 20
-19.8039
 30
0.4016
 70
192
 0
VERTEX
 8
MILANO
 10
-2.0011
 20
-19.4636
 30
0.4016
 70
192
 0
VERTEX
 8
MILANO
 10
-1.682
 20
-19.4636
 30
0.4016
 70
192
 0
VERTEX
 8
MILANO
 10
-1.6663
 20
-19.4636
 30
0.4016
 70
192
 0
VERTEX
 8
MILANO
 10
-1.611
 20
-19.8039
 30
0.4016
 70
192
 0
VERTEX
 8
MILANO
 10
-1.6567
 20
-19.8039
 30
0.4016
 70
192
 0
VERTEX
 8
MILANO
 10
-1.8418
 20
-19.8039
 30
0.4016
 70
192
 0
VERTEX
 8
MILANO
 10
-1.9753
 20
-19.5756
 30
0.4016
 70
192
 0
VERTEX
 8
MILANO
 10
-1.2282
 20
-19.767
 30
0.4016
 70
192
 0
VERTEX
 8
MILANO
 10
-1.2282
 20
-19.8039
 30
0.4016
 70
192
 0
VERTEX
 8
MILANO
 10
-1.4193
 20
-19.8039
 30
0.4016
 70
192
 0
VERTEX
 8
MILANO
 10
-1.9909
 20
-19.4636
 30
0.4016
 70
192
 0
VERTEX
 8
MILANO
 10
-1.8334
 20
-19.7344
 30
0.4016
 70
192
 0
VERTEX
 8
MILANO
 10
-1.6934
 20
-19.5756
 30
0.4016
 70
192
 0
VERTEX
 8
MILANO
 10
-1.8214
 20
-19.8039
 30
0.4016
 70
192
 0
VERTEX
 8
MILANO
 10
-2.0083
 20
-19.8039
 30
0.4016
 70
192
 0
VERTEX
 8
MILANO
 10
-0.1889
 20
-19.46
 30
0.4016
 70
192
 0
VERTEX
 8
MILANO
 10
-0.2394
 20
-19.4628
 30
0.4016
 70
192
 0
VERTEX
 8
MILANO
 10
-0.2883
 20
-19.4751
 30
0.4016
 70
192
 0
VERTEX
 8
MILANO
 10
-0.3316
 20
-19.5009
 30
0.4016
 70
192
 0
VERTEX
 8
MILANO
 10
-0.3663
 20
-19.5377
 30
0.4016
 70
192
 0
VERTEX
 8
MILANO
 10
-0.3888
 20
-19.5829
 30
0.4016
 70
192
 0
VERTEX
 8
MILANO
 10
-0.3958
 20
-19.6331
 30
0.4016
 70
192
 0
VERTEX
 8
MILANO
 10
-0.3899
 20
-19.6834
 30
0.4016
 70
192
 0
VERTEX
 8
MILANO
 10
-0.3687
 20
-19.7292
 30
0.4016
 70
192
 0
VERTEX
 8
MILANO
 10
-0.3332
 20
-19.765
 30
0.4016
 70
192
 0
VERTEX
 8
MILANO
 10
-0.289
 20
-19.7895
 30
0.4016
 70
192
 0
VERTEX
 8
MILANO
 10
-0.2405
 20
-19.8037
 30
0.4016
 70
192
 0
VERTEX
 8
MILANO
 10
-0.1902
 20
-19.8092
 30
0.4016
 70
192
 0
VERTEX
 8
MILANO
 10
-0.1399
 20
-19.8053
 30
0.4016
 70
192
 0
VERTEX
 8
MILANO
 10
-0.0912
 20
-19.7918
 30
0.4016
 70
192
 0
VERTEX
 8
MILANO
 10
-0.0472
 20
-19.7671
 30
0.4016
 70
192
 0
VERTEX
 8
MILANO
 10
-0.0128
 20
-19.7302
 30
0.4016
 70
192
 0
VERTEX
 8
MILANO
 10
0.0094
 20
-19.6848
 30
0.4016
 70
192
 0
VERTEX
 8
MILANO
 10
0.0166
 20
-19.6347
 30
0.4016
 70
192
 0
VERTEX
 8
MILANO
 10
0.0101
 20
-19.5844
 30
0.4016
 70
192
 0
VERTEX
 8
MILANO
 10
-0.0113
 20
-19.5386
 30
0.4016
 70
192
 0
VERTEX
 8
MILANO
 10
-0.0459
 20
-19.5019
 30
0.4016
 70
192
 0
VERTEX
 8
MILANO
 10
-0.7745
 20
-19.8039
 30
0.4016
 70
192
 0
VERTEX
 8
MILANO
 10
-0.7303
 20
-19.8039
 30
0.4016
 70
192
 0
VERTEX
 8
MILANO
 10
-0.7303
 20
-19.5574
 30
0.4016
 70
192
 0
VERTEX
 8
MILANO
 10
-0.4792
 20
-19.8039
 30
0.4016
 70
192
 0
VERTEX
 8
MILANO
 10
-0.4648
 20
-19.8039
 30
0.4016
 70
192
 0
VERTEX
 8
MILANO
 10
-0.4648
 20
-19.4658
 30
0.4016
 70
192
 0
VERTEX
 8
MILANO
 10
-0.5091
 20
-19.4658
 30
0.4016
 70
192
 0
VERTEX
 8
MILANO
 10
-0.0899
 20
-19.4772
 30
0.4016
 70
192
 0
VERTEX
 8
MILANO
 10
-0.758
 20
-19.4658
 30
0.4016
 70
192
 0
VERTEX
 8
MILANO
 10
-1.1559
 20
-19.8039
 30
0.4016
 70
192
 0
VERTEX
 8
MILANO
 10
-1.0996
 20
-19.6946
 30
0.4016
 70
192
 0
VERTEX
 8
MILANO
 10
-0.1386
 20
-19.4637
 30
0.4016
 70
192
 0
VERTEX
 8
MILANO
 10
-0.1891
 20
-19.5011
 30
0.4016
 70
192
 0
VERTEX
 8
MILANO
 10
-0.2277
 20
-19.5032
 30
0.4016
 70
192
 0
VERTEX
 8
MILANO
 10
-1.0104
 20
-19.4658
 30
0.4016
 70
192
 0
VERTEX
 8
MILANO
 10
-1.0247
 20
-19.4658
 30
0.4016
 70
192
 0
VERTEX
 8
MILANO
 10
-0.2651
 20
-19.5126
 30
0.4016
 70
192
 0
VERTEX
 8
MILANO
 10
-0.2982
 20
-19.5324
 30
0.4016
 70
192
 0
VERTEX
 8
MILANO
 10
-0.3247
 20
-19.5605
 30
0.4016
 70
192
 0
VERTEX
 8
MILANO
 10
-1.0129
 20
-19.5488
 30
0.4016
 70
192
 0
VERTEX
 8
MILANO
 10
-1.0228
 20
-19.5488
 30
0.4016
 70
192
 0
VERTEX
 8
MILANO
 10
-1.4229
 20
-19.4658
 30
0.4016
 70
192
 0
VERTEX
 8
MILANO
 10
-0.3419
 20
-19.5951
 30
0.4016
 70
192
 0
VERTEX
 8
MILANO
 10
0
 20
0
 30
0
 70
128
 71
71
 72
1
 73
73
 74
72
 0
VERTEX
 8
MILANO
 10
0
 20
0
 30
0
 70
128
 71
1
 72
79
 73
73
 74
73
 0
VERTEX
 8
MILANO
 10
0
 20
0
 30
0
 70
128
 71
73
 72
79
 73
9
 74
74
 0
VERTEX
 8
MILANO
 10
0
 20
0
 30
0
 70
128
 71
76
 72
75
 73
9
 74
77
 0
VERTEX
 8
MILANO
 10
0
 20
0
 30
0
 70
128
 71
9
 72
75
 73
74
 74
74
 0
VERTEX
 8
MILANO
 10
0
 20
0
 30
0
 70
128
 71
18
 72
86
 73
19
 74
81
 0
VERTEX
 8
MILANO
 10
0
 20
0
 30
0
 70
128
 71
80
 72
18
 73
81
 74
81
 0
VERTEX
 8
MILANO
 10
0
 20
0
 30
0
 70
128
 71
86
 72
85
 73
90
 74
91
 0
VERTEX
 8
MILANO
 10
0
 20
0
 30
0
 70
128
 71
15
 72
13
 73
20
 74
20
 0
VERTEX
 8
MILANO
 10
0
 20
0
 30
0
 70
128
 71
86
 72
91
 73
19
 74
19
 0
VERTEX
 8
MILANO
 10
0
 20
0
 30
0
 70
128
 71
85
 72
15
 73
20
 74
90
 0
VERTEX
 8
MILANO
 10
0
 20
0
 30
0
 70
128
 71
13
 72
81
 73
19
 74
20
 0
VERTEX
 8
MILANO
 10
0
 20
0
 30
0
 70
128
 71
15
 72
14
 73
13
 74
13
 0
VERTEX
 8
MILANO
 10
0
 20
0
 30
0
 70
128
 71
92
 72
24
 73
25
 74
43
 0
VERTEX
 8
MILANO
 10
0
 20
0
 30
0
 70
128
 71
25
 72
41
 73
42
 74
43
 0
VERTEX
 8
MILANO
 10
0
 20
0
 30
0
 70
128
 71
29
 72
30
 73
31
 74
32
 0
VERTEX
 8
MILANO
 10
0
 20
0
 30
0
 70
128
 71
33
 72
34
 73
40
 74
48
 0
VERTEX
 8
MILANO
 10
0
 20
0
 30
0
 70
128
 71
34
 72
44
 73
40
 74
40
 0
VERTEX
 8
MILANO
 10
0
 20
0
 30
0
 70
128
 71
40
 72
44
 73
45
 74
39
 0
VERTEX
 8
MILANO
 10
0
 20
0
 30
0
 70
128
 71
45
 72
35
 73
46
 74
47
 0
VERTEX
 8
MILANO
 10
0
 20
0
 30
0
 70
128
 71
46
 72
36
 73
37
 74
38
 0
VERTEX
 8
MILANO
 10
0
 20
0
 30
0
 70
128
 71
45
 72
47
 73
39
 74
39
 0
VERTEX
 8
MILANO
 10
0
 20
0
 30
0
 70
128
 71
35
 72
36
 73
46
 74
46
 0
VERTEX
 8
MILANO
 10
0
 20
0
 30
0
 70
128
 71
50
 72
49
 73
83
 74
84
 0
VERTEX
 8
MILANO
 10
0
 20
0
 30
0
 70
128
 71
51
 72
50
 73
84
 74
87
 0
VERTEX
 8
MILANO
 10
0
 20
0
 30
0
 70
128
 71
5
 72
6
 73
59
 74
58
 0
VERTEX
 8
MILANO
 10
0
 20
0
 30
0
 70
128
 71
28
 72
83
 73
49
 74
82
 0
VERTEX
 8
MILANO
 10
0
 20
0
 30
0
 70
128
 71
27
 72
28
 73
82
 74
78
 0
VERTEX
 8
MILANO
 10
0
 20
0
 30
0
 70
128
 71
26
 72
27
 73
78
 74
70
 0
VERTEX
 8
MILANO
 10
0
 20
0
 30
0
 70
128
 71
23
 72
26
 73
70
 74
69
 0
VERTEX
 8
MILANO
 10
0
 20
0
 30
0
 70
128
 71
6
 72
7
 73
60
 74
59
 0
VERTEX
 8
MILANO
 10
0
 20
0
 30
0
 70
128
 71
7
 72
8
 73
61
 74
60
 0
VERTEX
 8
MILANO
 10
0
 20
0
 30
0
 70
128
 71
22
 72
23
 73
69
 74
68
 0
VERTEX
 8
MILANO
 10
0
 20
0
 30
0
 70
128
 71
21
 72
22
 73
68
 74
67
 0
VERTEX
 8
MILANO
 10
0
 20
0
 30
0
 70
128
 71
17
 72
21
 73
67
 74
66
 0
VERTEX
 8
MILANO
 10
0
 20
0
 30
0
 70
128
 71
16
 72
17
 73
66
 74
65
 0
VERTEX
 8
MILANO
 10
0
 20
0
 30
0
 70
128
 71
12
 72
16
 73
65
 74
64
 0
VERTEX
 8
MILANO
 10
0
 20
0
 30
0
 70
128
 71
11
 72
12
 73
64
 74
63
 0
VERTEX
 8
MILANO
 10
0
 20
0
 30
0
 70
128
 71
10
 72
11
 73
63
 74
62
 0
VERTEX
 8
MILANO
 10
0
 20
0
 30
0
 70
128
 71
4
 72
5
 73
58
 74
57
 0
VERTEX
 8
MILANO
 10
0
 20
0
 30
0
 70
128
 71
57
 72
56
 73
3
 74
4
 0
VERTEX
 8
MILANO
 10
0
 20
0
 30
0
 70
128
 71
56
 72
55
 73
2
 74
3
 0
VERTEX
 8
MILANO
 10
0
 20
0
 30
0
 70
128
 71
55
 72
54
 73
93
 74
2
 0
VERTEX
 8
MILANO
 10
0
 20
0
 30
0
 70
128
 71
54
 72
53
 73
89
 74
93
 0
VERTEX
 8
MILANO
 10
0
 20
0
 30
0
 70
128
 71
53
 72
52
 73
88
 74
89
 0
VERTEX
 8
MILANO
 10
0
 20
0
 30
0
 70
128
 71
52
 72
51
 73
87
 74
88
 0
VERTEX
 8
MILANO
 10
0
 20
0
 30
0
 70
128
 71
8
 72
10
 73
62
 74
61
 0
SEQEND
 0
POLYLINE
 8
CUBO
 66
1
 10
0.0
 20
0.0
 30
0.0
 70
64
 71
8
 72
6
 0
VERTEX
 8
CUBO
 10
-5.9
 20
-17.3
 30
0.0001
 70
192
 0
VERTEX
 8
CUBO
 10
-5.9
 20
-17.3
 30
0.4001
 70
192
 0
VERTEX
 8
CUBO
 10
3.9
 20
-17.3
 30
0.0001
 70
192
 0
VERTEX
 8
CUBO
 10
3.9
 20
-17.3
 30
0.4001
 70
192
 0
VERTEX
 8
CUBO
 10
3.9
 20
22.5
 30
0.0001
 70
192
 0
VERTEX
 8
CUBO
 10
3.9
 20
22.5
 30
0.4001
 70
192
 0
VERTEX
 8
CUBO
 10
-5.9
 20
22.5
 30
0.0001
 70
192
 0
VERTEX
 8
CUBO
 10
-5.9
 20
22.5
 30
0.4001
 70
192
 0
VERTEX
 8
CUBO
 10
0
 20
0
 30
0
 70
128
 71
1
 72
2
 73
4
 74
3
 0
VERTEX
 8
CUBO
 10
0
 20
0
 30
0
 70
128
 71
3
 72
4
 73
6
 74
5
 0
VERTEX
 8
CUBO
 10
0
 20
0
 30
0
 70
128
 71
5
 72
6
 73
8
 74
7
 0
VERTEX
 8
CUBO
 10
0
 20
0
 30
0
 70
128
 71
7
 72
8
 73
2
 74
1
 0
VERTEX
 8
CUBO
 10
0
 20
0
 30
0
 70
128
 71
2
 72
8
 73
6
 74
4
 0
VERTEX
 8
CUBO
 10
0
 20
0
 30
0
 70
128
 71
7
 72
1
 73
3
 74
5
 0
SEQEND
 0
POLYLINE
 8
CUBO_1
 66
1
 10
0.0
 20
0.0
 30
0.0
 70
64
 71
32
 72
32
 0
VERTEX
 8
CUBO_1
 10
-8
 20
-27
 30
0.0001
 70
192
 0
VERTEX
 8
CUBO_1
 10
-8
 20
-27
 30
0.4001
 70
192
 0
VERTEX
 8
CUBO_1
 10
6
 20
-27
 30
0.0001
 70
192
 0
VERTEX
 8
CUBO_1
 10
6
 20
-27
 30
0.4001
 70
192
 0
VERTEX
 8
CUBO_1
 10
6
 20
25
 30
0.0001
 70
192
 0
VERTEX
 8
CUBO_1
 10
6
 20
25
 30
0.4001
 70
192
 0
VERTEX
 8
CUBO_1
 10
-8
 20
25
 30
0.0001
 70
192
 0
VERTEX
 8
CUBO_1
 10
-8
 20
25
 30
0.4001
 70
192
 0
VERTEX
 8
CUBO_1
 10
4.06
 20
-27
 30
0.4001
 70
192
 0
VERTEX
 8
CUBO_1
 10
4.06
 20
-27
 30
0.0001
 70
192
 0
VERTEX
 8
CUBO_1
 10
4.06
 20
25
 30
0.4001
 70
192
 0
VERTEX
 8
CUBO_1
 10
4.06
 20
25
 30
0.0001
 70
192
 0
VERTEX
 8
CUBO_1
 10
6
 20
-17.45
 30
0.4001
 70
192
 0
VERTEX
 8
CUBO_1
 10
6
 20
-17.45
 30
0.0001
 70
192
 0
VERTEX
 8
CUBO_1
 10
-8
 20
-17.45
 30
0.4001
 70
192
 0
VERTEX
 8
CUBO_1
 10
-8
 20
-17.45
 30
0.0001
 70
192
 0
VERTEX
 8
CUBO_1
 10
4.06
 20
-17.45
 30
0.4001
 70
192
 0
VERTEX
 8
CUBO_1
 10
4.06
 20
-17.45
 30
0.0001
 70
192
 0
VERTEX
 8
CUBO_1
 10
-6.0599
 20
-27
 30
0.4001
 70
192
 0
VERTEX
 8
CUBO_1
 10
-6.0599
 20
-27
 30
0.0001
 70
192
 0
VERTEX
 8
CUBO_1
 10
-6.0599
 20
-17.45
 30
0.4001
 70
192
 0
VERTEX
 8
CUBO_1
 10
-6.0599
 20
-17.45
 30
0.0001
 70
192
 0
VERTEX
 8
CUBO_1
 10
-6.0599
 20
25
 30
0.0001
 70
192
 0
VERTEX
 8
CUBO_1
 10
-6.0599
 20
25
 30
0.4001
 70
192
 0
VERTEX
 8
CUBO_1
 10
-8
 20
22.65
 30
0.4001
 70
192
 0
VERTEX
 8
CUBO_1
 10
-8
 20
22.65
 30
0.0001
 70
192
 0
VERTEX
 8
CUBO_1
 10
-6.0599
 20
22.65
 30
0.0001
 70
192
 0
VERTEX
 8
CUBO_1
 10
6
 20
22.65
 30
0.4001
 70
192
 0
VERTEX
 8
CUBO_1
 10
4.06
 20
22.65
 30
0.4001
 70
192
 0
VERTEX
 8
CUBO_1
 10
6
 20
22.65
 30
0.0001
 70
192
 0
VERTEX
 8
CUBO_1
 10
-6.0599
 20
22.65
 30
0.4001
 70
192
 0
VERTEX
 8
CUBO_1
 10
4.06
 20
22.65
 30
0.0001
 70
192
 0
VERTEX
 8
CUBO_1
 10
0
 20
0
 30
0
 70
128
 71
1
 72
2
 73
19
 74
20
 0
VERTEX
 8
CUBO_1
 10
0
 20
0
 30
0
 70
128
 71
3
 72
4
 73
13
 74
14
 0
VERTEX
 8
CUBO_1
 10
0
 20
0
 30
0
 70
128
 71
5
 72
6
 73
11
 74
12
 0
VERTEX
 8
CUBO_1
 10
0
 20
0
 30
0
 70
128
 71
7
 72
8
 73
25
 74
26
 0
VERTEX
 8
CUBO_1
 10
0
 20
0
 30
0
 70
128
 71
2
 72
15
 73
21
 74
19
 0
VERTEX
 8
CUBO_1
 10
0
 20
0
 30
0
 70
128
 71
7
 72
26
 73
27
 74
23
 0
VERTEX
 8
CUBO_1
 10
0
 20
0
 30
0
 70
128
 71
9
 72
4
 73
3
 74
10
 0
VERTEX
 8
CUBO_1
 10
0
 20
0
 30
0
 70
128
 71
11
 72
24
 73
23
 74
12
 0
VERTEX
 8
CUBO_1
 10
0
 20
0
 30
0
 70
128
 71
11
 72
6
 73
28
 74
29
 0
VERTEX
 8
CUBO_1
 10
0
 20
0
 30
0
 70
128
 71
10
 72
3
 73
14
 74
18
 0
VERTEX
 8
CUBO_1
 10
0
 20
0
 30
0
 70
128
 71
13
 72
28
 73
30
 74
14
 0
VERTEX
 8
CUBO_1
 10
0
 20
0
 30
0
 70
128
 71
15
 72
2
 73
1
 74
16
 0
VERTEX
 8
CUBO_1
 10
0
 20
0
 30
0
 70
128
 71
15
 72
25
 73
31
 74
21
 0
VERTEX
 8
CUBO_1
 10
0
 20
0
 30
0
 70
128
 71
16
 72
1
 73
20
 74
22
 0
VERTEX
 8
CUBO_1
 10
0
 20
0
 30
0
 70
128
 71
13
 72
4
 73
9
 74
17
 0
VERTEX
 8
CUBO_1
 10
0
 20
0
 30
0
 70
128
 71
14
 72
30
 73
32
 74
18
 0
VERTEX
 8
CUBO_1
 10
0
 20
0
 30
0
 70
128
 71
19
 72
9
 73
10
 74
20
 0
VERTEX
 8
CUBO_1
 10
0
 20
0
 30
0
 70
128
 71
21
 72
17
 73
9
 74
19
 0
VERTEX
 8
CUBO_1
 10
0
 20
0
 30
0
 70
128
 71
32
 72
12
 73
23
 74
27
 0
VERTEX
 8
CUBO_1
 10
0
 20
0
 30
0
 70
128
 71
24
 72
8
 73
7
 74
23
 0
VERTEX
 8
CUBO_1
 10
0
 20
0
 30
0
 70
128
 71
24
 72
11
 73
29
 74
31
 0
VERTEX
 8
CUBO_1
 10
0
 20
0
 30
0
 70
128
 71
20
 72
10
 73
18
 74
22
 0
VERTEX
 8
CUBO_1
 10
0
 20
0
 30
0
 70
128
 71
25
 72
15
 73
16
 74
26
 0
VERTEX
 8
CUBO_1
 10
0
 20
0
 30
0
 70
128
 71
26
 72
16
 73
22
 74
27
 0
VERTEX
 8
CUBO_1
 10
0
 20
0
 30
0
 70
128
 71
28
 72
13
 73
17
 74
29
 0
VERTEX
 8
CUBO_1
 10
0
 20
0
 30
0
 70
128
 71
28
 72
6
 73
5
 74
30
 0
VERTEX
 8
CUBO_1
 10
0
 20
0
 30
0
 70
128
 71
25
 72
8
 73
24
 74
31
 0
VERTEX
 8
CUBO_1
 10
0
 20
0
 30
0
 70
128
 71
30
 72
5
 73
12
 74
32
 0
VERTEX
 8
CUBO_1
 10
0
 20
0
 30
0
 70
128
 71
27
 72
22
 73
21
 74
31
 0
VERTEX
 8
CUBO_1
 10
0
 20
0
 30
0
 70
128
 71
18
 72
32
 73
29
 74
17
 0
VERTEX
 8
CUBO_1
 10
0
 20
0
 30
0
 70
128
 71
22
 72
18
 73
17
 74
21
 0
VERTEX
 8
CUBO_1
 10
0
 20
0
 30
0
 70
128
 71
32
 72
27
 73
31
 74
29
 0
SEQEND
 0
POLYLINE
 8
DISCO
 66
1
 10
0.0
 20
0.0
 30
0.0
 70
64
 71
17
 72
16
 0
VERTEX
 8
DISCO
 10
0.8184
 20
-20.6661
 30
0.4007
 70
192
 0
VERTEX
 8
DISCO
 10
0.8934
 20
-20.6661
 30
0.4007
 70
192
 0
VERTEX
 8
DISCO
 10
0.8877
 20
-20.6374
 30
0.4007
 70
192
 0
VERTEX
 8
DISCO
 10
0.8715
 20
-20.613
 30
0.4007
 70
192
 0
VERTEX
 8
DISCO
 10
0.8471
 20
-20.5968
 30
0.4007
 70
192
 0
VERTEX
 8
DISCO
 10
0.8184
 20
-20.5911
 30
0.4007
 70
192
 0
VERTEX
 8
DISCO
 10
0.7897
 20
-20.5968
 30
0.4007
 70
192
 0
VERTEX
 8
DISCO
 10
0.7654
 20
-20.613
 30
0.4007
 70
192
 0
VERTEX
 8
DISCO
 10
0.7491
 20
-20.6374
 30
0.4007
 70
192
 0
VERTEX
 8
DISCO
 10
0.7434
 20
-20.6661
 30
0.4007
 70
192
 0
VERTEX
 8
DISCO
 10
0.7491
 20
-20.6948
 30
0.4007
 70
192
 0
VERTEX
 8
DISCO
 10
0.7654
 20
-20.7191
 30
0.4007
 70
192
 0
VERTEX
 8
DISCO
 10
0.7897
 20
-20.7354
 30
0.4007
 70
192
 0
VERTEX
 8
DISCO
 10
0.8184
 20
-20.7411
 30
0.4007
 70
192
 0
VERTEX
 8
DISCO
 10
0.8471
 20
-20.7354
 30
0.4007
 70
192
 0
VERTEX
 8
DISCO
 10
0.8715
 20
-20.7191
 30
0.4007
 70
192
 0
VERTEX
 8
DISCO
 10
0.8877
 20
-20.6948
 30
0.4007
 70
192
 0
VERTEX
 8
DISCO
 10
0
 20
0
 30
0
 70
128
 71
2
 72
1
 73
3
 74
3
 0
VERTEX
 8
DISCO
 10
0
 20
0
 30
0
 70
128
 71
3
 72
1
 73
4
 74
4
 0
VERTEX
 8
DISCO
 10
0
 20
0
 30
0
 70
128
 71
4
 72
1
 73
5
 74
5
 0
VERTEX
 8
DISCO
 10
0
 20
0
 30
0
 70
128
 71
5
 72
1
 73
6
 74
6
 0
VERTEX
 8
DISCO
 10
0
 20
0
 30
0
 70
128
 71
6
 72
1
 73
7
 74
7
 0
VERTEX
 8
DISCO
 10
0
 20
0
 30
0
 70
128
 71
7
 72
1
 73
8
 74
8
 0
VERTEX
 8
DISCO
 10
0
 20
0
 30
0
 70
128
 71
8
 72
1
 73
9
 74
9
 0
VERTEX
 8
DISCO
 10
0
 20
0
 30
0
 70
128
 71
9
 72
1
 73
10
 74
10
 0
VERTEX
 8
DISCO
 10
0
 20
0
 30
0
 70
128
 71
10
 72
1
 73
11
 74
11
 0
VERTEX
 8
DISCO
 10
0
 20
0
 30
0
 70
128
 71
11
 72
1
 73
12
 74
12
 0
VERTEX
 8
DISCO
 10
0
 20
0
 30
0
 70
128
 71
12
 72
1
 73
13
 74
13
 0
VERTEX
 8
DISCO
 10
0
 20
0
 30
0
 70
128
 71
13
 72
1
 73
14
 74
14
 0
VERTEX
 8
DISCO
 10
0
 20
0
 30
0
 70
128
 71
14
 72
1
 73
15
 74
15
 0
VERTEX
 8
DISCO
 10
0
 20
0
 30
0
 70
128
 71
15
 72
1
 73
16
 74
16
 0
VERTEX
 8
DISCO
 10
0
 20
0
 30
0
 70
128
 71
16
 72
1
 73
17
 74
17
 0
VERTEX
 8
DISCO
 10
0
 20
0
 30
0
 70
128
 71
17
 72
1
 73
2
 74
2
 0
SEQEND
 0
POLYLINE
 8
DISCO_1
 66
1
 10
0.0
 20
0.0
 30
0.0
 70
64
 71
17
 72
16
 0
VERTEX
 8
DISCO_1
 10
0.8184
 20
-21.0167
 30
0.4007
 70
192
 0
VERTEX
 8
DISCO_1
 10
0.8934
 20
-21.0167
 30
0.4007
 70
192
 0
VERTEX
 8
DISCO_1
 10
0.8877
 20
-20.988
 30
0.4007
 70
192
 0
VERTEX
 8
DISCO_1
 10
0.8715
 20
-20.9637
 30
0.4007
 70
192
 0
VERTEX
 8
DISCO_1
 10
0.8471
 20
-20.9474
 30
0.4007
 70
192
 0
VERTEX
 8
DISCO_1
 10
0.8184
 20
-20.9417
 30
0.4007
 70
192
 0
VERTEX
 8
DISCO_1
 10
0.7897
 20
-20.9474
 30
0.4007
 70
192
 0
VERTEX
 8
DISCO_1
 10
0.7654
 20
-20.9637
 30
0.4007
 70
192
 0
VERTEX
 8
DISCO_1
 10
0.7491
 20
-20.988
 30
0.4007
 70
192
 0
VERTEX
 8
DISCO_1
 10
0.7434
 20
-21.0167
 30
0.4007
 70
192
 0
VERTEX
 8
DISCO_1
 10
0.7491
 20
-21.0454
 30
0.4007
 70
192
 0
VERTEX
 8
DISCO_1
 10
0.7654
 20
-21.0698
 30
0.4007
 70
192
 0
VERTEX
 8
DISCO_1
 10
0.7897
 20
-21.086
 30
0.4007
 70
192
 0
VERTEX
 8
DISCO_1
 10
0.8184
 20
-21.0917
 30
0.4007
 70
192
 0
VERTEX
 8
DISCO_1
 10
0.8471
 20
-21.086
 30
0.4007
 70
192
 0
VERTEX
 8
DISCO_1
 10
0.8715
 20
-21.0698
 30
0.4007
 70
192
 0
VERTEX
 8
DISCO_1
 10
0.8877
 20
-21.0454
 30
0.4007
 70
192
 0
VERTEX
 8
DISCO_1
 10
0
 20
0
 30
0
 70
128
 71
2
 72
1
 73
3
 74
3
 0
VERTEX
 8
DISCO_1
 10
0
 20
0
 30
0
 70
128
 71
3
 72
1
 73
4
 74
4
 0
VERTEX
 8
DISCO_1
 10
0
 20
0
 30
0
 70
128
 71
4
 72
1
 73
5
 74
5
 0
VERTEX
 8
DISCO_1
 10
0
 20
0
 30
0
 70
128
 71
5
 72
1
 73
6
 74
6
 0
VERTEX
 8
DISCO_1
 10
0
 20
0
 30
0
 70
128
 71
6
 72
1
 73
7
 74
7
 0
VERTEX
 8
DISCO_1
 10
0
 20
0
 30
0
 70
128
 71
7
 72
1
 73
8
 74
8
 0
VERTEX
 8
DISCO_1
 10
0
 20
0
 30
0
 70
128
 71
8
 72
1
 73
9
 74
9
 0
VERTEX
 8
DISCO_1
 10
0
 20
0
 30
0
 70
128
 71
9
 72
1
 73
10
 74
10
 0
VERTEX
 8
DISCO_1
 10
0
 20
0
 30
0
 70
128
 71
10
 72
1
 73
11
 74
11
 0
VERTEX
 8
DISCO_1
 10
0
 20
0
 30
0
 70
128
 71
11
 72
1
 73
12
 74
12
 0
VERTEX
 8
DISCO_1
 10
0
 20
0
 30
0
 70
128
 71
12
 72
1
 73
13
 74
13
 0
VERTEX
 8
DISCO_1
 10
0
 20
0
 30
0
 70
128
 71
13
 72
1
 73
14
 74
14
 0
VERTEX
 8
DISCO_1
 10
0
 20
0
 30
0
 70
128
 71
14
 72
1
 73
15
 74
15
 0
VERTEX
 8
DISCO_1
 10
0
 20
0
 30
0
 70
128
 71
15
 72
1
 73
16
 74
16
 0
VERTEX
 8
DISCO_1
 10
0
 20
0
 30
0
 70
128
 71
16
 72
1
 73
17
 74
17
 0
VERTEX
 8
DISCO_1
 10
0
 20
0
 30
0
 70
128
 71
17
 72
1
 73
2
 74
2
 0
SEQEND
 0
POLYLINE
 8
DISCO_2
 66
1
 10
0.0
 20
0.0
 30
0.0
 70
64
 71
17
 72
16
 0
VERTEX
 8
DISCO_2
 10
0.8184
 20
-21.3663
 30
0.4007
 70
192
 0
VERTEX
 8
DISCO_2
 10
0.8934
 20
-21.3663
 30
0.4007
 70
192
 0
VERTEX
 8
DISCO_2
 10
0.8877
 20
-21.3376
 30
0.4007
 70
192
 0
VERTEX
 8
DISCO_2
 10
0.8715
 20
-21.3132
 30
0.4007
 70
192
 0
VERTEX
 8
DISCO_2
 10
0.8471
 20
-21.297
 30
0.4007
 70
192
 0
VERTEX
 8
DISCO_2
 10
0.8184
 20
-21.2913
 30
0.4007
 70
192
 0
VERTEX
 8
DISCO_2
 10
0.7897
 20
-21.297
 30
0.4007
 70
192
 0
VERTEX
 8
DISCO_2
 10
0.7654
 20
-21.3132
 30
0.4007
 70
192
 0
VERTEX
 8
DISCO_2
 10
0.7491
 20
-21.3376
 30
0.4007
 70
192
 0
VERTEX
 8
DISCO_2
 10
0.7434
 20
-21.3663
 30
0.4007
 70
192
 0
VERTEX
 8
DISCO_2
 10
0.7491
 20
-21.395
 30
0.4007
 70
192
 0
VERTEX
 8
DISCO_2
 10
0.7654
 20
-21.4193
 30
0.4007
 70
192
 0
VERTEX
 8
DISCO_2
 10
0.7897
 20
-21.4356
 30
0.4007
 70
192
 0
VERTEX
 8
DISCO_2
 10
0.8184
 20
-21.4413
 30
0.4007
 70
192
 0
VERTEX
 8
DISCO_2
 10
0.8471
 20
-21.4356
 30
0.4007
 70
192
 0
VERTEX
 8
DISCO_2
 10
0.8715
 20
-21.4193
 30
0.4007
 70
192
 0
VERTEX
 8
DISCO_2
 10
0.8877
 20
-21.395
 30
0.4007
 70
192
 0
VERTEX
 8
DISCO_2
 10
0
 20
0
 30
0
 70
128
 71
2
 72
1
 73
3
 74
3
 0
VERTEX
 8
DISCO_2
 10
0
 20
0
 30
0
 70
128
 71
3
 72
1
 73
4
 74
4
 0
VERTEX
 8
DISCO_2
 10
0
 20
0
 30
0
 70
128
 71
4
 72
1
 73
5
 74
5
 0
VERTEX
 8
DISCO_2
 10
0
 20
0
 30
0
 70
128
 71
5
 72
1
 73
6
 74
6
 0
VERTEX
 8
DISCO_2
 10
0
 20
0
 30
0
 70
128
 71
6
 72
1
 73
7
 74
7
 0
VERTEX
 8
DISCO_2
 10
0
 20
0
 30
0
 70
128
 71
7
 72
1
 73
8
 74
8
 0
VERTEX
 8
DISCO_2
 10
0
 20
0
 30
0
 70
128
 71
8
 72
1
 73
9
 74
9
 0
VERTEX
 8
DISCO_2
 10
0
 20
0
 30
0
 70
128
 71
9
 72
1
 73
10
 74
10
 0
VERTEX
 8
DISCO_2
 10
0
 20
0
 30
0
 70
128
 71
10
 72
1
 73
11
 74
11
 0
VERTEX
 8
DISCO_2
 10
0
 20
0
 30
0
 70
128
 71
11
 72
1
 73
12
 74
12
 0
VERTEX
 8
DISCO_2
 10
0
 20
0
 30
0
 70
128
 71
12
 72
1
 73
13
 74
13
 0
VERTEX
 8
DISCO_2
 10
0
 20
0
 30
0
 70
128
 71
13
 72
1
 73
14
 74
14
 0
VERTEX
 8
DISCO_2
 10
0
 20
0
 30
0
 70
128
 71
14
 72
1
 73
15
 74
15
 0
VERTEX
 8
DISCO_2
 10
0
 20
0
 30
0
 70
128
 71
15
 72
1
 73
16
 74
16
 0
VERTEX
 8
DISCO_2
 10
0
 20
0
 30
0
 70
128
 71
16
 72
1
 73
17
 74
17
 0
VERTEX
 8
DISCO_2
 10
0
 20
0
 30
0
 70
128
 71
17
 72
1
 73
2
 74
2
 0
SEQEND
 0
POLYLINE
 8
DISCO_3
 66
1
 10
0.0
 20
0.0
 30
0.0
 70
64
 71
17
 72
16
 0
VERTEX
 8
DISCO_3
 10
0.8184
 20
-21.7161
 30
0.4007
 70
192
 0
VERTEX
 8
DISCO_3
 10
0.8934
 20
-21.7161
 30
0.4007
 70
192
 0
VERTEX
 8
DISCO_3
 10
0.8877
 20
-21.6874
 30
0.4007
 70
192
 0
VERTEX
 8
DISCO_3
 10
0.8715
 20
-21.6631
 30
0.4007
 70
192
 0
VERTEX
 8
DISCO_3
 10
0.8471
 20
-21.6468
 30
0.4007
 70
192
 0
VERTEX
 8
DISCO_3
 10
0.8184
 20
-21.6411
 30
0.4007
 70
192
 0
VERTEX
 8
DISCO_3
 10
0.7897
 20
-21.6468
 30
0.4007
 70
192
 0
VERTEX
 8
DISCO_3
 10
0.7654
 20
-21.6631
 30
0.4007
 70
192
 0
VERTEX
 8
DISCO_3
 10
0.7491
 20
-21.6874
 30
0.4007
 70
192
 0
VERTEX
 8
DISCO_3
 10
0.7434
 20
-21.7161
 30
0.4007
 70
192
 0
VERTEX
 8
DISCO_3
 10
0.7491
 20
-21.7448
 30
0.4007
 70
192
 0
VERTEX
 8
DISCO_3
 10
0.7654
 20
-21.7691
 30
0.4007
 70
192
 0
VERTEX
 8
DISCO_3
 10
0.7897
 20
-21.7854
 30
0.4007
 70
192
 0
VERTEX
 8
DISCO_3
 10
0.8184
 20
-21.7911
 30
0.4007
 70
192
 0
VERTEX
 8
DISCO_3
 10
0.8471
 20
-21.7854
 30
0.4007
 70
192
 0
VERTEX
 8
DISCO_3
 10
0.8715
 20
-21.7691
 30
0.4007
 70
192
 0
VERTEX
 8
DISCO_3
 10
0.8877
 20
-21.7448
 30
0.4007
 70
192
 0
VERTEX
 8
DISCO_3
 10
0
 20
0
 30
0
 70
128
 71
2
 72
1
 73
3
 74
3
 0
VERTEX
 8
DISCO_3
 10
0
 20
0
 30
0
 70
128
 71
3
 72
1
 73
4
 74
4
 0
VERTEX
 8
DISCO_3
 10
0
 20
0
 30
0
 70
128
 71
4
 72
1
 73
5
 74
5
 0
VERTEX
 8
DISCO_3
 10
0
 20
0
 30
0
 70
128
 71
5
 72
1
 73
6
 74
6
 0
VERTEX
 8
DISCO_3
 10
0
 20
0
 30
0
 70
128
 71
6
 72
1
 73
7
 74
7
 0
VERTEX
 8
DISCO_3
 10
0
 20
0
 30
0
 70
128
 71
7
 72
1
 73
8
 74
8
 0
VERTEX
 8
DISCO_3
 10
0
 20
0
 30
0
 70
128
 71
8
 72
1
 73
9
 74
9
 0
VERTEX
 8
DISCO_3
 10
0
 20
0
 30
0
 70
128
 71
9
 72
1
 73
10
 74
10
 0
VERTEX
 8
DISCO_3
 10
0
 20
0
 30
0
 70
128
 71
10
 72
1
 73
11
 74
11
 0
VERTEX
 8
DISCO_3
 10
0
 20
0
 30
0
 70
128
 71
11
 72
1
 73
12
 74
12
 0
VERTEX
 8
DISCO_3
 10
0
 20
0
 30
0
 70
128
 71
12
 72
1
 73
13
 74
13
 0
VERTEX
 8
DISCO_3
 10
0
 20
0
 30
0
 70
128
 71
13
 72
1
 73
14
 74
14
 0
VERTEX
 8
DISCO_3
 10
0
 20
0
 30
0
 70
128
 71
14
 72
1
 73
15
 74
15
 0
VERTEX
 8
DISCO_3
 10
0
 20
0
 30
0
 70
128
 71
15
 72
1
 73
16
 74
16
 0
VERTEX
 8
DISCO_3
 10
0
 20
0
 30
0
 70
128
 71
16
 72
1
 73
17
 74
17
 0
VERTEX
 8
DISCO_3
 10
0
 20
0
 30
0
 70
128
 71
17
 72
1
 73
2
 74
2
 0
SEQEND
 0
POLYLINE
 8
DISCO_4
 66
1
 10
0.0
 20
0.0
 30
0.0
 70
64
 71
64
 72
31
 0
VERTEX
 8
DISCO_4
 10
2.6432
 20
-21.446
 30
0.4007
 70
192
 0
VERTEX
 8
DISCO_4
 10
2.5818
 20
-21.446
 30
0.4007
 70
192
 0
VERTEX
 8
DISCO_4
 10
2.6368
 20
-21.3772
 30
0.4007
 70
192
 0
VERTEX
 8
DISCO_4
 10
2.5765
 20
-21.3884
 30
0.4007
 70
192
 0
VERTEX
 8
DISCO_4
 10
2.6179
 20
-21.3106
 30
0.4007
 70
192
 0
VERTEX
 8
DISCO_4
 10
2.5606
 20
-21.3328
 30
0.4007
 70
192
 0
VERTEX
 8
DISCO_4
 10
2.5871
 20
-21.2487
 30
0.4007
 70
192
 0
VERTEX
 8
DISCO_4
 10
2.5348
 20
-21.2811
 30
0.4007
 70
192
 0
VERTEX
 8
DISCO_4
 10
2.5454
 20
-21.1935
 30
0.4007
 70
192
 0
VERTEX
 8
DISCO_4
 10
2.5
 20
-21.2349
 30
0.4007
 70
192
 0
VERTEX
 8
DISCO_4
 10
2.4943
 20
-21.1469
 30
0.4007
 70
192
 0
VERTEX
 8
DISCO_4
 10
2.4573
 20
-21.1959
 30
0.4007
 70
192
 0
VERTEX
 8
DISCO_4
 10
2.4355
 20
-21.1105
 30
0.4007
 70
192
 0
VERTEX
 8
DISCO_4
 10
2.4081
 20
-21.1655
 30
0.4007
 70
192
 0
VERTEX
 8
DISCO_4
 10
2.371
 20
-21.0855
 30
0.4007
 70
192
 0
VERTEX
 8
DISCO_4
 10
2.3542
 20
-21.1446
 30
0.4007
 70
192
 0
VERTEX
 8
DISCO_4
 10
2.303
 20
-21.0728
 30
0.4007
 70
192
 0
VERTEX
 8
DISCO_4
 10
2.2973
 20
-21.134
 30
0.4007
 70
192
 0
VERTEX
 8
DISCO_4
 10
2.238
 20
-21.0728
 30
0.4007
 70
192
 0
VERTEX
 8
DISCO_4
 10
2.238
 20
-21.134
 30
0.4007
 70
192
 0
VERTEX
 8
DISCO_4
 10
2.5765
 20
-21.5036
 30
0.4007
 70
192
 0
VERTEX
 8
DISCO_4
 10
2.6368
 20
-21.5149
 30
0.4007
 70
192
 0
VERTEX
 8
DISCO_4
 10
2.5606
 20
-21.5592
 30
0.4007
 70
192
 0
VERTEX
 8
DISCO_4
 10
2.6179
 20
-21.5814
 30
0.4007
 70
192
 0
VERTEX
 8
DISCO_4
 10
2.5348
 20
-21.611
 30
0.4007
 70
192
 0
VERTEX
 8
DISCO_4
 10
2.5871
 20
-21.6433
 30
0.4007
 70
192
 0
VERTEX
 8
DISCO_4
 10
1.9914
 20
-21.1935
 30
0.4007
 70
192
 0
VERTEX
 8
DISCO_4
 10
2.0368
 20
-21.2349
 30
0.4007
 70
192
 0
VERTEX
 8
DISCO_4
 10
1.9497
 20
-21.2487
 30
0.4007
 70
192
 0
VERTEX
 8
DISCO_4
 10
2.0019
 20
-21.2811
 30
0.4007
 70
192
 0
VERTEX
 8
DISCO_4
 10
1.9189
 20
-21.3106
 30
0.4007
 70
192
 0
VERTEX
 8
DISCO_4
 10
1.9762
 20
-21.3328
 30
0.4007
 70
192
 0
VERTEX
 8
DISCO_4
 10
1.9
 20
-21.3772
 30
0.4007
 70
192
 0
VERTEX
 8
DISCO_4
 10
1.9603
 20
-21.3884
 30
0.4007
 70
192
 0
VERTEX
 8
DISCO_4
 10
1.8936
 20
-21.446
 30
0.4007
 70
192
 0
VERTEX
 8
DISCO_4
 10
1.955
 20
-21.446
 30
0.4007
 70
192
 0
VERTEX
 8
DISCO_4
 10
1.9
 20
-21.5149
 30
0.4007
 70
192
 0
VERTEX
 8
DISCO_4
 10
1.9603
 20
-21.5036
 30
0.4007
 70
192
 0
VERTEX
 8
DISCO_4
 10
1.9189
 20
-21.5814
 30
0.4007
 70
192
 0
VERTEX
 8
DISCO_4
 10
1.9762
 20
-21.5592
 30
0.4007
 70
192
 0
VERTEX
 8
DISCO_4
 10
1.9497
 20
-21.6433
 30
0.4007
 70
192
 0
VERTEX
 8
DISCO_4
 10
2.0019
 20
-21.611
 30
0.4007
 70
192
 0
VERTEX
 8
DISCO_4
 10
1.9914
 20
-21.6985
 30
0.4007
 70
192
 0
VERTEX
 8
DISCO_4
 10
2.0368
 20
-21.6572
 30
0.4007
 70
192
 0
VERTEX
 8
DISCO_4
 10
2.0425
 20
-21.7451
 30
0.4007
 70
192
 0
VERTEX
 8
DISCO_4
 10
2.0795
 20
-21.6961
 30
0.4007
 70
192
 0
VERTEX
 8
DISCO_4
 10
2.1013
 20
-21.7815
 30
0.4007
 70
192
 0
VERTEX
 8
DISCO_4
 10
2.1287
 20
-21.7266
 30
0.4007
 70
192
 0
VERTEX
 8
DISCO_4
 10
2.1658
 20
-21.8065
 30
0.4007
 70
192
 0
VERTEX
 8
DISCO_4
 10
2.1826
 20
-21.7475
 30
0.4007
 70
192
 0
VERTEX
 8
DISCO_4
 10
2.2338
 20
-21.8192
 30
0.4007
 70
192
 0
VERTEX
 8
DISCO_4
 10
2.2395
 20
-21.7581
 30
0.4007
 70
192
 0
VERTEX
 8
DISCO_4
 10
2.303
 20
-21.8192
 30
0.4007
 70
192
 0
VERTEX
 8
DISCO_4
 10
2.2973
 20
-21.7581
 30
0.4007
 70
192
 0
VERTEX
 8
DISCO_4
 10
2.371
 20
-21.8065
 30
0.4007
 70
192
 0
VERTEX
 8
DISCO_4
 10
2.3542
 20
-21.7475
 30
0.4007
 70
192
 0
VERTEX
 8
DISCO_4
 10
2.4355
 20
-21.7815
 30
0.4007
 70
192
 0
VERTEX
 8
DISCO_4
 10
2.4081
 20
-21.7266
 30
0.4007
 70
192
 0
VERTEX
 8
DISCO_4
 10
2.4943
 20
-21.7451
 30
0.4007
 70
192
 0
VERTEX
 8
DISCO_4
 10
2.4573
 20
-21.6961
 30
0.4007
 70
192
 0
VERTEX
 8
DISCO_4
 10
2.5454
 20
-21.6985
 30
0.4007
 70
192
 0
VERTEX
 8
DISCO_4
 10
2.5
 20
-21.6572
 30
0.4007
 70
192
 0
VERTEX
 8
DISCO_4
 10
2.2973
 20
-21.2675
 30
0.4007
 70
192
 0
VERTEX
 8
DISCO_4
 10
2.238
 20
-21.2675
 30
0.4007
 70
192
 0
VERTEX
 8
DISCO_4
 10
0
 20
0
 30
0
 70
128
 71
1
 72
2
 73
4
 74
3
 0
VERTEX
 8
DISCO_4
 10
0
 20
0
 30
0
 70
128
 71
3
 72
4
 73
6
 74
5
 0
VERTEX
 8
DISCO_4
 10
0
 20
0
 30
0
 70
128
 71
5
 72
6
 73
8
 74
7
 0
VERTEX
 8
DISCO_4
 10
0
 20
0
 30
0
 70
128
 71
7
 72
8
 73
10
 74
9
 0
VERTEX
 8
DISCO_4
 10
0
 20
0
 30
0
 70
128
 71
9
 72
10
 73
12
 74
11
 0
VERTEX
 8
DISCO_4
 10
0
 20
0
 30
0
 70
128
 71
11
 72
12
 73
14
 74
13
 0
VERTEX
 8
DISCO_4
 10
0
 20
0
 30
0
 70
128
 71
13
 72
14
 73
16
 74
15
 0
VERTEX
 8
DISCO_4
 10
0
 20
0
 30
0
 70
128
 71
15
 72
16
 73
18
 74
17
 0
VERTEX
 8
DISCO_4
 10
0
 20
0
 30
0
 70
128
 71
17
 72
18
 73
20
 74
19
 0
VERTEX
 8
DISCO_4
 10
0
 20
0
 30
0
 70
128
 71
22
 72
21
 73
2
 74
1
 0
VERTEX
 8
DISCO_4
 10
0
 20
0
 30
0
 70
128
 71
24
 72
23
 73
21
 74
22
 0
VERTEX
 8
DISCO_4
 10
0
 20
0
 30
0
 70
128
 71
26
 72
25
 73
23
 74
24
 0
VERTEX
 8
DISCO_4
 10
0
 20
0
 30
0
 70
128
 71
61
 72
62
 73
25
 74
26
 0
VERTEX
 8
DISCO_4
 10
0
 20
0
 30
0
 70
128
 71
27
 72
28
 73
30
 74
29
 0
VERTEX
 8
DISCO_4
 10
0
 20
0
 30
0
 70
128
 71
29
 72
30
 73
32
 74
31
 0
VERTEX
 8
DISCO_4
 10
0
 20
0
 30
0
 70
128
 71
31
 72
32
 73
34
 74
33
 0
VERTEX
 8
DISCO_4
 10
0
 20
0
 30
0
 70
128
 71
33
 72
34
 73
36
 74
35
 0
VERTEX
 8
DISCO_4
 10
0
 20
0
 30
0
 70
128
 71
35
 72
36
 73
38
 74
37
 0
VERTEX
 8
DISCO_4
 10
0
 20
0
 30
0
 70
128
 71
37
 72
38
 73
40
 74
39
 0
VERTEX
 8
DISCO_4
 10
0
 20
0
 30
0
 70
128
 71
39
 72
40
 73
42
 74
41
 0
VERTEX
 8
DISCO_4
 10
0
 20
0
 30
0
 70
128
 71
41
 72
42
 73
44
 74
43
 0
VERTEX
 8
DISCO_4
 10
0
 20
0
 30
0
 70
128
 71
43
 72
44
 73
46
 74
45
 0
VERTEX
 8
DISCO_4
 10
0
 20
0
 30
0
 70
128
 71
45
 72
46
 73
48
 74
47
 0
VERTEX
 8
DISCO_4
 10
0
 20
0
 30
0
 70
128
 71
47
 72
48
 73
50
 74
49
 0
VERTEX
 8
DISCO_4
 10
0
 20
0
 30
0
 70
128
 71
49
 72
50
 73
52
 74
51
 0
VERTEX
 8
DISCO_4
 10
0
 20
0
 30
0
 70
128
 71
51
 72
52
 73
54
 74
53
 0
VERTEX
 8
DISCO_4
 10
0
 20
0
 30
0
 70
128
 71
53
 72
54
 73
56
 74
55
 0
VERTEX
 8
DISCO_4
 10
0
 20
0
 30
0
 70
128
 71
55
 72
56
 73
58
 74
57
 0
VERTEX
 8
DISCO_4
 10
0
 20
0
 30
0
 70
128
 71
57
 72
58
 73
60
 74
59
 0
VERTEX
 8
DISCO_4
 10
0
 20
0
 30
0
 70
128
 71
59
 72
60
 73
62
 74
61
 0
VERTEX
 8
DISCO_4
 10
0
 20
0
 30
0
 70
128
 71
18
 72
63
 73
64
 74
20
 0
SEQEND
 0
POLYLINE
 8
PIANO_3
 66
1
 10
0.0
 20
0.0
 30
0.0
 70
64
 71
4
 72
1
 0
VERTEX
 8
PIANO_3
 10
-2.3742
 20
-21.4782
 30
0.4007
 70
192
 0
VERTEX
 8
PIANO_3
 10
-1.6842
 20
-21.4782
 30
0.4007
 70
192
 0
VERTEX
 8
PIANO_3
 10
-2.3742
 20
-21.4182
 30
0.4007
 70
192
 0
VERTEX
 8
PIANO_3
 10
-1.6842
 20
-21.4182
 30
0.4007
 70
192
 0
VERTEX
 8
PIANO_3
 10
0
 20
0
 30
0
 70
128
 71
1
 72
3
 73
4
 74
2
 0
SEQEND
 0
POLYLINE
 8
PIANO_2
 66
1
 10
0.0
 20
0.0
 30
0.0
 70
64
 71
4
 72
1
 0
VERTEX
 8
PIANO_2
 10
-0.659
 20
-21.1032
 30
0.4007
 70
192
 0
VERTEX
 8
PIANO_2
 10
-0.659
 20
-21.7932
 30
0.4007
 70
192
 0
VERTEX
 8
PIANO_2
 10
-0.599
 20
-21.1032
 30
0.4007
 70
192
 0
VERTEX
 8
PIANO_2
 10
-0.599
 20
-21.7932
 30
0.4007
 70
192
 0
VERTEX
 8
PIANO_2
 10
0
 20
0
 30
0
 70
128
 71
1
 72
3
 73
4
 74
2
 0
SEQEND
 0
POLYLINE
 8
PIANO_1
 66
1
 10
0.0
 20
0.0
 30
0.0
 70
64
 71
4
 72
1
 0
VERTEX
 8
PIANO_1
 10
-0.974
 20
-21.4782
 30
0.4007
 70
192
 0
VERTEX
 8
PIANO_1
 10
-0.284
 20
-21.4782
 30
0.4007
 70
192
 0
VERTEX
 8
PIANO_1
 10
-0.974
 20
-21.4182
 30
0.4007
 70
192
 0
VERTEX
 8
PIANO_1
 10
-0.284
 20
-21.4182
 30
0.4007
 70
192
 0
VERTEX
 8
PIANO_1
 10
0
 20
0
 30
0
 70
128
 71
1
 72
3
 73
4
 74
2
 0
SEQEND
 0
POLYLINE
 8
PIANO
 66
1
 10
0.0
 20
0.0
 30
0.0
 70
64
 71
4
 72
1
 0
VERTEX
 8
PIANO
 10
2.2499
 20
-21.5031
 30
0.4007
 70
192
 0
VERTEX
 8
PIANO
 10
2.2919
 20
-21.4594
 30
0.4007
 70
192
 0
VERTEX
 8
PIANO
 10
2.053
 20
-21.3143
 30
0.4007
 70
192
 0
VERTEX
 8
PIANO
 10
2.095
 20
-21.2706
 30
0.4007
 70
192
 0
VERTEX
 8
PIANO
 10
0
 20
0
 30
0
 70
128
 71
1
 72
3
 73
4
 74
2
 0
SEQEND
 0
POLYLINE
 8
PIANO_4
 66
1
 10
0.0
 20
0.0
 30
0.0
 70
64
 71
4
 72
1
 0
VERTEX
 8
PIANO_4
 10
-4.2591
 20
-21.0282
 30
0.4007
 70
192
 0
VERTEX
 8
PIANO_4
 10
-4.2591
 20
-21.4681
 30
0.4007
 70
192
 0
VERTEX
 8
PIANO_4
 10
-4.1991
 20
-21.0282
 30
0.4007
 70
192
 0
VERTEX
 8
PIANO_4
 10
-4.1991
 20
-21.4681
 30
0.4007
 70
192
 0
VERTEX
 8
PIANO_4
 10
0
 20
0
 30
0
 70
128
 71
1
 72
3
 73
4
 74
2
 0
SEQEND
 0
POLYLINE
 8
DISCO_5
 66
1
 10
0.0
 20
0.0
 30
0.0
 70
64
 71
58
 72
28
 0
VERTEX
 8
DISCO_5
 10
-3.8612
 20
-21.4384
 30
0.4007
 70
192
 0
VERTEX
 8
DISCO_5
 10
-3.9142
 20
-21.4384
 30
0.4007
 70
192
 0
VERTEX
 8
DISCO_5
 10
-3.8668
 20
-21.3745
 30
0.4007
 70
192
 0
VERTEX
 8
DISCO_5
 10
-3.919
 20
-21.3837
 30
0.4007
 70
192
 0
VERTEX
 8
DISCO_5
 10
-3.8834
 20
-21.3125
 30
0.4007
 70
192
 0
VERTEX
 8
DISCO_5
 10
-3.9332
 20
-21.3307
 30
0.4007
 70
192
 0
VERTEX
 8
DISCO_5
 10
-3.9106
 20
-21.2544
 30
0.4007
 70
192
 0
VERTEX
 8
DISCO_5
 10
-3.9565
 20
-21.2809
 30
0.4007
 70
192
 0
VERTEX
 8
DISCO_5
 10
-3.9473
 20
-21.2018
 30
0.4007
 70
192
 0
VERTEX
 8
DISCO_5
 10
-3.9879
 20
-21.2359
 30
0.4007
 70
192
 0
VERTEX
 8
DISCO_5
 10
-3.9927
 20
-21.1565
 30
0.4007
 70
192
 0
VERTEX
 8
DISCO_5
 10
-4.0268
 20
-21.1971
 30
0.4007
 70
192
 0
VERTEX
 8
DISCO_5
 10
-3.919
 20
-21.4931
 30
0.4007
 70
192
 0
VERTEX
 8
DISCO_5
 10
-3.8668
 20
-21.5023
 30
0.4007
 70
192
 0
VERTEX
 8
DISCO_5
 10
-3.9332
 20
-21.5461
 30
0.4007
 70
192
 0
VERTEX
 8
DISCO_5
 10
-3.8834
 20
-21.5643
 30
0.4007
 70
192
 0
VERTEX
 8
DISCO_5
 10
-3.9565
 20
-21.5959
 30
0.4007
 70
192
 0
VERTEX
 8
DISCO_5
 10
-3.9106
 20
-21.6224
 30
0.4007
 70
192
 0
VERTEX
 8
DISCO_5
 10
-3.9879
 20
-21.6409
 30
0.4007
 70
192
 0
VERTEX
 8
DISCO_5
 10
-3.9473
 20
-21.6749
 30
0.4007
 70
192
 0
VERTEX
 8
DISCO_5
 10
-4.0268
 20
-21.6797
 30
0.4007
 70
192
 0
VERTEX
 8
DISCO_5
 10
-3.9927
 20
-21.7203
 30
0.4007
 70
192
 0
VERTEX
 8
DISCO_5
 10
-4.0717
 20
-21.7112
 30
0.4007
 70
192
 0
VERTEX
 8
DISCO_5
 10
-4.0452
 20
-21.7571
 30
0.4007
 70
192
 0
VERTEX
 8
DISCO_5
 10
-4.1215
 20
-21.7344
 30
0.4007
 70
192
 0
VERTEX
 8
DISCO_5
 10
-4.1034
 20
-21.7842
 30
0.4007
 70
192
 0
VERTEX
 8
DISCO_5
 10
-4.4658
 20
-21.1565
 30
0.4007
 70
192
 0
VERTEX
 8
DISCO_5
 10
-4.4317
 20
-21.1971
 30
0.4007
 70
192
 0
VERTEX
 8
DISCO_5
 10
-4.5112
 20
-21.2018
 30
0.4007
 70
192
 0
VERTEX
 8
DISCO_5
 10
-4.4706
 20
-21.2359
 30
0.4007
 70
192
 0
VERTEX
 8
DISCO_5
 10
-4.5479
 20
-21.2544
 30
0.4007
 70
192
 0
VERTEX
 8
DISCO_5
 10
-4.502
 20
-21.2809
 30
0.4007
 70
192
 0
VERTEX
 8
DISCO_5
 10
-4.5751
 20
-21.3125
 30
0.4007
 70
192
 0
VERTEX
 8
DISCO_5
 10
-4.5253
 20
-21.3307
 30
0.4007
 70
192
 0
VERTEX
 8
DISCO_5
 10
-4.5917
 20
-21.3745
 30
0.4007
 70
192
 0
VERTEX
 8
DISCO_5
 10
-4.5395
 20
-21.3837
 30
0.4007
 70
192
 0
VERTEX
 8
DISCO_5
 10
-4.5972
 20
-21.4384
 30
0.4007
 70
192
 0
VERTEX
 8
DISCO_5
 10
-4.5442
 20
-21.4384
 30
0.4007
 70
192
 0
VERTEX
 8
DISCO_5
 10
-4.5917
 20
-21.5023
 30
0.4007
 70
192
 0
VERTEX
 8
DISCO_5
 10
-4.5395
 20
-21.4931
 30
0.4007
 70
192
 0
VERTEX
 8
DISCO_5
 10
-4.5751
 20
-21.5643
 30
0.4007
 70
192
 0
VERTEX
 8
DISCO_5
 10
-4.5253
 20
-21.5461
 30
0.4007
 70
192
 0
VERTEX
 8
DISCO_5
 10
-4.5479
 20
-21.6224
 30
0.4007
 70
192
 0
VERTEX
 8
DISCO_5
 10
-4.502
 20
-21.5959
 30
0.4007
 70
192
 0
VERTEX
 8
DISCO_5
 10
-4.5112
 20
-21.6749
 30
0.4007
 70
192
 0
VERTEX
 8
DISCO_5
 10
-4.4706
 20
-21.6409
 30
0.4007
 70
192
 0
VERTEX
 8
DISCO_5
 10
-4.4658
 20
-21.7203
 30
0.4007
 70
192
 0
VERTEX
 8
DISCO_5
 10
-4.4317
 20
-21.6797
 30
0.4007
 70
192
 0
VERTEX
 8
DISCO_5
 10
-4.4132
 20
-21.7571
 30
0.4007
 70
192
 0
VERTEX
 8
DISCO_5
 10
-4.3867
 20
-21.7112
 30
0.4007
 70
192
 0
VERTEX
 8
DISCO_5
 10
-4.3551
 20
-21.7842
 30
0.4007
 70
192
 0
VERTEX
 8
DISCO_5
 10
-4.337
 20
-21.7344
 30
0.4007
 70
192
 0
VERTEX
 8
DISCO_5
 10
-4.2932
 20
-21.8008
 30
0.4007
 70
192
 0
VERTEX
 8
DISCO_5
 10
-4.2839
 20
-21.7486
 30
0.4007
 70
192
 0
VERTEX
 8
DISCO_5
 10
-4.2292
 20
-21.8064
 30
0.4007
 70
192
 0
VERTEX
 8
DISCO_5
 10
-4.2292
 20
-21.7534
 30
0.4007
 70
192
 0
VERTEX
 8
DISCO_5
 10
-4.1653
 20
-21.8008
 30
0.4007
 70
192
 0
VERTEX
 8
DISCO_5
 10
-4.1746
 20
-21.7486
 30
0.4007
 70
192
 0
VERTEX
 8
DISCO_5
 10
0
 20
0
 30
0
 70
128
 71
1
 72
2
 73
4
 74
3
 0
VERTEX
 8
DISCO_5
 10
0
 20
0
 30
0
 70
128
 71
3
 72
4
 73
6
 74
5
 0
VERTEX
 8
DISCO_5
 10
0
 20
0
 30
0
 70
128
 71
5
 72
6
 73
8
 74
7
 0
VERTEX
 8
DISCO_5
 10
0
 20
0
 30
0
 70
128
 71
7
 72
8
 73
10
 74
9
 0
VERTEX
 8
DISCO_5
 10
0
 20
0
 30
0
 70
128
 71
9
 72
10
 73
12
 74
11
 0
VERTEX
 8
DISCO_5
 10
0
 20
0
 30
0
 70
128
 71
14
 72
13
 73
2
 74
1
 0
VERTEX
 8
DISCO_5
 10
0
 20
0
 30
0
 70
128
 71
16
 72
15
 73
13
 74
14
 0
VERTEX
 8
DISCO_5
 10
0
 20
0
 30
0
 70
128
 71
18
 72
17
 73
15
 74
16
 0
VERTEX
 8
DISCO_5
 10
0
 20
0
 30
0
 70
128
 71
20
 72
19
 73
17
 74
18
 0
VERTEX
 8
DISCO_5
 10
0
 20
0
 30
0
 70
128
 71
22
 72
21
 73
19
 74
20
 0
VERTEX
 8
DISCO_5
 10
0
 20
0
 30
0
 70
128
 71
24
 72
23
 73
21
 74
22
 0
VERTEX
 8
DISCO_5
 10
0
 20
0
 30
0
 70
128
 71
26
 72
25
 73
23
 74
24
 0
VERTEX
 8
DISCO_5
 10
0
 20
0
 30
0
 70
128
 71
57
 72
58
 73
25
 74
26
 0
VERTEX
 8
DISCO_5
 10
0
 20
0
 30
0
 70
128
 71
27
 72
28
 73
30
 74
29
 0
VERTEX
 8
DISCO_5
 10
0
 20
0
 30
0
 70
128
 71
29
 72
30
 73
32
 74
31
 0
VERTEX
 8
DISCO_5
 10
0
 20
0
 30
0
 70
128
 71
31
 72
32
 73
34
 74
33
 0
VERTEX
 8
DISCO_5
 10
0
 20
0
 30
0
 70
128
 71
33
 72
34
 73
36
 74
35
 0
VERTEX
 8
DISCO_5
 10
0
 20
0
 30
0
 70
128
 71
35
 72
36
 73
38
 74
37
 0
VERTEX
 8
DISCO_5
 10
0
 20
0
 30
0
 70
128
 71
37
 72
38
 73
40
 74
39
 0
VERTEX
 8
DISCO_5
 10
0
 20
0
 30
0
 70
128
 71
39
 72
40
 73
42
 74
41
 0
VERTEX
 8
DISCO_5
 10
0
 20
0
 30
0
 70
128
 71
41
 72
42
 73
44
 74
43
 0
VERTEX
 8
DISCO_5
 10
0
 20
0
 30
0
 70
128
 71
43
 72
44
 73
46
 74
45
 0
VERTEX
 8
DISCO_5
 10
0
 20
0
 30
0
 70
128
 71
45
 72
46
 73
48
 74
47
 0
VERTEX
 8
DISCO_5
 10
0
 20
0
 30
0
 70
128
 71
47
 72
48
 73
50
 74
49
 0
VERTEX
 8
DISCO_5
 10
0
 20
0
 30
0
 70
128
 71
49
 72
50
 73
52
 74
51
 0
VERTEX
 8
DISCO_5
 10
0
 20
0
 30
0
 70
128
 71
51
 72
52
 73
54
 74
53
 0
VERTEX
 8
DISCO_5
 10
0
 20
0
 30
0
 70
128
 71
53
 72
54
 73
56
 74
55
 0
VERTEX
 8
DISCO_5
 10
0
 20
0
 30
0
 70
128
 71
55
 72
56
 73
58
 74
57
 0
SEQEND
 0
ENDSEC
 0
EOF
