 0
SECTION
 2
HEADER
 9
$ACADVER
 1
AC1009
 0
ENDSEC
 0
SECTION
 2
TABLES
 0
TABLE
 2
LTYPE
 70
1
 0
LTYPE
 2
CONTINUOUS
 70
64
 3
solid line
 72
65
 73
0
 40
0.0
 0
ENDTAB
 0
TABLE
 2
LAYER
 70
6
 0
LAYER
 2
0
 70
0
 62
7
 6
CONTINUOUS
 0
LAYER
 2
FPRHD_482_TC
 70
64
 62
7
 6
CONTINUOUS
 0
LAYER
 2
PULSANTI
 70
64
 62
7
 6
CONTINUOUS
 0
LAYER
 2
CILINDRO_3
 70
64
 62
253
 6
CONTINUOUS
 0
LAYER
 2
CILINDRO_2
 70
64
 62
253
 6
CONTINUOUS
 0
LAYER
 2
CILINDRO_1
 70
64
 62
253
 6
CONTINUOUS
 0
LAYER
 2
CILINDRO
 70
64
 62
253
 6
CONTINUOUS
 0
LAYER
 2
GRIGLIA_2
 70
64
 62
7
 6
CONTINUOUS
 0
LAYER
 2
CORNICE_2
 70
64
 62
253
 6
CONTINUOUS
 0
LAYER
 2
SFERA
 70
64
 62
253
 6
CONTINUOUS
 0
LAYER
 2
CONO
 70
64
 62
253
 6
CONTINUOUS
 0
LAYER
 2
CUBO_7
 70
64
 62
253
 6
CONTINUOUS
 0
LAYER
 2
CUBO_6
 70
64
 62
253
 6
CONTINUOUS
 0
LAYER
 2
CUBO_5
 70
64
 62
253
 6
CONTINUOUS
 0
LAYER
 2
CUBO_4
 70
64
 62
253
 6
CONTINUOUS
 0
LAYER
 2
CUBO_3
 70
64
 62
253
 6
CONTINUOUS
 0
LAYER
 2
CUBO_2
 70
64
 62
253
 6
CONTINUOUS
 0
LAYER
 2
CUBO_1
 70
64
 62
253
 6
CONTINUOUS
 0
LAYER
 2
CUBO
 70
64
 62
253
 6
CONTINUOUS
 0
LAYER
 2
CUBO_9
 70
64
 62
253
 6
CONTINUOUS
 0
LAYER
 2
CUBO_10
 70
64
 62
253
 6
CONTINUOUS
 0
LAYER
 2
CUBO_11
 70
64
 62
253
 6
CONTINUOUS
 0
LAYER
 2
GRIGLIA_1
 70
64
 62
7
 6
CONTINUOUS
 0
LAYER
 2
SFERA_1
 70
64
 62
253
 6
CONTINUOUS
 0
LAYER
 2
CONO_1
 70
64
 62
253
 6
CONTINUOUS
 0
LAYER
 2
CUBO_19
 70
64
 62
253
 6
CONTINUOUS
 0
LAYER
 2
CUBO_18
 70
64
 62
253
 6
CONTINUOUS
 0
LAYER
 2
CUBO_17
 70
64
 62
253
 6
CONTINUOUS
 0
LAYER
 2
CUBO_15
 70
64
 62
253
 6
CONTINUOUS
 0
LAYER
 2
CUBO_15_1
 70
64
 62
253
 6
CONTINUOUS
 0
LAYER
 2
CUBO_14
 70
64
 62
253
 6
CONTINUOUS
 0
LAYER
 2
CUBO_13
 70
64
 62
253
 6
CONTINUOUS
 0
LAYER
 2
CUBO_12
 70
64
 62
253
 6
CONTINUOUS
 0
LAYER
 2
CUBO_20
 70
64
 62
253
 6
CONTINUOUS
 0
LAYER
 2
CUBO_21
 70
64
 62
253
 6
CONTINUOUS
 0
LAYER
 2
CUBO_22
 70
64
 62
253
 6
CONTINUOUS
 0
LAYER
 2
CORNICE_1
 70
64
 62
253
 6
CONTINUOUS
 0
LAYER
 2
CAPPA
 70
64
 62
253
 6
CONTINUOUS
 0
LAYER
 2
CAPPA_1
 70
64
 62
253
 6
CONTINUOUS
 0
LAYER
 2
CAPPA_2
 70
64
 62
253
 6
CONTINUOUS
 0
LAYER
 2
TARGHETTA_LOGO
 70
64
 62
7
 6
CONTINUOUS
 0
LAYER
 2
FULGOR
 70
64
 62
253
 6
CONTINUOUS
 0
LAYER
 2
MILANO
 70
64
 62
253
 6
CONTINUOUS
 0
LAYER
 2
SFONDO
 70
64
 62
39
 6
CONTINUOUS
 0
LAYER
 2
CORNICE
 70
64
 62
253
 6
CONTINUOUS
 0
LAYER
 2
LED
 70
64
 62
7
 6
CONTINUOUS
 0
LAYER
 2
LED_1
 70
64
 62
7
 6
CONTINUOUS
 0
ENDTAB
 0
ENDSEC
 0
SECTION
 2
BLOCKS
 0
ENDSEC
 0
SECTION
 2
ENTITIES
 0
POLYLINE
 8
CILINDRO_3
 66
1
 10
0.0
 20
0.0
 30
0.0
 70
64
 71
17
 72
18
 0
VERTEX
 8
CILINDRO_3
 10
43.9525
 20
-60.9393
 30
5.1845
 70
192
 0
VERTEX
 8
CILINDRO_3
 10
43.9525
 20
-61.0014
 30
5.1845
 70
192
 0
VERTEX
 8
CILINDRO_3
 10
43.2177
 20
-60.9393
 30
5.6087
 70
192
 0
VERTEX
 8
CILINDRO_3
 10
43.2177
 20
-60.9548
 30
5.6087
 70
192
 0
VERTEX
 8
CILINDRO_3
 10
43.2177
 20
-60.9703
 30
5.6087
 70
192
 0
VERTEX
 8
CILINDRO_3
 10
43.2177
 20
-60.9858
 30
5.6087
 70
192
 0
VERTEX
 8
CILINDRO_3
 10
43.2177
 20
-61.0014
 30
5.6087
 70
192
 0
VERTEX
 8
CILINDRO_3
 10
43.9525
 20
-60.9393
 30
4.3361
 70
192
 0
VERTEX
 8
CILINDRO_3
 10
43.9525
 20
-60.9548
 30
4.3361
 70
192
 0
VERTEX
 8
CILINDRO_3
 10
43.9525
 20
-60.9703
 30
4.3361
 70
192
 0
VERTEX
 8
CILINDRO_3
 10
43.9525
 20
-60.9858
 30
4.3361
 70
192
 0
VERTEX
 8
CILINDRO_3
 10
43.9525
 20
-61.0014
 30
4.3361
 70
192
 0
VERTEX
 8
CILINDRO_3
 10
44.6872
 20
-60.9393
 30
5.6087
 70
192
 0
VERTEX
 8
CILINDRO_3
 10
44.6872
 20
-60.9548
 30
5.6087
 70
192
 0
VERTEX
 8
CILINDRO_3
 10
44.6872
 20
-60.9703
 30
5.6087
 70
192
 0
VERTEX
 8
CILINDRO_3
 10
44.6872
 20
-60.9858
 30
5.6087
 70
192
 0
VERTEX
 8
CILINDRO_3
 10
44.6872
 20
-61.0014
 30
5.6087
 70
192
 0
VERTEX
 8
CILINDRO_3
 10
0
 20
0
 30
0
 70
128
 71
1
 72
3
 73
8
 74
8
 0
VERTEX
 8
CILINDRO_3
 10
0
 20
0
 30
0
 70
128
 71
3
 72
4
 73
9
 74
8
 0
VERTEX
 8
CILINDRO_3
 10
0
 20
0
 30
0
 70
128
 71
4
 72
5
 73
10
 74
9
 0
VERTEX
 8
CILINDRO_3
 10
0
 20
0
 30
0
 70
128
 71
5
 72
6
 73
11
 74
10
 0
VERTEX
 8
CILINDRO_3
 10
0
 20
0
 30
0
 70
128
 71
6
 72
7
 73
12
 74
11
 0
VERTEX
 8
CILINDRO_3
 10
0
 20
0
 30
0
 70
128
 71
7
 72
2
 73
12
 74
12
 0
VERTEX
 8
CILINDRO_3
 10
0
 20
0
 30
0
 70
128
 71
1
 72
8
 73
13
 74
13
 0
VERTEX
 8
CILINDRO_3
 10
0
 20
0
 30
0
 70
128
 71
8
 72
9
 73
14
 74
13
 0
VERTEX
 8
CILINDRO_3
 10
0
 20
0
 30
0
 70
128
 71
9
 72
10
 73
15
 74
14
 0
VERTEX
 8
CILINDRO_3
 10
0
 20
0
 30
0
 70
128
 71
10
 72
11
 73
16
 74
15
 0
VERTEX
 8
CILINDRO_3
 10
0
 20
0
 30
0
 70
128
 71
11
 72
12
 73
17
 74
16
 0
VERTEX
 8
CILINDRO_3
 10
0
 20
0
 30
0
 70
128
 71
12
 72
2
 73
17
 74
17
 0
VERTEX
 8
CILINDRO_3
 10
0
 20
0
 30
0
 70
128
 71
1
 72
13
 73
3
 74
3
 0
VERTEX
 8
CILINDRO_3
 10
0
 20
0
 30
0
 70
128
 71
13
 72
14
 73
4
 74
3
 0
VERTEX
 8
CILINDRO_3
 10
0
 20
0
 30
0
 70
128
 71
14
 72
15
 73
5
 74
4
 0
VERTEX
 8
CILINDRO_3
 10
0
 20
0
 30
0
 70
128
 71
15
 72
16
 73
6
 74
5
 0
VERTEX
 8
CILINDRO_3
 10
0
 20
0
 30
0
 70
128
 71
16
 72
17
 73
7
 74
6
 0
VERTEX
 8
CILINDRO_3
 10
0
 20
0
 30
0
 70
128
 71
17
 72
2
 73
7
 74
7
 0
SEQEND
 0
POLYLINE
 8
CILINDRO_2
 66
1
 10
0.0
 20
0.0
 30
0.0
 70
64
 71
17
 72
18
 0
VERTEX
 8
CILINDRO_2
 10
46.4513
 20
-60.9393
 30
4.9153
 70
192
 0
VERTEX
 8
CILINDRO_2
 10
46.4513
 20
-61.0014
 30
4.9153
 70
192
 0
VERTEX
 8
CILINDRO_2
 10
47.1861
 20
-60.9393
 30
4.4911
 70
192
 0
VERTEX
 8
CILINDRO_2
 10
47.1861
 20
-60.9548
 30
4.4911
 70
192
 0
VERTEX
 8
CILINDRO_2
 10
47.1861
 20
-60.9703
 30
4.4911
 70
192
 0
VERTEX
 8
CILINDRO_2
 10
47.1861
 20
-60.9858
 30
4.4911
 70
192
 0
VERTEX
 8
CILINDRO_2
 10
47.1861
 20
-61.0014
 30
4.4911
 70
192
 0
VERTEX
 8
CILINDRO_2
 10
46.4513
 20
-60.9393
 30
5.7637
 70
192
 0
VERTEX
 8
CILINDRO_2
 10
46.4513
 20
-60.9548
 30
5.7637
 70
192
 0
VERTEX
 8
CILINDRO_2
 10
46.4513
 20
-60.9703
 30
5.7637
 70
192
 0
VERTEX
 8
CILINDRO_2
 10
46.4513
 20
-60.9858
 30
5.7637
 70
192
 0
VERTEX
 8
CILINDRO_2
 10
46.4513
 20
-61.0014
 30
5.7637
 70
192
 0
VERTEX
 8
CILINDRO_2
 10
45.7166
 20
-60.9393
 30
4.4911
 70
192
 0
VERTEX
 8
CILINDRO_2
 10
45.7166
 20
-60.9548
 30
4.4911
 70
192
 0
VERTEX
 8
CILINDRO_2
 10
45.7166
 20
-60.9703
 30
4.4911
 70
192
 0
VERTEX
 8
CILINDRO_2
 10
45.7166
 20
-60.9858
 30
4.4911
 70
192
 0
VERTEX
 8
CILINDRO_2
 10
45.7166
 20
-61.0014
 30
4.4911
 70
192
 0
VERTEX
 8
CILINDRO_2
 10
0
 20
0
 30
0
 70
128
 71
1
 72
3
 73
8
 74
8
 0
VERTEX
 8
CILINDRO_2
 10
0
 20
0
 30
0
 70
128
 71
3
 72
4
 73
9
 74
8
 0
VERTEX
 8
CILINDRO_2
 10
0
 20
0
 30
0
 70
128
 71
4
 72
5
 73
10
 74
9
 0
VERTEX
 8
CILINDRO_2
 10
0
 20
0
 30
0
 70
128
 71
5
 72
6
 73
11
 74
10
 0
VERTEX
 8
CILINDRO_2
 10
0
 20
0
 30
0
 70
128
 71
6
 72
7
 73
12
 74
11
 0
VERTEX
 8
CILINDRO_2
 10
0
 20
0
 30
0
 70
128
 71
7
 72
2
 73
12
 74
12
 0
VERTEX
 8
CILINDRO_2
 10
0
 20
0
 30
0
 70
128
 71
1
 72
8
 73
13
 74
13
 0
VERTEX
 8
CILINDRO_2
 10
0
 20
0
 30
0
 70
128
 71
8
 72
9
 73
14
 74
13
 0
VERTEX
 8
CILINDRO_2
 10
0
 20
0
 30
0
 70
128
 71
9
 72
10
 73
15
 74
14
 0
VERTEX
 8
CILINDRO_2
 10
0
 20
0
 30
0
 70
128
 71
10
 72
11
 73
16
 74
15
 0
VERTEX
 8
CILINDRO_2
 10
0
 20
0
 30
0
 70
128
 71
11
 72
12
 73
17
 74
16
 0
VERTEX
 8
CILINDRO_2
 10
0
 20
0
 30
0
 70
128
 71
12
 72
2
 73
17
 74
17
 0
VERTEX
 8
CILINDRO_2
 10
0
 20
0
 30
0
 70
128
 71
1
 72
13
 73
3
 74
3
 0
VERTEX
 8
CILINDRO_2
 10
0
 20
0
 30
0
 70
128
 71
13
 72
14
 73
4
 74
3
 0
VERTEX
 8
CILINDRO_2
 10
0
 20
0
 30
0
 70
128
 71
14
 72
15
 73
5
 74
4
 0
VERTEX
 8
CILINDRO_2
 10
0
 20
0
 30
0
 70
128
 71
15
 72
16
 73
6
 74
5
 0
VERTEX
 8
CILINDRO_2
 10
0
 20
0
 30
0
 70
128
 71
16
 72
17
 73
7
 74
6
 0
VERTEX
 8
CILINDRO_2
 10
0
 20
0
 30
0
 70
128
 71
17
 72
2
 73
7
 74
7
 0
SEQEND
 0
POLYLINE
 8
CILINDRO_1
 66
1
 10
0.0
 20
0.0
 30
0.0
 70
64
 71
62
 72
72
 0
VERTEX
 8
CILINDRO_1
 10
48.9503
 20
-60.9393
 30
5.05
 70
192
 0
VERTEX
 8
CILINDRO_1
 10
48.9503
 20
-61.0014
 30
5.05
 70
192
 0
VERTEX
 8
CILINDRO_1
 10
49.5105
 20
-60.9393
 30
5.05
 70
192
 0
VERTEX
 8
CILINDRO_1
 10
49.5105
 20
-60.9548
 30
5.05
 70
192
 0
VERTEX
 8
CILINDRO_1
 10
49.5105
 20
-60.9703
 30
5.05
 70
192
 0
VERTEX
 8
CILINDRO_1
 10
49.5105
 20
-60.9858
 30
5.05
 70
192
 0
VERTEX
 8
CILINDRO_1
 10
49.5105
 20
-61.0014
 30
5.05
 70
192
 0
VERTEX
 8
CILINDRO_1
 10
49.4355
 20
-60.9393
 30
5.3301
 70
192
 0
VERTEX
 8
CILINDRO_1
 10
49.4355
 20
-60.9548
 30
5.3301
 70
192
 0
VERTEX
 8
CILINDRO_1
 10
49.4355
 20
-60.9703
 30
5.3301
 70
192
 0
VERTEX
 8
CILINDRO_1
 10
49.4355
 20
-60.9858
 30
5.3301
 70
192
 0
VERTEX
 8
CILINDRO_1
 10
49.4355
 20
-61.0014
 30
5.3301
 70
192
 0
VERTEX
 8
CILINDRO_1
 10
49.2304
 20
-60.9393
 30
5.5351
 70
192
 0
VERTEX
 8
CILINDRO_1
 10
49.2304
 20
-60.9548
 30
5.5351
 70
192
 0
VERTEX
 8
CILINDRO_1
 10
49.2304
 20
-60.9703
 30
5.5351
 70
192
 0
VERTEX
 8
CILINDRO_1
 10
49.2304
 20
-60.9858
 30
5.5351
 70
192
 0
VERTEX
 8
CILINDRO_1
 10
49.2304
 20
-61.0014
 30
5.5351
 70
192
 0
VERTEX
 8
CILINDRO_1
 10
48.9503
 20
-60.9393
 30
5.6102
 70
192
 0
VERTEX
 8
CILINDRO_1
 10
48.9503
 20
-60.9548
 30
5.6102
 70
192
 0
VERTEX
 8
CILINDRO_1
 10
48.9503
 20
-60.9703
 30
5.6102
 70
192
 0
VERTEX
 8
CILINDRO_1
 10
48.9503
 20
-60.9858
 30
5.6102
 70
192
 0
VERTEX
 8
CILINDRO_1
 10
48.9503
 20
-61.0014
 30
5.6102
 70
192
 0
VERTEX
 8
CILINDRO_1
 10
48.6702
 20
-60.9393
 30
5.5351
 70
192
 0
VERTEX
 8
CILINDRO_1
 10
48.6702
 20
-60.9548
 30
5.5351
 70
192
 0
VERTEX
 8
CILINDRO_1
 10
48.6702
 20
-60.9703
 30
5.5351
 70
192
 0
VERTEX
 8
CILINDRO_1
 10
48.6702
 20
-60.9858
 30
5.5351
 70
192
 0
VERTEX
 8
CILINDRO_1
 10
48.6702
 20
-61.0014
 30
5.5351
 70
192
 0
VERTEX
 8
CILINDRO_1
 10
48.4652
 20
-60.9393
 30
5.3301
 70
192
 0
VERTEX
 8
CILINDRO_1
 10
48.4652
 20
-60.9548
 30
5.3301
 70
192
 0
VERTEX
 8
CILINDRO_1
 10
48.4652
 20
-60.9703
 30
5.3301
 70
192
 0
VERTEX
 8
CILINDRO_1
 10
48.4652
 20
-60.9858
 30
5.3301
 70
192
 0
VERTEX
 8
CILINDRO_1
 10
48.4652
 20
-61.0014
 30
5.3301
 70
192
 0
VERTEX
 8
CILINDRO_1
 10
48.3901
 20
-60.9393
 30
5.05
 70
192
 0
VERTEX
 8
CILINDRO_1
 10
48.3901
 20
-60.9548
 30
5.05
 70
192
 0
VERTEX
 8
CILINDRO_1
 10
48.3901
 20
-60.9703
 30
5.05
 70
192
 0
VERTEX
 8
CILINDRO_1
 10
48.3901
 20
-60.9858
 30
5.05
 70
192
 0
VERTEX
 8
CILINDRO_1
 10
48.3901
 20
-61.0014
 30
5.05
 70
192
 0
VERTEX
 8
CILINDRO_1
 10
48.4652
 20
-60.9393
 30
4.7699
 70
192
 0
VERTEX
 8
CILINDRO_1
 10
48.4652
 20
-60.9548
 30
4.7699
 70
192
 0
VERTEX
 8
CILINDRO_1
 10
48.4652
 20
-60.9703
 30
4.7699
 70
192
 0
VERTEX
 8
CILINDRO_1
 10
48.4652
 20
-60.9858
 30
4.7699
 70
192
 0
VERTEX
 8
CILINDRO_1
 10
48.4652
 20
-61.0014
 30
4.7699
 70
192
 0
VERTEX
 8
CILINDRO_1
 10
48.6702
 20
-60.9393
 30
4.5648
 70
192
 0
VERTEX
 8
CILINDRO_1
 10
48.6702
 20
-60.9548
 30
4.5648
 70
192
 0
VERTEX
 8
CILINDRO_1
 10
48.6702
 20
-60.9703
 30
4.5648
 70
192
 0
VERTEX
 8
CILINDRO_1
 10
48.6702
 20
-60.9858
 30
4.5648
 70
192
 0
VERTEX
 8
CILINDRO_1
 10
48.6702
 20
-61.0014
 30
4.5648
 70
192
 0
VERTEX
 8
CILINDRO_1
 10
48.9503
 20
-60.9393
 30
4.4897
 70
192
 0
VERTEX
 8
CILINDRO_1
 10
48.9503
 20
-60.9548
 30
4.4897
 70
192
 0
VERTEX
 8
CILINDRO_1
 10
48.9503
 20
-60.9703
 30
4.4897
 70
192
 0
VERTEX
 8
CILINDRO_1
 10
48.9503
 20
-60.9858
 30
4.4897
 70
192
 0
VERTEX
 8
CILINDRO_1
 10
48.9503
 20
-61.0014
 30
4.4897
 70
192
 0
VERTEX
 8
CILINDRO_1
 10
49.2304
 20
-60.9393
 30
4.5648
 70
192
 0
VERTEX
 8
CILINDRO_1
 10
49.2304
 20
-60.9548
 30
4.5648
 70
192
 0
VERTEX
 8
CILINDRO_1
 10
49.2304
 20
-60.9703
 30
4.5648
 70
192
 0
VERTEX
 8
CILINDRO_1
 10
49.2304
 20
-60.9858
 30
4.5648
 70
192
 0
VERTEX
 8
CILINDRO_1
 10
49.2304
 20
-61.0014
 30
4.5648
 70
192
 0
VERTEX
 8
CILINDRO_1
 10
49.4355
 20
-60.9393
 30
4.7699
 70
192
 0
VERTEX
 8
CILINDRO_1
 10
49.4355
 20
-60.9548
 30
4.7699
 70
192
 0
VERTEX
 8
CILINDRO_1
 10
49.4355
 20
-60.9703
 30
4.7699
 70
192
 0
VERTEX
 8
CILINDRO_1
 10
49.4355
 20
-60.9858
 30
4.7699
 70
192
 0
VERTEX
 8
CILINDRO_1
 10
49.4355
 20
-61.0014
 30
4.7699
 70
192
 0
VERTEX
 8
CILINDRO_1
 10
0
 20
0
 30
0
 70
128
 71
1
 72
3
 73
8
 74
8
 0
VERTEX
 8
CILINDRO_1
 10
0
 20
0
 30
0
 70
128
 71
3
 72
4
 73
9
 74
8
 0
VERTEX
 8
CILINDRO_1
 10
0
 20
0
 30
0
 70
128
 71
4
 72
5
 73
10
 74
9
 0
VERTEX
 8
CILINDRO_1
 10
0
 20
0
 30
0
 70
128
 71
5
 72
6
 73
11
 74
10
 0
VERTEX
 8
CILINDRO_1
 10
0
 20
0
 30
0
 70
128
 71
6
 72
7
 73
12
 74
11
 0
VERTEX
 8
CILINDRO_1
 10
0
 20
0
 30
0
 70
128
 71
7
 72
2
 73
12
 74
12
 0
VERTEX
 8
CILINDRO_1
 10
0
 20
0
 30
0
 70
128
 71
1
 72
8
 73
13
 74
13
 0
VERTEX
 8
CILINDRO_1
 10
0
 20
0
 30
0
 70
128
 71
8
 72
9
 73
14
 74
13
 0
VERTEX
 8
CILINDRO_1
 10
0
 20
0
 30
0
 70
128
 71
9
 72
10
 73
15
 74
14
 0
VERTEX
 8
CILINDRO_1
 10
0
 20
0
 30
0
 70
128
 71
10
 72
11
 73
16
 74
15
 0
VERTEX
 8
CILINDRO_1
 10
0
 20
0
 30
0
 70
128
 71
11
 72
12
 73
17
 74
16
 0
VERTEX
 8
CILINDRO_1
 10
0
 20
0
 30
0
 70
128
 71
12
 72
2
 73
17
 74
17
 0
VERTEX
 8
CILINDRO_1
 10
0
 20
0
 30
0
 70
128
 71
1
 72
13
 73
18
 74
18
 0
VERTEX
 8
CILINDRO_1
 10
0
 20
0
 30
0
 70
128
 71
13
 72
14
 73
19
 74
18
 0
VERTEX
 8
CILINDRO_1
 10
0
 20
0
 30
0
 70
128
 71
14
 72
15
 73
20
 74
19
 0
VERTEX
 8
CILINDRO_1
 10
0
 20
0
 30
0
 70
128
 71
15
 72
16
 73
21
 74
20
 0
VERTEX
 8
CILINDRO_1
 10
0
 20
0
 30
0
 70
128
 71
16
 72
17
 73
22
 74
21
 0
VERTEX
 8
CILINDRO_1
 10
0
 20
0
 30
0
 70
128
 71
17
 72
2
 73
22
 74
22
 0
VERTEX
 8
CILINDRO_1
 10
0
 20
0
 30
0
 70
128
 71
1
 72
18
 73
23
 74
23
 0
VERTEX
 8
CILINDRO_1
 10
0
 20
0
 30
0
 70
128
 71
18
 72
19
 73
24
 74
23
 0
VERTEX
 8
CILINDRO_1
 10
0
 20
0
 30
0
 70
128
 71
19
 72
20
 73
25
 74
24
 0
VERTEX
 8
CILINDRO_1
 10
0
 20
0
 30
0
 70
128
 71
20
 72
21
 73
26
 74
25
 0
VERTEX
 8
CILINDRO_1
 10
0
 20
0
 30
0
 70
128
 71
21
 72
22
 73
27
 74
26
 0
VERTEX
 8
CILINDRO_1
 10
0
 20
0
 30
0
 70
128
 71
22
 72
2
 73
27
 74
27
 0
VERTEX
 8
CILINDRO_1
 10
0
 20
0
 30
0
 70
128
 71
1
 72
23
 73
28
 74
28
 0
VERTEX
 8
CILINDRO_1
 10
0
 20
0
 30
0
 70
128
 71
23
 72
24
 73
29
 74
28
 0
VERTEX
 8
CILINDRO_1
 10
0
 20
0
 30
0
 70
128
 71
24
 72
25
 73
30
 74
29
 0
VERTEX
 8
CILINDRO_1
 10
0
 20
0
 30
0
 70
128
 71
25
 72
26
 73
31
 74
30
 0
VERTEX
 8
CILINDRO_1
 10
0
 20
0
 30
0
 70
128
 71
26
 72
27
 73
32
 74
31
 0
VERTEX
 8
CILINDRO_1
 10
0
 20
0
 30
0
 70
128
 71
27
 72
2
 73
32
 74
32
 0
VERTEX
 8
CILINDRO_1
 10
0
 20
0
 30
0
 70
128
 71
1
 72
28
 73
33
 74
33
 0
VERTEX
 8
CILINDRO_1
 10
0
 20
0
 30
0
 70
128
 71
28
 72
29
 73
34
 74
33
 0
VERTEX
 8
CILINDRO_1
 10
0
 20
0
 30
0
 70
128
 71
29
 72
30
 73
35
 74
34
 0
VERTEX
 8
CILINDRO_1
 10
0
 20
0
 30
0
 70
128
 71
30
 72
31
 73
36
 74
35
 0
VERTEX
 8
CILINDRO_1
 10
0
 20
0
 30
0
 70
128
 71
31
 72
32
 73
37
 74
36
 0
VERTEX
 8
CILINDRO_1
 10
0
 20
0
 30
0
 70
128
 71
32
 72
2
 73
37
 74
37
 0
VERTEX
 8
CILINDRO_1
 10
0
 20
0
 30
0
 70
128
 71
1
 72
33
 73
38
 74
38
 0
VERTEX
 8
CILINDRO_1
 10
0
 20
0
 30
0
 70
128
 71
33
 72
34
 73
39
 74
38
 0
VERTEX
 8
CILINDRO_1
 10
0
 20
0
 30
0
 70
128
 71
34
 72
35
 73
40
 74
39
 0
VERTEX
 8
CILINDRO_1
 10
0
 20
0
 30
0
 70
128
 71
35
 72
36
 73
41
 74
40
 0
VERTEX
 8
CILINDRO_1
 10
0
 20
0
 30
0
 70
128
 71
36
 72
37
 73
42
 74
41
 0
VERTEX
 8
CILINDRO_1
 10
0
 20
0
 30
0
 70
128
 71
37
 72
2
 73
42
 74
42
 0
VERTEX
 8
CILINDRO_1
 10
0
 20
0
 30
0
 70
128
 71
1
 72
38
 73
43
 74
43
 0
VERTEX
 8
CILINDRO_1
 10
0
 20
0
 30
0
 70
128
 71
38
 72
39
 73
44
 74
43
 0
VERTEX
 8
CILINDRO_1
 10
0
 20
0
 30
0
 70
128
 71
39
 72
40
 73
45
 74
44
 0
VERTEX
 8
CILINDRO_1
 10
0
 20
0
 30
0
 70
128
 71
40
 72
41
 73
46
 74
45
 0
VERTEX
 8
CILINDRO_1
 10
0
 20
0
 30
0
 70
128
 71
41
 72
42
 73
47
 74
46
 0
VERTEX
 8
CILINDRO_1
 10
0
 20
0
 30
0
 70
128
 71
42
 72
2
 73
47
 74
47
 0
VERTEX
 8
CILINDRO_1
 10
0
 20
0
 30
0
 70
128
 71
1
 72
43
 73
48
 74
48
 0
VERTEX
 8
CILINDRO_1
 10
0
 20
0
 30
0
 70
128
 71
43
 72
44
 73
49
 74
48
 0
VERTEX
 8
CILINDRO_1
 10
0
 20
0
 30
0
 70
128
 71
44
 72
45
 73
50
 74
49
 0
VERTEX
 8
CILINDRO_1
 10
0
 20
0
 30
0
 70
128
 71
45
 72
46
 73
51
 74
50
 0
VERTEX
 8
CILINDRO_1
 10
0
 20
0
 30
0
 70
128
 71
46
 72
47
 73
52
 74
51
 0
VERTEX
 8
CILINDRO_1
 10
0
 20
0
 30
0
 70
128
 71
47
 72
2
 73
52
 74
52
 0
VERTEX
 8
CILINDRO_1
 10
0
 20
0
 30
0
 70
128
 71
1
 72
48
 73
53
 74
53
 0
VERTEX
 8
CILINDRO_1
 10
0
 20
0
 30
0
 70
128
 71
48
 72
49
 73
54
 74
53
 0
VERTEX
 8
CILINDRO_1
 10
0
 20
0
 30
0
 70
128
 71
49
 72
50
 73
55
 74
54
 0
VERTEX
 8
CILINDRO_1
 10
0
 20
0
 30
0
 70
128
 71
50
 72
51
 73
56
 74
55
 0
VERTEX
 8
CILINDRO_1
 10
0
 20
0
 30
0
 70
128
 71
51
 72
52
 73
57
 74
56
 0
VERTEX
 8
CILINDRO_1
 10
0
 20
0
 30
0
 70
128
 71
52
 72
2
 73
57
 74
57
 0
VERTEX
 8
CILINDRO_1
 10
0
 20
0
 30
0
 70
128
 71
1
 72
53
 73
58
 74
58
 0
VERTEX
 8
CILINDRO_1
 10
0
 20
0
 30
0
 70
128
 71
53
 72
54
 73
59
 74
58
 0
VERTEX
 8
CILINDRO_1
 10
0
 20
0
 30
0
 70
128
 71
54
 72
55
 73
60
 74
59
 0
VERTEX
 8
CILINDRO_1
 10
0
 20
0
 30
0
 70
128
 71
55
 72
56
 73
61
 74
60
 0
VERTEX
 8
CILINDRO_1
 10
0
 20
0
 30
0
 70
128
 71
56
 72
57
 73
62
 74
61
 0
VERTEX
 8
CILINDRO_1
 10
0
 20
0
 30
0
 70
128
 71
57
 72
2
 73
62
 74
62
 0
VERTEX
 8
CILINDRO_1
 10
0
 20
0
 30
0
 70
128
 71
1
 72
58
 73
3
 74
3
 0
VERTEX
 8
CILINDRO_1
 10
0
 20
0
 30
0
 70
128
 71
58
 72
59
 73
4
 74
3
 0
VERTEX
 8
CILINDRO_1
 10
0
 20
0
 30
0
 70
128
 71
59
 72
60
 73
5
 74
4
 0
VERTEX
 8
CILINDRO_1
 10
0
 20
0
 30
0
 70
128
 71
60
 72
61
 73
6
 74
5
 0
VERTEX
 8
CILINDRO_1
 10
0
 20
0
 30
0
 70
128
 71
61
 72
62
 73
7
 74
6
 0
VERTEX
 8
CILINDRO_1
 10
0
 20
0
 30
0
 70
128
 71
62
 72
2
 73
7
 74
7
 0
SEQEND
 0
POLYLINE
 8
CILINDRO
 66
1
 10
0.0
 20
0.0
 30
0.0
 70
64
 71
62
 72
72
 0
VERTEX
 8
CILINDRO
 10
41.4503
 20
-60.9393
 30
5.05
 70
192
 0
VERTEX
 8
CILINDRO
 10
41.4503
 20
-61.0014
 30
5.05
 70
192
 0
VERTEX
 8
CILINDRO
 10
42.0105
 20
-60.9393
 30
5.05
 70
192
 0
VERTEX
 8
CILINDRO
 10
42.0105
 20
-60.9548
 30
5.05
 70
192
 0
VERTEX
 8
CILINDRO
 10
42.0105
 20
-60.9703
 30
5.05
 70
192
 0
VERTEX
 8
CILINDRO
 10
42.0105
 20
-60.9858
 30
5.05
 70
192
 0
VERTEX
 8
CILINDRO
 10
42.0105
 20
-61.0014
 30
5.05
 70
192
 0
VERTEX
 8
CILINDRO
 10
41.9354
 20
-60.9393
 30
5.3301
 70
192
 0
VERTEX
 8
CILINDRO
 10
41.9354
 20
-60.9548
 30
5.3301
 70
192
 0
VERTEX
 8
CILINDRO
 10
41.9354
 20
-60.9703
 30
5.3301
 70
192
 0
VERTEX
 8
CILINDRO
 10
41.9354
 20
-60.9858
 30
5.3301
 70
192
 0
VERTEX
 8
CILINDRO
 10
41.9354
 20
-61.0014
 30
5.3301
 70
192
 0
VERTEX
 8
CILINDRO
 10
41.7304
 20
-60.9393
 30
5.5351
 70
192
 0
VERTEX
 8
CILINDRO
 10
41.7304
 20
-60.9548
 30
5.5351
 70
192
 0
VERTEX
 8
CILINDRO
 10
41.7304
 20
-60.9703
 30
5.5351
 70
192
 0
VERTEX
 8
CILINDRO
 10
41.7304
 20
-60.9858
 30
5.5351
 70
192
 0
VERTEX
 8
CILINDRO
 10
41.7304
 20
-61.0014
 30
5.5351
 70
192
 0
VERTEX
 8
CILINDRO
 10
41.4503
 20
-60.9393
 30
5.6102
 70
192
 0
VERTEX
 8
CILINDRO
 10
41.4503
 20
-60.9548
 30
5.6102
 70
192
 0
VERTEX
 8
CILINDRO
 10
41.4503
 20
-60.9703
 30
5.6102
 70
192
 0
VERTEX
 8
CILINDRO
 10
41.4503
 20
-60.9858
 30
5.6102
 70
192
 0
VERTEX
 8
CILINDRO
 10
41.4503
 20
-61.0014
 30
5.6102
 70
192
 0
VERTEX
 8
CILINDRO
 10
41.1702
 20
-60.9393
 30
5.5351
 70
192
 0
VERTEX
 8
CILINDRO
 10
41.1702
 20
-60.9548
 30
5.5351
 70
192
 0
VERTEX
 8
CILINDRO
 10
41.1702
 20
-60.9703
 30
5.5351
 70
192
 0
VERTEX
 8
CILINDRO
 10
41.1702
 20
-60.9858
 30
5.5351
 70
192
 0
VERTEX
 8
CILINDRO
 10
41.1702
 20
-61.0014
 30
5.5351
 70
192
 0
VERTEX
 8
CILINDRO
 10
40.9651
 20
-60.9393
 30
5.3301
 70
192
 0
VERTEX
 8
CILINDRO
 10
40.9651
 20
-60.9548
 30
5.3301
 70
192
 0
VERTEX
 8
CILINDRO
 10
40.9651
 20
-60.9703
 30
5.3301
 70
192
 0
VERTEX
 8
CILINDRO
 10
40.9651
 20
-60.9858
 30
5.3301
 70
192
 0
VERTEX
 8
CILINDRO
 10
40.9651
 20
-61.0014
 30
5.3301
 70
192
 0
VERTEX
 8
CILINDRO
 10
40.89
 20
-60.9393
 30
5.05
 70
192
 0
VERTEX
 8
CILINDRO
 10
40.89
 20
-60.9548
 30
5.05
 70
192
 0
VERTEX
 8
CILINDRO
 10
40.89
 20
-60.9703
 30
5.05
 70
192
 0
VERTEX
 8
CILINDRO
 10
40.89
 20
-60.9858
 30
5.05
 70
192
 0
VERTEX
 8
CILINDRO
 10
40.89
 20
-61.0014
 30
5.05
 70
192
 0
VERTEX
 8
CILINDRO
 10
40.9651
 20
-60.9393
 30
4.7699
 70
192
 0
VERTEX
 8
CILINDRO
 10
40.9651
 20
-60.9548
 30
4.7699
 70
192
 0
VERTEX
 8
CILINDRO
 10
40.9651
 20
-60.9703
 30
4.7699
 70
192
 0
VERTEX
 8
CILINDRO
 10
40.9651
 20
-60.9858
 30
4.7699
 70
192
 0
VERTEX
 8
CILINDRO
 10
40.9651
 20
-61.0014
 30
4.7699
 70
192
 0
VERTEX
 8
CILINDRO
 10
41.1702
 20
-60.9393
 30
4.5648
 70
192
 0
VERTEX
 8
CILINDRO
 10
41.1702
 20
-60.9548
 30
4.5648
 70
192
 0
VERTEX
 8
CILINDRO
 10
41.1702
 20
-60.9703
 30
4.5648
 70
192
 0
VERTEX
 8
CILINDRO
 10
41.1702
 20
-60.9858
 30
4.5648
 70
192
 0
VERTEX
 8
CILINDRO
 10
41.1702
 20
-61.0014
 30
4.5648
 70
192
 0
VERTEX
 8
CILINDRO
 10
41.4503
 20
-60.9393
 30
4.4897
 70
192
 0
VERTEX
 8
CILINDRO
 10
41.4503
 20
-60.9548
 30
4.4897
 70
192
 0
VERTEX
 8
CILINDRO
 10
41.4503
 20
-60.9703
 30
4.4897
 70
192
 0
VERTEX
 8
CILINDRO
 10
41.4503
 20
-60.9858
 30
4.4897
 70
192
 0
VERTEX
 8
CILINDRO
 10
41.4503
 20
-61.0014
 30
4.4897
 70
192
 0
VERTEX
 8
CILINDRO
 10
41.7304
 20
-60.9393
 30
4.5648
 70
192
 0
VERTEX
 8
CILINDRO
 10
41.7304
 20
-60.9548
 30
4.5648
 70
192
 0
VERTEX
 8
CILINDRO
 10
41.7304
 20
-60.9703
 30
4.5648
 70
192
 0
VERTEX
 8
CILINDRO
 10
41.7304
 20
-60.9858
 30
4.5648
 70
192
 0
VERTEX
 8
CILINDRO
 10
41.7304
 20
-61.0014
 30
4.5648
 70
192
 0
VERTEX
 8
CILINDRO
 10
41.9354
 20
-60.9393
 30
4.7699
 70
192
 0
VERTEX
 8
CILINDRO
 10
41.9354
 20
-60.9548
 30
4.7699
 70
192
 0
VERTEX
 8
CILINDRO
 10
41.9354
 20
-60.9703
 30
4.7699
 70
192
 0
VERTEX
 8
CILINDRO
 10
41.9354
 20
-60.9858
 30
4.7699
 70
192
 0
VERTEX
 8
CILINDRO
 10
41.9354
 20
-61.0014
 30
4.7699
 70
192
 0
VERTEX
 8
CILINDRO
 10
0
 20
0
 30
0
 70
128
 71
1
 72
3
 73
8
 74
8
 0
VERTEX
 8
CILINDRO
 10
0
 20
0
 30
0
 70
128
 71
3
 72
4
 73
9
 74
8
 0
VERTEX
 8
CILINDRO
 10
0
 20
0
 30
0
 70
128
 71
4
 72
5
 73
10
 74
9
 0
VERTEX
 8
CILINDRO
 10
0
 20
0
 30
0
 70
128
 71
5
 72
6
 73
11
 74
10
 0
VERTEX
 8
CILINDRO
 10
0
 20
0
 30
0
 70
128
 71
6
 72
7
 73
12
 74
11
 0
VERTEX
 8
CILINDRO
 10
0
 20
0
 30
0
 70
128
 71
7
 72
2
 73
12
 74
12
 0
VERTEX
 8
CILINDRO
 10
0
 20
0
 30
0
 70
128
 71
1
 72
8
 73
13
 74
13
 0
VERTEX
 8
CILINDRO
 10
0
 20
0
 30
0
 70
128
 71
8
 72
9
 73
14
 74
13
 0
VERTEX
 8
CILINDRO
 10
0
 20
0
 30
0
 70
128
 71
9
 72
10
 73
15
 74
14
 0
VERTEX
 8
CILINDRO
 10
0
 20
0
 30
0
 70
128
 71
10
 72
11
 73
16
 74
15
 0
VERTEX
 8
CILINDRO
 10
0
 20
0
 30
0
 70
128
 71
11
 72
12
 73
17
 74
16
 0
VERTEX
 8
CILINDRO
 10
0
 20
0
 30
0
 70
128
 71
12
 72
2
 73
17
 74
17
 0
VERTEX
 8
CILINDRO
 10
0
 20
0
 30
0
 70
128
 71
1
 72
13
 73
18
 74
18
 0
VERTEX
 8
CILINDRO
 10
0
 20
0
 30
0
 70
128
 71
13
 72
14
 73
19
 74
18
 0
VERTEX
 8
CILINDRO
 10
0
 20
0
 30
0
 70
128
 71
14
 72
15
 73
20
 74
19
 0
VERTEX
 8
CILINDRO
 10
0
 20
0
 30
0
 70
128
 71
15
 72
16
 73
21
 74
20
 0
VERTEX
 8
CILINDRO
 10
0
 20
0
 30
0
 70
128
 71
16
 72
17
 73
22
 74
21
 0
VERTEX
 8
CILINDRO
 10
0
 20
0
 30
0
 70
128
 71
17
 72
2
 73
22
 74
22
 0
VERTEX
 8
CILINDRO
 10
0
 20
0
 30
0
 70
128
 71
1
 72
18
 73
23
 74
23
 0
VERTEX
 8
CILINDRO
 10
0
 20
0
 30
0
 70
128
 71
18
 72
19
 73
24
 74
23
 0
VERTEX
 8
CILINDRO
 10
0
 20
0
 30
0
 70
128
 71
19
 72
20
 73
25
 74
24
 0
VERTEX
 8
CILINDRO
 10
0
 20
0
 30
0
 70
128
 71
20
 72
21
 73
26
 74
25
 0
VERTEX
 8
CILINDRO
 10
0
 20
0
 30
0
 70
128
 71
21
 72
22
 73
27
 74
26
 0
VERTEX
 8
CILINDRO
 10
0
 20
0
 30
0
 70
128
 71
22
 72
2
 73
27
 74
27
 0
VERTEX
 8
CILINDRO
 10
0
 20
0
 30
0
 70
128
 71
1
 72
23
 73
28
 74
28
 0
VERTEX
 8
CILINDRO
 10
0
 20
0
 30
0
 70
128
 71
23
 72
24
 73
29
 74
28
 0
VERTEX
 8
CILINDRO
 10
0
 20
0
 30
0
 70
128
 71
24
 72
25
 73
30
 74
29
 0
VERTEX
 8
CILINDRO
 10
0
 20
0
 30
0
 70
128
 71
25
 72
26
 73
31
 74
30
 0
VERTEX
 8
CILINDRO
 10
0
 20
0
 30
0
 70
128
 71
26
 72
27
 73
32
 74
31
 0
VERTEX
 8
CILINDRO
 10
0
 20
0
 30
0
 70
128
 71
27
 72
2
 73
32
 74
32
 0
VERTEX
 8
CILINDRO
 10
0
 20
0
 30
0
 70
128
 71
1
 72
28
 73
33
 74
33
 0
VERTEX
 8
CILINDRO
 10
0
 20
0
 30
0
 70
128
 71
28
 72
29
 73
34
 74
33
 0
VERTEX
 8
CILINDRO
 10
0
 20
0
 30
0
 70
128
 71
29
 72
30
 73
35
 74
34
 0
VERTEX
 8
CILINDRO
 10
0
 20
0
 30
0
 70
128
 71
30
 72
31
 73
36
 74
35
 0
VERTEX
 8
CILINDRO
 10
0
 20
0
 30
0
 70
128
 71
31
 72
32
 73
37
 74
36
 0
VERTEX
 8
CILINDRO
 10
0
 20
0
 30
0
 70
128
 71
32
 72
2
 73
37
 74
37
 0
VERTEX
 8
CILINDRO
 10
0
 20
0
 30
0
 70
128
 71
1
 72
33
 73
38
 74
38
 0
VERTEX
 8
CILINDRO
 10
0
 20
0
 30
0
 70
128
 71
33
 72
34
 73
39
 74
38
 0
VERTEX
 8
CILINDRO
 10
0
 20
0
 30
0
 70
128
 71
34
 72
35
 73
40
 74
39
 0
VERTEX
 8
CILINDRO
 10
0
 20
0
 30
0
 70
128
 71
35
 72
36
 73
41
 74
40
 0
VERTEX
 8
CILINDRO
 10
0
 20
0
 30
0
 70
128
 71
36
 72
37
 73
42
 74
41
 0
VERTEX
 8
CILINDRO
 10
0
 20
0
 30
0
 70
128
 71
37
 72
2
 73
42
 74
42
 0
VERTEX
 8
CILINDRO
 10
0
 20
0
 30
0
 70
128
 71
1
 72
38
 73
43
 74
43
 0
VERTEX
 8
CILINDRO
 10
0
 20
0
 30
0
 70
128
 71
38
 72
39
 73
44
 74
43
 0
VERTEX
 8
CILINDRO
 10
0
 20
0
 30
0
 70
128
 71
39
 72
40
 73
45
 74
44
 0
VERTEX
 8
CILINDRO
 10
0
 20
0
 30
0
 70
128
 71
40
 72
41
 73
46
 74
45
 0
VERTEX
 8
CILINDRO
 10
0
 20
0
 30
0
 70
128
 71
41
 72
42
 73
47
 74
46
 0
VERTEX
 8
CILINDRO
 10
0
 20
0
 30
0
 70
128
 71
42
 72
2
 73
47
 74
47
 0
VERTEX
 8
CILINDRO
 10
0
 20
0
 30
0
 70
128
 71
1
 72
43
 73
48
 74
48
 0
VERTEX
 8
CILINDRO
 10
0
 20
0
 30
0
 70
128
 71
43
 72
44
 73
49
 74
48
 0
VERTEX
 8
CILINDRO
 10
0
 20
0
 30
0
 70
128
 71
44
 72
45
 73
50
 74
49
 0
VERTEX
 8
CILINDRO
 10
0
 20
0
 30
0
 70
128
 71
45
 72
46
 73
51
 74
50
 0
VERTEX
 8
CILINDRO
 10
0
 20
0
 30
0
 70
128
 71
46
 72
47
 73
52
 74
51
 0
VERTEX
 8
CILINDRO
 10
0
 20
0
 30
0
 70
128
 71
47
 72
2
 73
52
 74
52
 0
VERTEX
 8
CILINDRO
 10
0
 20
0
 30
0
 70
128
 71
1
 72
48
 73
53
 74
53
 0
VERTEX
 8
CILINDRO
 10
0
 20
0
 30
0
 70
128
 71
48
 72
49
 73
54
 74
53
 0
VERTEX
 8
CILINDRO
 10
0
 20
0
 30
0
 70
128
 71
49
 72
50
 73
55
 74
54
 0
VERTEX
 8
CILINDRO
 10
0
 20
0
 30
0
 70
128
 71
50
 72
51
 73
56
 74
55
 0
VERTEX
 8
CILINDRO
 10
0
 20
0
 30
0
 70
128
 71
51
 72
52
 73
57
 74
56
 0
VERTEX
 8
CILINDRO
 10
0
 20
0
 30
0
 70
128
 71
52
 72
2
 73
57
 74
57
 0
VERTEX
 8
CILINDRO
 10
0
 20
0
 30
0
 70
128
 71
1
 72
53
 73
58
 74
58
 0
VERTEX
 8
CILINDRO
 10
0
 20
0
 30
0
 70
128
 71
53
 72
54
 73
59
 74
58
 0
VERTEX
 8
CILINDRO
 10
0
 20
0
 30
0
 70
128
 71
54
 72
55
 73
60
 74
59
 0
VERTEX
 8
CILINDRO
 10
0
 20
0
 30
0
 70
128
 71
55
 72
56
 73
61
 74
60
 0
VERTEX
 8
CILINDRO
 10
0
 20
0
 30
0
 70
128
 71
56
 72
57
 73
62
 74
61
 0
VERTEX
 8
CILINDRO
 10
0
 20
0
 30
0
 70
128
 71
57
 72
2
 73
62
 74
62
 0
VERTEX
 8
CILINDRO
 10
0
 20
0
 30
0
 70
128
 71
1
 72
58
 73
3
 74
3
 0
VERTEX
 8
CILINDRO
 10
0
 20
0
 30
0
 70
128
 71
58
 72
59
 73
4
 74
3
 0
VERTEX
 8
CILINDRO
 10
0
 20
0
 30
0
 70
128
 71
59
 72
60
 73
5
 74
4
 0
VERTEX
 8
CILINDRO
 10
0
 20
0
 30
0
 70
128
 71
60
 72
61
 73
6
 74
5
 0
VERTEX
 8
CILINDRO
 10
0
 20
0
 30
0
 70
128
 71
61
 72
62
 73
7
 74
6
 0
VERTEX
 8
CILINDRO
 10
0
 20
0
 30
0
 70
128
 71
62
 72
2
 73
7
 74
7
 0
SEQEND
 0
POLYLINE
 8
CORNICE_2
 66
1
 10
0.0
 20
0.0
 30
0.0
 70
64
 71
32
 72
32
 0
VERTEX
 8
CORNICE_2
 10
-48.0998
 20
-44.7876
 30
8.0908
 70
192
 0
VERTEX
 8
CORNICE_2
 10
-48.0998
 20
-44.7772
 30
8.1498
 70
192
 0
VERTEX
 8
CORNICE_2
 10
-0.0999
 20
-44.7876
 30
8.0908
 70
192
 0
VERTEX
 8
CORNICE_2
 10
-0.0999
 20
-44.7772
 30
8.1498
 70
192
 0
VERTEX
 8
CORNICE_2
 10
-0.0999
 20
-3.9181
 30
0.8843
 70
192
 0
VERTEX
 8
CORNICE_2
 10
-0.0999
 20
-3.9077
 30
0.9434
 70
192
 0
VERTEX
 8
CORNICE_2
 10
-48.0998
 20
-3.9181
 30
0.8843
 70
192
 0
VERTEX
 8
CORNICE_2
 10
-48.0998
 20
-3.9077
 30
0.9434
 70
192
 0
VERTEX
 8
CORNICE_2
 10
-46.3
 20
-44.7772
 30
8.1498
 70
192
 0
VERTEX
 8
CORNICE_2
 10
-46.3
 20
-44.7876
 30
8.0908
 70
192
 0
VERTEX
 8
CORNICE_2
 10
-46.3
 20
-3.9077
 30
0.9434
 70
192
 0
VERTEX
 8
CORNICE_2
 10
-46.3
 20
-3.9181
 30
0.8843
 70
192
 0
VERTEX
 8
CORNICE_2
 10
-1.9
 20
-3.9077
 30
0.9434
 70
192
 0
VERTEX
 8
CORNICE_2
 10
-1.9
 20
-3.9181
 30
0.8843
 70
192
 0
VERTEX
 8
CORNICE_2
 10
-1.9
 20
-44.7772
 30
8.1498
 70
192
 0
VERTEX
 8
CORNICE_2
 10
-1.9
 20
-44.7876
 30
8.0908
 70
192
 0
VERTEX
 8
CORNICE_2
 10
-0.0999
 20
-43.0167
 30
7.8394
 70
192
 0
VERTEX
 8
CORNICE_2
 10
-0.0999
 20
-43.0167
 30
7.7785
 70
192
 0
VERTEX
 8
CORNICE_2
 10
-48.0998
 20
-43.0167
 30
7.8394
 70
192
 0
VERTEX
 8
CORNICE_2
 10
-48.0998
 20
-43.0167
 30
7.7785
 70
192
 0
VERTEX
 8
CORNICE_2
 10
-46.3
 20
-43.0167
 30
7.8394
 70
192
 0
VERTEX
 8
CORNICE_2
 10
-46.3
 20
-43.0167
 30
7.7785
 70
192
 0
VERTEX
 8
CORNICE_2
 10
-1.9
 20
-43.0167
 30
7.8394
 70
192
 0
VERTEX
 8
CORNICE_2
 10
-1.9
 20
-43.0167
 30
7.7785
 70
192
 0
VERTEX
 8
CORNICE_2
 10
-48.0998
 20
-5.6763
 30
1.2552
 70
192
 0
VERTEX
 8
CORNICE_2
 10
-48.0998
 20
-5.6763
 30
1.1944
 70
192
 0
VERTEX
 8
CORNICE_2
 10
-46.3
 20
-5.6763
 30
1.1944
 70
192
 0
VERTEX
 8
CORNICE_2
 10
-1.9
 20
-5.6763
 30
1.2552
 70
192
 0
VERTEX
 8
CORNICE_2
 10
-46.3
 20
-5.6763
 30
1.2552
 70
192
 0
VERTEX
 8
CORNICE_2
 10
-0.0999
 20
-5.6763
 30
1.2552
 70
192
 0
VERTEX
 8
CORNICE_2
 10
-0.0999
 20
-5.6763
 30
1.1944
 70
192
 0
VERTEX
 8
CORNICE_2
 10
-1.9
 20
-5.6763
 30
1.1944
 70
192
 0
VERTEX
 8
CORNICE_2
 10
0
 20
0
 30
0
 70
128
 71
1
 72
2
 73
9
 74
10
 0
VERTEX
 8
CORNICE_2
 10
0
 20
0
 30
0
 70
128
 71
3
 72
4
 73
17
 74
18
 0
VERTEX
 8
CORNICE_2
 10
0
 20
0
 30
0
 70
128
 71
5
 72
6
 73
13
 74
14
 0
VERTEX
 8
CORNICE_2
 10
0
 20
0
 30
0
 70
128
 71
7
 72
8
 73
25
 74
26
 0
VERTEX
 8
CORNICE_2
 10
0
 20
0
 30
0
 70
128
 71
2
 72
19
 73
21
 74
9
 0
VERTEX
 8
CORNICE_2
 10
0
 20
0
 30
0
 70
128
 71
7
 72
26
 73
27
 74
12
 0
VERTEX
 8
CORNICE_2
 10
0
 20
0
 30
0
 70
128
 71
9
 72
15
 73
16
 74
10
 0
VERTEX
 8
CORNICE_2
 10
0
 20
0
 30
0
 70
128
 71
11
 72
8
 73
7
 74
12
 0
VERTEX
 8
CORNICE_2
 10
0
 20
0
 30
0
 70
128
 71
11
 72
13
 73
28
 74
29
 0
VERTEX
 8
CORNICE_2
 10
0
 20
0
 30
0
 70
128
 71
10
 72
16
 73
24
 74
22
 0
VERTEX
 8
CORNICE_2
 10
0
 20
0
 30
0
 70
128
 71
13
 72
11
 73
12
 74
14
 0
VERTEX
 8
CORNICE_2
 10
0
 20
0
 30
0
 70
128
 71
15
 72
4
 73
3
 74
16
 0
VERTEX
 8
CORNICE_2
 10
0
 20
0
 30
0
 70
128
 71
13
 72
6
 73
30
 74
28
 0
VERTEX
 8
CORNICE_2
 10
0
 20
0
 30
0
 70
128
 71
16
 72
3
 73
18
 74
24
 0
VERTEX
 8
CORNICE_2
 10
0
 20
0
 30
0
 70
128
 71
17
 72
30
 73
31
 74
18
 0
VERTEX
 8
CORNICE_2
 10
0
 20
0
 30
0
 70
128
 71
19
 72
2
 73
1
 74
20
 0
VERTEX
 8
CORNICE_2
 10
0
 20
0
 30
0
 70
128
 71
19
 72
25
 73
29
 74
21
 0
VERTEX
 8
CORNICE_2
 10
0
 20
0
 30
0
 70
128
 71
20
 72
1
 73
10
 74
22
 0
VERTEX
 8
CORNICE_2
 10
0
 20
0
 30
0
 70
128
 71
23
 72
15
 73
9
 74
21
 0
VERTEX
 8
CORNICE_2
 10
0
 20
0
 30
0
 70
128
 71
32
 72
14
 73
12
 74
27
 0
VERTEX
 8
CORNICE_2
 10
0
 20
0
 30
0
 70
128
 71
17
 72
4
 73
15
 74
23
 0
VERTEX
 8
CORNICE_2
 10
0
 20
0
 30
0
 70
128
 71
18
 72
31
 73
32
 74
24
 0
VERTEX
 8
CORNICE_2
 10
0
 20
0
 30
0
 70
128
 71
25
 72
19
 73
20
 74
26
 0
VERTEX
 8
CORNICE_2
 10
0
 20
0
 30
0
 70
128
 71
26
 72
20
 73
22
 74
27
 0
VERTEX
 8
CORNICE_2
 10
0
 20
0
 30
0
 70
128
 71
31
 72
5
 73
14
 74
32
 0
VERTEX
 8
CORNICE_2
 10
0
 20
0
 30
0
 70
128
 71
30
 72
17
 73
23
 74
28
 0
VERTEX
 8
CORNICE_2
 10
0
 20
0
 30
0
 70
128
 71
30
 72
6
 73
5
 74
31
 0
VERTEX
 8
CORNICE_2
 10
0
 20
0
 30
0
 70
128
 71
25
 72
8
 73
11
 74
29
 0
VERTEX
 8
CORNICE_2
 10
0
 20
0
 30
0
 70
128
 71
21
 72
29
 73
27
 74
22
 0
VERTEX
 8
CORNICE_2
 10
0
 20
0
 30
0
 70
128
 71
23
 72
21
 73
22
 74
24
 0
VERTEX
 8
CORNICE_2
 10
0
 20
0
 30
0
 70
128
 71
28
 72
23
 73
24
 74
32
 0
VERTEX
 8
CORNICE_2
 10
0
 20
0
 30
0
 70
128
 71
29
 72
28
 73
32
 74
27
 0
SEQEND
 0
POLYLINE
 8
SFERA
 66
1
 10
0.0
 20
0.0
 30
0.0
 70
64
 71
114
 72
128
 0
VERTEX
 8
SFERA
 10
-24.0999
 20
-41.1829
 30
5.817
 70
192
 0
VERTEX
 8
SFERA
 10
-24.0999
 20
-41.0167
 30
6.7596
 70
192
 0
VERTEX
 8
SFERA
 10
-23.9167
 20
-41.1765
 30
5.8529
 70
192
 0
VERTEX
 8
SFERA
 10
-23.9307
 20
-41.1075
 30
5.8407
 70
192
 0
VERTEX
 8
SFERA
 10
-23.9704
 20
-41.049
 30
5.8304
 70
192
 0
VERTEX
 8
SFERA
 10
-24.0298
 20
-41.0099
 30
5.8235
 70
192
 0
VERTEX
 8
SFERA
 10
-24.0999
 20
-40.9962
 30
5.8211
 70
192
 0
VERTEX
 8
SFERA
 10
-24.17
 20
-41.0099
 30
5.8235
 70
192
 0
VERTEX
 8
SFERA
 10
-24.2294
 20
-41.049
 30
5.8304
 70
192
 0
VERTEX
 8
SFERA
 10
-24.2691
 20
-41.1075
 30
5.8407
 70
192
 0
VERTEX
 8
SFERA
 10
-24.283
 20
-41.1765
 30
5.8529
 70
192
 0
VERTEX
 8
SFERA
 10
-24.2691
 20
-41.2456
 30
5.8651
 70
192
 0
VERTEX
 8
SFERA
 10
-24.2294
 20
-41.3041
 30
5.8754
 70
192
 0
VERTEX
 8
SFERA
 10
-24.17
 20
-41.3432
 30
5.8823
 70
192
 0
VERTEX
 8
SFERA
 10
-24.0999
 20
-41.3569
 30
5.8847
 70
192
 0
VERTEX
 8
SFERA
 10
-24.0298
 20
-41.3432
 30
5.8823
 70
192
 0
VERTEX
 8
SFERA
 10
-23.9704
 20
-41.3041
 30
5.8754
 70
192
 0
VERTEX
 8
SFERA
 10
-23.9307
 20
-41.2456
 30
5.8651
 70
192
 0
VERTEX
 8
SFERA
 10
-23.7615
 20
-41.1585
 30
5.9551
 70
192
 0
VERTEX
 8
SFERA
 10
-23.7872
 20
-41.031
 30
5.9326
 70
192
 0
VERTEX
 8
SFERA
 10
-23.8606
 20
-40.9229
 30
5.9135
 70
192
 0
VERTEX
 8
SFERA
 10
-23.9704
 20
-40.8506
 30
5.9008
 70
192
 0
VERTEX
 8
SFERA
 10
-24.0999
 20
-40.8253
 30
5.8963
 70
192
 0
VERTEX
 8
SFERA
 10
-24.2294
 20
-40.8506
 30
5.9008
 70
192
 0
VERTEX
 8
SFERA
 10
-24.3392
 20
-40.9229
 30
5.9135
 70
192
 0
VERTEX
 8
SFERA
 10
-24.4125
 20
-41.031
 30
5.9326
 70
192
 0
VERTEX
 8
SFERA
 10
-24.4383
 20
-41.1585
 30
5.9551
 70
192
 0
VERTEX
 8
SFERA
 10
-24.4125
 20
-41.2861
 30
5.9775
 70
192
 0
VERTEX
 8
SFERA
 10
-24.3392
 20
-41.3942
 30
5.9966
 70
192
 0
VERTEX
 8
SFERA
 10
-24.2294
 20
-41.4664
 30
6.0093
 70
192
 0
VERTEX
 8
SFERA
 10
-24.0999
 20
-41.4918
 30
6.0138
 70
192
 0
VERTEX
 8
SFERA
 10
-23.9704
 20
-41.4664
 30
6.0093
 70
192
 0
VERTEX
 8
SFERA
 10
-23.8606
 20
-41.3942
 30
5.9966
 70
192
 0
VERTEX
 8
SFERA
 10
-23.7872
 20
-41.2861
 30
5.9775
 70
192
 0
VERTEX
 8
SFERA
 10
-23.6577
 20
-41.1316
 30
6.108
 70
192
 0
VERTEX
 8
SFERA
 10
-23.6914
 20
-40.9649
 30
6.0786
 70
192
 0
VERTEX
 8
SFERA
 10
-23.7872
 20
-40.8237
 30
6.0537
 70
192
 0
VERTEX
 8
SFERA
 10
-23.9307
 20
-40.7293
 30
6.037
 70
192
 0
VERTEX
 8
SFERA
 10
-24.0999
 20
-40.6961
 30
6.0312
 70
192
 0
VERTEX
 8
SFERA
 10
-24.2691
 20
-40.7293
 30
6.037
 70
192
 0
VERTEX
 8
SFERA
 10
-24.4125
 20
-40.8237
 30
6.0537
 70
192
 0
VERTEX
 8
SFERA
 10
-24.5084
 20
-40.9649
 30
6.0786
 70
192
 0
VERTEX
 8
SFERA
 10
-24.542
 20
-41.1316
 30
6.108
 70
192
 0
VERTEX
 8
SFERA
 10
-24.5084
 20
-41.2982
 30
6.1373
 70
192
 0
VERTEX
 8
SFERA
 10
-24.4125
 20
-41.4395
 30
6.1623
 70
192
 0
VERTEX
 8
SFERA
 10
-24.2691
 20
-41.5339
 30
6.1789
 70
192
 0
VERTEX
 8
SFERA
 10
-24.0999
 20
-41.567
 30
6.1847
 70
192
 0
VERTEX
 8
SFERA
 10
-23.9307
 20
-41.5339
 30
6.1789
 70
192
 0
VERTEX
 8
SFERA
 10
-23.7872
 20
-41.4395
 30
6.1623
 70
192
 0
VERTEX
 8
SFERA
 10
-23.6914
 20
-41.2982
 30
6.1373
 70
192
 0
VERTEX
 8
SFERA
 10
-23.6213
 20
-41.0998
 30
6.2883
 70
192
 0
VERTEX
 8
SFERA
 10
-23.6577
 20
-40.9194
 30
6.2565
 70
192
 0
VERTEX
 8
SFERA
 10
-23.7615
 20
-40.7665
 30
6.2296
 70
192
 0
VERTEX
 8
SFERA
 10
-23.9167
 20
-40.6643
 30
6.2115
 70
192
 0
VERTEX
 8
SFERA
 10
-24.0999
 20
-40.6285
 30
6.2052
 70
192
 0
VERTEX
 8
SFERA
 10
-24.283
 20
-40.6643
 30
6.2115
 70
192
 0
VERTEX
 8
SFERA
 10
-24.4383
 20
-40.7665
 30
6.2296
 70
192
 0
VERTEX
 8
SFERA
 10
-24.542
 20
-40.9194
 30
6.2565
 70
192
 0
VERTEX
 8
SFERA
 10
-24.5785
 20
-41.0998
 30
6.2883
 70
192
 0
VERTEX
 8
SFERA
 10
-24.542
 20
-41.2801
 30
6.3201
 70
192
 0
VERTEX
 8
SFERA
 10
-24.4383
 20
-41.433
 30
6.3471
 70
192
 0
VERTEX
 8
SFERA
 10
-24.283
 20
-41.5352
 30
6.3651
 70
192
 0
VERTEX
 8
SFERA
 10
-24.0999
 20
-41.5711
 30
6.3714
 70
192
 0
VERTEX
 8
SFERA
 10
-23.9167
 20
-41.5352
 30
6.3651
 70
192
 0
VERTEX
 8
SFERA
 10
-23.7615
 20
-41.433
 30
6.3471
 70
192
 0
VERTEX
 8
SFERA
 10
-23.6577
 20
-41.2801
 30
6.3201
 70
192
 0
VERTEX
 8
SFERA
 10
-23.6577
 20
-41.068
 30
6.4687
 70
192
 0
VERTEX
 8
SFERA
 10
-23.6914
 20
-40.9013
 30
6.4393
 70
192
 0
VERTEX
 8
SFERA
 10
-23.7872
 20
-40.7601
 30
6.4144
 70
192
 0
VERTEX
 8
SFERA
 10
-23.9307
 20
-40.6657
 30
6.3978
 70
192
 0
VERTEX
 8
SFERA
 10
-24.0999
 20
-40.6325
 30
6.3919
 70
192
 0
VERTEX
 8
SFERA
 10
-24.2691
 20
-40.6657
 30
6.3978
 70
192
 0
VERTEX
 8
SFERA
 10
-24.4125
 20
-40.7601
 30
6.4144
 70
192
 0
VERTEX
 8
SFERA
 10
-24.5084
 20
-40.9013
 30
6.4393
 70
192
 0
VERTEX
 8
SFERA
 10
-24.542
 20
-41.068
 30
6.4687
 70
192
 0
VERTEX
 8
SFERA
 10
-24.5084
 20
-41.2346
 30
6.4981
 70
192
 0
VERTEX
 8
SFERA
 10
-24.4125
 20
-41.3759
 30
6.523
 70
192
 0
VERTEX
 8
SFERA
 10
-24.2691
 20
-41.4703
 30
6.5396
 70
192
 0
VERTEX
 8
SFERA
 10
-24.0999
 20
-41.5034
 30
6.5455
 70
192
 0
VERTEX
 8
SFERA
 10
-23.9307
 20
-41.4703
 30
6.5396
 70
192
 0
VERTEX
 8
SFERA
 10
-23.7872
 20
-41.3759
 30
6.523
 70
192
 0
VERTEX
 8
SFERA
 10
-23.6914
 20
-41.2346
 30
6.4981
 70
192
 0
VERTEX
 8
SFERA
 10
-23.7615
 20
-41.041
 30
6.6216
 70
192
 0
VERTEX
 8
SFERA
 10
-23.7872
 20
-40.9135
 30
6.5991
 70
192
 0
VERTEX
 8
SFERA
 10
-23.8606
 20
-40.8053
 30
6.58
 70
192
 0
VERTEX
 8
SFERA
 10
-23.9704
 20
-40.7331
 30
6.5673
 70
192
 0
VERTEX
 8
SFERA
 10
-24.0999
 20
-40.7077
 30
6.5628
 70
192
 0
VERTEX
 8
SFERA
 10
-24.2294
 20
-40.7331
 30
6.5673
 70
192
 0
VERTEX
 8
SFERA
 10
-24.3392
 20
-40.8053
 30
6.58
 70
192
 0
VERTEX
 8
SFERA
 10
-24.4125
 20
-40.9135
 30
6.5991
 70
192
 0
VERTEX
 8
SFERA
 10
-24.4383
 20
-41.041
 30
6.6216
 70
192
 0
VERTEX
 8
SFERA
 10
-24.4125
 20
-41.1685
 30
6.6441
 70
192
 0
VERTEX
 8
SFERA
 10
-24.3392
 20
-41.2767
 30
6.6631
 70
192
 0
VERTEX
 8
SFERA
 10
-24.2294
 20
-41.3489
 30
6.6759
 70
192
 0
VERTEX
 8
SFERA
 10
-24.0999
 20
-41.3743
 30
6.6804
 70
192
 0
VERTEX
 8
SFERA
 10
-23.9704
 20
-41.3489
 30
6.6759
 70
192
 0
VERTEX
 8
SFERA
 10
-23.8606
 20
-41.2767
 30
6.6631
 70
192
 0
VERTEX
 8
SFERA
 10
-23.7872
 20
-41.1685
 30
6.6441
 70
192
 0
VERTEX
 8
SFERA
 10
-23.9167
 20
-41.023
 30
6.7238
 70
192
 0
VERTEX
 8
SFERA
 10
-23.9307
 20
-40.954
 30
6.7116
 70
192
 0
VERTEX
 8
SFERA
 10
-23.9704
 20
-40.8954
 30
6.7013
 70
192
 0
VERTEX
 8
SFERA
 10
-24.0298
 20
-40.8564
 30
6.6944
 70
192
 0
VERTEX
 8
SFERA
 10
-24.0999
 20
-40.8426
 30
6.692
 70
192
 0
VERTEX
 8
SFERA
 10
-24.17
 20
-40.8564
 30
6.6944
 70
192
 0
VERTEX
 8
SFERA
 10
-24.2294
 20
-40.8954
 30
6.7013
 70
192
 0
VERTEX
 8
SFERA
 10
-24.2691
 20
-40.954
 30
6.7116
 70
192
 0
VERTEX
 8
SFERA
 10
-24.283
 20
-41.023
 30
6.7238
 70
192
 0
VERTEX
 8
SFERA
 10
-24.2691
 20
-41.092
 30
6.7359
 70
192
 0
VERTEX
 8
SFERA
 10
-24.2294
 20
-41.1505
 30
6.7463
 70
192
 0
VERTEX
 8
SFERA
 10
-24.17
 20
-41.1896
 30
6.7531
 70
192
 0
VERTEX
 8
SFERA
 10
-24.0999
 20
-41.2034
 30
6.7556
 70
192
 0
VERTEX
 8
SFERA
 10
-24.0298
 20
-41.1896
 30
6.7531
 70
192
 0
VERTEX
 8
SFERA
 10
-23.9704
 20
-41.1505
 30
6.7463
 70
192
 0
VERTEX
 8
SFERA
 10
-23.9307
 20
-41.092
 30
6.7359
 70
192
 0
VERTEX
 8
SFERA
 10
0
 20
0
 30
0
 70
128
 71
3
 72
19
 73
20
 74
4
 0
VERTEX
 8
SFERA
 10
0
 20
0
 30
0
 70
128
 71
4
 72
20
 73
21
 74
5
 0
VERTEX
 8
SFERA
 10
0
 20
0
 30
0
 70
128
 71
5
 72
21
 73
22
 74
6
 0
VERTEX
 8
SFERA
 10
0
 20
0
 30
0
 70
128
 71
6
 72
22
 73
23
 74
7
 0
VERTEX
 8
SFERA
 10
0
 20
0
 30
0
 70
128
 71
7
 72
23
 73
24
 74
8
 0
VERTEX
 8
SFERA
 10
0
 20
0
 30
0
 70
128
 71
8
 72
24
 73
25
 74
9
 0
VERTEX
 8
SFERA
 10
0
 20
0
 30
0
 70
128
 71
9
 72
25
 73
26
 74
10
 0
VERTEX
 8
SFERA
 10
0
 20
0
 30
0
 70
128
 71
10
 72
26
 73
27
 74
11
 0
VERTEX
 8
SFERA
 10
0
 20
0
 30
0
 70
128
 71
11
 72
27
 73
28
 74
12
 0
VERTEX
 8
SFERA
 10
0
 20
0
 30
0
 70
128
 71
12
 72
28
 73
29
 74
13
 0
VERTEX
 8
SFERA
 10
0
 20
0
 30
0
 70
128
 71
13
 72
29
 73
30
 74
14
 0
VERTEX
 8
SFERA
 10
0
 20
0
 30
0
 70
128
 71
14
 72
30
 73
31
 74
15
 0
VERTEX
 8
SFERA
 10
0
 20
0
 30
0
 70
128
 71
15
 72
31
 73
32
 74
16
 0
VERTEX
 8
SFERA
 10
0
 20
0
 30
0
 70
128
 71
16
 72
32
 73
33
 74
17
 0
VERTEX
 8
SFERA
 10
0
 20
0
 30
0
 70
128
 71
17
 72
33
 73
34
 74
18
 0
VERTEX
 8
SFERA
 10
0
 20
0
 30
0
 70
128
 71
18
 72
34
 73
19
 74
3
 0
VERTEX
 8
SFERA
 10
0
 20
0
 30
0
 70
128
 71
19
 72
35
 73
36
 74
20
 0
VERTEX
 8
SFERA
 10
0
 20
0
 30
0
 70
128
 71
20
 72
36
 73
37
 74
21
 0
VERTEX
 8
SFERA
 10
0
 20
0
 30
0
 70
128
 71
21
 72
37
 73
38
 74
22
 0
VERTEX
 8
SFERA
 10
0
 20
0
 30
0
 70
128
 71
22
 72
38
 73
39
 74
23
 0
VERTEX
 8
SFERA
 10
0
 20
0
 30
0
 70
128
 71
23
 72
39
 73
40
 74
24
 0
VERTEX
 8
SFERA
 10
0
 20
0
 30
0
 70
128
 71
24
 72
40
 73
41
 74
25
 0
VERTEX
 8
SFERA
 10
0
 20
0
 30
0
 70
128
 71
25
 72
41
 73
42
 74
26
 0
VERTEX
 8
SFERA
 10
0
 20
0
 30
0
 70
128
 71
26
 72
42
 73
43
 74
27
 0
VERTEX
 8
SFERA
 10
0
 20
0
 30
0
 70
128
 71
27
 72
43
 73
44
 74
28
 0
VERTEX
 8
SFERA
 10
0
 20
0
 30
0
 70
128
 71
28
 72
44
 73
45
 74
29
 0
VERTEX
 8
SFERA
 10
0
 20
0
 30
0
 70
128
 71
29
 72
45
 73
46
 74
30
 0
VERTEX
 8
SFERA
 10
0
 20
0
 30
0
 70
128
 71
30
 72
46
 73
47
 74
31
 0
VERTEX
 8
SFERA
 10
0
 20
0
 30
0
 70
128
 71
31
 72
47
 73
48
 74
32
 0
VERTEX
 8
SFERA
 10
0
 20
0
 30
0
 70
128
 71
32
 72
48
 73
49
 74
33
 0
VERTEX
 8
SFERA
 10
0
 20
0
 30
0
 70
128
 71
33
 72
49
 73
50
 74
34
 0
VERTEX
 8
SFERA
 10
0
 20
0
 30
0
 70
128
 71
34
 72
50
 73
35
 74
19
 0
VERTEX
 8
SFERA
 10
0
 20
0
 30
0
 70
128
 71
35
 72
51
 73
52
 74
36
 0
VERTEX
 8
SFERA
 10
0
 20
0
 30
0
 70
128
 71
36
 72
52
 73
53
 74
37
 0
VERTEX
 8
SFERA
 10
0
 20
0
 30
0
 70
128
 71
37
 72
53
 73
54
 74
38
 0
VERTEX
 8
SFERA
 10
0
 20
0
 30
0
 70
128
 71
38
 72
54
 73
55
 74
39
 0
VERTEX
 8
SFERA
 10
0
 20
0
 30
0
 70
128
 71
39
 72
55
 73
56
 74
40
 0
VERTEX
 8
SFERA
 10
0
 20
0
 30
0
 70
128
 71
40
 72
56
 73
57
 74
41
 0
VERTEX
 8
SFERA
 10
0
 20
0
 30
0
 70
128
 71
41
 72
57
 73
58
 74
42
 0
VERTEX
 8
SFERA
 10
0
 20
0
 30
0
 70
128
 71
42
 72
58
 73
59
 74
43
 0
VERTEX
 8
SFERA
 10
0
 20
0
 30
0
 70
128
 71
43
 72
59
 73
60
 74
44
 0
VERTEX
 8
SFERA
 10
0
 20
0
 30
0
 70
128
 71
44
 72
60
 73
61
 74
45
 0
VERTEX
 8
SFERA
 10
0
 20
0
 30
0
 70
128
 71
45
 72
61
 73
62
 74
46
 0
VERTEX
 8
SFERA
 10
0
 20
0
 30
0
 70
128
 71
46
 72
62
 73
63
 74
47
 0
VERTEX
 8
SFERA
 10
0
 20
0
 30
0
 70
128
 71
47
 72
63
 73
64
 74
48
 0
VERTEX
 8
SFERA
 10
0
 20
0
 30
0
 70
128
 71
48
 72
64
 73
65
 74
49
 0
VERTEX
 8
SFERA
 10
0
 20
0
 30
0
 70
128
 71
49
 72
65
 73
66
 74
50
 0
VERTEX
 8
SFERA
 10
0
 20
0
 30
0
 70
128
 71
50
 72
66
 73
51
 74
35
 0
VERTEX
 8
SFERA
 10
0
 20
0
 30
0
 70
128
 71
51
 72
67
 73
68
 74
52
 0
VERTEX
 8
SFERA
 10
0
 20
0
 30
0
 70
128
 71
52
 72
68
 73
69
 74
53
 0
VERTEX
 8
SFERA
 10
0
 20
0
 30
0
 70
128
 71
53
 72
69
 73
70
 74
54
 0
VERTEX
 8
SFERA
 10
0
 20
0
 30
0
 70
128
 71
54
 72
70
 73
71
 74
55
 0
VERTEX
 8
SFERA
 10
0
 20
0
 30
0
 70
128
 71
55
 72
71
 73
72
 74
56
 0
VERTEX
 8
SFERA
 10
0
 20
0
 30
0
 70
128
 71
56
 72
72
 73
73
 74
57
 0
VERTEX
 8
SFERA
 10
0
 20
0
 30
0
 70
128
 71
57
 72
73
 73
74
 74
58
 0
VERTEX
 8
SFERA
 10
0
 20
0
 30
0
 70
128
 71
58
 72
74
 73
75
 74
59
 0
VERTEX
 8
SFERA
 10
0
 20
0
 30
0
 70
128
 71
59
 72
75
 73
76
 74
60
 0
VERTEX
 8
SFERA
 10
0
 20
0
 30
0
 70
128
 71
60
 72
76
 73
77
 74
61
 0
VERTEX
 8
SFERA
 10
0
 20
0
 30
0
 70
128
 71
61
 72
77
 73
78
 74
62
 0
VERTEX
 8
SFERA
 10
0
 20
0
 30
0
 70
128
 71
62
 72
78
 73
79
 74
63
 0
VERTEX
 8
SFERA
 10
0
 20
0
 30
0
 70
128
 71
63
 72
79
 73
80
 74
64
 0
VERTEX
 8
SFERA
 10
0
 20
0
 30
0
 70
128
 71
64
 72
80
 73
81
 74
65
 0
VERTEX
 8
SFERA
 10
0
 20
0
 30
0
 70
128
 71
65
 72
81
 73
82
 74
66
 0
VERTEX
 8
SFERA
 10
0
 20
0
 30
0
 70
128
 71
66
 72
82
 73
67
 74
51
 0
VERTEX
 8
SFERA
 10
0
 20
0
 30
0
 70
128
 71
67
 72
83
 73
84
 74
68
 0
VERTEX
 8
SFERA
 10
0
 20
0
 30
0
 70
128
 71
68
 72
84
 73
85
 74
69
 0
VERTEX
 8
SFERA
 10
0
 20
0
 30
0
 70
128
 71
69
 72
85
 73
86
 74
70
 0
VERTEX
 8
SFERA
 10
0
 20
0
 30
0
 70
128
 71
70
 72
86
 73
87
 74
71
 0
VERTEX
 8
SFERA
 10
0
 20
0
 30
0
 70
128
 71
71
 72
87
 73
88
 74
72
 0
VERTEX
 8
SFERA
 10
0
 20
0
 30
0
 70
128
 71
72
 72
88
 73
89
 74
73
 0
VERTEX
 8
SFERA
 10
0
 20
0
 30
0
 70
128
 71
73
 72
89
 73
90
 74
74
 0
VERTEX
 8
SFERA
 10
0
 20
0
 30
0
 70
128
 71
74
 72
90
 73
91
 74
75
 0
VERTEX
 8
SFERA
 10
0
 20
0
 30
0
 70
128
 71
75
 72
91
 73
92
 74
76
 0
VERTEX
 8
SFERA
 10
0
 20
0
 30
0
 70
128
 71
76
 72
92
 73
93
 74
77
 0
VERTEX
 8
SFERA
 10
0
 20
0
 30
0
 70
128
 71
77
 72
93
 73
94
 74
78
 0
VERTEX
 8
SFERA
 10
0
 20
0
 30
0
 70
128
 71
78
 72
94
 73
95
 74
79
 0
VERTEX
 8
SFERA
 10
0
 20
0
 30
0
 70
128
 71
79
 72
95
 73
96
 74
80
 0
VERTEX
 8
SFERA
 10
0
 20
0
 30
0
 70
128
 71
80
 72
96
 73
97
 74
81
 0
VERTEX
 8
SFERA
 10
0
 20
0
 30
0
 70
128
 71
81
 72
97
 73
98
 74
82
 0
VERTEX
 8
SFERA
 10
0
 20
0
 30
0
 70
128
 71
82
 72
98
 73
83
 74
67
 0
VERTEX
 8
SFERA
 10
0
 20
0
 30
0
 70
128
 71
83
 72
99
 73
100
 74
84
 0
VERTEX
 8
SFERA
 10
0
 20
0
 30
0
 70
128
 71
84
 72
100
 73
101
 74
85
 0
VERTEX
 8
SFERA
 10
0
 20
0
 30
0
 70
128
 71
85
 72
101
 73
102
 74
86
 0
VERTEX
 8
SFERA
 10
0
 20
0
 30
0
 70
128
 71
86
 72
102
 73
103
 74
87
 0
VERTEX
 8
SFERA
 10
0
 20
0
 30
0
 70
128
 71
87
 72
103
 73
104
 74
88
 0
VERTEX
 8
SFERA
 10
0
 20
0
 30
0
 70
128
 71
88
 72
104
 73
105
 74
89
 0
VERTEX
 8
SFERA
 10
0
 20
0
 30
0
 70
128
 71
89
 72
105
 73
106
 74
90
 0
VERTEX
 8
SFERA
 10
0
 20
0
 30
0
 70
128
 71
90
 72
106
 73
107
 74
91
 0
VERTEX
 8
SFERA
 10
0
 20
0
 30
0
 70
128
 71
91
 72
107
 73
108
 74
92
 0
VERTEX
 8
SFERA
 10
0
 20
0
 30
0
 70
128
 71
92
 72
108
 73
109
 74
93
 0
VERTEX
 8
SFERA
 10
0
 20
0
 30
0
 70
128
 71
93
 72
109
 73
110
 74
94
 0
VERTEX
 8
SFERA
 10
0
 20
0
 30
0
 70
128
 71
94
 72
110
 73
111
 74
95
 0
VERTEX
 8
SFERA
 10
0
 20
0
 30
0
 70
128
 71
95
 72
111
 73
112
 74
96
 0
VERTEX
 8
SFERA
 10
0
 20
0
 30
0
 70
128
 71
96
 72
112
 73
113
 74
97
 0
VERTEX
 8
SFERA
 10
0
 20
0
 30
0
 70
128
 71
97
 72
113
 73
114
 74
98
 0
VERTEX
 8
SFERA
 10
0
 20
0
 30
0
 70
128
 71
98
 72
114
 73
99
 74
83
 0
VERTEX
 8
SFERA
 10
0
 20
0
 30
0
 70
128
 71
1
 72
3
 73
4
 74
4
 0
VERTEX
 8
SFERA
 10
0
 20
0
 30
0
 70
128
 71
100
 72
99
 73
2
 74
2
 0
VERTEX
 8
SFERA
 10
0
 20
0
 30
0
 70
128
 71
1
 72
4
 73
5
 74
5
 0
VERTEX
 8
SFERA
 10
0
 20
0
 30
0
 70
128
 71
101
 72
100
 73
2
 74
2
 0
VERTEX
 8
SFERA
 10
0
 20
0
 30
0
 70
128
 71
1
 72
5
 73
6
 74
6
 0
VERTEX
 8
SFERA
 10
0
 20
0
 30
0
 70
128
 71
102
 72
101
 73
2
 74
2
 0
VERTEX
 8
SFERA
 10
0
 20
0
 30
0
 70
128
 71
1
 72
6
 73
7
 74
7
 0
VERTEX
 8
SFERA
 10
0
 20
0
 30
0
 70
128
 71
103
 72
102
 73
2
 74
2
 0
VERTEX
 8
SFERA
 10
0
 20
0
 30
0
 70
128
 71
1
 72
7
 73
8
 74
8
 0
VERTEX
 8
SFERA
 10
0
 20
0
 30
0
 70
128
 71
104
 72
103
 73
2
 74
2
 0
VERTEX
 8
SFERA
 10
0
 20
0
 30
0
 70
128
 71
1
 72
8
 73
9
 74
9
 0
VERTEX
 8
SFERA
 10
0
 20
0
 30
0
 70
128
 71
105
 72
104
 73
2
 74
2
 0
VERTEX
 8
SFERA
 10
0
 20
0
 30
0
 70
128
 71
1
 72
9
 73
10
 74
10
 0
VERTEX
 8
SFERA
 10
0
 20
0
 30
0
 70
128
 71
106
 72
105
 73
2
 74
2
 0
VERTEX
 8
SFERA
 10
0
 20
0
 30
0
 70
128
 71
1
 72
10
 73
11
 74
11
 0
VERTEX
 8
SFERA
 10
0
 20
0
 30
0
 70
128
 71
107
 72
106
 73
2
 74
2
 0
VERTEX
 8
SFERA
 10
0
 20
0
 30
0
 70
128
 71
1
 72
11
 73
12
 74
12
 0
VERTEX
 8
SFERA
 10
0
 20
0
 30
0
 70
128
 71
108
 72
107
 73
2
 74
2
 0
VERTEX
 8
SFERA
 10
0
 20
0
 30
0
 70
128
 71
1
 72
12
 73
13
 74
13
 0
VERTEX
 8
SFERA
 10
0
 20
0
 30
0
 70
128
 71
109
 72
108
 73
2
 74
2
 0
VERTEX
 8
SFERA
 10
0
 20
0
 30
0
 70
128
 71
1
 72
13
 73
14
 74
14
 0
VERTEX
 8
SFERA
 10
0
 20
0
 30
0
 70
128
 71
110
 72
109
 73
2
 74
2
 0
VERTEX
 8
SFERA
 10
0
 20
0
 30
0
 70
128
 71
1
 72
14
 73
15
 74
15
 0
VERTEX
 8
SFERA
 10
0
 20
0
 30
0
 70
128
 71
111
 72
110
 73
2
 74
2
 0
VERTEX
 8
SFERA
 10
0
 20
0
 30
0
 70
128
 71
1
 72
15
 73
16
 74
16
 0
VERTEX
 8
SFERA
 10
0
 20
0
 30
0
 70
128
 71
112
 72
111
 73
2
 74
2
 0
VERTEX
 8
SFERA
 10
0
 20
0
 30
0
 70
128
 71
1
 72
16
 73
17
 74
17
 0
VERTEX
 8
SFERA
 10
0
 20
0
 30
0
 70
128
 71
113
 72
112
 73
2
 74
2
 0
VERTEX
 8
SFERA
 10
0
 20
0
 30
0
 70
128
 71
1
 72
17
 73
18
 74
18
 0
VERTEX
 8
SFERA
 10
0
 20
0
 30
0
 70
128
 71
114
 72
113
 73
2
 74
2
 0
VERTEX
 8
SFERA
 10
0
 20
0
 30
0
 70
128
 71
1
 72
18
 73
3
 74
3
 0
VERTEX
 8
SFERA
 10
0
 20
0
 30
0
 70
128
 71
99
 72
114
 73
2
 74
2
 0
SEQEND
 0
POLYLINE
 8
CONO
 66
1
 10
0.0
 20
0.0
 30
0.0
 70
64
 71
81
 72
80
 0
VERTEX
 8
CONO
 10
-24.0999
 20
-40.8949
 30
7.4504
 70
192
 0
VERTEX
 8
CONO
 10
-23.5456
 20
-40.8949
 30
7.4504
 70
192
 0
VERTEX
 8
CONO
 10
-23.8451
 20
-40.9486
 30
7.1456
 70
192
 0
VERTEX
 8
CONO
 10
-23.9467
 20
-41.0024
 30
6.8409
 70
192
 0
VERTEX
 8
CONO
 10
-23.9613
 20
-41.0561
 30
6.5361
 70
192
 0
VERTEX
 8
CONO
 10
-24.0999
 20
-41.1099
 30
6.2314
 70
192
 0
VERTEX
 8
CONO
 10
-23.5878
 20
-41.1038
 30
7.4872
 70
192
 0
VERTEX
 8
CONO
 10
-23.8645
 20
-41.0447
 30
7.1626
 70
192
 0
VERTEX
 8
CONO
 10
-23.9583
 20
-41.0601
 30
6.8511
 70
192
 0
VERTEX
 8
CONO
 10
-23.9719
 20
-41.1083
 30
6.5453
 70
192
 0
VERTEX
 8
CONO
 10
-24.0999
 20
-41.1099
 30
6.2314
 70
192
 0
VERTEX
 8
CONO
 10
-23.708
 20
-41.2809
 30
7.5184
 70
192
 0
VERTEX
 8
CONO
 10
-23.9197
 20
-41.1261
 30
7.1769
 70
192
 0
VERTEX
 8
CONO
 10
-23.9915
 20
-41.1091
 30
6.8597
 70
192
 0
VERTEX
 8
CONO
 10
-24.0019
 20
-41.1526
 30
6.5532
 70
192
 0
VERTEX
 8
CONO
 10
-24.0999
 20
-41.1099
 30
6.2314
 70
192
 0
VERTEX
 8
CONO
 10
-23.8878
 20
-41.3992
 30
7.5393
 70
192
 0
VERTEX
 8
CONO
 10
-24.0024
 20
-41.1805
 30
7.1865
 70
192
 0
VERTEX
 8
CONO
 10
-24.0413
 20
-41.1418
 30
6.8655
 70
192
 0
VERTEX
 8
CONO
 10
-24.0469
 20
-41.1822
 30
6.5584
 70
192
 0
VERTEX
 8
CONO
 10
-24.0999
 20
-41.1099
 30
6.2314
 70
192
 0
VERTEX
 8
CONO
 10
-24.0999
 20
-41.4408
 30
7.5466
 70
192
 0
VERTEX
 8
CONO
 10
-24.0999
 20
-41.1996
 30
7.1899
 70
192
 0
VERTEX
 8
CONO
 10
-24.0999
 20
-41.1533
 30
6.8675
 70
192
 0
VERTEX
 8
CONO
 10
-24.0999
 20
-41.1926
 30
6.5602
 70
192
 0
VERTEX
 8
CONO
 10
-24.0999
 20
-41.1099
 30
6.2314
 70
192
 0
VERTEX
 8
CONO
 10
-24.312
 20
-41.3992
 30
7.5393
 70
192
 0
VERTEX
 8
CONO
 10
-24.1974
 20
-41.1805
 30
7.1865
 70
192
 0
VERTEX
 8
CONO
 10
-24.1586
 20
-41.1418
 30
6.8655
 70
192
 0
VERTEX
 8
CONO
 10
-24.1529
 20
-41.1822
 30
6.5584
 70
192
 0
VERTEX
 8
CONO
 10
-24.0999
 20
-41.1099
 30
6.2314
 70
192
 0
VERTEX
 8
CONO
 10
-24.4918
 20
-41.2809
 30
7.5184
 70
192
 0
VERTEX
 8
CONO
 10
-24.2801
 20
-41.1261
 30
7.1769
 70
192
 0
VERTEX
 8
CONO
 10
-24.2083
 20
-41.1091
 30
6.8597
 70
192
 0
VERTEX
 8
CONO
 10
-24.1979
 20
-41.1526
 30
6.5532
 70
192
 0
VERTEX
 8
CONO
 10
-24.0999
 20
-41.1099
 30
6.2314
 70
192
 0
VERTEX
 8
CONO
 10
-24.612
 20
-41.1038
 30
7.4872
 70
192
 0
VERTEX
 8
CONO
 10
-24.3353
 20
-41.0447
 30
7.1626
 70
192
 0
VERTEX
 8
CONO
 10
-24.2415
 20
-41.0601
 30
6.8511
 70
192
 0
VERTEX
 8
CONO
 10
-24.2279
 20
-41.1083
 30
6.5453
 70
192
 0
VERTEX
 8
CONO
 10
-24.0999
 20
-41.1099
 30
6.2314
 70
192
 0
VERTEX
 8
CONO
 10
-24.6542
 20
-40.8949
 30
7.4504
 70
192
 0
VERTEX
 8
CONO
 10
-24.3547
 20
-40.9486
 30
7.1456
 70
192
 0
VERTEX
 8
CONO
 10
-24.2532
 20
-41.0024
 30
6.8409
 70
192
 0
VERTEX
 8
CONO
 10
-24.2385
 20
-41.0561
 30
6.5361
 70
192
 0
VERTEX
 8
CONO
 10
-24.0999
 20
-41.1099
 30
6.2314
 70
192
 0
VERTEX
 8
CONO
 10
-24.612
 20
-40.686
 30
7.4135
 70
192
 0
VERTEX
 8
CONO
 10
-24.3353
 20
-40.8526
 30
7.1287
 70
192
 0
VERTEX
 8
CONO
 10
-24.2415
 20
-40.9446
 30
6.8307
 70
192
 0
VERTEX
 8
CONO
 10
-24.2279
 20
-41.0039
 30
6.5269
 70
192
 0
VERTEX
 8
CONO
 10
-24.0999
 20
-41.1099
 30
6.2314
 70
192
 0
VERTEX
 8
CONO
 10
-24.4918
 20
-40.5089
 30
7.3823
 70
192
 0
VERTEX
 8
CONO
 10
-24.2801
 20
-40.7712
 30
7.1143
 70
192
 0
VERTEX
 8
CONO
 10
-24.2083
 20
-40.8957
 30
6.8221
 70
192
 0
VERTEX
 8
CONO
 10
-24.1979
 20
-40.9596
 30
6.5191
 70
192
 0
VERTEX
 8
CONO
 10
-24.0999
 20
-41.1099
 30
6.2314
 70
192
 0
VERTEX
 8
CONO
 10
-24.312
 20
-40.3906
 30
7.3614
 70
192
 0
VERTEX
 8
CONO
 10
-24.1974
 20
-40.7168
 30
7.1047
 70
192
 0
VERTEX
 8
CONO
 10
-24.1586
 20
-40.8629
 30
6.8163
 70
192
 0
VERTEX
 8
CONO
 10
-24.1529
 20
-40.93
 30
6.5139
 70
192
 0
VERTEX
 8
CONO
 10
-24.0999
 20
-41.1099
 30
6.2314
 70
192
 0
VERTEX
 8
CONO
 10
-24.0999
 20
-40.3491
 30
7.3541
 70
192
 0
VERTEX
 8
CONO
 10
-24.0999
 20
-40.6977
 30
7.1014
 70
192
 0
VERTEX
 8
CONO
 10
-24.0999
 20
-40.8515
 30
6.8143
 70
192
 0
VERTEX
 8
CONO
 10
-24.0999
 20
-40.9197
 30
6.5121
 70
192
 0
VERTEX
 8
CONO
 10
-24.0999
 20
-41.1099
 30
6.2314
 70
192
 0
VERTEX
 8
CONO
 10
-23.8878
 20
-40.3906
 30
7.3614
 70
192
 0
VERTEX
 8
CONO
 10
-24.0024
 20
-40.7168
 30
7.1047
 70
192
 0
VERTEX
 8
CONO
 10
-24.0413
 20
-40.8629
 30
6.8163
 70
192
 0
VERTEX
 8
CONO
 10
-24.0469
 20
-40.93
 30
6.5139
 70
192
 0
VERTEX
 8
CONO
 10
-24.0999
 20
-41.1099
 30
6.2314
 70
192
 0
VERTEX
 8
CONO
 10
-23.708
 20
-40.5089
 30
7.3823
 70
192
 0
VERTEX
 8
CONO
 10
-23.9197
 20
-40.7712
 30
7.1143
 70
192
 0
VERTEX
 8
CONO
 10
-23.9915
 20
-40.8957
 30
6.8221
 70
192
 0
VERTEX
 8
CONO
 10
-24.0019
 20
-40.9596
 30
6.5191
 70
192
 0
VERTEX
 8
CONO
 10
-24.0999
 20
-41.1099
 30
6.2314
 70
192
 0
VERTEX
 8
CONO
 10
-23.5878
 20
-40.686
 30
7.4135
 70
192
 0
VERTEX
 8
CONO
 10
-23.8645
 20
-40.8526
 30
7.1287
 70
192
 0
VERTEX
 8
CONO
 10
-23.9583
 20
-40.9446
 30
6.8307
 70
192
 0
VERTEX
 8
CONO
 10
-23.9719
 20
-41.0039
 30
6.5269
 70
192
 0
VERTEX
 8
CONO
 10
-24.0999
 20
-41.1099
 30
6.2314
 70
192
 0
VERTEX
 8
CONO
 10
0
 20
0
 30
0
 70
128
 71
1
 72
2
 73
7
 74
7
 0
VERTEX
 8
CONO
 10
0
 20
0
 30
0
 70
128
 71
2
 72
3
 73
8
 74
7
 0
VERTEX
 8
CONO
 10
0
 20
0
 30
0
 70
128
 71
3
 72
4
 73
9
 74
8
 0
VERTEX
 8
CONO
 10
0
 20
0
 30
0
 70
128
 71
4
 72
5
 73
10
 74
9
 0
VERTEX
 8
CONO
 10
0
 20
0
 30
0
 70
128
 71
5
 72
6
 73
11
 74
10
 0
VERTEX
 8
CONO
 10
0
 20
0
 30
0
 70
128
 71
1
 72
7
 73
12
 74
12
 0
VERTEX
 8
CONO
 10
0
 20
0
 30
0
 70
128
 71
7
 72
8
 73
13
 74
12
 0
VERTEX
 8
CONO
 10
0
 20
0
 30
0
 70
128
 71
8
 72
9
 73
14
 74
13
 0
VERTEX
 8
CONO
 10
0
 20
0
 30
0
 70
128
 71
9
 72
10
 73
15
 74
14
 0
VERTEX
 8
CONO
 10
0
 20
0
 30
0
 70
128
 71
10
 72
11
 73
16
 74
15
 0
VERTEX
 8
CONO
 10
0
 20
0
 30
0
 70
128
 71
1
 72
12
 73
17
 74
17
 0
VERTEX
 8
CONO
 10
0
 20
0
 30
0
 70
128
 71
12
 72
13
 73
18
 74
17
 0
VERTEX
 8
CONO
 10
0
 20
0
 30
0
 70
128
 71
13
 72
14
 73
19
 74
18
 0
VERTEX
 8
CONO
 10
0
 20
0
 30
0
 70
128
 71
14
 72
15
 73
20
 74
19
 0
VERTEX
 8
CONO
 10
0
 20
0
 30
0
 70
128
 71
15
 72
16
 73
21
 74
20
 0
VERTEX
 8
CONO
 10
0
 20
0
 30
0
 70
128
 71
1
 72
17
 73
22
 74
22
 0
VERTEX
 8
CONO
 10
0
 20
0
 30
0
 70
128
 71
17
 72
18
 73
23
 74
22
 0
VERTEX
 8
CONO
 10
0
 20
0
 30
0
 70
128
 71
18
 72
19
 73
24
 74
23
 0
VERTEX
 8
CONO
 10
0
 20
0
 30
0
 70
128
 71
19
 72
20
 73
25
 74
24
 0
VERTEX
 8
CONO
 10
0
 20
0
 30
0
 70
128
 71
20
 72
21
 73
26
 74
25
 0
VERTEX
 8
CONO
 10
0
 20
0
 30
0
 70
128
 71
1
 72
22
 73
27
 74
27
 0
VERTEX
 8
CONO
 10
0
 20
0
 30
0
 70
128
 71
22
 72
23
 73
28
 74
27
 0
VERTEX
 8
CONO
 10
0
 20
0
 30
0
 70
128
 71
23
 72
24
 73
29
 74
28
 0
VERTEX
 8
CONO
 10
0
 20
0
 30
0
 70
128
 71
24
 72
25
 73
30
 74
29
 0
VERTEX
 8
CONO
 10
0
 20
0
 30
0
 70
128
 71
25
 72
26
 73
31
 74
30
 0
VERTEX
 8
CONO
 10
0
 20
0
 30
0
 70
128
 71
1
 72
27
 73
32
 74
32
 0
VERTEX
 8
CONO
 10
0
 20
0
 30
0
 70
128
 71
27
 72
28
 73
33
 74
32
 0
VERTEX
 8
CONO
 10
0
 20
0
 30
0
 70
128
 71
28
 72
29
 73
34
 74
33
 0
VERTEX
 8
CONO
 10
0
 20
0
 30
0
 70
128
 71
29
 72
30
 73
35
 74
34
 0
VERTEX
 8
CONO
 10
0
 20
0
 30
0
 70
128
 71
30
 72
31
 73
36
 74
35
 0
VERTEX
 8
CONO
 10
0
 20
0
 30
0
 70
128
 71
1
 72
32
 73
37
 74
37
 0
VERTEX
 8
CONO
 10
0
 20
0
 30
0
 70
128
 71
32
 72
33
 73
38
 74
37
 0
VERTEX
 8
CONO
 10
0
 20
0
 30
0
 70
128
 71
33
 72
34
 73
39
 74
38
 0
VERTEX
 8
CONO
 10
0
 20
0
 30
0
 70
128
 71
34
 72
35
 73
40
 74
39
 0
VERTEX
 8
CONO
 10
0
 20
0
 30
0
 70
128
 71
35
 72
36
 73
41
 74
40
 0
VERTEX
 8
CONO
 10
0
 20
0
 30
0
 70
128
 71
1
 72
37
 73
42
 74
42
 0
VERTEX
 8
CONO
 10
0
 20
0
 30
0
 70
128
 71
37
 72
38
 73
43
 74
42
 0
VERTEX
 8
CONO
 10
0
 20
0
 30
0
 70
128
 71
38
 72
39
 73
44
 74
43
 0
VERTEX
 8
CONO
 10
0
 20
0
 30
0
 70
128
 71
39
 72
40
 73
45
 74
44
 0
VERTEX
 8
CONO
 10
0
 20
0
 30
0
 70
128
 71
40
 72
41
 73
46
 74
45
 0
VERTEX
 8
CONO
 10
0
 20
0
 30
0
 70
128
 71
1
 72
42
 73
47
 74
47
 0
VERTEX
 8
CONO
 10
0
 20
0
 30
0
 70
128
 71
42
 72
43
 73
48
 74
47
 0
VERTEX
 8
CONO
 10
0
 20
0
 30
0
 70
128
 71
43
 72
44
 73
49
 74
48
 0
VERTEX
 8
CONO
 10
0
 20
0
 30
0
 70
128
 71
44
 72
45
 73
50
 74
49
 0
VERTEX
 8
CONO
 10
0
 20
0
 30
0
 70
128
 71
45
 72
46
 73
51
 74
50
 0
VERTEX
 8
CONO
 10
0
 20
0
 30
0
 70
128
 71
1
 72
47
 73
52
 74
52
 0
VERTEX
 8
CONO
 10
0
 20
0
 30
0
 70
128
 71
47
 72
48
 73
53
 74
52
 0
VERTEX
 8
CONO
 10
0
 20
0
 30
0
 70
128
 71
48
 72
49
 73
54
 74
53
 0
VERTEX
 8
CONO
 10
0
 20
0
 30
0
 70
128
 71
49
 72
50
 73
55
 74
54
 0
VERTEX
 8
CONO
 10
0
 20
0
 30
0
 70
128
 71
50
 72
51
 73
56
 74
55
 0
VERTEX
 8
CONO
 10
0
 20
0
 30
0
 70
128
 71
1
 72
52
 73
57
 74
57
 0
VERTEX
 8
CONO
 10
0
 20
0
 30
0
 70
128
 71
52
 72
53
 73
58
 74
57
 0
VERTEX
 8
CONO
 10
0
 20
0
 30
0
 70
128
 71
53
 72
54
 73
59
 74
58
 0
VERTEX
 8
CONO
 10
0
 20
0
 30
0
 70
128
 71
54
 72
55
 73
60
 74
59
 0
VERTEX
 8
CONO
 10
0
 20
0
 30
0
 70
128
 71
55
 72
56
 73
61
 74
60
 0
VERTEX
 8
CONO
 10
0
 20
0
 30
0
 70
128
 71
1
 72
57
 73
62
 74
62
 0
VERTEX
 8
CONO
 10
0
 20
0
 30
0
 70
128
 71
57
 72
58
 73
63
 74
62
 0
VERTEX
 8
CONO
 10
0
 20
0
 30
0
 70
128
 71
58
 72
59
 73
64
 74
63
 0
VERTEX
 8
CONO
 10
0
 20
0
 30
0
 70
128
 71
59
 72
60
 73
65
 74
64
 0
VERTEX
 8
CONO
 10
0
 20
0
 30
0
 70
128
 71
60
 72
61
 73
66
 74
65
 0
VERTEX
 8
CONO
 10
0
 20
0
 30
0
 70
128
 71
1
 72
62
 73
67
 74
67
 0
VERTEX
 8
CONO
 10
0
 20
0
 30
0
 70
128
 71
62
 72
63
 73
68
 74
67
 0
VERTEX
 8
CONO
 10
0
 20
0
 30
0
 70
128
 71
63
 72
64
 73
69
 74
68
 0
VERTEX
 8
CONO
 10
0
 20
0
 30
0
 70
128
 71
64
 72
65
 73
70
 74
69
 0
VERTEX
 8
CONO
 10
0
 20
0
 30
0
 70
128
 71
65
 72
66
 73
71
 74
70
 0
VERTEX
 8
CONO
 10
0
 20
0
 30
0
 70
128
 71
1
 72
67
 73
72
 74
72
 0
VERTEX
 8
CONO
 10
0
 20
0
 30
0
 70
128
 71
67
 72
68
 73
73
 74
72
 0
VERTEX
 8
CONO
 10
0
 20
0
 30
0
 70
128
 71
68
 72
69
 73
74
 74
73
 0
VERTEX
 8
CONO
 10
0
 20
0
 30
0
 70
128
 71
69
 72
70
 73
75
 74
74
 0
VERTEX
 8
CONO
 10
0
 20
0
 30
0
 70
128
 71
70
 72
71
 73
76
 74
75
 0
VERTEX
 8
CONO
 10
0
 20
0
 30
0
 70
128
 71
1
 72
72
 73
77
 74
77
 0
VERTEX
 8
CONO
 10
0
 20
0
 30
0
 70
128
 71
72
 72
73
 73
78
 74
77
 0
VERTEX
 8
CONO
 10
0
 20
0
 30
0
 70
128
 71
73
 72
74
 73
79
 74
78
 0
VERTEX
 8
CONO
 10
0
 20
0
 30
0
 70
128
 71
74
 72
75
 73
80
 74
79
 0
VERTEX
 8
CONO
 10
0
 20
0
 30
0
 70
128
 71
75
 72
76
 73
81
 74
80
 0
VERTEX
 8
CONO
 10
0
 20
0
 30
0
 70
128
 71
1
 72
77
 73
2
 74
2
 0
VERTEX
 8
CONO
 10
0
 20
0
 30
0
 70
128
 71
77
 72
78
 73
3
 74
2
 0
VERTEX
 8
CONO
 10
0
 20
0
 30
0
 70
128
 71
78
 72
79
 73
4
 74
3
 0
VERTEX
 8
CONO
 10
0
 20
0
 30
0
 70
128
 71
79
 72
80
 73
5
 74
4
 0
VERTEX
 8
CONO
 10
0
 20
0
 30
0
 70
128
 71
80
 72
81
 73
6
 74
5
 0
SEQEND
 0
POLYLINE
 8
CUBO_7
 66
1
 10
0.0
 20
0.0
 30
0.0
 70
64
 71
8
 72
6
 0
VERTEX
 8
CUBO_7
 10
-45.239
 20
-44.038
 30
8.0199
 70
192
 0
VERTEX
 8
CUBO_7
 10
-45.9089
 20
-43.8428
 30
9.1273
 70
192
 0
VERTEX
 8
CUBO_7
 10
-42.9613
 20
-44.038
 30
8.0199
 70
192
 0
VERTEX
 8
CUBO_7
 10
-42.2909
 20
-43.8428
 30
9.1273
 70
192
 0
VERTEX
 8
CUBO_7
 10
-42.9613
 20
-4.6458
 30
1.074
 70
192
 0
VERTEX
 8
CUBO_7
 10
-42.2909
 20
-4.4505
 30
2.1814
 70
192
 0
VERTEX
 8
CUBO_7
 10
-45.239
 20
-4.6458
 30
1.074
 70
192
 0
VERTEX
 8
CUBO_7
 10
-45.9089
 20
-4.4505
 30
2.1814
 70
192
 0
VERTEX
 8
CUBO_7
 10
0
 20
0
 30
0
 70
128
 71
1
 72
2
 73
4
 74
3
 0
VERTEX
 8
CUBO_7
 10
0
 20
0
 30
0
 70
128
 71
3
 72
4
 73
6
 74
5
 0
VERTEX
 8
CUBO_7
 10
0
 20
0
 30
0
 70
128
 71
5
 72
6
 73
8
 74
7
 0
VERTEX
 8
CUBO_7
 10
0
 20
0
 30
0
 70
128
 71
7
 72
8
 73
2
 74
1
 0
VERTEX
 8
CUBO_7
 10
0
 20
0
 30
0
 70
128
 71
2
 72
8
 73
6
 74
4
 0
VERTEX
 8
CUBO_7
 10
0
 20
0
 30
0
 70
128
 71
7
 72
1
 73
3
 74
5
 0
SEQEND
 0
POLYLINE
 8
CUBO_6
 66
1
 10
0.0
 20
0.0
 30
0.0
 70
64
 71
8
 72
6
 0
VERTEX
 8
CUBO_6
 10
-41.239
 20
-44.038
 30
8.0199
 70
192
 0
VERTEX
 8
CUBO_6
 10
-41.9089
 20
-43.8428
 30
9.1273
 70
192
 0
VERTEX
 8
CUBO_6
 10
-38.9613
 20
-44.038
 30
8.0199
 70
192
 0
VERTEX
 8
CUBO_6
 10
-38.2909
 20
-43.8428
 30
9.1273
 70
192
 0
VERTEX
 8
CUBO_6
 10
-38.9613
 20
-4.6458
 30
1.074
 70
192
 0
VERTEX
 8
CUBO_6
 10
-38.2909
 20
-4.4505
 30
2.1814
 70
192
 0
VERTEX
 8
CUBO_6
 10
-41.239
 20
-4.6458
 30
1.074
 70
192
 0
VERTEX
 8
CUBO_6
 10
-41.9089
 20
-4.4505
 30
2.1814
 70
192
 0
VERTEX
 8
CUBO_6
 10
0
 20
0
 30
0
 70
128
 71
1
 72
2
 73
4
 74
3
 0
VERTEX
 8
CUBO_6
 10
0
 20
0
 30
0
 70
128
 71
3
 72
4
 73
6
 74
5
 0
VERTEX
 8
CUBO_6
 10
0
 20
0
 30
0
 70
128
 71
5
 72
6
 73
8
 74
7
 0
VERTEX
 8
CUBO_6
 10
0
 20
0
 30
0
 70
128
 71
7
 72
8
 73
2
 74
1
 0
VERTEX
 8
CUBO_6
 10
0
 20
0
 30
0
 70
128
 71
2
 72
8
 73
6
 74
4
 0
VERTEX
 8
CUBO_6
 10
0
 20
0
 30
0
 70
128
 71
7
 72
1
 73
3
 74
5
 0
SEQEND
 0
POLYLINE
 8
CUBO_5
 66
1
 10
0.0
 20
0.0
 30
0.0
 70
64
 71
8
 72
6
 0
VERTEX
 8
CUBO_5
 10
-37.239
 20
-44.038
 30
8.0199
 70
192
 0
VERTEX
 8
CUBO_5
 10
-37.9089
 20
-43.8428
 30
9.1273
 70
192
 0
VERTEX
 8
CUBO_5
 10
-34.9613
 20
-44.038
 30
8.0199
 70
192
 0
VERTEX
 8
CUBO_5
 10
-34.2909
 20
-43.8428
 30
9.1273
 70
192
 0
VERTEX
 8
CUBO_5
 10
-34.9613
 20
-4.6458
 30
1.074
 70
192
 0
VERTEX
 8
CUBO_5
 10
-34.2909
 20
-4.4505
 30
2.1814
 70
192
 0
VERTEX
 8
CUBO_5
 10
-37.239
 20
-4.6458
 30
1.074
 70
192
 0
VERTEX
 8
CUBO_5
 10
-37.9089
 20
-4.4505
 30
2.1814
 70
192
 0
VERTEX
 8
CUBO_5
 10
0
 20
0
 30
0
 70
128
 71
1
 72
2
 73
4
 74
3
 0
VERTEX
 8
CUBO_5
 10
0
 20
0
 30
0
 70
128
 71
3
 72
4
 73
6
 74
5
 0
VERTEX
 8
CUBO_5
 10
0
 20
0
 30
0
 70
128
 71
5
 72
6
 73
8
 74
7
 0
VERTEX
 8
CUBO_5
 10
0
 20
0
 30
0
 70
128
 71
7
 72
8
 73
2
 74
1
 0
VERTEX
 8
CUBO_5
 10
0
 20
0
 30
0
 70
128
 71
2
 72
8
 73
6
 74
4
 0
VERTEX
 8
CUBO_5
 10
0
 20
0
 30
0
 70
128
 71
7
 72
1
 73
3
 74
5
 0
SEQEND
 0
POLYLINE
 8
CUBO_4
 66
1
 10
0.0
 20
0.0
 30
0.0
 70
64
 71
8
 72
6
 0
VERTEX
 8
CUBO_4
 10
-33.239
 20
-44.038
 30
8.0199
 70
192
 0
VERTEX
 8
CUBO_4
 10
-33.9089
 20
-43.8428
 30
9.1273
 70
192
 0
VERTEX
 8
CUBO_4
 10
-30.9613
 20
-44.038
 30
8.0199
 70
192
 0
VERTEX
 8
CUBO_4
 10
-30.2909
 20
-43.8428
 30
9.1273
 70
192
 0
VERTEX
 8
CUBO_4
 10
-30.9613
 20
-4.6458
 30
1.074
 70
192
 0
VERTEX
 8
CUBO_4
 10
-30.2909
 20
-4.4505
 30
2.1814
 70
192
 0
VERTEX
 8
CUBO_4
 10
-33.239
 20
-4.6458
 30
1.074
 70
192
 0
VERTEX
 8
CUBO_4
 10
-33.9089
 20
-4.4505
 30
2.1814
 70
192
 0
VERTEX
 8
CUBO_4
 10
0
 20
0
 30
0
 70
128
 71
1
 72
2
 73
4
 74
3
 0
VERTEX
 8
CUBO_4
 10
0
 20
0
 30
0
 70
128
 71
3
 72
4
 73
6
 74
5
 0
VERTEX
 8
CUBO_4
 10
0
 20
0
 30
0
 70
128
 71
5
 72
6
 73
8
 74
7
 0
VERTEX
 8
CUBO_4
 10
0
 20
0
 30
0
 70
128
 71
7
 72
8
 73
2
 74
1
 0
VERTEX
 8
CUBO_4
 10
0
 20
0
 30
0
 70
128
 71
2
 72
8
 73
6
 74
4
 0
VERTEX
 8
CUBO_4
 10
0
 20
0
 30
0
 70
128
 71
7
 72
1
 73
3
 74
5
 0
SEQEND
 0
POLYLINE
 8
CUBO_3
 66
1
 10
0.0
 20
0.0
 30
0.0
 70
64
 71
8
 72
6
 0
VERTEX
 8
CUBO_3
 10
-29.239
 20
-44.038
 30
8.0199
 70
192
 0
VERTEX
 8
CUBO_3
 10
-29.9089
 20
-43.8428
 30
9.1273
 70
192
 0
VERTEX
 8
CUBO_3
 10
-26.9613
 20
-44.038
 30
8.0199
 70
192
 0
VERTEX
 8
CUBO_3
 10
-26.2909
 20
-43.8428
 30
9.1273
 70
192
 0
VERTEX
 8
CUBO_3
 10
-26.9613
 20
-4.6458
 30
1.074
 70
192
 0
VERTEX
 8
CUBO_3
 10
-26.2909
 20
-4.4505
 30
2.1814
 70
192
 0
VERTEX
 8
CUBO_3
 10
-29.239
 20
-4.6458
 30
1.074
 70
192
 0
VERTEX
 8
CUBO_3
 10
-29.9089
 20
-4.4505
 30
2.1814
 70
192
 0
VERTEX
 8
CUBO_3
 10
0
 20
0
 30
0
 70
128
 71
1
 72
2
 73
4
 74
3
 0
VERTEX
 8
CUBO_3
 10
0
 20
0
 30
0
 70
128
 71
3
 72
4
 73
6
 74
5
 0
VERTEX
 8
CUBO_3
 10
0
 20
0
 30
0
 70
128
 71
5
 72
6
 73
8
 74
7
 0
VERTEX
 8
CUBO_3
 10
0
 20
0
 30
0
 70
128
 71
7
 72
8
 73
2
 74
1
 0
VERTEX
 8
CUBO_3
 10
0
 20
0
 30
0
 70
128
 71
2
 72
8
 73
6
 74
4
 0
VERTEX
 8
CUBO_3
 10
0
 20
0
 30
0
 70
128
 71
7
 72
1
 73
3
 74
5
 0
SEQEND
 0
POLYLINE
 8
CUBO_2
 66
1
 10
0.0
 20
0.0
 30
0.0
 70
64
 71
8
 72
6
 0
VERTEX
 8
CUBO_2
 10
-25.239
 20
-44.038
 30
8.0199
 70
192
 0
VERTEX
 8
CUBO_2
 10
-25.9089
 20
-43.8428
 30
9.1273
 70
192
 0
VERTEX
 8
CUBO_2
 10
-22.9613
 20
-44.038
 30
8.0199
 70
192
 0
VERTEX
 8
CUBO_2
 10
-22.2909
 20
-43.8428
 30
9.1273
 70
192
 0
VERTEX
 8
CUBO_2
 10
-22.9613
 20
-4.6458
 30
1.074
 70
192
 0
VERTEX
 8
CUBO_2
 10
-22.2909
 20
-4.4505
 30
2.1814
 70
192
 0
VERTEX
 8
CUBO_2
 10
-25.239
 20
-4.6458
 30
1.074
 70
192
 0
VERTEX
 8
CUBO_2
 10
-25.9089
 20
-4.4505
 30
2.1814
 70
192
 0
VERTEX
 8
CUBO_2
 10
0
 20
0
 30
0
 70
128
 71
1
 72
2
 73
4
 74
3
 0
VERTEX
 8
CUBO_2
 10
0
 20
0
 30
0
 70
128
 71
3
 72
4
 73
6
 74
5
 0
VERTEX
 8
CUBO_2
 10
0
 20
0
 30
0
 70
128
 71
5
 72
6
 73
8
 74
7
 0
VERTEX
 8
CUBO_2
 10
0
 20
0
 30
0
 70
128
 71
7
 72
8
 73
2
 74
1
 0
VERTEX
 8
CUBO_2
 10
0
 20
0
 30
0
 70
128
 71
2
 72
8
 73
6
 74
4
 0
VERTEX
 8
CUBO_2
 10
0
 20
0
 30
0
 70
128
 71
7
 72
1
 73
3
 74
5
 0
SEQEND
 0
POLYLINE
 8
CUBO_1
 66
1
 10
0.0
 20
0.0
 30
0.0
 70
64
 71
8
 72
6
 0
VERTEX
 8
CUBO_1
 10
-21.239
 20
-44.038
 30
8.0199
 70
192
 0
VERTEX
 8
CUBO_1
 10
-21.9089
 20
-43.8428
 30
9.1273
 70
192
 0
VERTEX
 8
CUBO_1
 10
-18.9613
 20
-44.038
 30
8.0199
 70
192
 0
VERTEX
 8
CUBO_1
 10
-18.2909
 20
-43.8428
 30
9.1273
 70
192
 0
VERTEX
 8
CUBO_1
 10
-18.9613
 20
-4.6458
 30
1.074
 70
192
 0
VERTEX
 8
CUBO_1
 10
-18.2909
 20
-4.4505
 30
2.1814
 70
192
 0
VERTEX
 8
CUBO_1
 10
-21.239
 20
-4.6458
 30
1.074
 70
192
 0
VERTEX
 8
CUBO_1
 10
-21.9089
 20
-4.4505
 30
2.1814
 70
192
 0
VERTEX
 8
CUBO_1
 10
0
 20
0
 30
0
 70
128
 71
1
 72
2
 73
4
 74
3
 0
VERTEX
 8
CUBO_1
 10
0
 20
0
 30
0
 70
128
 71
3
 72
4
 73
6
 74
5
 0
VERTEX
 8
CUBO_1
 10
0
 20
0
 30
0
 70
128
 71
5
 72
6
 73
8
 74
7
 0
VERTEX
 8
CUBO_1
 10
0
 20
0
 30
0
 70
128
 71
7
 72
8
 73
2
 74
1
 0
VERTEX
 8
CUBO_1
 10
0
 20
0
 30
0
 70
128
 71
2
 72
8
 73
6
 74
4
 0
VERTEX
 8
CUBO_1
 10
0
 20
0
 30
0
 70
128
 71
7
 72
1
 73
3
 74
5
 0
SEQEND
 0
POLYLINE
 8
CUBO
 66
1
 10
0.0
 20
0.0
 30
0.0
 70
64
 71
8
 72
6
 0
VERTEX
 8
CUBO
 10
-17.239
 20
-44.038
 30
8.0199
 70
192
 0
VERTEX
 8
CUBO
 10
-17.9089
 20
-43.8428
 30
9.1273
 70
192
 0
VERTEX
 8
CUBO
 10
-14.9613
 20
-44.038
 30
8.0199
 70
192
 0
VERTEX
 8
CUBO
 10
-14.2909
 20
-43.8428
 30
9.1273
 70
192
 0
VERTEX
 8
CUBO
 10
-14.9613
 20
-4.6458
 30
1.074
 70
192
 0
VERTEX
 8
CUBO
 10
-14.2909
 20
-4.4505
 30
2.1814
 70
192
 0
VERTEX
 8
CUBO
 10
-17.239
 20
-4.6458
 30
1.074
 70
192
 0
VERTEX
 8
CUBO
 10
-17.9089
 20
-4.4505
 30
2.1814
 70
192
 0
VERTEX
 8
CUBO
 10
0
 20
0
 30
0
 70
128
 71
1
 72
2
 73
4
 74
3
 0
VERTEX
 8
CUBO
 10
0
 20
0
 30
0
 70
128
 71
3
 72
4
 73
6
 74
5
 0
VERTEX
 8
CUBO
 10
0
 20
0
 30
0
 70
128
 71
5
 72
6
 73
8
 74
7
 0
VERTEX
 8
CUBO
 10
0
 20
0
 30
0
 70
128
 71
7
 72
8
 73
2
 74
1
 0
VERTEX
 8
CUBO
 10
0
 20
0
 30
0
 70
128
 71
2
 72
8
 73
6
 74
4
 0
VERTEX
 8
CUBO
 10
0
 20
0
 30
0
 70
128
 71
7
 72
1
 73
3
 74
5
 0
SEQEND
 0
POLYLINE
 8
CUBO_9
 66
1
 10
0.0
 20
0.0
 30
0.0
 70
64
 71
8
 72
6
 0
VERTEX
 8
CUBO_9
 10
-13.239
 20
-44.038
 30
8.0199
 70
192
 0
VERTEX
 8
CUBO_9
 10
-13.9089
 20
-43.8428
 30
9.1273
 70
192
 0
VERTEX
 8
CUBO_9
 10
-10.9613
 20
-44.038
 30
8.0199
 70
192
 0
VERTEX
 8
CUBO_9
 10
-10.2909
 20
-43.8428
 30
9.1273
 70
192
 0
VERTEX
 8
CUBO_9
 10
-10.9613
 20
-4.6458
 30
1.074
 70
192
 0
VERTEX
 8
CUBO_9
 10
-10.2909
 20
-4.4505
 30
2.1814
 70
192
 0
VERTEX
 8
CUBO_9
 10
-13.239
 20
-4.6458
 30
1.074
 70
192
 0
VERTEX
 8
CUBO_9
 10
-13.9089
 20
-4.4505
 30
2.1814
 70
192
 0
VERTEX
 8
CUBO_9
 10
0
 20
0
 30
0
 70
128
 71
1
 72
2
 73
4
 74
3
 0
VERTEX
 8
CUBO_9
 10
0
 20
0
 30
0
 70
128
 71
3
 72
4
 73
6
 74
5
 0
VERTEX
 8
CUBO_9
 10
0
 20
0
 30
0
 70
128
 71
5
 72
6
 73
8
 74
7
 0
VERTEX
 8
CUBO_9
 10
0
 20
0
 30
0
 70
128
 71
7
 72
8
 73
2
 74
1
 0
VERTEX
 8
CUBO_9
 10
0
 20
0
 30
0
 70
128
 71
2
 72
8
 73
6
 74
4
 0
VERTEX
 8
CUBO_9
 10
0
 20
0
 30
0
 70
128
 71
7
 72
1
 73
3
 74
5
 0
SEQEND
 0
POLYLINE
 8
CUBO_10
 66
1
 10
0.0
 20
0.0
 30
0.0
 70
64
 71
8
 72
6
 0
VERTEX
 8
CUBO_10
 10
-9.239
 20
-44.038
 30
8.0199
 70
192
 0
VERTEX
 8
CUBO_10
 10
-9.9089
 20
-43.8428
 30
9.1273
 70
192
 0
VERTEX
 8
CUBO_10
 10
-6.9613
 20
-44.038
 30
8.0199
 70
192
 0
VERTEX
 8
CUBO_10
 10
-6.2909
 20
-43.8428
 30
9.1273
 70
192
 0
VERTEX
 8
CUBO_10
 10
-6.9613
 20
-4.6458
 30
1.074
 70
192
 0
VERTEX
 8
CUBO_10
 10
-6.2909
 20
-4.4505
 30
2.1814
 70
192
 0
VERTEX
 8
CUBO_10
 10
-9.239
 20
-4.6458
 30
1.074
 70
192
 0
VERTEX
 8
CUBO_10
 10
-9.9089
 20
-4.4505
 30
2.1814
 70
192
 0
VERTEX
 8
CUBO_10
 10
0
 20
0
 30
0
 70
128
 71
1
 72
2
 73
4
 74
3
 0
VERTEX
 8
CUBO_10
 10
0
 20
0
 30
0
 70
128
 71
3
 72
4
 73
6
 74
5
 0
VERTEX
 8
CUBO_10
 10
0
 20
0
 30
0
 70
128
 71
5
 72
6
 73
8
 74
7
 0
VERTEX
 8
CUBO_10
 10
0
 20
0
 30
0
 70
128
 71
7
 72
8
 73
2
 74
1
 0
VERTEX
 8
CUBO_10
 10
0
 20
0
 30
0
 70
128
 71
2
 72
8
 73
6
 74
4
 0
VERTEX
 8
CUBO_10
 10
0
 20
0
 30
0
 70
128
 71
7
 72
1
 73
3
 74
5
 0
SEQEND
 0
POLYLINE
 8
CUBO_11
 66
1
 10
0.0
 20
0.0
 30
0.0
 70
64
 71
8
 72
6
 0
VERTEX
 8
CUBO_11
 10
-5.239
 20
-44.038
 30
8.0199
 70
192
 0
VERTEX
 8
CUBO_11
 10
-5.9089
 20
-43.8428
 30
9.1273
 70
192
 0
VERTEX
 8
CUBO_11
 10
-2.9613
 20
-44.038
 30
8.0199
 70
192
 0
VERTEX
 8
CUBO_11
 10
-2.2909
 20
-43.8428
 30
9.1273
 70
192
 0
VERTEX
 8
CUBO_11
 10
-2.9613
 20
-4.6458
 30
1.074
 70
192
 0
VERTEX
 8
CUBO_11
 10
-2.2909
 20
-4.4505
 30
2.1814
 70
192
 0
VERTEX
 8
CUBO_11
 10
-5.239
 20
-4.6458
 30
1.074
 70
192
 0
VERTEX
 8
CUBO_11
 10
-5.9089
 20
-4.4505
 30
2.1814
 70
192
 0
VERTEX
 8
CUBO_11
 10
0
 20
0
 30
0
 70
128
 71
1
 72
2
 73
4
 74
3
 0
VERTEX
 8
CUBO_11
 10
0
 20
0
 30
0
 70
128
 71
3
 72
4
 73
6
 74
5
 0
VERTEX
 8
CUBO_11
 10
0
 20
0
 30
0
 70
128
 71
5
 72
6
 73
8
 74
7
 0
VERTEX
 8
CUBO_11
 10
0
 20
0
 30
0
 70
128
 71
7
 72
8
 73
2
 74
1
 0
VERTEX
 8
CUBO_11
 10
0
 20
0
 30
0
 70
128
 71
2
 72
8
 73
6
 74
4
 0
VERTEX
 8
CUBO_11
 10
0
 20
0
 30
0
 70
128
 71
7
 72
1
 73
3
 74
5
 0
SEQEND
 0
POLYLINE
 8
SFERA_1
 66
1
 10
0.0
 20
0.0
 30
0.0
 70
64
 71
114
 72
128
 0
VERTEX
 8
SFERA_1
 10
24.1
 20
-41.1829
 30
5.817
 70
192
 0
VERTEX
 8
SFERA_1
 10
24.1
 20
-41.0167
 30
6.7596
 70
192
 0
VERTEX
 8
SFERA_1
 10
24.2832
 20
-41.1765
 30
5.8529
 70
192
 0
VERTEX
 8
SFERA_1
 10
24.2692
 20
-41.1075
 30
5.8407
 70
192
 0
VERTEX
 8
SFERA_1
 10
24.2295
 20
-41.049
 30
5.8304
 70
192
 0
VERTEX
 8
SFERA_1
 10
24.1701
 20
-41.0099
 30
5.8235
 70
192
 0
VERTEX
 8
SFERA_1
 10
24.1
 20
-40.9962
 30
5.8211
 70
192
 0
VERTEX
 8
SFERA_1
 10
24.0299
 20
-41.0099
 30
5.8235
 70
192
 0
VERTEX
 8
SFERA_1
 10
23.9705
 20
-41.049
 30
5.8304
 70
192
 0
VERTEX
 8
SFERA_1
 10
23.9308
 20
-41.1075
 30
5.8407
 70
192
 0
VERTEX
 8
SFERA_1
 10
23.9169
 20
-41.1765
 30
5.8529
 70
192
 0
VERTEX
 8
SFERA_1
 10
23.9308
 20
-41.2456
 30
5.8651
 70
192
 0
VERTEX
 8
SFERA_1
 10
23.9705
 20
-41.3041
 30
5.8754
 70
192
 0
VERTEX
 8
SFERA_1
 10
24.0299
 20
-41.3432
 30
5.8823
 70
192
 0
VERTEX
 8
SFERA_1
 10
24.1
 20
-41.3569
 30
5.8847
 70
192
 0
VERTEX
 8
SFERA_1
 10
24.1701
 20
-41.3432
 30
5.8823
 70
192
 0
VERTEX
 8
SFERA_1
 10
24.2295
 20
-41.3041
 30
5.8754
 70
192
 0
VERTEX
 8
SFERA_1
 10
24.2692
 20
-41.2456
 30
5.8651
 70
192
 0
VERTEX
 8
SFERA_1
 10
24.4384
 20
-41.1585
 30
5.9551
 70
192
 0
VERTEX
 8
SFERA_1
 10
24.4127
 20
-41.031
 30
5.9326
 70
192
 0
VERTEX
 8
SFERA_1
 10
24.3393
 20
-40.9229
 30
5.9135
 70
192
 0
VERTEX
 8
SFERA_1
 10
24.2295
 20
-40.8506
 30
5.9008
 70
192
 0
VERTEX
 8
SFERA_1
 10
24.1
 20
-40.8253
 30
5.8963
 70
192
 0
VERTEX
 8
SFERA_1
 10
23.9705
 20
-40.8506
 30
5.9008
 70
192
 0
VERTEX
 8
SFERA_1
 10
23.8607
 20
-40.9229
 30
5.9135
 70
192
 0
VERTEX
 8
SFERA_1
 10
23.7874
 20
-41.031
 30
5.9326
 70
192
 0
VERTEX
 8
SFERA_1
 10
23.7616
 20
-41.1585
 30
5.9551
 70
192
 0
VERTEX
 8
SFERA_1
 10
23.7874
 20
-41.2861
 30
5.9775
 70
192
 0
VERTEX
 8
SFERA_1
 10
23.8607
 20
-41.3942
 30
5.9966
 70
192
 0
VERTEX
 8
SFERA_1
 10
23.9705
 20
-41.4664
 30
6.0093
 70
192
 0
VERTEX
 8
SFERA_1
 10
24.1
 20
-41.4918
 30
6.0138
 70
192
 0
VERTEX
 8
SFERA_1
 10
24.2295
 20
-41.4664
 30
6.0093
 70
192
 0
VERTEX
 8
SFERA_1
 10
24.3393
 20
-41.3942
 30
5.9966
 70
192
 0
VERTEX
 8
SFERA_1
 10
24.4127
 20
-41.2861
 30
5.9775
 70
192
 0
VERTEX
 8
SFERA_1
 10
24.5422
 20
-41.1316
 30
6.108
 70
192
 0
VERTEX
 8
SFERA_1
 10
24.5085
 20
-40.9649
 30
6.0786
 70
192
 0
VERTEX
 8
SFERA_1
 10
24.4127
 20
-40.8237
 30
6.0537
 70
192
 0
VERTEX
 8
SFERA_1
 10
24.2692
 20
-40.7293
 30
6.037
 70
192
 0
VERTEX
 8
SFERA_1
 10
24.1
 20
-40.6961
 30
6.0312
 70
192
 0
VERTEX
 8
SFERA_1
 10
23.9308
 20
-40.7293
 30
6.037
 70
192
 0
VERTEX
 8
SFERA_1
 10
23.7874
 20
-40.8237
 30
6.0537
 70
192
 0
VERTEX
 8
SFERA_1
 10
23.6915
 20
-40.9649
 30
6.0786
 70
192
 0
VERTEX
 8
SFERA_1
 10
23.6579
 20
-41.1316
 30
6.108
 70
192
 0
VERTEX
 8
SFERA_1
 10
23.6915
 20
-41.2982
 30
6.1373
 70
192
 0
VERTEX
 8
SFERA_1
 10
23.7874
 20
-41.4395
 30
6.1623
 70
192
 0
VERTEX
 8
SFERA_1
 10
23.9308
 20
-41.5339
 30
6.1789
 70
192
 0
VERTEX
 8
SFERA_1
 10
24.1
 20
-41.567
 30
6.1847
 70
192
 0
VERTEX
 8
SFERA_1
 10
24.2692
 20
-41.5339
 30
6.1789
 70
192
 0
VERTEX
 8
SFERA_1
 10
24.4127
 20
-41.4395
 30
6.1623
 70
192
 0
VERTEX
 8
SFERA_1
 10
24.5085
 20
-41.2982
 30
6.1373
 70
192
 0
VERTEX
 8
SFERA_1
 10
24.5786
 20
-41.0998
 30
6.2883
 70
192
 0
VERTEX
 8
SFERA_1
 10
24.5422
 20
-40.9194
 30
6.2565
 70
192
 0
VERTEX
 8
SFERA_1
 10
24.4384
 20
-40.7665
 30
6.2296
 70
192
 0
VERTEX
 8
SFERA_1
 10
24.2832
 20
-40.6643
 30
6.2115
 70
192
 0
VERTEX
 8
SFERA_1
 10
24.1
 20
-40.6285
 30
6.2052
 70
192
 0
VERTEX
 8
SFERA_1
 10
23.9169
 20
-40.6643
 30
6.2115
 70
192
 0
VERTEX
 8
SFERA_1
 10
23.7616
 20
-40.7665
 30
6.2296
 70
192
 0
VERTEX
 8
SFERA_1
 10
23.6579
 20
-40.9194
 30
6.2565
 70
192
 0
VERTEX
 8
SFERA_1
 10
23.6214
 20
-41.0998
 30
6.2883
 70
192
 0
VERTEX
 8
SFERA_1
 10
23.6579
 20
-41.2801
 30
6.3201
 70
192
 0
VERTEX
 8
SFERA_1
 10
23.7616
 20
-41.433
 30
6.3471
 70
192
 0
VERTEX
 8
SFERA_1
 10
23.9169
 20
-41.5352
 30
6.3651
 70
192
 0
VERTEX
 8
SFERA_1
 10
24.1
 20
-41.5711
 30
6.3714
 70
192
 0
VERTEX
 8
SFERA_1
 10
24.2832
 20
-41.5352
 30
6.3651
 70
192
 0
VERTEX
 8
SFERA_1
 10
24.4384
 20
-41.433
 30
6.3471
 70
192
 0
VERTEX
 8
SFERA_1
 10
24.5422
 20
-41.2801
 30
6.3201
 70
192
 0
VERTEX
 8
SFERA_1
 10
24.5422
 20
-41.068
 30
6.4687
 70
192
 0
VERTEX
 8
SFERA_1
 10
24.5085
 20
-40.9013
 30
6.4393
 70
192
 0
VERTEX
 8
SFERA_1
 10
24.4127
 20
-40.7601
 30
6.4144
 70
192
 0
VERTEX
 8
SFERA_1
 10
24.2692
 20
-40.6657
 30
6.3978
 70
192
 0
VERTEX
 8
SFERA_1
 10
24.1
 20
-40.6325
 30
6.3919
 70
192
 0
VERTEX
 8
SFERA_1
 10
23.9308
 20
-40.6657
 30
6.3978
 70
192
 0
VERTEX
 8
SFERA_1
 10
23.7874
 20
-40.7601
 30
6.4144
 70
192
 0
VERTEX
 8
SFERA_1
 10
23.6915
 20
-40.9013
 30
6.4393
 70
192
 0
VERTEX
 8
SFERA_1
 10
23.6579
 20
-41.068
 30
6.4687
 70
192
 0
VERTEX
 8
SFERA_1
 10
23.6915
 20
-41.2346
 30
6.4981
 70
192
 0
VERTEX
 8
SFERA_1
 10
23.7874
 20
-41.3759
 30
6.523
 70
192
 0
VERTEX
 8
SFERA_1
 10
23.9308
 20
-41.4703
 30
6.5396
 70
192
 0
VERTEX
 8
SFERA_1
 10
24.1
 20
-41.5034
 30
6.5455
 70
192
 0
VERTEX
 8
SFERA_1
 10
24.2692
 20
-41.4703
 30
6.5396
 70
192
 0
VERTEX
 8
SFERA_1
 10
24.4127
 20
-41.3759
 30
6.523
 70
192
 0
VERTEX
 8
SFERA_1
 10
24.5085
 20
-41.2346
 30
6.4981
 70
192
 0
VERTEX
 8
SFERA_1
 10
24.4384
 20
-41.041
 30
6.6216
 70
192
 0
VERTEX
 8
SFERA_1
 10
24.4127
 20
-40.9135
 30
6.5991
 70
192
 0
VERTEX
 8
SFERA_1
 10
24.3393
 20
-40.8053
 30
6.58
 70
192
 0
VERTEX
 8
SFERA_1
 10
24.2295
 20
-40.7331
 30
6.5673
 70
192
 0
VERTEX
 8
SFERA_1
 10
24.1
 20
-40.7077
 30
6.5628
 70
192
 0
VERTEX
 8
SFERA_1
 10
23.9705
 20
-40.7331
 30
6.5673
 70
192
 0
VERTEX
 8
SFERA_1
 10
23.8607
 20
-40.8053
 30
6.58
 70
192
 0
VERTEX
 8
SFERA_1
 10
23.7874
 20
-40.9135
 30
6.5991
 70
192
 0
VERTEX
 8
SFERA_1
 10
23.7616
 20
-41.041
 30
6.6216
 70
192
 0
VERTEX
 8
SFERA_1
 10
23.7874
 20
-41.1685
 30
6.6441
 70
192
 0
VERTEX
 8
SFERA_1
 10
23.8607
 20
-41.2767
 30
6.6631
 70
192
 0
VERTEX
 8
SFERA_1
 10
23.9705
 20
-41.3489
 30
6.6759
 70
192
 0
VERTEX
 8
SFERA_1
 10
24.1
 20
-41.3743
 30
6.6804
 70
192
 0
VERTEX
 8
SFERA_1
 10
24.2295
 20
-41.3489
 30
6.6759
 70
192
 0
VERTEX
 8
SFERA_1
 10
24.3393
 20
-41.2767
 30
6.6631
 70
192
 0
VERTEX
 8
SFERA_1
 10
24.4127
 20
-41.1685
 30
6.6441
 70
192
 0
VERTEX
 8
SFERA_1
 10
24.2832
 20
-41.023
 30
6.7238
 70
192
 0
VERTEX
 8
SFERA_1
 10
24.2692
 20
-40.954
 30
6.7116
 70
192
 0
VERTEX
 8
SFERA_1
 10
24.2295
 20
-40.8954
 30
6.7013
 70
192
 0
VERTEX
 8
SFERA_1
 10
24.1701
 20
-40.8564
 30
6.6944
 70
192
 0
VERTEX
 8
SFERA_1
 10
24.1
 20
-40.8426
 30
6.692
 70
192
 0
VERTEX
 8
SFERA_1
 10
24.0299
 20
-40.8564
 30
6.6944
 70
192
 0
VERTEX
 8
SFERA_1
 10
23.9705
 20
-40.8954
 30
6.7013
 70
192
 0
VERTEX
 8
SFERA_1
 10
23.9308
 20
-40.954
 30
6.7116
 70
192
 0
VERTEX
 8
SFERA_1
 10
23.9169
 20
-41.023
 30
6.7238
 70
192
 0
VERTEX
 8
SFERA_1
 10
23.9308
 20
-41.092
 30
6.7359
 70
192
 0
VERTEX
 8
SFERA_1
 10
23.9705
 20
-41.1505
 30
6.7463
 70
192
 0
VERTEX
 8
SFERA_1
 10
24.0299
 20
-41.1896
 30
6.7531
 70
192
 0
VERTEX
 8
SFERA_1
 10
24.1
 20
-41.2034
 30
6.7556
 70
192
 0
VERTEX
 8
SFERA_1
 10
24.1701
 20
-41.1896
 30
6.7531
 70
192
 0
VERTEX
 8
SFERA_1
 10
24.2295
 20
-41.1505
 30
6.7463
 70
192
 0
VERTEX
 8
SFERA_1
 10
24.2692
 20
-41.092
 30
6.7359
 70
192
 0
VERTEX
 8
SFERA_1
 10
0
 20
0
 30
0
 70
128
 71
3
 72
19
 73
20
 74
4
 0
VERTEX
 8
SFERA_1
 10
0
 20
0
 30
0
 70
128
 71
4
 72
20
 73
21
 74
5
 0
VERTEX
 8
SFERA_1
 10
0
 20
0
 30
0
 70
128
 71
5
 72
21
 73
22
 74
6
 0
VERTEX
 8
SFERA_1
 10
0
 20
0
 30
0
 70
128
 71
6
 72
22
 73
23
 74
7
 0
VERTEX
 8
SFERA_1
 10
0
 20
0
 30
0
 70
128
 71
7
 72
23
 73
24
 74
8
 0
VERTEX
 8
SFERA_1
 10
0
 20
0
 30
0
 70
128
 71
8
 72
24
 73
25
 74
9
 0
VERTEX
 8
SFERA_1
 10
0
 20
0
 30
0
 70
128
 71
9
 72
25
 73
26
 74
10
 0
VERTEX
 8
SFERA_1
 10
0
 20
0
 30
0
 70
128
 71
10
 72
26
 73
27
 74
11
 0
VERTEX
 8
SFERA_1
 10
0
 20
0
 30
0
 70
128
 71
11
 72
27
 73
28
 74
12
 0
VERTEX
 8
SFERA_1
 10
0
 20
0
 30
0
 70
128
 71
12
 72
28
 73
29
 74
13
 0
VERTEX
 8
SFERA_1
 10
0
 20
0
 30
0
 70
128
 71
13
 72
29
 73
30
 74
14
 0
VERTEX
 8
SFERA_1
 10
0
 20
0
 30
0
 70
128
 71
14
 72
30
 73
31
 74
15
 0
VERTEX
 8
SFERA_1
 10
0
 20
0
 30
0
 70
128
 71
15
 72
31
 73
32
 74
16
 0
VERTEX
 8
SFERA_1
 10
0
 20
0
 30
0
 70
128
 71
16
 72
32
 73
33
 74
17
 0
VERTEX
 8
SFERA_1
 10
0
 20
0
 30
0
 70
128
 71
17
 72
33
 73
34
 74
18
 0
VERTEX
 8
SFERA_1
 10
0
 20
0
 30
0
 70
128
 71
18
 72
34
 73
19
 74
3
 0
VERTEX
 8
SFERA_1
 10
0
 20
0
 30
0
 70
128
 71
19
 72
35
 73
36
 74
20
 0
VERTEX
 8
SFERA_1
 10
0
 20
0
 30
0
 70
128
 71
20
 72
36
 73
37
 74
21
 0
VERTEX
 8
SFERA_1
 10
0
 20
0
 30
0
 70
128
 71
21
 72
37
 73
38
 74
22
 0
VERTEX
 8
SFERA_1
 10
0
 20
0
 30
0
 70
128
 71
22
 72
38
 73
39
 74
23
 0
VERTEX
 8
SFERA_1
 10
0
 20
0
 30
0
 70
128
 71
23
 72
39
 73
40
 74
24
 0
VERTEX
 8
SFERA_1
 10
0
 20
0
 30
0
 70
128
 71
24
 72
40
 73
41
 74
25
 0
VERTEX
 8
SFERA_1
 10
0
 20
0
 30
0
 70
128
 71
25
 72
41
 73
42
 74
26
 0
VERTEX
 8
SFERA_1
 10
0
 20
0
 30
0
 70
128
 71
26
 72
42
 73
43
 74
27
 0
VERTEX
 8
SFERA_1
 10
0
 20
0
 30
0
 70
128
 71
27
 72
43
 73
44
 74
28
 0
VERTEX
 8
SFERA_1
 10
0
 20
0
 30
0
 70
128
 71
28
 72
44
 73
45
 74
29
 0
VERTEX
 8
SFERA_1
 10
0
 20
0
 30
0
 70
128
 71
29
 72
45
 73
46
 74
30
 0
VERTEX
 8
SFERA_1
 10
0
 20
0
 30
0
 70
128
 71
30
 72
46
 73
47
 74
31
 0
VERTEX
 8
SFERA_1
 10
0
 20
0
 30
0
 70
128
 71
31
 72
47
 73
48
 74
32
 0
VERTEX
 8
SFERA_1
 10
0
 20
0
 30
0
 70
128
 71
32
 72
48
 73
49
 74
33
 0
VERTEX
 8
SFERA_1
 10
0
 20
0
 30
0
 70
128
 71
33
 72
49
 73
50
 74
34
 0
VERTEX
 8
SFERA_1
 10
0
 20
0
 30
0
 70
128
 71
34
 72
50
 73
35
 74
19
 0
VERTEX
 8
SFERA_1
 10
0
 20
0
 30
0
 70
128
 71
35
 72
51
 73
52
 74
36
 0
VERTEX
 8
SFERA_1
 10
0
 20
0
 30
0
 70
128
 71
36
 72
52
 73
53
 74
37
 0
VERTEX
 8
SFERA_1
 10
0
 20
0
 30
0
 70
128
 71
37
 72
53
 73
54
 74
38
 0
VERTEX
 8
SFERA_1
 10
0
 20
0
 30
0
 70
128
 71
38
 72
54
 73
55
 74
39
 0
VERTEX
 8
SFERA_1
 10
0
 20
0
 30
0
 70
128
 71
39
 72
55
 73
56
 74
40
 0
VERTEX
 8
SFERA_1
 10
0
 20
0
 30
0
 70
128
 71
40
 72
56
 73
57
 74
41
 0
VERTEX
 8
SFERA_1
 10
0
 20
0
 30
0
 70
128
 71
41
 72
57
 73
58
 74
42
 0
VERTEX
 8
SFERA_1
 10
0
 20
0
 30
0
 70
128
 71
42
 72
58
 73
59
 74
43
 0
VERTEX
 8
SFERA_1
 10
0
 20
0
 30
0
 70
128
 71
43
 72
59
 73
60
 74
44
 0
VERTEX
 8
SFERA_1
 10
0
 20
0
 30
0
 70
128
 71
44
 72
60
 73
61
 74
45
 0
VERTEX
 8
SFERA_1
 10
0
 20
0
 30
0
 70
128
 71
45
 72
61
 73
62
 74
46
 0
VERTEX
 8
SFERA_1
 10
0
 20
0
 30
0
 70
128
 71
46
 72
62
 73
63
 74
47
 0
VERTEX
 8
SFERA_1
 10
0
 20
0
 30
0
 70
128
 71
47
 72
63
 73
64
 74
48
 0
VERTEX
 8
SFERA_1
 10
0
 20
0
 30
0
 70
128
 71
48
 72
64
 73
65
 74
49
 0
VERTEX
 8
SFERA_1
 10
0
 20
0
 30
0
 70
128
 71
49
 72
65
 73
66
 74
50
 0
VERTEX
 8
SFERA_1
 10
0
 20
0
 30
0
 70
128
 71
50
 72
66
 73
51
 74
35
 0
VERTEX
 8
SFERA_1
 10
0
 20
0
 30
0
 70
128
 71
51
 72
67
 73
68
 74
52
 0
VERTEX
 8
SFERA_1
 10
0
 20
0
 30
0
 70
128
 71
52
 72
68
 73
69
 74
53
 0
VERTEX
 8
SFERA_1
 10
0
 20
0
 30
0
 70
128
 71
53
 72
69
 73
70
 74
54
 0
VERTEX
 8
SFERA_1
 10
0
 20
0
 30
0
 70
128
 71
54
 72
70
 73
71
 74
55
 0
VERTEX
 8
SFERA_1
 10
0
 20
0
 30
0
 70
128
 71
55
 72
71
 73
72
 74
56
 0
VERTEX
 8
SFERA_1
 10
0
 20
0
 30
0
 70
128
 71
56
 72
72
 73
73
 74
57
 0
VERTEX
 8
SFERA_1
 10
0
 20
0
 30
0
 70
128
 71
57
 72
73
 73
74
 74
58
 0
VERTEX
 8
SFERA_1
 10
0
 20
0
 30
0
 70
128
 71
58
 72
74
 73
75
 74
59
 0
VERTEX
 8
SFERA_1
 10
0
 20
0
 30
0
 70
128
 71
59
 72
75
 73
76
 74
60
 0
VERTEX
 8
SFERA_1
 10
0
 20
0
 30
0
 70
128
 71
60
 72
76
 73
77
 74
61
 0
VERTEX
 8
SFERA_1
 10
0
 20
0
 30
0
 70
128
 71
61
 72
77
 73
78
 74
62
 0
VERTEX
 8
SFERA_1
 10
0
 20
0
 30
0
 70
128
 71
62
 72
78
 73
79
 74
63
 0
VERTEX
 8
SFERA_1
 10
0
 20
0
 30
0
 70
128
 71
63
 72
79
 73
80
 74
64
 0
VERTEX
 8
SFERA_1
 10
0
 20
0
 30
0
 70
128
 71
64
 72
80
 73
81
 74
65
 0
VERTEX
 8
SFERA_1
 10
0
 20
0
 30
0
 70
128
 71
65
 72
81
 73
82
 74
66
 0
VERTEX
 8
SFERA_1
 10
0
 20
0
 30
0
 70
128
 71
66
 72
82
 73
67
 74
51
 0
VERTEX
 8
SFERA_1
 10
0
 20
0
 30
0
 70
128
 71
67
 72
83
 73
84
 74
68
 0
VERTEX
 8
SFERA_1
 10
0
 20
0
 30
0
 70
128
 71
68
 72
84
 73
85
 74
69
 0
VERTEX
 8
SFERA_1
 10
0
 20
0
 30
0
 70
128
 71
69
 72
85
 73
86
 74
70
 0
VERTEX
 8
SFERA_1
 10
0
 20
0
 30
0
 70
128
 71
70
 72
86
 73
87
 74
71
 0
VERTEX
 8
SFERA_1
 10
0
 20
0
 30
0
 70
128
 71
71
 72
87
 73
88
 74
72
 0
VERTEX
 8
SFERA_1
 10
0
 20
0
 30
0
 70
128
 71
72
 72
88
 73
89
 74
73
 0
VERTEX
 8
SFERA_1
 10
0
 20
0
 30
0
 70
128
 71
73
 72
89
 73
90
 74
74
 0
VERTEX
 8
SFERA_1
 10
0
 20
0
 30
0
 70
128
 71
74
 72
90
 73
91
 74
75
 0
VERTEX
 8
SFERA_1
 10
0
 20
0
 30
0
 70
128
 71
75
 72
91
 73
92
 74
76
 0
VERTEX
 8
SFERA_1
 10
0
 20
0
 30
0
 70
128
 71
76
 72
92
 73
93
 74
77
 0
VERTEX
 8
SFERA_1
 10
0
 20
0
 30
0
 70
128
 71
77
 72
93
 73
94
 74
78
 0
VERTEX
 8
SFERA_1
 10
0
 20
0
 30
0
 70
128
 71
78
 72
94
 73
95
 74
79
 0
VERTEX
 8
SFERA_1
 10
0
 20
0
 30
0
 70
128
 71
79
 72
95
 73
96
 74
80
 0
VERTEX
 8
SFERA_1
 10
0
 20
0
 30
0
 70
128
 71
80
 72
96
 73
97
 74
81
 0
VERTEX
 8
SFERA_1
 10
0
 20
0
 30
0
 70
128
 71
81
 72
97
 73
98
 74
82
 0
VERTEX
 8
SFERA_1
 10
0
 20
0
 30
0
 70
128
 71
82
 72
98
 73
83
 74
67
 0
VERTEX
 8
SFERA_1
 10
0
 20
0
 30
0
 70
128
 71
83
 72
99
 73
100
 74
84
 0
VERTEX
 8
SFERA_1
 10
0
 20
0
 30
0
 70
128
 71
84
 72
100
 73
101
 74
85
 0
VERTEX
 8
SFERA_1
 10
0
 20
0
 30
0
 70
128
 71
85
 72
101
 73
102
 74
86
 0
VERTEX
 8
SFERA_1
 10
0
 20
0
 30
0
 70
128
 71
86
 72
102
 73
103
 74
87
 0
VERTEX
 8
SFERA_1
 10
0
 20
0
 30
0
 70
128
 71
87
 72
103
 73
104
 74
88
 0
VERTEX
 8
SFERA_1
 10
0
 20
0
 30
0
 70
128
 71
88
 72
104
 73
105
 74
89
 0
VERTEX
 8
SFERA_1
 10
0
 20
0
 30
0
 70
128
 71
89
 72
105
 73
106
 74
90
 0
VERTEX
 8
SFERA_1
 10
0
 20
0
 30
0
 70
128
 71
90
 72
106
 73
107
 74
91
 0
VERTEX
 8
SFERA_1
 10
0
 20
0
 30
0
 70
128
 71
91
 72
107
 73
108
 74
92
 0
VERTEX
 8
SFERA_1
 10
0
 20
0
 30
0
 70
128
 71
92
 72
108
 73
109
 74
93
 0
VERTEX
 8
SFERA_1
 10
0
 20
0
 30
0
 70
128
 71
93
 72
109
 73
110
 74
94
 0
VERTEX
 8
SFERA_1
 10
0
 20
0
 30
0
 70
128
 71
94
 72
110
 73
111
 74
95
 0
VERTEX
 8
SFERA_1
 10
0
 20
0
 30
0
 70
128
 71
95
 72
111
 73
112
 74
96
 0
VERTEX
 8
SFERA_1
 10
0
 20
0
 30
0
 70
128
 71
96
 72
112
 73
113
 74
97
 0
VERTEX
 8
SFERA_1
 10
0
 20
0
 30
0
 70
128
 71
97
 72
113
 73
114
 74
98
 0
VERTEX
 8
SFERA_1
 10
0
 20
0
 30
0
 70
128
 71
98
 72
114
 73
99
 74
83
 0
VERTEX
 8
SFERA_1
 10
0
 20
0
 30
0
 70
128
 71
1
 72
3
 73
4
 74
4
 0
VERTEX
 8
SFERA_1
 10
0
 20
0
 30
0
 70
128
 71
100
 72
99
 73
2
 74
2
 0
VERTEX
 8
SFERA_1
 10
0
 20
0
 30
0
 70
128
 71
1
 72
4
 73
5
 74
5
 0
VERTEX
 8
SFERA_1
 10
0
 20
0
 30
0
 70
128
 71
101
 72
100
 73
2
 74
2
 0
VERTEX
 8
SFERA_1
 10
0
 20
0
 30
0
 70
128
 71
1
 72
5
 73
6
 74
6
 0
VERTEX
 8
SFERA_1
 10
0
 20
0
 30
0
 70
128
 71
102
 72
101
 73
2
 74
2
 0
VERTEX
 8
SFERA_1
 10
0
 20
0
 30
0
 70
128
 71
1
 72
6
 73
7
 74
7
 0
VERTEX
 8
SFERA_1
 10
0
 20
0
 30
0
 70
128
 71
103
 72
102
 73
2
 74
2
 0
VERTEX
 8
SFERA_1
 10
0
 20
0
 30
0
 70
128
 71
1
 72
7
 73
8
 74
8
 0
VERTEX
 8
SFERA_1
 10
0
 20
0
 30
0
 70
128
 71
104
 72
103
 73
2
 74
2
 0
VERTEX
 8
SFERA_1
 10
0
 20
0
 30
0
 70
128
 71
1
 72
8
 73
9
 74
9
 0
VERTEX
 8
SFERA_1
 10
0
 20
0
 30
0
 70
128
 71
105
 72
104
 73
2
 74
2
 0
VERTEX
 8
SFERA_1
 10
0
 20
0
 30
0
 70
128
 71
1
 72
9
 73
10
 74
10
 0
VERTEX
 8
SFERA_1
 10
0
 20
0
 30
0
 70
128
 71
106
 72
105
 73
2
 74
2
 0
VERTEX
 8
SFERA_1
 10
0
 20
0
 30
0
 70
128
 71
1
 72
10
 73
11
 74
11
 0
VERTEX
 8
SFERA_1
 10
0
 20
0
 30
0
 70
128
 71
107
 72
106
 73
2
 74
2
 0
VERTEX
 8
SFERA_1
 10
0
 20
0
 30
0
 70
128
 71
1
 72
11
 73
12
 74
12
 0
VERTEX
 8
SFERA_1
 10
0
 20
0
 30
0
 70
128
 71
108
 72
107
 73
2
 74
2
 0
VERTEX
 8
SFERA_1
 10
0
 20
0
 30
0
 70
128
 71
1
 72
12
 73
13
 74
13
 0
VERTEX
 8
SFERA_1
 10
0
 20
0
 30
0
 70
128
 71
109
 72
108
 73
2
 74
2
 0
VERTEX
 8
SFERA_1
 10
0
 20
0
 30
0
 70
128
 71
1
 72
13
 73
14
 74
14
 0
VERTEX
 8
SFERA_1
 10
0
 20
0
 30
0
 70
128
 71
110
 72
109
 73
2
 74
2
 0
VERTEX
 8
SFERA_1
 10
0
 20
0
 30
0
 70
128
 71
1
 72
14
 73
15
 74
15
 0
VERTEX
 8
SFERA_1
 10
0
 20
0
 30
0
 70
128
 71
111
 72
110
 73
2
 74
2
 0
VERTEX
 8
SFERA_1
 10
0
 20
0
 30
0
 70
128
 71
1
 72
15
 73
16
 74
16
 0
VERTEX
 8
SFERA_1
 10
0
 20
0
 30
0
 70
128
 71
112
 72
111
 73
2
 74
2
 0
VERTEX
 8
SFERA_1
 10
0
 20
0
 30
0
 70
128
 71
1
 72
16
 73
17
 74
17
 0
VERTEX
 8
SFERA_1
 10
0
 20
0
 30
0
 70
128
 71
113
 72
112
 73
2
 74
2
 0
VERTEX
 8
SFERA_1
 10
0
 20
0
 30
0
 70
128
 71
1
 72
17
 73
18
 74
18
 0
VERTEX
 8
SFERA_1
 10
0
 20
0
 30
0
 70
128
 71
114
 72
113
 73
2
 74
2
 0
VERTEX
 8
SFERA_1
 10
0
 20
0
 30
0
 70
128
 71
1
 72
18
 73
3
 74
3
 0
VERTEX
 8
SFERA_1
 10
0
 20
0
 30
0
 70
128
 71
99
 72
114
 73
2
 74
2
 0
SEQEND
 0
POLYLINE
 8
CONO_1
 66
1
 10
0.0
 20
0.0
 30
0.0
 70
64
 71
81
 72
80
 0
VERTEX
 8
CONO_1
 10
24.1
 20
-40.8949
 30
7.4504
 70
192
 0
VERTEX
 8
CONO_1
 10
24.6543
 20
-40.8949
 30
7.4504
 70
192
 0
VERTEX
 8
CONO_1
 10
24.3548
 20
-40.9486
 30
7.1456
 70
192
 0
VERTEX
 8
CONO_1
 10
24.2532
 20
-41.0024
 30
6.8409
 70
192
 0
VERTEX
 8
CONO_1
 10
24.2386
 20
-41.0561
 30
6.5361
 70
192
 0
VERTEX
 8
CONO_1
 10
24.1
 20
-41.1099
 30
6.2314
 70
192
 0
VERTEX
 8
CONO_1
 10
24.6121
 20
-41.1038
 30
7.4872
 70
192
 0
VERTEX
 8
CONO_1
 10
24.3354
 20
-41.0447
 30
7.1626
 70
192
 0
VERTEX
 8
CONO_1
 10
24.2416
 20
-41.0601
 30
6.8511
 70
192
 0
VERTEX
 8
CONO_1
 10
24.228
 20
-41.1083
 30
6.5453
 70
192
 0
VERTEX
 8
CONO_1
 10
24.1
 20
-41.1099
 30
6.2314
 70
192
 0
VERTEX
 8
CONO_1
 10
24.4919
 20
-41.2809
 30
7.5184
 70
192
 0
VERTEX
 8
CONO_1
 10
24.2802
 20
-41.1261
 30
7.1769
 70
192
 0
VERTEX
 8
CONO_1
 10
24.2084
 20
-41.1091
 30
6.8597
 70
192
 0
VERTEX
 8
CONO_1
 10
24.198
 20
-41.1526
 30
6.5532
 70
192
 0
VERTEX
 8
CONO_1
 10
24.1
 20
-41.1099
 30
6.2314
 70
192
 0
VERTEX
 8
CONO_1
 10
24.3121
 20
-41.3992
 30
7.5393
 70
192
 0
VERTEX
 8
CONO_1
 10
24.1975
 20
-41.1805
 30
7.1865
 70
192
 0
VERTEX
 8
CONO_1
 10
24.1586
 20
-41.1418
 30
6.8655
 70
192
 0
VERTEX
 8
CONO_1
 10
24.153
 20
-41.1822
 30
6.5584
 70
192
 0
VERTEX
 8
CONO_1
 10
24.1
 20
-41.1099
 30
6.2314
 70
192
 0
VERTEX
 8
CONO_1
 10
24.1
 20
-41.4408
 30
7.5466
 70
192
 0
VERTEX
 8
CONO_1
 10
24.1
 20
-41.1996
 30
7.1899
 70
192
 0
VERTEX
 8
CONO_1
 10
24.1
 20
-41.1533
 30
6.8675
 70
192
 0
VERTEX
 8
CONO_1
 10
24.1
 20
-41.1926
 30
6.5602
 70
192
 0
VERTEX
 8
CONO_1
 10
24.1
 20
-41.1099
 30
6.2314
 70
192
 0
VERTEX
 8
CONO_1
 10
23.8879
 20
-41.3992
 30
7.5393
 70
192
 0
VERTEX
 8
CONO_1
 10
24.0025
 20
-41.1805
 30
7.1865
 70
192
 0
VERTEX
 8
CONO_1
 10
24.0413
 20
-41.1418
 30
6.8655
 70
192
 0
VERTEX
 8
CONO_1
 10
24.047
 20
-41.1822
 30
6.5584
 70
192
 0
VERTEX
 8
CONO_1
 10
24.1
 20
-41.1099
 30
6.2314
 70
192
 0
VERTEX
 8
CONO_1
 10
23.7081
 20
-41.2809
 30
7.5184
 70
192
 0
VERTEX
 8
CONO_1
 10
23.9198
 20
-41.1261
 30
7.1769
 70
192
 0
VERTEX
 8
CONO_1
 10
23.9916
 20
-41.1091
 30
6.8597
 70
192
 0
VERTEX
 8
CONO_1
 10
24.002
 20
-41.1526
 30
6.5532
 70
192
 0
VERTEX
 8
CONO_1
 10
24.1
 20
-41.1099
 30
6.2314
 70
192
 0
VERTEX
 8
CONO_1
 10
23.5879
 20
-41.1038
 30
7.4872
 70
192
 0
VERTEX
 8
CONO_1
 10
23.8646
 20
-41.0447
 30
7.1626
 70
192
 0
VERTEX
 8
CONO_1
 10
23.9584
 20
-41.0601
 30
6.8511
 70
192
 0
VERTEX
 8
CONO_1
 10
23.972
 20
-41.1083
 30
6.5453
 70
192
 0
VERTEX
 8
CONO_1
 10
24.1
 20
-41.1099
 30
6.2314
 70
192
 0
VERTEX
 8
CONO_1
 10
23.5457
 20
-40.8949
 30
7.4504
 70
192
 0
VERTEX
 8
CONO_1
 10
23.8452
 20
-40.9486
 30
7.1456
 70
192
 0
VERTEX
 8
CONO_1
 10
23.9467
 20
-41.0024
 30
6.8409
 70
192
 0
VERTEX
 8
CONO_1
 10
23.9614
 20
-41.0561
 30
6.5361
 70
192
 0
VERTEX
 8
CONO_1
 10
24.1
 20
-41.1099
 30
6.2314
 70
192
 0
VERTEX
 8
CONO_1
 10
23.5879
 20
-40.686
 30
7.4135
 70
192
 0
VERTEX
 8
CONO_1
 10
23.8646
 20
-40.8526
 30
7.1287
 70
192
 0
VERTEX
 8
CONO_1
 10
23.9584
 20
-40.9446
 30
6.8307
 70
192
 0
VERTEX
 8
CONO_1
 10
23.972
 20
-41.0039
 30
6.5269
 70
192
 0
VERTEX
 8
CONO_1
 10
24.1
 20
-41.1099
 30
6.2314
 70
192
 0
VERTEX
 8
CONO_1
 10
23.7081
 20
-40.5089
 30
7.3823
 70
192
 0
VERTEX
 8
CONO_1
 10
23.9198
 20
-40.7712
 30
7.1143
 70
192
 0
VERTEX
 8
CONO_1
 10
23.9916
 20
-40.8957
 30
6.8221
 70
192
 0
VERTEX
 8
CONO_1
 10
24.002
 20
-40.9596
 30
6.5191
 70
192
 0
VERTEX
 8
CONO_1
 10
24.1
 20
-41.1099
 30
6.2314
 70
192
 0
VERTEX
 8
CONO_1
 10
23.8879
 20
-40.3906
 30
7.3614
 70
192
 0
VERTEX
 8
CONO_1
 10
24.0025
 20
-40.7168
 30
7.1047
 70
192
 0
VERTEX
 8
CONO_1
 10
24.0413
 20
-40.8629
 30
6.8163
 70
192
 0
VERTEX
 8
CONO_1
 10
24.047
 20
-40.93
 30
6.5139
 70
192
 0
VERTEX
 8
CONO_1
 10
24.1
 20
-41.1099
 30
6.2314
 70
192
 0
VERTEX
 8
CONO_1
 10
24.1
 20
-40.3491
 30
7.3541
 70
192
 0
VERTEX
 8
CONO_1
 10
24.1
 20
-40.6977
 30
7.1014
 70
192
 0
VERTEX
 8
CONO_1
 10
24.1
 20
-40.8515
 30
6.8143
 70
192
 0
VERTEX
 8
CONO_1
 10
24.1
 20
-40.9197
 30
6.5121
 70
192
 0
VERTEX
 8
CONO_1
 10
24.1
 20
-41.1099
 30
6.2314
 70
192
 0
VERTEX
 8
CONO_1
 10
24.3121
 20
-40.3906
 30
7.3614
 70
192
 0
VERTEX
 8
CONO_1
 10
24.1975
 20
-40.7168
 30
7.1047
 70
192
 0
VERTEX
 8
CONO_1
 10
24.1586
 20
-40.8629
 30
6.8163
 70
192
 0
VERTEX
 8
CONO_1
 10
24.153
 20
-40.93
 30
6.5139
 70
192
 0
VERTEX
 8
CONO_1
 10
24.1
 20
-41.1099
 30
6.2314
 70
192
 0
VERTEX
 8
CONO_1
 10
24.4919
 20
-40.5089
 30
7.3823
 70
192
 0
VERTEX
 8
CONO_1
 10
24.2802
 20
-40.7712
 30
7.1143
 70
192
 0
VERTEX
 8
CONO_1
 10
24.2084
 20
-40.8957
 30
6.8221
 70
192
 0
VERTEX
 8
CONO_1
 10
24.198
 20
-40.9596
 30
6.5191
 70
192
 0
VERTEX
 8
CONO_1
 10
24.1
 20
-41.1099
 30
6.2314
 70
192
 0
VERTEX
 8
CONO_1
 10
24.6121
 20
-40.686
 30
7.4135
 70
192
 0
VERTEX
 8
CONO_1
 10
24.3354
 20
-40.8526
 30
7.1287
 70
192
 0
VERTEX
 8
CONO_1
 10
24.2416
 20
-40.9446
 30
6.8307
 70
192
 0
VERTEX
 8
CONO_1
 10
24.228
 20
-41.0039
 30
6.5269
 70
192
 0
VERTEX
 8
CONO_1
 10
24.1
 20
-41.1099
 30
6.2314
 70
192
 0
VERTEX
 8
CONO_1
 10
0
 20
0
 30
0
 70
128
 71
1
 72
2
 73
7
 74
7
 0
VERTEX
 8
CONO_1
 10
0
 20
0
 30
0
 70
128
 71
2
 72
3
 73
8
 74
7
 0
VERTEX
 8
CONO_1
 10
0
 20
0
 30
0
 70
128
 71
3
 72
4
 73
9
 74
8
 0
VERTEX
 8
CONO_1
 10
0
 20
0
 30
0
 70
128
 71
4
 72
5
 73
10
 74
9
 0
VERTEX
 8
CONO_1
 10
0
 20
0
 30
0
 70
128
 71
5
 72
6
 73
11
 74
10
 0
VERTEX
 8
CONO_1
 10
0
 20
0
 30
0
 70
128
 71
1
 72
7
 73
12
 74
12
 0
VERTEX
 8
CONO_1
 10
0
 20
0
 30
0
 70
128
 71
7
 72
8
 73
13
 74
12
 0
VERTEX
 8
CONO_1
 10
0
 20
0
 30
0
 70
128
 71
8
 72
9
 73
14
 74
13
 0
VERTEX
 8
CONO_1
 10
0
 20
0
 30
0
 70
128
 71
9
 72
10
 73
15
 74
14
 0
VERTEX
 8
CONO_1
 10
0
 20
0
 30
0
 70
128
 71
10
 72
11
 73
16
 74
15
 0
VERTEX
 8
CONO_1
 10
0
 20
0
 30
0
 70
128
 71
1
 72
12
 73
17
 74
17
 0
VERTEX
 8
CONO_1
 10
0
 20
0
 30
0
 70
128
 71
12
 72
13
 73
18
 74
17
 0
VERTEX
 8
CONO_1
 10
0
 20
0
 30
0
 70
128
 71
13
 72
14
 73
19
 74
18
 0
VERTEX
 8
CONO_1
 10
0
 20
0
 30
0
 70
128
 71
14
 72
15
 73
20
 74
19
 0
VERTEX
 8
CONO_1
 10
0
 20
0
 30
0
 70
128
 71
15
 72
16
 73
21
 74
20
 0
VERTEX
 8
CONO_1
 10
0
 20
0
 30
0
 70
128
 71
1
 72
17
 73
22
 74
22
 0
VERTEX
 8
CONO_1
 10
0
 20
0
 30
0
 70
128
 71
17
 72
18
 73
23
 74
22
 0
VERTEX
 8
CONO_1
 10
0
 20
0
 30
0
 70
128
 71
18
 72
19
 73
24
 74
23
 0
VERTEX
 8
CONO_1
 10
0
 20
0
 30
0
 70
128
 71
19
 72
20
 73
25
 74
24
 0
VERTEX
 8
CONO_1
 10
0
 20
0
 30
0
 70
128
 71
20
 72
21
 73
26
 74
25
 0
VERTEX
 8
CONO_1
 10
0
 20
0
 30
0
 70
128
 71
1
 72
22
 73
27
 74
27
 0
VERTEX
 8
CONO_1
 10
0
 20
0
 30
0
 70
128
 71
22
 72
23
 73
28
 74
27
 0
VERTEX
 8
CONO_1
 10
0
 20
0
 30
0
 70
128
 71
23
 72
24
 73
29
 74
28
 0
VERTEX
 8
CONO_1
 10
0
 20
0
 30
0
 70
128
 71
24
 72
25
 73
30
 74
29
 0
VERTEX
 8
CONO_1
 10
0
 20
0
 30
0
 70
128
 71
25
 72
26
 73
31
 74
30
 0
VERTEX
 8
CONO_1
 10
0
 20
0
 30
0
 70
128
 71
1
 72
27
 73
32
 74
32
 0
VERTEX
 8
CONO_1
 10
0
 20
0
 30
0
 70
128
 71
27
 72
28
 73
33
 74
32
 0
VERTEX
 8
CONO_1
 10
0
 20
0
 30
0
 70
128
 71
28
 72
29
 73
34
 74
33
 0
VERTEX
 8
CONO_1
 10
0
 20
0
 30
0
 70
128
 71
29
 72
30
 73
35
 74
34
 0
VERTEX
 8
CONO_1
 10
0
 20
0
 30
0
 70
128
 71
30
 72
31
 73
36
 74
35
 0
VERTEX
 8
CONO_1
 10
0
 20
0
 30
0
 70
128
 71
1
 72
32
 73
37
 74
37
 0
VERTEX
 8
CONO_1
 10
0
 20
0
 30
0
 70
128
 71
32
 72
33
 73
38
 74
37
 0
VERTEX
 8
CONO_1
 10
0
 20
0
 30
0
 70
128
 71
33
 72
34
 73
39
 74
38
 0
VERTEX
 8
CONO_1
 10
0
 20
0
 30
0
 70
128
 71
34
 72
35
 73
40
 74
39
 0
VERTEX
 8
CONO_1
 10
0
 20
0
 30
0
 70
128
 71
35
 72
36
 73
41
 74
40
 0
VERTEX
 8
CONO_1
 10
0
 20
0
 30
0
 70
128
 71
1
 72
37
 73
42
 74
42
 0
VERTEX
 8
CONO_1
 10
0
 20
0
 30
0
 70
128
 71
37
 72
38
 73
43
 74
42
 0
VERTEX
 8
CONO_1
 10
0
 20
0
 30
0
 70
128
 71
38
 72
39
 73
44
 74
43
 0
VERTEX
 8
CONO_1
 10
0
 20
0
 30
0
 70
128
 71
39
 72
40
 73
45
 74
44
 0
VERTEX
 8
CONO_1
 10
0
 20
0
 30
0
 70
128
 71
40
 72
41
 73
46
 74
45
 0
VERTEX
 8
CONO_1
 10
0
 20
0
 30
0
 70
128
 71
1
 72
42
 73
47
 74
47
 0
VERTEX
 8
CONO_1
 10
0
 20
0
 30
0
 70
128
 71
42
 72
43
 73
48
 74
47
 0
VERTEX
 8
CONO_1
 10
0
 20
0
 30
0
 70
128
 71
43
 72
44
 73
49
 74
48
 0
VERTEX
 8
CONO_1
 10
0
 20
0
 30
0
 70
128
 71
44
 72
45
 73
50
 74
49
 0
VERTEX
 8
CONO_1
 10
0
 20
0
 30
0
 70
128
 71
45
 72
46
 73
51
 74
50
 0
VERTEX
 8
CONO_1
 10
0
 20
0
 30
0
 70
128
 71
1
 72
47
 73
52
 74
52
 0
VERTEX
 8
CONO_1
 10
0
 20
0
 30
0
 70
128
 71
47
 72
48
 73
53
 74
52
 0
VERTEX
 8
CONO_1
 10
0
 20
0
 30
0
 70
128
 71
48
 72
49
 73
54
 74
53
 0
VERTEX
 8
CONO_1
 10
0
 20
0
 30
0
 70
128
 71
49
 72
50
 73
55
 74
54
 0
VERTEX
 8
CONO_1
 10
0
 20
0
 30
0
 70
128
 71
50
 72
51
 73
56
 74
55
 0
VERTEX
 8
CONO_1
 10
0
 20
0
 30
0
 70
128
 71
1
 72
52
 73
57
 74
57
 0
VERTEX
 8
CONO_1
 10
0
 20
0
 30
0
 70
128
 71
52
 72
53
 73
58
 74
57
 0
VERTEX
 8
CONO_1
 10
0
 20
0
 30
0
 70
128
 71
53
 72
54
 73
59
 74
58
 0
VERTEX
 8
CONO_1
 10
0
 20
0
 30
0
 70
128
 71
54
 72
55
 73
60
 74
59
 0
VERTEX
 8
CONO_1
 10
0
 20
0
 30
0
 70
128
 71
55
 72
56
 73
61
 74
60
 0
VERTEX
 8
CONO_1
 10
0
 20
0
 30
0
 70
128
 71
1
 72
57
 73
62
 74
62
 0
VERTEX
 8
CONO_1
 10
0
 20
0
 30
0
 70
128
 71
57
 72
58
 73
63
 74
62
 0
VERTEX
 8
CONO_1
 10
0
 20
0
 30
0
 70
128
 71
58
 72
59
 73
64
 74
63
 0
VERTEX
 8
CONO_1
 10
0
 20
0
 30
0
 70
128
 71
59
 72
60
 73
65
 74
64
 0
VERTEX
 8
CONO_1
 10
0
 20
0
 30
0
 70
128
 71
60
 72
61
 73
66
 74
65
 0
VERTEX
 8
CONO_1
 10
0
 20
0
 30
0
 70
128
 71
1
 72
62
 73
67
 74
67
 0
VERTEX
 8
CONO_1
 10
0
 20
0
 30
0
 70
128
 71
62
 72
63
 73
68
 74
67
 0
VERTEX
 8
CONO_1
 10
0
 20
0
 30
0
 70
128
 71
63
 72
64
 73
69
 74
68
 0
VERTEX
 8
CONO_1
 10
0
 20
0
 30
0
 70
128
 71
64
 72
65
 73
70
 74
69
 0
VERTEX
 8
CONO_1
 10
0
 20
0
 30
0
 70
128
 71
65
 72
66
 73
71
 74
70
 0
VERTEX
 8
CONO_1
 10
0
 20
0
 30
0
 70
128
 71
1
 72
67
 73
72
 74
72
 0
VERTEX
 8
CONO_1
 10
0
 20
0
 30
0
 70
128
 71
67
 72
68
 73
73
 74
72
 0
VERTEX
 8
CONO_1
 10
0
 20
0
 30
0
 70
128
 71
68
 72
69
 73
74
 74
73
 0
VERTEX
 8
CONO_1
 10
0
 20
0
 30
0
 70
128
 71
69
 72
70
 73
75
 74
74
 0
VERTEX
 8
CONO_1
 10
0
 20
0
 30
0
 70
128
 71
70
 72
71
 73
76
 74
75
 0
VERTEX
 8
CONO_1
 10
0
 20
0
 30
0
 70
128
 71
1
 72
72
 73
77
 74
77
 0
VERTEX
 8
CONO_1
 10
0
 20
0
 30
0
 70
128
 71
72
 72
73
 73
78
 74
77
 0
VERTEX
 8
CONO_1
 10
0
 20
0
 30
0
 70
128
 71
73
 72
74
 73
79
 74
78
 0
VERTEX
 8
CONO_1
 10
0
 20
0
 30
0
 70
128
 71
74
 72
75
 73
80
 74
79
 0
VERTEX
 8
CONO_1
 10
0
 20
0
 30
0
 70
128
 71
75
 72
76
 73
81
 74
80
 0
VERTEX
 8
CONO_1
 10
0
 20
0
 30
0
 70
128
 71
1
 72
77
 73
2
 74
2
 0
VERTEX
 8
CONO_1
 10
0
 20
0
 30
0
 70
128
 71
77
 72
78
 73
3
 74
2
 0
VERTEX
 8
CONO_1
 10
0
 20
0
 30
0
 70
128
 71
78
 72
79
 73
4
 74
3
 0
VERTEX
 8
CONO_1
 10
0
 20
0
 30
0
 70
128
 71
79
 72
80
 73
5
 74
4
 0
VERTEX
 8
CONO_1
 10
0
 20
0
 30
0
 70
128
 71
80
 72
81
 73
6
 74
5
 0
SEQEND
 0
POLYLINE
 8
CUBO_19
 66
1
 10
0.0
 20
0.0
 30
0.0
 70
64
 71
8
 72
6
 0
VERTEX
 8
CUBO_19
 10
2.9609
 20
-44.038
 30
8.0199
 70
192
 0
VERTEX
 8
CUBO_19
 10
2.291
 20
-43.8428
 30
9.1273
 70
192
 0
VERTEX
 8
CUBO_19
 10
5.2386
 20
-44.038
 30
8.0199
 70
192
 0
VERTEX
 8
CUBO_19
 10
5.909
 20
-43.8428
 30
9.1273
 70
192
 0
VERTEX
 8
CUBO_19
 10
5.2386
 20
-4.6458
 30
1.074
 70
192
 0
VERTEX
 8
CUBO_19
 10
5.909
 20
-4.4505
 30
2.1814
 70
192
 0
VERTEX
 8
CUBO_19
 10
2.9609
 20
-4.6458
 30
1.074
 70
192
 0
VERTEX
 8
CUBO_19
 10
2.291
 20
-4.4505
 30
2.1814
 70
192
 0
VERTEX
 8
CUBO_19
 10
0
 20
0
 30
0
 70
128
 71
1
 72
2
 73
4
 74
3
 0
VERTEX
 8
CUBO_19
 10
0
 20
0
 30
0
 70
128
 71
3
 72
4
 73
6
 74
5
 0
VERTEX
 8
CUBO_19
 10
0
 20
0
 30
0
 70
128
 71
5
 72
6
 73
8
 74
7
 0
VERTEX
 8
CUBO_19
 10
0
 20
0
 30
0
 70
128
 71
7
 72
8
 73
2
 74
1
 0
VERTEX
 8
CUBO_19
 10
0
 20
0
 30
0
 70
128
 71
2
 72
8
 73
6
 74
4
 0
VERTEX
 8
CUBO_19
 10
0
 20
0
 30
0
 70
128
 71
7
 72
1
 73
3
 74
5
 0
SEQEND
 0
POLYLINE
 8
CUBO_18
 66
1
 10
0.0
 20
0.0
 30
0.0
 70
64
 71
8
 72
6
 0
VERTEX
 8
CUBO_18
 10
6.9609
 20
-44.038
 30
8.0199
 70
192
 0
VERTEX
 8
CUBO_18
 10
6.291
 20
-43.8428
 30
9.1273
 70
192
 0
VERTEX
 8
CUBO_18
 10
9.2386
 20
-44.038
 30
8.0199
 70
192
 0
VERTEX
 8
CUBO_18
 10
9.909
 20
-43.8428
 30
9.1273
 70
192
 0
VERTEX
 8
CUBO_18
 10
9.2386
 20
-4.6458
 30
1.074
 70
192
 0
VERTEX
 8
CUBO_18
 10
9.909
 20
-4.4505
 30
2.1814
 70
192
 0
VERTEX
 8
CUBO_18
 10
6.9609
 20
-4.6458
 30
1.074
 70
192
 0
VERTEX
 8
CUBO_18
 10
6.291
 20
-4.4505
 30
2.1814
 70
192
 0
VERTEX
 8
CUBO_18
 10
0
 20
0
 30
0
 70
128
 71
1
 72
2
 73
4
 74
3
 0
VERTEX
 8
CUBO_18
 10
0
 20
0
 30
0
 70
128
 71
3
 72
4
 73
6
 74
5
 0
VERTEX
 8
CUBO_18
 10
0
 20
0
 30
0
 70
128
 71
5
 72
6
 73
8
 74
7
 0
VERTEX
 8
CUBO_18
 10
0
 20
0
 30
0
 70
128
 71
7
 72
8
 73
2
 74
1
 0
VERTEX
 8
CUBO_18
 10
0
 20
0
 30
0
 70
128
 71
2
 72
8
 73
6
 74
4
 0
VERTEX
 8
CUBO_18
 10
0
 20
0
 30
0
 70
128
 71
7
 72
1
 73
3
 74
5
 0
SEQEND
 0
POLYLINE
 8
CUBO_17
 66
1
 10
0.0
 20
0.0
 30
0.0
 70
64
 71
8
 72
6
 0
VERTEX
 8
CUBO_17
 10
10.9609
 20
-44.038
 30
8.0199
 70
192
 0
VERTEX
 8
CUBO_17
 10
10.291
 20
-43.8428
 30
9.1273
 70
192
 0
VERTEX
 8
CUBO_17
 10
13.2386
 20
-44.038
 30
8.0199
 70
192
 0
VERTEX
 8
CUBO_17
 10
13.909
 20
-43.8428
 30
9.1273
 70
192
 0
VERTEX
 8
CUBO_17
 10
13.2386
 20
-4.6458
 30
1.074
 70
192
 0
VERTEX
 8
CUBO_17
 10
13.909
 20
-4.4505
 30
2.1814
 70
192
 0
VERTEX
 8
CUBO_17
 10
10.9609
 20
-4.6458
 30
1.074
 70
192
 0
VERTEX
 8
CUBO_17
 10
10.291
 20
-4.4505
 30
2.1814
 70
192
 0
VERTEX
 8
CUBO_17
 10
0
 20
0
 30
0
 70
128
 71
1
 72
2
 73
4
 74
3
 0
VERTEX
 8
CUBO_17
 10
0
 20
0
 30
0
 70
128
 71
3
 72
4
 73
6
 74
5
 0
VERTEX
 8
CUBO_17
 10
0
 20
0
 30
0
 70
128
 71
5
 72
6
 73
8
 74
7
 0
VERTEX
 8
CUBO_17
 10
0
 20
0
 30
0
 70
128
 71
7
 72
8
 73
2
 74
1
 0
VERTEX
 8
CUBO_17
 10
0
 20
0
 30
0
 70
128
 71
2
 72
8
 73
6
 74
4
 0
VERTEX
 8
CUBO_17
 10
0
 20
0
 30
0
 70
128
 71
7
 72
1
 73
3
 74
5
 0
SEQEND
 0
POLYLINE
 8
CUBO_15
 66
1
 10
0.0
 20
0.0
 30
0.0
 70
64
 71
8
 72
6
 0
VERTEX
 8
CUBO_15
 10
14.9609
 20
-44.038
 30
8.0199
 70
192
 0
VERTEX
 8
CUBO_15
 10
14.291
 20
-43.8428
 30
9.1273
 70
192
 0
VERTEX
 8
CUBO_15
 10
17.2386
 20
-44.038
 30
8.0199
 70
192
 0
VERTEX
 8
CUBO_15
 10
17.909
 20
-43.8428
 30
9.1273
 70
192
 0
VERTEX
 8
CUBO_15
 10
17.2386
 20
-4.6458
 30
1.074
 70
192
 0
VERTEX
 8
CUBO_15
 10
17.909
 20
-4.4505
 30
2.1814
 70
192
 0
VERTEX
 8
CUBO_15
 10
14.9609
 20
-4.6458
 30
1.074
 70
192
 0
VERTEX
 8
CUBO_15
 10
14.291
 20
-4.4505
 30
2.1814
 70
192
 0
VERTEX
 8
CUBO_15
 10
0
 20
0
 30
0
 70
128
 71
1
 72
2
 73
4
 74
3
 0
VERTEX
 8
CUBO_15
 10
0
 20
0
 30
0
 70
128
 71
3
 72
4
 73
6
 74
5
 0
VERTEX
 8
CUBO_15
 10
0
 20
0
 30
0
 70
128
 71
5
 72
6
 73
8
 74
7
 0
VERTEX
 8
CUBO_15
 10
0
 20
0
 30
0
 70
128
 71
7
 72
8
 73
2
 74
1
 0
VERTEX
 8
CUBO_15
 10
0
 20
0
 30
0
 70
128
 71
2
 72
8
 73
6
 74
4
 0
VERTEX
 8
CUBO_15
 10
0
 20
0
 30
0
 70
128
 71
7
 72
1
 73
3
 74
5
 0
SEQEND
 0
POLYLINE
 8
CUBO_15_1
 66
1
 10
0.0
 20
0.0
 30
0.0
 70
64
 71
8
 72
6
 0
VERTEX
 8
CUBO_15_1
 10
18.9609
 20
-44.038
 30
8.0199
 70
192
 0
VERTEX
 8
CUBO_15_1
 10
18.291
 20
-43.8428
 30
9.1273
 70
192
 0
VERTEX
 8
CUBO_15_1
 10
21.2386
 20
-44.038
 30
8.0199
 70
192
 0
VERTEX
 8
CUBO_15_1
 10
21.909
 20
-43.8428
 30
9.1273
 70
192
 0
VERTEX
 8
CUBO_15_1
 10
21.2386
 20
-4.6458
 30
1.074
 70
192
 0
VERTEX
 8
CUBO_15_1
 10
21.909
 20
-4.4505
 30
2.1814
 70
192
 0
VERTEX
 8
CUBO_15_1
 10
18.9609
 20
-4.6458
 30
1.074
 70
192
 0
VERTEX
 8
CUBO_15_1
 10
18.291
 20
-4.4505
 30
2.1814
 70
192
 0
VERTEX
 8
CUBO_15_1
 10
0
 20
0
 30
0
 70
128
 71
1
 72
2
 73
4
 74
3
 0
VERTEX
 8
CUBO_15_1
 10
0
 20
0
 30
0
 70
128
 71
3
 72
4
 73
6
 74
5
 0
VERTEX
 8
CUBO_15_1
 10
0
 20
0
 30
0
 70
128
 71
5
 72
6
 73
8
 74
7
 0
VERTEX
 8
CUBO_15_1
 10
0
 20
0
 30
0
 70
128
 71
7
 72
8
 73
2
 74
1
 0
VERTEX
 8
CUBO_15_1
 10
0
 20
0
 30
0
 70
128
 71
2
 72
8
 73
6
 74
4
 0
VERTEX
 8
CUBO_15_1
 10
0
 20
0
 30
0
 70
128
 71
7
 72
1
 73
3
 74
5
 0
SEQEND
 0
POLYLINE
 8
CUBO_14
 66
1
 10
0.0
 20
0.0
 30
0.0
 70
64
 71
8
 72
6
 0
VERTEX
 8
CUBO_14
 10
22.9609
 20
-44.038
 30
8.0199
 70
192
 0
VERTEX
 8
CUBO_14
 10
22.291
 20
-43.8428
 30
9.1273
 70
192
 0
VERTEX
 8
CUBO_14
 10
25.2386
 20
-44.038
 30
8.0199
 70
192
 0
VERTEX
 8
CUBO_14
 10
25.909
 20
-43.8428
 30
9.1273
 70
192
 0
VERTEX
 8
CUBO_14
 10
25.2386
 20
-4.6458
 30
1.074
 70
192
 0
VERTEX
 8
CUBO_14
 10
25.909
 20
-4.4505
 30
2.1814
 70
192
 0
VERTEX
 8
CUBO_14
 10
22.9609
 20
-4.6458
 30
1.074
 70
192
 0
VERTEX
 8
CUBO_14
 10
22.291
 20
-4.4505
 30
2.1814
 70
192
 0
VERTEX
 8
CUBO_14
 10
0
 20
0
 30
0
 70
128
 71
1
 72
2
 73
4
 74
3
 0
VERTEX
 8
CUBO_14
 10
0
 20
0
 30
0
 70
128
 71
3
 72
4
 73
6
 74
5
 0
VERTEX
 8
CUBO_14
 10
0
 20
0
 30
0
 70
128
 71
5
 72
6
 73
8
 74
7
 0
VERTEX
 8
CUBO_14
 10
0
 20
0
 30
0
 70
128
 71
7
 72
8
 73
2
 74
1
 0
VERTEX
 8
CUBO_14
 10
0
 20
0
 30
0
 70
128
 71
2
 72
8
 73
6
 74
4
 0
VERTEX
 8
CUBO_14
 10
0
 20
0
 30
0
 70
128
 71
7
 72
1
 73
3
 74
5
 0
SEQEND
 0
POLYLINE
 8
CUBO_13
 66
1
 10
0.0
 20
0.0
 30
0.0
 70
64
 71
8
 72
6
 0
VERTEX
 8
CUBO_13
 10
26.9609
 20
-44.038
 30
8.0199
 70
192
 0
VERTEX
 8
CUBO_13
 10
26.291
 20
-43.8428
 30
9.1273
 70
192
 0
VERTEX
 8
CUBO_13
 10
29.2386
 20
-44.038
 30
8.0199
 70
192
 0
VERTEX
 8
CUBO_13
 10
29.909
 20
-43.8428
 30
9.1273
 70
192
 0
VERTEX
 8
CUBO_13
 10
29.2386
 20
-4.6458
 30
1.074
 70
192
 0
VERTEX
 8
CUBO_13
 10
29.909
 20
-4.4505
 30
2.1814
 70
192
 0
VERTEX
 8
CUBO_13
 10
26.9609
 20
-4.6458
 30
1.074
 70
192
 0
VERTEX
 8
CUBO_13
 10
26.291
 20
-4.4505
 30
2.1814
 70
192
 0
VERTEX
 8
CUBO_13
 10
0
 20
0
 30
0
 70
128
 71
1
 72
2
 73
4
 74
3
 0
VERTEX
 8
CUBO_13
 10
0
 20
0
 30
0
 70
128
 71
3
 72
4
 73
6
 74
5
 0
VERTEX
 8
CUBO_13
 10
0
 20
0
 30
0
 70
128
 71
5
 72
6
 73
8
 74
7
 0
VERTEX
 8
CUBO_13
 10
0
 20
0
 30
0
 70
128
 71
7
 72
8
 73
2
 74
1
 0
VERTEX
 8
CUBO_13
 10
0
 20
0
 30
0
 70
128
 71
2
 72
8
 73
6
 74
4
 0
VERTEX
 8
CUBO_13
 10
0
 20
0
 30
0
 70
128
 71
7
 72
1
 73
3
 74
5
 0
SEQEND
 0
POLYLINE
 8
CUBO_12
 66
1
 10
0.0
 20
0.0
 30
0.0
 70
64
 71
8
 72
6
 0
VERTEX
 8
CUBO_12
 10
30.9609
 20
-44.038
 30
8.0199
 70
192
 0
VERTEX
 8
CUBO_12
 10
30.291
 20
-43.8428
 30
9.1273
 70
192
 0
VERTEX
 8
CUBO_12
 10
33.2386
 20
-44.038
 30
8.0199
 70
192
 0
VERTEX
 8
CUBO_12
 10
33.909
 20
-43.8428
 30
9.1273
 70
192
 0
VERTEX
 8
CUBO_12
 10
33.2386
 20
-4.6458
 30
1.074
 70
192
 0
VERTEX
 8
CUBO_12
 10
33.909
 20
-4.4505
 30
2.1814
 70
192
 0
VERTEX
 8
CUBO_12
 10
30.9609
 20
-4.6458
 30
1.074
 70
192
 0
VERTEX
 8
CUBO_12
 10
30.291
 20
-4.4505
 30
2.1814
 70
192
 0
VERTEX
 8
CUBO_12
 10
0
 20
0
 30
0
 70
128
 71
1
 72
2
 73
4
 74
3
 0
VERTEX
 8
CUBO_12
 10
0
 20
0
 30
0
 70
128
 71
3
 72
4
 73
6
 74
5
 0
VERTEX
 8
CUBO_12
 10
0
 20
0
 30
0
 70
128
 71
5
 72
6
 73
8
 74
7
 0
VERTEX
 8
CUBO_12
 10
0
 20
0
 30
0
 70
128
 71
7
 72
8
 73
2
 74
1
 0
VERTEX
 8
CUBO_12
 10
0
 20
0
 30
0
 70
128
 71
2
 72
8
 73
6
 74
4
 0
VERTEX
 8
CUBO_12
 10
0
 20
0
 30
0
 70
128
 71
7
 72
1
 73
3
 74
5
 0
SEQEND
 0
POLYLINE
 8
CUBO_20
 66
1
 10
0.0
 20
0.0
 30
0.0
 70
64
 71
8
 72
6
 0
VERTEX
 8
CUBO_20
 10
34.9609
 20
-44.038
 30
8.0199
 70
192
 0
VERTEX
 8
CUBO_20
 10
34.291
 20
-43.8428
 30
9.1273
 70
192
 0
VERTEX
 8
CUBO_20
 10
37.2386
 20
-44.038
 30
8.0199
 70
192
 0
VERTEX
 8
CUBO_20
 10
37.909
 20
-43.8428
 30
9.1273
 70
192
 0
VERTEX
 8
CUBO_20
 10
37.2386
 20
-4.6458
 30
1.074
 70
192
 0
VERTEX
 8
CUBO_20
 10
37.909
 20
-4.4505
 30
2.1814
 70
192
 0
VERTEX
 8
CUBO_20
 10
34.9609
 20
-4.6458
 30
1.074
 70
192
 0
VERTEX
 8
CUBO_20
 10
34.291
 20
-4.4505
 30
2.1814
 70
192
 0
VERTEX
 8
CUBO_20
 10
0
 20
0
 30
0
 70
128
 71
1
 72
2
 73
4
 74
3
 0
VERTEX
 8
CUBO_20
 10
0
 20
0
 30
0
 70
128
 71
3
 72
4
 73
6
 74
5
 0
VERTEX
 8
CUBO_20
 10
0
 20
0
 30
0
 70
128
 71
5
 72
6
 73
8
 74
7
 0
VERTEX
 8
CUBO_20
 10
0
 20
0
 30
0
 70
128
 71
7
 72
8
 73
2
 74
1
 0
VERTEX
 8
CUBO_20
 10
0
 20
0
 30
0
 70
128
 71
2
 72
8
 73
6
 74
4
 0
VERTEX
 8
CUBO_20
 10
0
 20
0
 30
0
 70
128
 71
7
 72
1
 73
3
 74
5
 0
SEQEND
 0
POLYLINE
 8
CUBO_21
 66
1
 10
0.0
 20
0.0
 30
0.0
 70
64
 71
8
 72
6
 0
VERTEX
 8
CUBO_21
 10
38.9609
 20
-44.038
 30
8.0199
 70
192
 0
VERTEX
 8
CUBO_21
 10
38.291
 20
-43.8428
 30
9.1273
 70
192
 0
VERTEX
 8
CUBO_21
 10
41.2386
 20
-44.038
 30
8.0199
 70
192
 0
VERTEX
 8
CUBO_21
 10
41.909
 20
-43.8428
 30
9.1273
 70
192
 0
VERTEX
 8
CUBO_21
 10
41.2386
 20
-4.6458
 30
1.074
 70
192
 0
VERTEX
 8
CUBO_21
 10
41.909
 20
-4.4505
 30
2.1814
 70
192
 0
VERTEX
 8
CUBO_21
 10
38.9609
 20
-4.6458
 30
1.074
 70
192
 0
VERTEX
 8
CUBO_21
 10
38.291
 20
-4.4505
 30
2.1814
 70
192
 0
VERTEX
 8
CUBO_21
 10
0
 20
0
 30
0
 70
128
 71
1
 72
2
 73
4
 74
3
 0
VERTEX
 8
CUBO_21
 10
0
 20
0
 30
0
 70
128
 71
3
 72
4
 73
6
 74
5
 0
VERTEX
 8
CUBO_21
 10
0
 20
0
 30
0
 70
128
 71
5
 72
6
 73
8
 74
7
 0
VERTEX
 8
CUBO_21
 10
0
 20
0
 30
0
 70
128
 71
7
 72
8
 73
2
 74
1
 0
VERTEX
 8
CUBO_21
 10
0
 20
0
 30
0
 70
128
 71
2
 72
8
 73
6
 74
4
 0
VERTEX
 8
CUBO_21
 10
0
 20
0
 30
0
 70
128
 71
7
 72
1
 73
3
 74
5
 0
SEQEND
 0
POLYLINE
 8
CUBO_22
 66
1
 10
0.0
 20
0.0
 30
0.0
 70
64
 71
8
 72
6
 0
VERTEX
 8
CUBO_22
 10
42.9609
 20
-44.038
 30
8.0199
 70
192
 0
VERTEX
 8
CUBO_22
 10
42.291
 20
-43.8428
 30
9.1273
 70
192
 0
VERTEX
 8
CUBO_22
 10
45.2386
 20
-44.038
 30
8.0199
 70
192
 0
VERTEX
 8
CUBO_22
 10
45.909
 20
-43.8428
 30
9.1273
 70
192
 0
VERTEX
 8
CUBO_22
 10
45.2386
 20
-4.6458
 30
1.074
 70
192
 0
VERTEX
 8
CUBO_22
 10
45.909
 20
-4.4505
 30
2.1814
 70
192
 0
VERTEX
 8
CUBO_22
 10
42.9609
 20
-4.6458
 30
1.074
 70
192
 0
VERTEX
 8
CUBO_22
 10
42.291
 20
-4.4505
 30
2.1814
 70
192
 0
VERTEX
 8
CUBO_22
 10
0
 20
0
 30
0
 70
128
 71
1
 72
2
 73
4
 74
3
 0
VERTEX
 8
CUBO_22
 10
0
 20
0
 30
0
 70
128
 71
3
 72
4
 73
6
 74
5
 0
VERTEX
 8
CUBO_22
 10
0
 20
0
 30
0
 70
128
 71
5
 72
6
 73
8
 74
7
 0
VERTEX
 8
CUBO_22
 10
0
 20
0
 30
0
 70
128
 71
7
 72
8
 73
2
 74
1
 0
VERTEX
 8
CUBO_22
 10
0
 20
0
 30
0
 70
128
 71
2
 72
8
 73
6
 74
4
 0
VERTEX
 8
CUBO_22
 10
0
 20
0
 30
0
 70
128
 71
7
 72
1
 73
3
 74
5
 0
SEQEND
 0
POLYLINE
 8
CORNICE_1
 66
1
 10
0.0
 20
0.0
 30
0.0
 70
64
 71
32
 72
32
 0
VERTEX
 8
CORNICE_1
 10
0.1001
 20
-44.7876
 30
8.0908
 70
192
 0
VERTEX
 8
CORNICE_1
 10
0.1001
 20
-44.7772
 30
8.1498
 70
192
 0
VERTEX
 8
CORNICE_1
 10
48.0999
 20
-44.7876
 30
8.0908
 70
192
 0
VERTEX
 8
CORNICE_1
 10
48.0999
 20
-44.7772
 30
8.1498
 70
192
 0
VERTEX
 8
CORNICE_1
 10
48.0999
 20
-3.9181
 30
0.8843
 70
192
 0
VERTEX
 8
CORNICE_1
 10
48.0999
 20
-3.9077
 30
0.9434
 70
192
 0
VERTEX
 8
CORNICE_1
 10
0.1001
 20
-3.9181
 30
0.8843
 70
192
 0
VERTEX
 8
CORNICE_1
 10
0.1001
 20
-3.9077
 30
0.9434
 70
192
 0
VERTEX
 8
CORNICE_1
 10
1.8999
 20
-44.7772
 30
8.1498
 70
192
 0
VERTEX
 8
CORNICE_1
 10
1.8999
 20
-44.7876
 30
8.0908
 70
192
 0
VERTEX
 8
CORNICE_1
 10
1.8999
 20
-3.9077
 30
0.9434
 70
192
 0
VERTEX
 8
CORNICE_1
 10
1.8999
 20
-3.9181
 30
0.8843
 70
192
 0
VERTEX
 8
CORNICE_1
 10
46.2999
 20
-3.9077
 30
0.9434
 70
192
 0
VERTEX
 8
CORNICE_1
 10
46.2999
 20
-3.9181
 30
0.8843
 70
192
 0
VERTEX
 8
CORNICE_1
 10
46.2999
 20
-44.7772
 30
8.1498
 70
192
 0
VERTEX
 8
CORNICE_1
 10
46.2999
 20
-44.7876
 30
8.0908
 70
192
 0
VERTEX
 8
CORNICE_1
 10
48.0999
 20
-43.0167
 30
7.8394
 70
192
 0
VERTEX
 8
CORNICE_1
 10
48.0999
 20
-43.0167
 30
7.7785
 70
192
 0
VERTEX
 8
CORNICE_1
 10
0.1001
 20
-43.0167
 30
7.8394
 70
192
 0
VERTEX
 8
CORNICE_1
 10
0.1001
 20
-43.0167
 30
7.7785
 70
192
 0
VERTEX
 8
CORNICE_1
 10
1.8999
 20
-43.0167
 30
7.8394
 70
192
 0
VERTEX
 8
CORNICE_1
 10
1.8999
 20
-43.0167
 30
7.7785
 70
192
 0
VERTEX
 8
CORNICE_1
 10
46.2999
 20
-43.0167
 30
7.8394
 70
192
 0
VERTEX
 8
CORNICE_1
 10
46.2999
 20
-43.0167
 30
7.7785
 70
192
 0
VERTEX
 8
CORNICE_1
 10
0.1001
 20
-5.6763
 30
1.2552
 70
192
 0
VERTEX
 8
CORNICE_1
 10
0.1001
 20
-5.6763
 30
1.1944
 70
192
 0
VERTEX
 8
CORNICE_1
 10
1.8999
 20
-5.6763
 30
1.1944
 70
192
 0
VERTEX
 8
CORNICE_1
 10
46.2999
 20
-5.6763
 30
1.2552
 70
192
 0
VERTEX
 8
CORNICE_1
 10
1.8999
 20
-5.6763
 30
1.2552
 70
192
 0
VERTEX
 8
CORNICE_1
 10
48.0999
 20
-5.6763
 30
1.2552
 70
192
 0
VERTEX
 8
CORNICE_1
 10
48.0999
 20
-5.6763
 30
1.1944
 70
192
 0
VERTEX
 8
CORNICE_1
 10
46.2999
 20
-5.6763
 30
1.1944
 70
192
 0
VERTEX
 8
CORNICE_1
 10
0
 20
0
 30
0
 70
128
 71
1
 72
2
 73
9
 74
10
 0
VERTEX
 8
CORNICE_1
 10
0
 20
0
 30
0
 70
128
 71
3
 72
4
 73
17
 74
18
 0
VERTEX
 8
CORNICE_1
 10
0
 20
0
 30
0
 70
128
 71
5
 72
6
 73
13
 74
14
 0
VERTEX
 8
CORNICE_1
 10
0
 20
0
 30
0
 70
128
 71
7
 72
8
 73
25
 74
26
 0
VERTEX
 8
CORNICE_1
 10
0
 20
0
 30
0
 70
128
 71
2
 72
19
 73
21
 74
9
 0
VERTEX
 8
CORNICE_1
 10
0
 20
0
 30
0
 70
128
 71
7
 72
26
 73
27
 74
12
 0
VERTEX
 8
CORNICE_1
 10
0
 20
0
 30
0
 70
128
 71
9
 72
15
 73
16
 74
10
 0
VERTEX
 8
CORNICE_1
 10
0
 20
0
 30
0
 70
128
 71
11
 72
8
 73
7
 74
12
 0
VERTEX
 8
CORNICE_1
 10
0
 20
0
 30
0
 70
128
 71
11
 72
13
 73
28
 74
29
 0
VERTEX
 8
CORNICE_1
 10
0
 20
0
 30
0
 70
128
 71
10
 72
16
 73
24
 74
22
 0
VERTEX
 8
CORNICE_1
 10
0
 20
0
 30
0
 70
128
 71
13
 72
11
 73
12
 74
14
 0
VERTEX
 8
CORNICE_1
 10
0
 20
0
 30
0
 70
128
 71
15
 72
4
 73
3
 74
16
 0
VERTEX
 8
CORNICE_1
 10
0
 20
0
 30
0
 70
128
 71
13
 72
6
 73
30
 74
28
 0
VERTEX
 8
CORNICE_1
 10
0
 20
0
 30
0
 70
128
 71
16
 72
3
 73
18
 74
24
 0
VERTEX
 8
CORNICE_1
 10
0
 20
0
 30
0
 70
128
 71
17
 72
30
 73
31
 74
18
 0
VERTEX
 8
CORNICE_1
 10
0
 20
0
 30
0
 70
128
 71
19
 72
2
 73
1
 74
20
 0
VERTEX
 8
CORNICE_1
 10
0
 20
0
 30
0
 70
128
 71
19
 72
25
 73
29
 74
21
 0
VERTEX
 8
CORNICE_1
 10
0
 20
0
 30
0
 70
128
 71
20
 72
1
 73
10
 74
22
 0
VERTEX
 8
CORNICE_1
 10
0
 20
0
 30
0
 70
128
 71
23
 72
15
 73
9
 74
21
 0
VERTEX
 8
CORNICE_1
 10
0
 20
0
 30
0
 70
128
 71
32
 72
14
 73
12
 74
27
 0
VERTEX
 8
CORNICE_1
 10
0
 20
0
 30
0
 70
128
 71
17
 72
4
 73
15
 74
23
 0
VERTEX
 8
CORNICE_1
 10
0
 20
0
 30
0
 70
128
 71
18
 72
31
 73
32
 74
24
 0
VERTEX
 8
CORNICE_1
 10
0
 20
0
 30
0
 70
128
 71
25
 72
19
 73
20
 74
26
 0
VERTEX
 8
CORNICE_1
 10
0
 20
0
 30
0
 70
128
 71
26
 72
20
 73
22
 74
27
 0
VERTEX
 8
CORNICE_1
 10
0
 20
0
 30
0
 70
128
 71
31
 72
5
 73
14
 74
32
 0
VERTEX
 8
CORNICE_1
 10
0
 20
0
 30
0
 70
128
 71
30
 72
17
 73
23
 74
28
 0
VERTEX
 8
CORNICE_1
 10
0
 20
0
 30
0
 70
128
 71
30
 72
6
 73
5
 74
31
 0
VERTEX
 8
CORNICE_1
 10
0
 20
0
 30
0
 70
128
 71
25
 72
8
 73
11
 74
29
 0
VERTEX
 8
CORNICE_1
 10
0
 20
0
 30
0
 70
128
 71
21
 72
29
 73
27
 74
22
 0
VERTEX
 8
CORNICE_1
 10
0
 20
0
 30
0
 70
128
 71
23
 72
21
 73
22
 74
24
 0
VERTEX
 8
CORNICE_1
 10
0
 20
0
 30
0
 70
128
 71
28
 72
23
 73
24
 74
32
 0
VERTEX
 8
CORNICE_1
 10
0
 20
0
 30
0
 70
128
 71
29
 72
28
 73
32
 74
27
 0
SEQEND
 0
POLYLINE
 8
CAPPA
 66
1
 10
0.0
 20
0.0
 30
0.0
 70
64
 71
12
 72
10
 0
VERTEX
 8
CAPPA
 10
-48.1499
 20
-4.3301
 30
0.4
 70
192
 0
VERTEX
 8
CAPPA
 10
-48.1499
 20
-4.821
 30
1.042
 70
192
 0
VERTEX
 8
CAPPA
 10
48.1498
 20
-4.3301
 30
0.4
 70
192
 0
VERTEX
 8
CAPPA
 10
48.1498
 20
-4.821
 30
1.042
 70
192
 0
VERTEX
 8
CAPPA
 10
48.1498
 20
-2.52
 30
0.4
 70
192
 0
VERTEX
 8
CAPPA
 10
48.1498
 20
-2.52
 30
1.042
 70
192
 0
VERTEX
 8
CAPPA
 10
-48.1499
 20
-2.52
 30
0.4
 70
192
 0
VERTEX
 8
CAPPA
 10
-48.1499
 20
-2.52
 30
1.042
 70
192
 0
VERTEX
 8
CAPPA
 10
-48.1499
 20
-4.792
 30
0.8711
 70
192
 0
VERTEX
 8
CAPPA
 10
48.1498
 20
-4.792
 30
0.8711
 70
192
 0
VERTEX
 8
CAPPA
 10
48.1498
 20
-2.52
 30
0.8711
 70
192
 0
VERTEX
 8
CAPPA
 10
-48.1499
 20
-2.52
 30
0.8711
 70
192
 0
VERTEX
 8
CAPPA
 10
0
 20
0
 30
0
 70
128
 71
1
 72
9
 73
10
 74
3
 0
VERTEX
 8
CAPPA
 10
0
 20
0
 30
0
 70
128
 71
3
 72
10
 73
11
 74
5
 0
VERTEX
 8
CAPPA
 10
0
 20
0
 30
0
 70
128
 71
5
 72
11
 73
12
 74
7
 0
VERTEX
 8
CAPPA
 10
0
 20
0
 30
0
 70
128
 71
7
 72
12
 73
9
 74
1
 0
VERTEX
 8
CAPPA
 10
0
 20
0
 30
0
 70
128
 71
2
 72
8
 73
6
 74
4
 0
VERTEX
 8
CAPPA
 10
0
 20
0
 30
0
 70
128
 71
7
 72
1
 73
3
 74
5
 0
VERTEX
 8
CAPPA
 10
0
 20
0
 30
0
 70
128
 71
9
 72
2
 73
4
 74
10
 0
VERTEX
 8
CAPPA
 10
0
 20
0
 30
0
 70
128
 71
10
 72
4
 73
6
 74
11
 0
VERTEX
 8
CAPPA
 10
0
 20
0
 30
0
 70
128
 71
11
 72
6
 73
8
 74
12
 0
VERTEX
 8
CAPPA
 10
0
 20
0
 30
0
 70
128
 71
12
 72
8
 73
2
 74
9
 0
SEQEND
 0
POLYLINE
 8
CAPPA_1
 66
1
 10
0.0
 20
0.0
 30
0.0
 70
64
 71
40
 72
42
 0
VERTEX
 8
CAPPA_1
 10
-55.856
 20
-55.96
 30
0.2
 70
192
 0
VERTEX
 8
CAPPA_1
 10
-55.856
 20
-55.96
 30
8.0031
 70
192
 0
VERTEX
 8
CAPPA_1
 10
55.8459
 20
-55.96
 30
0.2
 70
192
 0
VERTEX
 8
CAPPA_1
 10
55.8459
 20
-55.96
 30
8.0031
 70
192
 0
VERTEX
 8
CAPPA_1
 10
55.8459
 20
-47.938
 30
1.4943
 70
192
 0
VERTEX
 8
CAPPA_1
 10
55.8459
 20
-44.1808
 30
8.0031
 70
192
 0
VERTEX
 8
CAPPA_1
 10
-55.856
 20
-47.938
 30
1.4943
 70
192
 0
VERTEX
 8
CAPPA_1
 10
-55.856
 20
-44.1808
 30
8.0031
 70
192
 0
VERTEX
 8
CAPPA_1
 10
55.8459
 20
-52.787
 30
8.0031
 70
192
 0
VERTEX
 8
CAPPA_1
 10
55.8459
 20
-52.787
 30
0.2
 70
192
 0
VERTEX
 8
CAPPA_1
 10
-55.856
 20
-52.787
 30
8.0031
 70
192
 0
VERTEX
 8
CAPPA_1
 10
-55.856
 20
-52.787
 30
0.2
 70
192
 0
VERTEX
 8
CAPPA_1
 10
48.2498
 20
-55.96
 30
8.0031
 70
192
 0
VERTEX
 8
CAPPA_1
 10
48.2498
 20
-55.96
 30
0.2
 70
192
 0
VERTEX
 8
CAPPA_1
 10
48.2498
 20
-44.1808
 30
8.0031
 70
192
 0
VERTEX
 8
CAPPA_1
 10
48.2498
 20
-47.938
 30
1.4943
 70
192
 0
VERTEX
 8
CAPPA_1
 10
48.2498
 20
-52.787
 30
8.0031
 70
192
 0
VERTEX
 8
CAPPA_1
 10
48.2498
 20
-52.787
 30
0.2
 70
192
 0
VERTEX
 8
CAPPA_1
 10
-48.2499
 20
-55.96
 30
8.0031
 70
192
 0
VERTEX
 8
CAPPA_1
 10
-48.2499
 20
-55.96
 30
0.2
 70
192
 0
VERTEX
 8
CAPPA_1
 10
-48.2499
 20
-52.787
 30
8.0031
 70
192
 0
VERTEX
 8
CAPPA_1
 10
-48.2499
 20
-52.787
 30
0.2
 70
192
 0
VERTEX
 8
CAPPA_1
 10
-48.2499
 20
-47.938
 30
1.4943
 70
192
 0
VERTEX
 8
CAPPA_1
 10
-48.2499
 20
-44.1808
 30
8.0031
 70
192
 0
VERTEX
 8
CAPPA_1
 10
55.8459
 20
-2.5019
 30
0.2002
 70
192
 0
VERTEX
 8
CAPPA_1
 10
55.8459
 20
-2.5018
 30
6.6986
 70
192
 0
VERTEX
 8
CAPPA_1
 10
48.2498
 20
-2.5018
 30
6.6986
 70
192
 0
VERTEX
 8
CAPPA_1
 10
48.2498
 20
-2.5019
 30
0.2002
 70
192
 0
VERTEX
 8
CAPPA_1
 10
-55.856
 20
-2.5019
 30
0.2002
 70
192
 0
VERTEX
 8
CAPPA_1
 10
-55.856
 20
-2.5018
 30
6.6986
 70
192
 0
VERTEX
 8
CAPPA_1
 10
-48.2499
 20
-2.5019
 30
0.2002
 70
192
 0
VERTEX
 8
CAPPA_1
 10
-48.2499
 20
-2.5018
 30
6.6986
 70
192
 0
VERTEX
 8
CAPPA_1
 10
55.8459
 20
-0.0451
 30
0.2002
 70
192
 0
VERTEX
 8
CAPPA_1
 10
55.8459
 20
-0.0449
 30
6.6986
 70
192
 0
VERTEX
 8
CAPPA_1
 10
48.2498
 20
-0.0449
 30
6.6986
 70
192
 0
VERTEX
 8
CAPPA_1
 10
48.2498
 20
-0.0451
 30
0.2002
 70
192
 0
VERTEX
 8
CAPPA_1
 10
-55.856
 20
-0.0451
 30
0.2002
 70
192
 0
VERTEX
 8
CAPPA_1
 10
-55.856
 20
-0.0449
 30
6.6986
 70
192
 0
VERTEX
 8
CAPPA_1
 10
-48.2499
 20
-0.0451
 30
0.2002
 70
192
 0
VERTEX
 8
CAPPA_1
 10
-48.2499
 20
-0.0449
 30
6.6986
 70
192
 0
VERTEX
 8
CAPPA_1
 10
0
 20
0
 30
0
 70
128
 71
1
 72
2
 73
19
 74
20
 0
VERTEX
 8
CAPPA_1
 10
0
 20
0
 30
0
 70
128
 71
3
 72
4
 73
9
 74
10
 0
VERTEX
 8
CAPPA_1
 10
0
 20
0
 30
0
 70
128
 71
33
 72
34
 73
35
 74
36
 0
VERTEX
 8
CAPPA_1
 10
0
 20
0
 30
0
 70
128
 71
7
 72
8
 73
11
 74
12
 0
VERTEX
 8
CAPPA_1
 10
0
 20
0
 30
0
 70
128
 71
2
 72
11
 73
21
 74
19
 0
VERTEX
 8
CAPPA_1
 10
0
 20
0
 30
0
 70
128
 71
7
 72
12
 73
22
 74
23
 0
VERTEX
 8
CAPPA_1
 10
0
 20
0
 30
0
 70
128
 71
9
 72
6
 73
5
 74
10
 0
VERTEX
 8
CAPPA_1
 10
0
 20
0
 30
0
 70
128
 71
11
 72
2
 73
1
 74
12
 0
VERTEX
 8
CAPPA_1
 10
0
 20
0
 30
0
 70
128
 71
11
 72
8
 73
24
 74
21
 0
VERTEX
 8
CAPPA_1
 10
0
 20
0
 30
0
 70
128
 71
12
 72
1
 73
20
 74
22
 0
VERTEX
 8
CAPPA_1
 10
0
 20
0
 30
0
 70
128
 71
13
 72
4
 73
3
 74
14
 0
VERTEX
 8
CAPPA_1
 10
0
 20
0
 30
0
 70
128
 71
15
 72
24
 73
23
 74
16
 0
VERTEX
 8
CAPPA_1
 10
0
 20
0
 30
0
 70
128
 71
17
 72
9
 73
4
 74
13
 0
VERTEX
 8
CAPPA_1
 10
0
 20
0
 30
0
 70
128
 71
18
 72
10
 73
5
 74
16
 0
VERTEX
 8
CAPPA_1
 10
0
 20
0
 30
0
 70
128
 71
15
 72
6
 73
9
 74
17
 0
VERTEX
 8
CAPPA_1
 10
0
 20
0
 30
0
 70
128
 71
14
 72
3
 73
10
 74
18
 0
VERTEX
 8
CAPPA_1
 10
0
 20
0
 30
0
 70
128
 71
19
 72
13
 73
14
 74
20
 0
VERTEX
 8
CAPPA_1
 10
0
 20
0
 30
0
 70
128
 71
21
 72
17
 73
13
 74
19
 0
VERTEX
 8
CAPPA_1
 10
0
 20
0
 30
0
 70
128
 71
22
 72
18
 73
16
 74
23
 0
VERTEX
 8
CAPPA_1
 10
0
 20
0
 30
0
 70
128
 71
24
 72
15
 73
17
 74
21
 0
VERTEX
 8
CAPPA_1
 10
0
 20
0
 30
0
 70
128
 71
20
 72
14
 73
18
 74
22
 0
VERTEX
 8
CAPPA_1
 10
0
 20
0
 30
0
 70
128
 71
40
 72
38
 73
37
 74
39
 0
VERTEX
 8
CAPPA_1
 10
0
 20
0
 30
0
 70
128
 71
25
 72
5
 73
6
 74
26
 0
VERTEX
 8
CAPPA_1
 10
0
 20
0
 30
0
 70
128
 71
26
 72
6
 73
15
 74
27
 0
VERTEX
 8
CAPPA_1
 10
0
 20
0
 30
0
 70
128
 71
27
 72
15
 73
16
 74
28
 0
VERTEX
 8
CAPPA_1
 10
0
 20
0
 30
0
 70
128
 71
28
 72
16
 73
5
 74
25
 0
VERTEX
 8
CAPPA_1
 10
0
 20
0
 30
0
 70
128
 71
32
 72
24
 73
8
 74
30
 0
VERTEX
 8
CAPPA_1
 10
0
 20
0
 30
0
 70
128
 71
30
 72
8
 73
7
 74
29
 0
VERTEX
 8
CAPPA_1
 10
0
 20
0
 30
0
 70
128
 71
29
 72
7
 73
23
 74
31
 0
VERTEX
 8
CAPPA_1
 10
0
 20
0
 30
0
 70
128
 71
31
 72
23
 73
24
 74
32
 0
VERTEX
 8
CAPPA_1
 10
0
 20
0
 30
0
 70
128
 71
33
 72
25
 73
26
 74
34
 0
VERTEX
 8
CAPPA_1
 10
0
 20
0
 30
0
 70
128
 71
34
 72
26
 73
27
 74
35
 0
VERTEX
 8
CAPPA_1
 10
0
 20
0
 30
0
 70
128
 71
35
 72
27
 73
28
 74
36
 0
VERTEX
 8
CAPPA_1
 10
0
 20
0
 30
0
 70
128
 71
36
 72
28
 73
25
 74
33
 0
VERTEX
 8
CAPPA_1
 10
0
 20
0
 30
0
 70
128
 71
40
 72
32
 73
30
 74
38
 0
VERTEX
 8
CAPPA_1
 10
0
 20
0
 30
0
 70
128
 71
38
 72
30
 73
29
 74
37
 0
VERTEX
 8
CAPPA_1
 10
0
 20
0
 30
0
 70
128
 71
37
 72
29
 73
31
 74
39
 0
VERTEX
 8
CAPPA_1
 10
0
 20
0
 30
0
 70
128
 71
39
 72
31
 73
32
 74
40
 0
VERTEX
 8
CAPPA_1
 10
0
 20
0
 30
0
 70
128
 71
39
 72
40
 73
35
 74
36
 0
VERTEX
 8
CAPPA_1
 10
0
 20
0
 30
0
 70
128
 71
36
 72
28
 73
31
 74
39
 0
VERTEX
 8
CAPPA_1
 10
0
 20
0
 30
0
 70
128
 71
27
 72
35
 73
40
 74
32
 0
VERTEX
 8
CAPPA_1
 10
0
 20
0
 30
0
 70
128
 71
27
 72
32
 73
31
 74
28
 0
SEQEND
 0
POLYLINE
 8
CAPPA_2
 66
1
 10
0.0
 20
0.0
 30
0.0
 70
64
 71
82
 72
84
 0
VERTEX
 8
CAPPA_2
 10
-60.8601
 20
-60.9601
 30
0.0011
 70
192
 0
VERTEX
 8
CAPPA_2
 10
-60.8601
 20
-60.9601
 30
10.1162
 70
192
 0
VERTEX
 8
CAPPA_2
 10
60.86
 20
-60.9601
 30
0.0011
 70
192
 0
VERTEX
 8
CAPPA_2
 10
60.86
 20
-60.9601
 30
10.1162
 70
192
 0
VERTEX
 8
CAPPA_2
 10
60.86
 20
0.0002
 30
0.0011
 70
192
 0
VERTEX
 8
CAPPA_2
 10
60.86
 20
0.0002
 30
11.4197
 70
192
 0
VERTEX
 8
CAPPA_2
 10
-60.8601
 20
0.0002
 30
0.0011
 70
192
 0
VERTEX
 8
CAPPA_2
 10
-60.8601
 20
0.0002
 30
11.4197
 70
192
 0
VERTEX
 8
CAPPA_2
 10
-60.8601
 20
-30.8134
 30
45.72
 70
192
 0
VERTEX
 8
CAPPA_2
 10
60.86
 20
-30.8134
 30
45.72
 70
192
 0
VERTEX
 8
CAPPA_2
 10
60.86
 20
0.0002
 30
45.72
 70
192
 0
VERTEX
 8
CAPPA_2
 10
-60.8601
 20
0.0002
 30
45.72
 70
192
 0
VERTEX
 8
CAPPA_2
 10
55.8462
 20
0.0002
 30
0.2427
 70
192
 0
VERTEX
 8
CAPPA_2
 10
55.8462
 20
-56.0999
 30
0.0011
 70
192
 0
VERTEX
 8
CAPPA_2
 10
55.8462
 20
-0.0448
 30
0.0011
 70
192
 0
VERTEX
 8
CAPPA_2
 10
55.8462
 20
0.0002
 30
0.0011
 70
192
 0
VERTEX
 8
CAPPA_2
 10
-55.8561
 20
-56.0999
 30
14.073
 70
192
 0
VERTEX
 8
CAPPA_2
 10
55.8462
 20
-56.0999
 30
14.073
 70
192
 0
VERTEX
 8
CAPPA_2
 10
55.8462
 20
-0.0448
 30
14.073
 70
192
 0
VERTEX
 8
CAPPA_2
 10
-55.8561
 20
-0.0448
 30
14.073
 70
192
 0
VERTEX
 8
CAPPA_2
 10
-60.8601
 20
-60.9601
 30
0.2427
 70
192
 0
VERTEX
 8
CAPPA_2
 10
60.86
 20
-60.9601
 30
0.2427
 70
192
 0
VERTEX
 8
CAPPA_2
 10
60.86
 20
0.0002
 30
0.2427
 70
192
 0
VERTEX
 8
CAPPA_2
 10
-60.8601
 20
0.0002
 30
0.2427
 70
192
 0
VERTEX
 8
CAPPA_2
 10
-55.8561
 20
-0.0448
 30
0.2427
 70
192
 0
VERTEX
 8
CAPPA_2
 10
55.8462
 20
-0.0448
 30
0.2427
 70
192
 0
VERTEX
 8
CAPPA_2
 10
55.8462
 20
-56.0999
 30
0.2427
 70
192
 0
VERTEX
 8
CAPPA_2
 10
-55.8561
 20
-56.0999
 30
0.2427
 70
192
 0
VERTEX
 8
CAPPA_2
 10
-55.8561
 20
-56.0999
 30
0.0011
 70
192
 0
VERTEX
 8
CAPPA_2
 10
-55.8561
 20
-0.0448
 30
0.0011
 70
192
 0
VERTEX
 8
CAPPA_2
 10
-55.8561
 20
0.0002
 30
0.2427
 70
192
 0
VERTEX
 8
CAPPA_2
 10
-55.8561
 20
0.0002
 30
0.0011
 70
192
 0
VERTEX
 8
CAPPA_2
 10
59.5018
 20
-60.9601
 30
0.2427
 70
192
 0
VERTEX
 8
CAPPA_2
 10
59.5018
 20
-60.9601
 30
0.0011
 70
192
 0
VERTEX
 8
CAPPA_2
 10
59.5018
 20
0.0002
 30
0.2427
 70
192
 0
VERTEX
 8
CAPPA_2
 10
59.5018
 20
0.0002
 30
0.0011
 70
192
 0
VERTEX
 8
CAPPA_2
 10
59.5018
 20
0.0002
 30
45.72
 70
192
 0
VERTEX
 8
CAPPA_2
 10
59.5018
 20
-30.8134
 30
45.72
 70
192
 0
VERTEX
 8
CAPPA_2
 10
59.5018
 20
-60.9601
 30
10.1162
 70
192
 0
VERTEX
 8
CAPPA_2
 10
59.5018
 20
0.0002
 30
11.4197
 70
192
 0
VERTEX
 8
CAPPA_2
 10
59.5018
 20
-59.6435
 30
0.0011
 70
192
 0
VERTEX
 8
CAPPA_2
 10
59.5018
 20
-0.012
 30
0.0011
 70
192
 0
VERTEX
 8
CAPPA_2
 10
-59.513
 20
-60.9601
 30
0.2427
 70
192
 0
VERTEX
 8
CAPPA_2
 10
-59.513
 20
-60.9601
 30
0.0011
 70
192
 0
VERTEX
 8
CAPPA_2
 10
-59.513
 20
0.0002
 30
45.72
 70
192
 0
VERTEX
 8
CAPPA_2
 10
-59.513
 20
-30.8134
 30
45.72
 70
192
 0
VERTEX
 8
CAPPA_2
 10
-59.513
 20
-60.9601
 30
10.1162
 70
192
 0
VERTEX
 8
CAPPA_2
 10
-59.513
 20
-59.6644
 30
0.0011
 70
192
 0
VERTEX
 8
CAPPA_2
 10
-59.513
 20
-0.0118
 30
0.0011
 70
192
 0
VERTEX
 8
CAPPA_2
 10
-59.513
 20
0.0002
 30
0.2427
 70
192
 0
VERTEX
 8
CAPPA_2
 10
-59.513
 20
0.0002
 30
0.0011
 70
192
 0
VERTEX
 8
CAPPA_2
 10
-59.513
 20
0.0002
 30
11.4197
 70
192
 0
VERTEX
 8
CAPPA_2
 10
60.86
 20
-29.5001
 30
0.2427
 70
192
 0
VERTEX
 8
CAPPA_2
 10
60.86
 20
-29.5001
 30
0.0011
 70
192
 0
VERTEX
 8
CAPPA_2
 10
-60.8601
 20
-29.5001
 30
0.2427
 70
192
 0
VERTEX
 8
CAPPA_2
 10
-60.8601
 20
-29.5001
 30
0.0011
 70
192
 0
VERTEX
 8
CAPPA_2
 10
-60.8601
 20
-29.5001
 30
45.72
 70
192
 0
VERTEX
 8
CAPPA_2
 10
-59.513
 20
-29.5001
 30
45.72
 70
192
 0
VERTEX
 8
CAPPA_2
 10
-55.8561
 20
-29.5001
 30
14.073
 70
192
 0
VERTEX
 8
CAPPA_2
 10
55.8462
 20
-29.5001
 30
14.073
 70
192
 0
VERTEX
 8
CAPPA_2
 10
60.86
 20
-29.5001
 30
45.72
 70
192
 0
VERTEX
 8
CAPPA_2
 10
60.86
 20
-29.5001
 30
10.7889
 70
192
 0
VERTEX
 8
CAPPA_2
 10
-60.8601
 20
-29.5001
 30
10.7889
 70
192
 0
VERTEX
 8
CAPPA_2
 10
59.5018
 20
-29.5001
 30
0.0011
 70
192
 0
VERTEX
 8
CAPPA_2
 10
-59.513
 20
-29.5001
 30
0.0011
 70
192
 0
VERTEX
 8
CAPPA_2
 10
55.8462
 20
-29.5001
 30
0.2427
 70
192
 0
VERTEX
 8
CAPPA_2
 10
55.8462
 20
-29.5001
 30
0.0011
 70
192
 0
VERTEX
 8
CAPPA_2
 10
-55.8561
 20
-29.5001
 30
0.2427
 70
192
 0
VERTEX
 8
CAPPA_2
 10
-55.8561
 20
-29.5001
 30
0.0011
 70
192
 0
VERTEX
 8
CAPPA_2
 10
59.5018
 20
-29.5001
 30
45.72
 70
192
 0
VERTEX
 8
CAPPA_2
 10
-60.8601
 20
-30.8134
 30
87.1001
 70
192
 0
VERTEX
 8
CAPPA_2
 10
60.86
 20
-30.8134
 30
87.1001
 70
192
 0
VERTEX
 8
CAPPA_2
 10
60.86
 20
0.0002
 30
87.1001
 70
192
 0
VERTEX
 8
CAPPA_2
 10
-60.8601
 20
0.0002
 30
87.1001
 70
192
 0
VERTEX
 8
CAPPA_2
 10
59.5018
 20
0.0002
 30
87.1001
 70
192
 0
VERTEX
 8
CAPPA_2
 10
59.5018
 20
-30.8134
 30
87.1001
 70
192
 0
VERTEX
 8
CAPPA_2
 10
-59.513
 20
0.0002
 30
87.1001
 70
192
 0
VERTEX
 8
CAPPA_2
 10
-59.513
 20
-30.8134
 30
87.1001
 70
192
 0
VERTEX
 8
CAPPA_2
 10
-60.8601
 20
-29.5001
 30
87.1001
 70
192
 0
VERTEX
 8
CAPPA_2
 10
-59.513
 20
-29.5001
 30
87.1001
 70
192
 0
VERTEX
 8
CAPPA_2
 10
60.86
 20
-29.5001
 30
87.1001
 70
192
 0
VERTEX
 8
CAPPA_2
 10
59.5018
 20
-29.5001
 30
87.1001
 70
192
 0
VERTEX
 8
CAPPA_2
 10
0
 20
0
 30
0
 70
128
 71
29
 72
44
 73
34
 74
14
 0
VERTEX
 8
CAPPA_2
 10
0
 20
0
 30
0
 70
128
 71
34
 72
41
 73
14
 74
14
 0
VERTEX
 8
CAPPA_2
 10
0
 20
0
 30
0
 70
128
 71
44
 72
29
 73
48
 74
48
 0
VERTEX
 8
CAPPA_2
 10
0
 20
0
 30
0
 70
128
 71
50
 72
31
 73
52
 74
52
 0
VERTEX
 8
CAPPA_2
 10
0
 20
0
 30
0
 70
128
 71
31
 72
13
 73
40
 74
52
 0
VERTEX
 8
CAPPA_2
 10
0
 20
0
 30
0
 70
128
 71
13
 72
35
 73
40
 74
40
 0
VERTEX
 8
CAPPA_2
 10
0
 20
0
 30
0
 70
128
 71
1
 72
21
 73
43
 74
44
 0
VERTEX
 8
CAPPA_2
 10
0
 20
0
 30
0
 70
128
 71
3
 72
22
 73
53
 74
54
 0
VERTEX
 8
CAPPA_2
 10
0
 20
0
 30
0
 70
128
 71
5
 72
23
 73
35
 74
36
 0
VERTEX
 8
CAPPA_2
 10
0
 20
0
 30
0
 70
128
 71
7
 72
24
 73
55
 74
56
 0
VERTEX
 8
CAPPA_2
 10
0
 20
0
 30
0
 70
128
 71
71
 72
79
 73
80
 74
78
 0
VERTEX
 8
CAPPA_2
 10
0
 20
0
 30
0
 70
128
 71
20
 72
59
 73
60
 74
19
 0
VERTEX
 8
CAPPA_2
 10
0
 20
0
 30
0
 70
128
 71
2
 72
9
 73
46
 74
47
 0
VERTEX
 8
CAPPA_2
 10
0
 20
0
 30
0
 70
128
 71
4
 72
10
 73
61
 74
62
 0
VERTEX
 8
CAPPA_2
 10
0
 20
0
 30
0
 70
128
 71
6
 72
11
 73
37
 74
40
 0
VERTEX
 8
CAPPA_2
 10
0
 20
0
 30
0
 70
128
 71
8
 72
12
 73
57
 74
63
 0
VERTEX
 8
CAPPA_2
 10
0
 20
0
 30
0
 70
128
 71
34
 72
3
 73
41
 74
41
 0
VERTEX
 8
CAPPA_2
 10
0
 20
0
 30
0
 70
128
 71
5
 72
42
 73
64
 74
54
 0
VERTEX
 8
CAPPA_2
 10
0
 20
0
 30
0
 70
128
 71
33
 72
22
 73
3
 74
34
 0
VERTEX
 8
CAPPA_2
 10
0
 20
0
 30
0
 70
128
 71
1
 72
48
 73
65
 74
56
 0
VERTEX
 8
CAPPA_2
 10
0
 20
0
 30
0
 70
128
 71
30
 72
25
 73
31
 74
32
 0
VERTEX
 8
CAPPA_2
 10
0
 20
0
 30
0
 70
128
 71
15
 72
26
 73
66
 74
67
 0
VERTEX
 8
CAPPA_2
 10
0
 20
0
 30
0
 70
128
 71
21
 72
2
 73
47
 74
43
 0
VERTEX
 8
CAPPA_2
 10
0
 20
0
 30
0
 70
128
 71
26
 72
15
 73
16
 74
13
 0
VERTEX
 8
CAPPA_2
 10
0
 20
0
 30
0
 70
128
 71
31
 72
50
 73
51
 74
32
 0
VERTEX
 8
CAPPA_2
 10
0
 20
0
 30
0
 70
128
 71
27
 72
28
 73
29
 74
14
 0
VERTEX
 8
CAPPA_2
 10
0
 20
0
 30
0
 70
128
 71
23
 72
6
 73
40
 74
35
 0
VERTEX
 8
CAPPA_2
 10
0
 20
0
 30
0
 70
128
 71
24
 72
8
 73
63
 74
55
 0
VERTEX
 8
CAPPA_2
 10
0
 20
0
 30
0
 70
128
 71
25
 72
20
 73
19
 74
26
 0
VERTEX
 8
CAPPA_2
 10
0
 20
0
 30
0
 70
128
 71
26
 72
19
 73
60
 74
66
 0
VERTEX
 8
CAPPA_2
 10
0
 20
0
 30
0
 70
128
 71
7
 72
49
 73
51
 74
51
 0
VERTEX
 8
CAPPA_2
 10
0
 20
0
 30
0
 70
128
 71
28
 72
17
 73
59
 74
68
 0
VERTEX
 8
CAPPA_2
 10
0
 20
0
 30
0
 70
128
 71
42
 72
5
 73
36
 74
36
 0
VERTEX
 8
CAPPA_2
 10
0
 20
0
 30
0
 70
128
 71
18
 72
17
 73
28
 74
27
 0
VERTEX
 8
CAPPA_2
 10
0
 20
0
 30
0
 70
128
 71
35
 72
13
 73
16
 74
36
 0
VERTEX
 8
CAPPA_2
 10
0
 20
0
 30
0
 70
128
 71
28
 72
68
 73
69
 74
29
 0
VERTEX
 8
CAPPA_2
 10
0
 20
0
 30
0
 70
128
 71
4
 72
62
 73
53
 74
22
 0
VERTEX
 8
CAPPA_2
 10
0
 20
0
 30
0
 70
128
 71
26
 72
25
 73
31
 74
13
 0
VERTEX
 8
CAPPA_2
 10
0
 20
0
 30
0
 70
128
 71
75
 72
73
 73
81
 74
82
 0
VERTEX
 8
CAPPA_2
 10
0
 20
0
 30
0
 70
128
 71
38
 72
10
 73
4
 74
39
 0
VERTEX
 8
CAPPA_2
 10
0
 20
0
 30
0
 70
128
 71
37
 72
45
 73
52
 74
40
 0
VERTEX
 8
CAPPA_2
 10
0
 20
0
 30
0
 70
128
 71
43
 72
33
 73
34
 74
44
 0
VERTEX
 8
CAPPA_2
 10
0
 20
0
 30
0
 70
128
 71
48
 72
1
 73
44
 74
44
 0
VERTEX
 8
CAPPA_2
 10
0
 20
0
 30
0
 70
128
 71
42
 72
15
 73
67
 74
64
 0
VERTEX
 8
CAPPA_2
 10
0
 20
0
 30
0
 70
128
 71
45
 72
37
 73
70
 74
58
 0
VERTEX
 8
CAPPA_2
 10
0
 20
0
 30
0
 70
128
 71
46
 72
38
 73
39
 74
47
 0
VERTEX
 8
CAPPA_2
 10
0
 20
0
 30
0
 70
128
 71
52
 72
8
 73
24
 74
50
 0
VERTEX
 8
CAPPA_2
 10
0
 20
0
 30
0
 70
128
 71
39
 72
4
 73
22
 74
33
 0
VERTEX
 8
CAPPA_2
 10
0
 20
0
 30
0
 70
128
 71
36
 72
16
 73
15
 74
42
 0
VERTEX
 8
CAPPA_2
 10
0
 20
0
 30
0
 70
128
 71
48
 72
29
 73
69
 74
65
 0
VERTEX
 8
CAPPA_2
 10
0
 20
0
 30
0
 70
128
 71
47
 72
39
 73
33
 74
43
 0
VERTEX
 8
CAPPA_2
 10
0
 20
0
 30
0
 70
128
 71
50
 72
24
 73
7
 74
51
 0
VERTEX
 8
CAPPA_2
 10
0
 20
0
 30
0
 70
128
 71
49
 72
30
 73
32
 74
51
 0
VERTEX
 8
CAPPA_2
 10
0
 20
0
 30
0
 70
128
 71
45
 72
12
 73
8
 74
52
 0
VERTEX
 8
CAPPA_2
 10
0
 20
0
 30
0
 70
128
 71
53
 72
23
 73
5
 74
54
 0
VERTEX
 8
CAPPA_2
 10
0
 20
0
 30
0
 70
128
 71
55
 72
21
 73
1
 74
56
 0
VERTEX
 8
CAPPA_2
 10
0
 20
0
 30
0
 70
128
 71
79
 72
74
 73
77
 74
80
 0
VERTEX
 8
CAPPA_2
 10
0
 20
0
 30
0
 70
128
 71
59
 72
17
 73
18
 74
60
 0
VERTEX
 8
CAPPA_2
 10
0
 20
0
 30
0
 70
128
 71
61
 72
11
 73
6
 74
62
 0
VERTEX
 8
CAPPA_2
 10
0
 20
0
 30
0
 70
128
 71
57
 72
9
 73
2
 74
63
 0
VERTEX
 8
CAPPA_2
 10
0
 20
0
 30
0
 70
128
 71
64
 72
41
 73
3
 74
54
 0
VERTEX
 8
CAPPA_2
 10
0
 20
0
 30
0
 70
128
 71
65
 72
49
 73
7
 74
56
 0
VERTEX
 8
CAPPA_2
 10
0
 20
0
 30
0
 70
128
 71
66
 72
27
 73
14
 74
67
 0
VERTEX
 8
CAPPA_2
 10
0
 20
0
 30
0
 70
128
 71
63
 72
2
 73
21
 74
55
 0
VERTEX
 8
CAPPA_2
 10
0
 20
0
 30
0
 70
128
 71
60
 72
18
 73
27
 74
66
 0
VERTEX
 8
CAPPA_2
 10
0
 20
0
 30
0
 70
128
 71
59
 72
20
 73
25
 74
68
 0
VERTEX
 8
CAPPA_2
 10
0
 20
0
 30
0
 70
128
 71
68
 72
25
 73
30
 74
69
 0
VERTEX
 8
CAPPA_2
 10
0
 20
0
 30
0
 70
128
 71
62
 72
6
 73
23
 74
53
 0
VERTEX
 8
CAPPA_2
 10
0
 20
0
 30
0
 70
128
 71
81
 72
72
 73
76
 74
82
 0
VERTEX
 8
CAPPA_2
 10
0
 20
0
 30
0
 70
128
 71
67
 72
14
 73
41
 74
64
 0
VERTEX
 8
CAPPA_2
 10
0
 20
0
 30
0
 70
128
 71
82
 72
76
 73
78
 74
80
 0
VERTEX
 8
CAPPA_2
 10
0
 20
0
 30
0
 70
128
 71
69
 72
30
 73
49
 74
65
 0
VERTEX
 8
CAPPA_2
 10
0
 20
0
 30
0
 70
128
 71
71
 72
9
 73
57
 74
79
 0
VERTEX
 8
CAPPA_2
 10
0
 20
0
 30
0
 70
128
 71
78
 72
46
 73
9
 74
71
 0
VERTEX
 8
CAPPA_2
 10
0
 20
0
 30
0
 70
128
 71
75
 72
37
 73
11
 74
73
 0
VERTEX
 8
CAPPA_2
 10
0
 20
0
 30
0
 70
128
 71
73
 72
11
 73
61
 74
81
 0
VERTEX
 8
CAPPA_2
 10
0
 20
0
 30
0
 70
128
 71
82
 72
70
 73
37
 74
75
 0
VERTEX
 8
CAPPA_2
 10
0
 20
0
 30
0
 70
128
 71
79
 72
57
 73
12
 74
74
 0
VERTEX
 8
CAPPA_2
 10
0
 20
0
 30
0
 70
128
 71
74
 72
12
 73
45
 74
77
 0
VERTEX
 8
CAPPA_2
 10
0
 20
0
 30
0
 70
128
 71
77
 72
45
 73
58
 74
80
 0
VERTEX
 8
CAPPA_2
 10
0
 20
0
 30
0
 70
128
 71
81
 72
61
 73
10
 74
72
 0
VERTEX
 8
CAPPA_2
 10
0
 20
0
 30
0
 70
128
 71
72
 72
10
 73
38
 74
76
 0
VERTEX
 8
CAPPA_2
 10
0
 20
0
 30
0
 70
128
 71
76
 72
38
 73
46
 74
78
 0
VERTEX
 8
CAPPA_2
 10
0
 20
0
 30
0
 70
128
 71
80
 72
58
 73
70
 74
82
 0
SEQEND
 0
POLYLINE
 8
FULGOR
 66
1
 10
0.0
 20
0.0
 30
0.0
 70
64
 71
367
 72
183
 0
VERTEX
 8
FULGOR
 10
0.3651
 20
-61.1105
 30
4.9118
 70
192
 0
VERTEX
 8
FULGOR
 10
-4.0941
 20
-61.1105
 30
4.7427
 70
192
 0
VERTEX
 8
FULGOR
 10
2.2032
 20
-61.1105
 30
4.7857
 70
192
 0
VERTEX
 8
FULGOR
 10
-3.8404
 20
-61.1105
 30
5.2315
 70
192
 0
VERTEX
 8
FULGOR
 10
-3.8404
 20
-61.1105
 30
5.3854
 70
192
 0
VERTEX
 8
FULGOR
 10
-3.2177
 20
-61.1105
 30
5.3854
 70
192
 0
VERTEX
 8
FULGOR
 10
-3.2177
 20
-61.1105
 30
5.5677
 70
192
 0
VERTEX
 8
FULGOR
 10
-4.0941
 20
-61.1105
 30
5.5677
 70
192
 0
VERTEX
 8
FULGOR
 10
-2.9601
 20
-61.1105
 30
5.1013
 70
192
 0
VERTEX
 8
FULGOR
 10
-2.958
 20
-61.1105
 30
5.0627
 70
192
 0
VERTEX
 8
FULGOR
 10
-2.9522
 20
-61.1105
 30
5.0271
 70
192
 0
VERTEX
 8
FULGOR
 10
-3.8404
 20
-61.1105
 30
4.7427
 70
192
 0
VERTEX
 8
FULGOR
 10
-3.8404
 20
-61.1105
 30
5.0846
 70
192
 0
VERTEX
 8
FULGOR
 10
-3.2177
 20
-61.1105
 30
5.0846
 70
192
 0
VERTEX
 8
FULGOR
 10
-3.2177
 20
-61.1105
 30
5.2315
 70
192
 0
VERTEX
 8
FULGOR
 10
-2.9601
 20
-61.1105
 30
5.5677
 70
192
 0
VERTEX
 8
FULGOR
 10
-2.9428
 20
-61.1105
 30
4.9943
 70
192
 0
VERTEX
 8
FULGOR
 10
-2.9301
 20
-61.1105
 30
4.9642
 70
192
 0
VERTEX
 8
FULGOR
 10
-2.9143
 20
-61.1105
 30
4.9367
 70
192
 0
VERTEX
 8
FULGOR
 10
-2.8957
 20
-61.1105
 30
4.9116
 70
192
 0
VERTEX
 8
FULGOR
 10
-2.6703
 20
-61.1105
 30
4.7856
 70
192
 0
VERTEX
 8
FULGOR
 10
-2.5834
 20
-61.1105
 30
4.7676
 70
192
 0
VERTEX
 8
FULGOR
 10
-2.442
 20
-61.1105
 30
4.7525
 70
192
 0
VERTEX
 8
FULGOR
 10
-2.2954
 20
-61.1105
 30
4.7478
 70
192
 0
VERTEX
 8
FULGOR
 10
-2.1315
 20
-61.1105
 30
4.7538
 70
192
 0
VERTEX
 8
FULGOR
 10
-2.0078
 20
-61.1105
 30
4.7702
 70
192
 0
VERTEX
 8
FULGOR
 10
-2.8744
 20
-61.1105
 30
4.8889
 70
192
 0
VERTEX
 8
FULGOR
 10
-1.8554
 20
-61.1105
 30
4.812
 70
192
 0
VERTEX
 8
FULGOR
 10
-2.8507
 20
-61.1105
 30
4.8684
 70
192
 0
VERTEX
 8
FULGOR
 10
-2.8248
 20
-61.1105
 30
4.85
 70
192
 0
VERTEX
 8
FULGOR
 10
-2.7824
 20
-61.1105
 30
4.8261
 70
192
 0
VERTEX
 8
FULGOR
 10
-2.7362
 20
-61.1105
 30
4.8063
 70
192
 0
VERTEX
 8
FULGOR
 10
-1.687
 20
-61.1105
 30
4.926
 70
192
 0
VERTEX
 8
FULGOR
 10
-1.9211
 20
-61.1105
 30
4.7902
 70
192
 0
VERTEX
 8
FULGOR
 10
-1.8094
 20
-61.1105
 30
4.8321
 70
192
 0
VERTEX
 8
FULGOR
 10
-1.7672
 20
-61.1105
 30
4.8558
 70
192
 0
VERTEX
 8
FULGOR
 10
-1.7293
 20
-61.1105
 30
4.8832
 70
192
 0
VERTEX
 8
FULGOR
 10
-1.6347
 20
-61.1105
 30
5.0517
 70
192
 0
VERTEX
 8
FULGOR
 10
-1.6327
 20
-61.1105
 30
5.0856
 70
192
 0
VERTEX
 8
FULGOR
 10
-1.6324
 20
-61.1105
 30
5.5677
 70
192
 0
VERTEX
 8
FULGOR
 10
-1.7069
 20
-61.1105
 30
4.9037
 70
192
 0
VERTEX
 8
FULGOR
 10
-1.6698
 20
-61.1105
 30
4.9503
 70
192
 0
VERTEX
 8
FULGOR
 10
-1.8862
 20
-61.1105
 30
5.088
 70
192
 0
VERTEX
 8
FULGOR
 10
-1.8876
 20
-61.1105
 30
5.0764
 70
192
 0
VERTEX
 8
FULGOR
 10
-1.8902
 20
-61.1105
 30
5.0649
 70
192
 0
VERTEX
 8
FULGOR
 10
-1.894
 20
-61.1105
 30
5.0535
 70
192
 0
VERTEX
 8
FULGOR
 10
-1.899
 20
-61.1105
 30
5.0422
 70
192
 0
VERTEX
 8
FULGOR
 10
-1.9053
 20
-61.1105
 30
5.0312
 70
192
 0
VERTEX
 8
FULGOR
 10
-1.9128
 20
-61.1105
 30
5.0203
 70
192
 0
VERTEX
 8
FULGOR
 10
-1.9265
 20
-61.1105
 30
5.0046
 70
192
 0
VERTEX
 8
FULGOR
 10
-1.9433
 20
-61.1105
 30
4.9895
 70
192
 0
VERTEX
 8
FULGOR
 10
-1.9631
 20
-61.1105
 30
4.9754
 70
192
 0
VERTEX
 8
FULGOR
 10
-1.9862
 20
-61.1105
 30
4.9621
 70
192
 0
VERTEX
 8
FULGOR
 10
-1.6557
 20
-61.1105
 30
4.9766
 70
192
 0
VERTEX
 8
FULGOR
 10
-1.6447
 20
-61.1105
 30
5.005
 70
192
 0
VERTEX
 8
FULGOR
 10
-1.6372
 20
-61.1105
 30
5.0356
 70
192
 0
VERTEX
 8
FULGOR
 10
-1.8859
 20
-61.1105
 30
5.5677
 70
192
 0
VERTEX
 8
FULGOR
 10
-1.8859
 20
-61.1105
 30
5.0996
 70
192
 0
VERTEX
 8
FULGOR
 10
-2.4399
 20
-61.1105
 30
4.9136
 70
192
 0
VERTEX
 8
FULGOR
 10
-2.022
 20
-61.1105
 30
4.9463
 70
192
 0
VERTEX
 8
FULGOR
 10
-2.5599
 20
-61.1105
 30
4.9362
 70
192
 0
VERTEX
 8
FULGOR
 10
-2.5971
 20
-61.1105
 30
4.9496
 70
192
 0
VERTEX
 8
FULGOR
 10
-2.0639
 20
-61.1105
 30
4.9327
 70
192
 0
VERTEX
 8
FULGOR
 10
-2.1251
 20
-61.1105
 30
4.9193
 70
192
 0
VERTEX
 8
FULGOR
 10
-2.1965
 20
-61.1105
 30
4.9104
 70
192
 0
VERTEX
 8
FULGOR
 10
-2.6698
 20
-61.1105
 30
4.9994
 70
192
 0
VERTEX
 8
FULGOR
 10
-2.6787
 20
-61.1105
 30
5.0106
 70
192
 0
VERTEX
 8
FULGOR
 10
-2.6863
 20
-61.1105
 30
5.0223
 70
192
 0
VERTEX
 8
FULGOR
 10
-2.6926
 20
-61.1105
 30
5.0347
 70
192
 0
VERTEX
 8
FULGOR
 10
-2.6977
 20
-61.1105
 30
5.0477
 70
192
 0
VERTEX
 8
FULGOR
 10
-2.2962
 20
-61.1105
 30
4.9067
 70
192
 0
VERTEX
 8
FULGOR
 10
-2.7053
 20
-61.1105
 30
5.0829
 70
192
 0
VERTEX
 8
FULGOR
 10
-2.7066
 20
-61.1105
 30
5.106
 70
192
 0
VERTEX
 8
FULGOR
 10
-2.7066
 20
-61.1105
 30
5.5677
 70
192
 0
VERTEX
 8
FULGOR
 10
-2.5167
 20
-61.1105
 30
4.9253
 70
192
 0
VERTEX
 8
FULGOR
 10
-2.6211
 20
-61.1105
 30
4.9613
 70
192
 0
VERTEX
 8
FULGOR
 10
-2.642
 20
-61.1105
 30
4.9744
 70
192
 0
VERTEX
 8
FULGOR
 10
-2.6597
 20
-61.1105
 30
4.989
 70
192
 0
VERTEX
 8
FULGOR
 10
-1.1218
 20
-61.1105
 30
4.925
 70
192
 0
VERTEX
 8
FULGOR
 10
-1.1218
 20
-61.1105
 30
5.5677
 70
192
 0
VERTEX
 8
FULGOR
 10
0.8934
 20
-61.1105
 30
5.4918
 70
192
 0
VERTEX
 8
FULGOR
 10
-2.7016
 20
-61.1105
 30
5.0613
 70
192
 0
VERTEX
 8
FULGOR
 10
-1.3756
 20
-61.1105
 30
5.5677
 70
192
 0
VERTEX
 8
FULGOR
 10
0.3916
 20
-61.1105
 30
5.567
 70
192
 0
VERTEX
 8
FULGOR
 10
-1.3756
 20
-61.1105
 30
4.7427
 70
192
 0
VERTEX
 8
FULGOR
 10
-0.4992
 20
-61.1105
 30
4.7427
 70
192
 0
VERTEX
 8
FULGOR
 10
-0.4992
 20
-61.1105
 30
4.925
 70
192
 0
VERTEX
 8
FULGOR
 10
0.7501
 20
-61.1105
 30
5.5242
 70
192
 0
VERTEX
 8
FULGOR
 10
0.5983
 20
-61.1105
 30
5.5485
 70
192
 0
VERTEX
 8
FULGOR
 10
0.2762
 20
-61.1105
 30
5.5667
 70
192
 0
VERTEX
 8
FULGOR
 10
-0.169
 20
-61.1105
 30
5.4419
 70
192
 0
VERTEX
 8
FULGOR
 10
-0.2121
 20
-61.1105
 30
5.4136
 70
192
 0
VERTEX
 8
FULGOR
 10
-0.2487
 20
-61.1105
 30
5.3843
 70
192
 0
VERTEX
 8
FULGOR
 10
-0.2796
 20
-61.1105
 30
5.354
 70
192
 0
VERTEX
 8
FULGOR
 10
0.1716
 20
-61.1105
 30
5.5563
 70
192
 0
VERTEX
 8
FULGOR
 10
0.0786
 20
-61.1105
 30
5.5382
 70
192
 0
VERTEX
 8
FULGOR
 10
-0.0127
 20
-61.1105
 30
5.5119
 70
192
 0
VERTEX
 8
FULGOR
 10
-0.3492
 20
-61.1105
 30
5.2423
 70
192
 0
VERTEX
 8
FULGOR
 10
-0.3565
 20
-61.1105
 30
5.2185
 70
192
 0
VERTEX
 8
FULGOR
 10
-0.0951
 20
-61.1105
 30
5.4796
 70
192
 0
VERTEX
 8
FULGOR
 10
-0.1374
 20
-61.1105
 30
5.4593
 70
192
 0
VERTEX
 8
FULGOR
 10
-0.3038
 20
-61.1105
 30
5.3252
 70
192
 0
VERTEX
 8
FULGOR
 10
-0.3637
 20
-61.1105
 30
5.1219
 70
192
 0
VERTEX
 8
FULGOR
 10
-0.3213
 20
-61.1105
 30
5.2997
 70
192
 0
VERTEX
 8
FULGOR
 10
-0.3366
 20
-61.1105
 30
5.2721
 70
192
 0
VERTEX
 8
FULGOR
 10
-0.3617
 20
-61.1105
 30
5.1936
 70
192
 0
VERTEX
 8
FULGOR
 10
-0.364
 20
-61.1105
 30
5.1763
 70
192
 0
VERTEX
 8
FULGOR
 10
-0.3653
 20
-61.1105
 30
5.1493
 70
192
 0
VERTEX
 8
FULGOR
 10
-0.3589
 20
-61.1105
 30
5.0953
 70
192
 0
VERTEX
 8
FULGOR
 10
-0.2522
 20
-61.1105
 30
4.9303
 70
192
 0
VERTEX
 8
FULGOR
 10
-0.212
 20
-61.1105
 30
4.8977
 70
192
 0
VERTEX
 8
FULGOR
 10
-0.3511
 20
-61.1105
 30
5.0693
 70
192
 0
VERTEX
 8
FULGOR
 10
-0.1005
 20
-61.1105
 30
4.8319
 70
192
 0
VERTEX
 8
FULGOR
 10
-0.0395
 20
-61.1105
 30
4.8064
 70
192
 0
VERTEX
 8
FULGOR
 10
-0.3406
 20
-61.1105
 30
5.044
 70
192
 0
VERTEX
 8
FULGOR
 10
-0.3275
 20
-61.1105
 30
5.0196
 70
192
 0
VERTEX
 8
FULGOR
 10
0.2474
 20
-61.1105
 30
4.7469
 70
192
 0
VERTEX
 8
FULGOR
 10
0.3267
 20
-61.1105
 30
4.7431
 70
192
 0
VERTEX
 8
FULGOR
 10
0.3916
 20
-61.1105
 30
4.7435
 70
192
 0
VERTEX
 8
FULGOR
 10
0.4946
 20
-61.1105
 30
4.7494
 70
192
 0
VERTEX
 8
FULGOR
 10
-0.3062
 20
-61.1105
 30
4.9882
 70
192
 0
VERTEX
 8
FULGOR
 10
-0.2809
 20
-61.1105
 30
4.9584
 70
192
 0
VERTEX
 8
FULGOR
 10
-0.1584
 20
-61.1105
 30
4.8625
 70
192
 0
VERTEX
 8
FULGOR
 10
0.6019
 20
-61.1105
 30
5.1711
 70
192
 0
VERTEX
 8
FULGOR
 10
0.0434
 20
-61.1105
 30
4.7804
 70
192
 0
VERTEX
 8
FULGOR
 10
0.1349
 20
-61.1105
 30
4.7607
 70
192
 0
VERTEX
 8
FULGOR
 10
0.6223
 20
-61.1105
 30
4.7663
 70
192
 0
VERTEX
 8
FULGOR
 10
0.8934
 20
-61.1105
 30
4.8186
 70
192
 0
VERTEX
 8
FULGOR
 10
0.3174
 20
-61.1105
 30
4.9123
 70
192
 0
VERTEX
 8
FULGOR
 10
0.2617
 20
-61.1105
 30
4.9167
 70
192
 0
VERTEX
 8
FULGOR
 10
0.8934
 20
-61.1105
 30
5.1711
 70
192
 0
VERTEX
 8
FULGOR
 10
0.1574
 20
-61.1105
 30
4.9402
 70
192
 0
VERTEX
 8
FULGOR
 10
0.1195
 20
-61.1105
 30
4.955
 70
192
 0
VERTEX
 8
FULGOR
 10
0.6018
 20
-61.1105
 30
4.9295
 70
192
 0
VERTEX
 8
FULGOR
 10
0.5686
 20
-61.1105
 30
4.9234
 70
192
 0
VERTEX
 8
FULGOR
 10
0.032
 20
-61.1105
 30
5.0108
 70
192
 0
VERTEX
 8
FULGOR
 10
0.4773
 20
-61.1105
 30
4.914
 70
192
 0
VERTEX
 8
FULGOR
 10
0.4101
 20
-61.1105
 30
4.9114
 70
192
 0
VERTEX
 8
FULGOR
 10
0.208
 20
-61.1105
 30
4.9261
 70
192
 0
VERTEX
 8
FULGOR
 10
0.0846
 20
-61.1105
 30
4.9727
 70
192
 0
VERTEX
 8
FULGOR
 10
-0.0324
 20
-61.1105
 30
5.1133
 70
192
 0
VERTEX
 8
FULGOR
 10
-0.0362
 20
-61.1105
 30
5.1307
 70
192
 0
VERTEX
 8
FULGOR
 10
-0.0386
 20
-61.1105
 30
5.1488
 70
192
 0
VERTEX
 8
FULGOR
 10
-0.0394
 20
-61.1105
 30
5.1676
 70
192
 0
VERTEX
 8
FULGOR
 10
-0.0383
 20
-61.1105
 30
5.1863
 70
192
 0
VERTEX
 8
FULGOR
 10
0.0531
 20
-61.1105
 30
4.9934
 70
192
 0
VERTEX
 8
FULGOR
 10
0.0132
 20
-61.1105
 30
5.0299
 70
192
 0
VERTEX
 8
FULGOR
 10
-0.003
 20
-61.1105
 30
5.0505
 70
192
 0
VERTEX
 8
FULGOR
 10
-0.0153
 20
-61.1105
 30
5.2526
 70
192
 0
VERTEX
 8
FULGOR
 10
-0.0054
 20
-61.1105
 30
5.2672
 70
192
 0
VERTEX
 8
FULGOR
 10
0.006
 20
-61.1105
 30
5.2809
 70
192
 0
VERTEX
 8
FULGOR
 10
-0.0165
 20
-61.1105
 30
5.0728
 70
192
 0
VERTEX
 8
FULGOR
 10
0.0472
 20
-61.1105
 30
5.3172
 70
192
 0
VERTEX
 8
FULGOR
 10
0.0713
 20
-61.1105
 30
5.3327
 70
192
 0
VERTEX
 8
FULGOR
 10
-0.027
 20
-61.1105
 30
5.0966
 70
192
 0
VERTEX
 8
FULGOR
 10
0.1521
 20
-61.1105
 30
5.3689
 70
192
 0
VERTEX
 8
FULGOR
 10
0.1998
 20
-61.1105
 30
5.3826
 70
192
 0
VERTEX
 8
FULGOR
 10
-0.0353
 20
-61.1105
 30
5.2041
 70
192
 0
VERTEX
 8
FULGOR
 10
0.2834
 20
-61.1105
 30
5.3958
 70
192
 0
VERTEX
 8
FULGOR
 10
-0.0303
 20
-61.1105
 30
5.2211
 70
192
 0
VERTEX
 8
FULGOR
 10
0.4876
 20
-61.1105
 30
5.389
 70
192
 0
VERTEX
 8
FULGOR
 10
-0.0236
 20
-61.1105
 30
5.2373
 70
192
 0
VERTEX
 8
FULGOR
 10
0.8934
 20
-61.1105
 30
5.3157
 70
192
 0
VERTEX
 8
FULGOR
 10
1.151
 20
-61.1105
 30
5.1552
 70
192
 0
VERTEX
 8
FULGOR
 10
1.1532
 20
-61.1105
 30
5.1185
 70
192
 0
VERTEX
 8
FULGOR
 10
0.0253
 20
-61.1105
 30
5.2999
 70
192
 0
VERTEX
 8
FULGOR
 10
0.1059
 20
-61.1105
 30
5.3507
 70
192
 0
VERTEX
 8
FULGOR
 10
1.1833
 20
-61.1105
 30
5.0205
 70
192
 0
VERTEX
 8
FULGOR
 10
1.2005
 20
-61.1105
 30
4.9918
 70
192
 0
VERTEX
 8
FULGOR
 10
1.2207
 20
-61.1105
 30
4.9649
 70
192
 0
VERTEX
 8
FULGOR
 10
1.2439
 20
-61.1105
 30
4.9398
 70
192
 0
VERTEX
 8
FULGOR
 10
1.2835
 20
-61.1105
 30
4.9054
 70
192
 0
VERTEX
 8
FULGOR
 10
0.2564
 20
-61.1105
 30
5.393
 70
192
 0
VERTEX
 8
FULGOR
 10
0.3174
 20
-61.1105
 30
5.3971
 70
192
 0
VERTEX
 8
FULGOR
 10
0.6458
 20
-61.1105
 30
5.3663
 70
192
 0
VERTEX
 8
FULGOR
 10
1.1595
 20
-61.1105
 30
5.0838
 70
192
 0
VERTEX
 8
FULGOR
 10
1.1696
 20
-61.1105
 30
5.0512
 70
192
 0
VERTEX
 8
FULGOR
 10
1.7747
 20
-61.1105
 30
4.7494
 70
192
 0
VERTEX
 8
FULGOR
 10
1.8808
 20
-61.1105
 30
4.7451
 70
192
 0
VERTEX
 8
FULGOR
 10
1.3283
 20
-61.1105
 30
4.875
 70
192
 0
VERTEX
 8
FULGOR
 10
2.1409
 20
-61.1105
 30
4.7703
 70
192
 0
VERTEX
 8
FULGOR
 10
1.3774
 20
-61.1105
 30
4.8481
 70
192
 0
VERTEX
 8
FULGOR
 10
1.4483
 20
-61.1105
 30
4.8178
 70
192
 0
VERTEX
 8
FULGOR
 10
1.5428
 20
-61.1105
 30
4.788
 70
192
 0
VERTEX
 8
FULGOR
 10
1.6598
 20
-61.1105
 30
4.7633
 70
192
 0
VERTEX
 8
FULGOR
 10
2.0057
 20
-61.1105
 30
4.751
 70
192
 0
VERTEX
 8
FULGOR
 10
2.5295
 20
-61.1105
 30
4.9521
 70
192
 0
VERTEX
 8
FULGOR
 10
2.2571
 20
-61.1105
 30
4.7989
 70
192
 0
VERTEX
 8
FULGOR
 10
2.3493
 20
-61.1105
 30
4.8323
 70
192
 0
VERTEX
 8
FULGOR
 10
2.4172
 20
-61.1105
 30
4.8657
 70
192
 0
VERTEX
 8
FULGOR
 10
2.4635
 20
-61.1105
 30
4.8949
 70
192
 0
VERTEX
 8
FULGOR
 10
2.505
 20
-61.1105
 30
4.9279
 70
192
 0
VERTEX
 8
FULGOR
 10
2.6083
 20
-61.1105
 30
5.1183
 70
192
 0
VERTEX
 8
FULGOR
 10
2.6105
 20
-61.1105
 30
5.1549
 70
192
 0
VERTEX
 8
FULGOR
 10
2.6084
 20
-61.1105
 30
5.1916
 70
192
 0
VERTEX
 8
FULGOR
 10
2.6022
 20
-61.1105
 30
5.2262
 70
192
 0
VERTEX
 8
FULGOR
 10
2.5512
 20
-61.1105
 30
4.9781
 70
192
 0
VERTEX
 8
FULGOR
 10
2.5699
 20
-61.1105
 30
5.0059
 70
192
 0
VERTEX
 8
FULGOR
 10
2.5854
 20
-61.1105
 30
5.0355
 70
192
 0
VERTEX
 8
FULGOR
 10
2.5411
 20
-61.1105
 30
5.3451
 70
192
 0
VERTEX
 8
FULGOR
 10
2.518
 20
-61.1105
 30
5.3701
 70
192
 0
VERTEX
 8
FULGOR
 10
2.4784
 20
-61.1105
 30
5.4045
 70
192
 0
VERTEX
 8
FULGOR
 10
2.4336
 20
-61.1105
 30
5.435
 70
192
 0
VERTEX
 8
FULGOR
 10
2.3844
 20
-61.1105
 30
5.4619
 70
192
 0
VERTEX
 8
FULGOR
 10
2.3135
 20
-61.1105
 30
5.4923
 70
192
 0
VERTEX
 8
FULGOR
 10
2.5974
 20
-61.1105
 30
5.0672
 70
192
 0
VERTEX
 8
FULGOR
 10
2.6056
 20
-61.1105
 30
5.1007
 70
192
 0
VERTEX
 8
FULGOR
 10
2.5921
 20
-61.1105
 30
5.2588
 70
192
 0
VERTEX
 8
FULGOR
 10
2.5784
 20
-61.1105
 30
5.2894
 70
192
 0
VERTEX
 8
FULGOR
 10
1.7559
 20
-61.1105
 30
5.5593
 70
192
 0
VERTEX
 8
FULGOR
 10
2.5614
 20
-61.1105
 30
5.3182
 70
192
 0
VERTEX
 8
FULGOR
 10
2.219
 20
-61.1105
 30
5.5222
 70
192
 0
VERTEX
 8
FULGOR
 10
2.1019
 20
-61.1105
 30
5.547
 70
192
 0
VERTEX
 8
FULGOR
 10
1.987
 20
-61.1105
 30
5.5609
 70
192
 0
VERTEX
 8
FULGOR
 10
1.2977
 20
-61.1105
 30
5.4155
 70
192
 0
VERTEX
 8
FULGOR
 10
1.2562
 20
-61.1105
 30
5.3825
 70
192
 0
VERTEX
 8
FULGOR
 10
1.2317
 20
-61.1105
 30
5.3583
 70
192
 0
VERTEX
 8
FULGOR
 10
1.21
 20
-61.1105
 30
5.3323
 70
192
 0
VERTEX
 8
FULGOR
 10
1.1913
 20
-61.1105
 30
5.3045
 70
192
 0
VERTEX
 8
FULGOR
 10
1.1758
 20
-61.1105
 30
5.2747
 70
192
 0
VERTEX
 8
FULGOR
 10
1.1639
 20
-61.1105
 30
5.2431
 70
192
 0
VERTEX
 8
FULGOR
 10
1.8808
 20
-61.1105
 30
5.5653
 70
192
 0
VERTEX
 8
FULGOR
 10
1.1531
 20
-61.1105
 30
5.1919
 70
192
 0
VERTEX
 8
FULGOR
 10
1.4789
 20
-61.1105
 30
5.1549
 70
192
 0
VERTEX
 8
FULGOR
 10
1.4798
 20
-61.1105
 30
5.135
 70
192
 0
VERTEX
 8
FULGOR
 10
1.6207
 20
-61.1105
 30
5.5401
 70
192
 0
VERTEX
 8
FULGOR
 10
1.5043
 20
-61.1105
 30
5.5115
 70
192
 0
VERTEX
 8
FULGOR
 10
1.412
 20
-61.1105
 30
5.4782
 70
192
 0
VERTEX
 8
FULGOR
 10
1.344
 20
-61.1105
 30
5.4448
 70
192
 0
VERTEX
 8
FULGOR
 10
1.1557
 20
-61.1105
 30
5.2095
 70
192
 0
VERTEX
 8
FULGOR
 10
1.5191
 20
-61.1105
 30
5.0348
 70
192
 0
VERTEX
 8
FULGOR
 10
1.5308
 20
-61.1105
 30
5.0211
 70
192
 0
VERTEX
 8
FULGOR
 10
1.4824
 20
-61.1105
 30
5.1161
 70
192
 0
VERTEX
 8
FULGOR
 10
1.4866
 20
-61.1105
 30
5.098
 70
192
 0
VERTEX
 8
FULGOR
 10
1.4925
 20
-61.1105
 30
5.0809
 70
192
 0
VERTEX
 8
FULGOR
 10
1.4999
 20
-61.1105
 30
5.0646
 70
192
 0
VERTEX
 8
FULGOR
 10
1.6768
 20
-61.1105
 30
4.9388
 70
192
 0
VERTEX
 8
FULGOR
 10
1.7324
 20
-61.1105
 30
4.9255
 70
192
 0
VERTEX
 8
FULGOR
 10
1.5088
 20
-61.1105
 30
5.0493
 70
192
 0
VERTEX
 8
FULGOR
 10
1.8808
 20
-61.1105
 30
4.9126
 70
192
 0
VERTEX
 8
FULGOR
 10
1.9695
 20
-61.1105
 30
4.9169
 70
192
 0
VERTEX
 8
FULGOR
 10
1.5507
 20
-61.1105
 30
5.0023
 70
192
 0
VERTEX
 8
FULGOR
 10
2.0954
 20
-61.1105
 30
4.9421
 70
192
 0
VERTEX
 8
FULGOR
 10
2.1355
 20
-61.1105
 30
4.957
 70
192
 0
VERTEX
 8
FULGOR
 10
2.1718
 20
-61.1105
 30
4.9751
 70
192
 0
VERTEX
 8
FULGOR
 10
1.5734
 20
-61.1105
 30
4.9853
 70
192
 0
VERTEX
 8
FULGOR
 10
2.218
 20
-61.1105
 30
5.0085
 70
192
 0
VERTEX
 8
FULGOR
 10
1.5986
 20
-61.1105
 30
4.9702
 70
192
 0
VERTEX
 8
FULGOR
 10
1.6359
 20
-61.1105
 30
4.9529
 70
192
 0
VERTEX
 8
FULGOR
 10
2.2577
 20
-61.1105
 30
5.057
 70
192
 0
VERTEX
 8
FULGOR
 10
1.8045
 20
-61.1105
 30
4.9158
 70
192
 0
VERTEX
 8
FULGOR
 10
2.0407
 20
-61.1105
 30
4.9278
 70
192
 0
VERTEX
 8
FULGOR
 10
2.1962
 20
-61.1105
 30
4.9909
 70
192
 0
VERTEX
 8
FULGOR
 10
2.281
 20
-61.1105
 30
5.1255
 70
192
 0
VERTEX
 8
FULGOR
 10
2.2821
 20
-61.1105
 30
5.1351
 70
192
 0
VERTEX
 8
FULGOR
 10
2.283
 20
-61.1105
 30
5.1549
 70
192
 0
VERTEX
 8
FULGOR
 10
2.2821
 20
-61.1105
 30
5.1748
 70
192
 0
VERTEX
 8
FULGOR
 10
2.237
 20
-61.1105
 30
5.028
 70
192
 0
VERTEX
 8
FULGOR
 10
2.248
 20
-61.1105
 30
5.042
 70
192
 0
VERTEX
 8
FULGOR
 10
2.2693
 20
-61.1105
 30
5.2288
 70
192
 0
VERTEX
 8
FULGOR
 10
2.2619
 20
-61.1105
 30
5.245
 70
192
 0
VERTEX
 8
FULGOR
 10
2.2658
 20
-61.1105
 30
5.0728
 70
192
 0
VERTEX
 8
FULGOR
 10
2.2725
 20
-61.1105
 30
5.0895
 70
192
 0
VERTEX
 8
FULGOR
 10
2.2309
 20
-61.1105
 30
5.2884
 70
192
 0
VERTEX
 8
FULGOR
 10
2.2775
 20
-61.1105
 30
5.107
 70
192
 0
VERTEX
 8
FULGOR
 10
2.2795
 20
-61.1105
 30
5.1937
 70
192
 0
VERTEX
 8
FULGOR
 10
2.163
 20
-61.1105
 30
5.3392
 70
192
 0
VERTEX
 8
FULGOR
 10
2.1257
 20
-61.1105
 30
5.3564
 70
192
 0
VERTEX
 8
FULGOR
 10
2.2752
 20
-61.1105
 30
5.2117
 70
192
 0
VERTEX
 8
FULGOR
 10
2.253
 20
-61.1105
 30
5.2604
 70
192
 0
VERTEX
 8
FULGOR
 10
2.2426
 20
-61.1105
 30
5.2748
 70
192
 0
VERTEX
 8
FULGOR
 10
2.211
 20
-61.1105
 30
5.3072
 70
192
 0
VERTEX
 8
FULGOR
 10
1.7922
 20
-61.1105
 30
5.3923
 70
192
 0
VERTEX
 8
FULGOR
 10
1.7211
 20
-61.1105
 30
5.3815
 70
192
 0
VERTEX
 8
FULGOR
 10
1.6664
 20
-61.1105
 30
5.3673
 70
192
 0
VERTEX
 8
FULGOR
 10
2.1882
 20
-61.1105
 30
5.3241
 70
192
 0
VERTEX
 8
FULGOR
 10
2.0848
 20
-61.1105
 30
5.3705
 70
192
 0
VERTEX
 8
FULGOR
 10
2.0291
 20
-61.1105
 30
5.3837
 70
192
 0
VERTEX
 8
FULGOR
 10
1.9571
 20
-61.1105
 30
5.3934
 70
192
 0
VERTEX
 8
FULGOR
 10
1.8808
 20
-61.1105
 30
5.3966
 70
192
 0
VERTEX
 8
FULGOR
 10
1.6263
 20
-61.1105
 30
5.3525
 70
192
 0
VERTEX
 8
FULGOR
 10
1.5901
 20
-61.1105
 30
5.3345
 70
192
 0
VERTEX
 8
FULGOR
 10
1.5657
 20
-61.1105
 30
5.3188
 70
192
 0
VERTEX
 8
FULGOR
 10
1.5438
 20
-61.1105
 30
5.3013
 70
192
 0
VERTEX
 8
FULGOR
 10
1.5248
 20
-61.1105
 30
5.2819
 70
192
 0
VERTEX
 8
FULGOR
 10
1.5138
 20
-61.1105
 30
5.2678
 70
192
 0
VERTEX
 8
FULGOR
 10
1.5042
 20
-61.1105
 30
5.2529
 70
192
 0
VERTEX
 8
FULGOR
 10
1.496
 20
-61.1105
 30
5.2371
 70
192
 0
VERTEX
 8
FULGOR
 10
1.4894
 20
-61.1105
 30
5.2205
 70
192
 0
VERTEX
 8
FULGOR
 10
1.4843
 20
-61.1105
 30
5.2029
 70
192
 0
VERTEX
 8
FULGOR
 10
3.2763
 20
-61.1105
 30
5.0915
 70
192
 0
VERTEX
 8
FULGOR
 10
1.4808
 20
-61.1105
 30
5.1844
 70
192
 0
VERTEX
 8
FULGOR
 10
1.4798
 20
-61.1105
 30
5.1748
 70
192
 0
VERTEX
 8
FULGOR
 10
2.868
 20
-61.1105
 30
4.7427
 70
192
 0
VERTEX
 8
FULGOR
 10
3.1218
 20
-61.1105
 30
4.7427
 70
192
 0
VERTEX
 8
FULGOR
 10
3.1218
 20
-61.1105
 30
5.0915
 70
192
 0
VERTEX
 8
FULGOR
 10
3.3142
 20
-61.1105
 30
5.0881
 70
192
 0
VERTEX
 8
FULGOR
 10
3.4553
 20
-61.1105
 30
5.0088
 70
192
 0
VERTEX
 8
FULGOR
 10
3.475
 20
-61.1105
 30
4.9877
 70
192
 0
VERTEX
 8
FULGOR
 10
3.3378
 20
-61.1105
 30
5.0824
 70
192
 0
VERTEX
 8
FULGOR
 10
3.6532
 20
-61.1105
 30
4.7427
 70
192
 0
VERTEX
 8
FULGOR
 10
4.1059
 20
-61.1105
 30
4.7427
 70
192
 0
VERTEX
 8
FULGOR
 10
4.0451
 20
-61.1105
 30
4.7746
 70
192
 0
VERTEX
 8
FULGOR
 10
3.3601
 20
-61.1105
 30
5.0744
 70
192
 0
VERTEX
 8
FULGOR
 10
3.3809
 20
-61.1105
 30
5.0646
 70
192
 0
VERTEX
 8
FULGOR
 10
3.9569
 20
-61.1105
 30
4.8357
 70
192
 0
VERTEX
 8
FULGOR
 10
3.8908
 20
-61.1105
 30
4.8976
 70
192
 0
VERTEX
 8
FULGOR
 10
2.868
 20
-61.1105
 30
5.2379
 70
192
 0
VERTEX
 8
FULGOR
 10
3.8068
 20
-61.1105
 30
5.0113
 70
192
 0
VERTEX
 8
FULGOR
 10
3.7659
 20
-61.1105
 30
5.0576
 70
192
 0
VERTEX
 8
FULGOR
 10
3.7272
 20
-61.1105
 30
5.0908
 70
192
 0
VERTEX
 8
FULGOR
 10
3.4303
 20
-61.1105
 30
5.0314
 70
192
 0
VERTEX
 8
FULGOR
 10
2.0752
 20
-61.1105
 30
4.7609
 70
192
 0
VERTEX
 8
FULGOR
 10
3.6342
 20
-61.1105
 30
5.1411
 70
192
 0
VERTEX
 8
FULGOR
 10
3.994
 20
-61.1105
 30
4.8067
 70
192
 0
VERTEX
 8
FULGOR
 10
3.7571
 20
-61.1105
 30
5.1929
 70
192
 0
VERTEX
 8
FULGOR
 10
3.6899
 20
-61.1105
 30
5.1153
 70
192
 0
VERTEX
 8
FULGOR
 10
3.8004
 20
-61.1105
 30
5.2286
 70
192
 0
VERTEX
 8
FULGOR
 10
3.6612
 20
-61.1105
 30
5.1306
 70
192
 0
VERTEX
 8
FULGOR
 10
3.8412
 20
-61.1105
 30
5.2919
 70
192
 0
VERTEX
 8
FULGOR
 10
3.8502
 20
-61.1105
 30
5.3271
 70
192
 0
VERTEX
 8
FULGOR
 10
3.6932
 20
-61.1105
 30
5.1598
 70
192
 0
VERTEX
 8
FULGOR
 10
3.8464
 20
-61.1105
 30
5.3951
 70
192
 0
VERTEX
 8
FULGOR
 10
3.8313
 20
-61.1105
 30
5.4289
 70
192
 0
VERTEX
 8
FULGOR
 10
3.8081
 20
-61.1105
 30
5.4582
 70
192
 0
VERTEX
 8
FULGOR
 10
3.7697
 20
-61.1105
 30
5.489
 70
192
 0
VERTEX
 8
FULGOR
 10
3.826
 20
-61.1105
 30
5.2612
 70
192
 0
VERTEX
 8
FULGOR
 10
3.5837
 20
-61.1105
 30
5.5541
 70
192
 0
VERTEX
 8
FULGOR
 10
3.5093
 20
-61.1105
 30
5.564
 70
192
 0
VERTEX
 8
FULGOR
 10
3.8521
 20
-61.1105
 30
5.3565
 70
192
 0
VERTEX
 8
FULGOR
 10
3.1218
 20
-61.1105
 30
5.4209
 70
192
 0
VERTEX
 8
FULGOR
 10
3.7031
 20
-61.1105
 30
5.5221
 70
192
 0
VERTEX
 8
FULGOR
 10
3.4365
 20
-61.1105
 30
5.5677
 70
192
 0
VERTEX
 8
FULGOR
 10
2.868
 20
-61.1105
 30
5.5677
 70
192
 0
VERTEX
 8
FULGOR
 10
3.1218
 20
-61.1105
 30
5.2384
 70
192
 0
VERTEX
 8
FULGOR
 10
3.3532
 20
-61.1105
 30
5.238
 70
192
 0
VERTEX
 8
FULGOR
 10
3.419
 20
-61.1105
 30
5.2434
 70
192
 0
VERTEX
 8
FULGOR
 10
3.4935
 20
-61.1105
 30
5.2703
 70
192
 0
VERTEX
 8
FULGOR
 10
3.5098
 20
-61.1105
 30
5.2837
 70
192
 0
VERTEX
 8
FULGOR
 10
3.5199
 20
-61.1105
 30
5.2964
 70
192
 0
VERTEX
 8
FULGOR
 10
3.529
 20
-61.1105
 30
5.3414
 70
192
 0
VERTEX
 8
FULGOR
 10
3.5247
 20
-61.1105
 30
5.3575
 70
192
 0
VERTEX
 8
FULGOR
 10
3.4055
 20
-61.1105
 30
5.418
 70
192
 0
VERTEX
 8
FULGOR
 10
3.4881
 20
-61.1105
 30
5.3951
 70
192
 0
VERTEX
 8
FULGOR
 10
3.3766
 20
-61.1105
 30
5.4204
 70
192
 0
VERTEX
 8
FULGOR
 10
3.4584
 20
-61.1105
 30
5.4074
 70
192
 0
VERTEX
 8
FULGOR
 10
3.4349
 20
-61.1105
 30
5.4134
 70
192
 0
VERTEX
 8
FULGOR
 10
1.6005
 20
-61.1105
 30
4.7758
 70
192
 0
VERTEX
 8
FULGOR
 10
1.5004
 20
-61.1105
 30
4.8013
 70
192
 0
VERTEX
 8
FULGOR
 10
3.3454
 20
-61.1105
 30
5.4209
 70
192
 0
VERTEX
 8
FULGOR
 10
3.3403
 20
-61.1105
 30
5.5677
 70
192
 0
VERTEX
 8
FULGOR
 10
3.5161
 20
-61.1105
 30
5.3714
 70
192
 0
VERTEX
 8
FULGOR
 10
3.505
 20
-61.1105
 30
5.383
 70
192
 0
VERTEX
 8
FULGOR
 10
3.5294
 20
-61.1105
 30
5.3258
 70
192
 0
VERTEX
 8
FULGOR
 10
3.5265
 20
-61.1105
 30
5.3109
 70
192
 0
VERTEX
 8
FULGOR
 10
3.2999
 20
-61.1105
 30
5.2381
 70
192
 0
VERTEX
 8
FULGOR
 10
3.3259
 20
-61.1105
 30
5.238
 70
192
 0
VERTEX
 8
FULGOR
 10
3.276
 20
-61.1105
 30
5.2381
 70
192
 0
VERTEX
 8
FULGOR
 10
3.6439
 20
-61.1105
 30
4.7555
 70
192
 0
VERTEX
 8
FULGOR
 10
3.6309
 20
-61.1105
 30
4.7736
 70
192
 0
VERTEX
 8
FULGOR
 10
0.2341
 20
-61.1105
 30
4.9215
 70
192
 0
VERTEX
 8
FULGOR
 10
3.6076
 20
-61.1105
 30
4.8059
 70
192
 0
VERTEX
 8
FULGOR
 10
3.5859
 20
-61.1105
 30
4.8359
 70
192
 0
VERTEX
 8
FULGOR
 10
0.2885
 20
-61.1105
 30
4.9146
 70
192
 0
VERTEX
 8
FULGOR
 10
2.868
 20
-61.1105
 30
5.0912
 70
192
 0
VERTEX
 8
FULGOR
 10
3.5277
 20
-61.1105
 30
4.9167
 70
192
 0
VERTEX
 8
FULGOR
 10
3.506
 20
-61.1105
 30
4.9469
 70
192
 0
VERTEX
 8
FULGOR
 10
0
 20
0
 30
0
 70
128
 71
151
 72
150
 73
94
 74
93
 0
VERTEX
 8
FULGOR
 10
0
 20
0
 30
0
 70
128
 71
135
 72
134
 73
128
 74
127
 0
VERTEX
 8
FULGOR
 10
0
 20
0
 30
0
 70
128
 71
79
 72
87
 73
86
 74
85
 0
VERTEX
 8
FULGOR
 10
0
 20
0
 30
0
 70
128
 71
339
 72
340
 73
327
 74
318
 0
VERTEX
 8
FULGOR
 10
0
 20
0
 30
0
 70
128
 71
338
 72
339
 73
318
 74
316
 0
VERTEX
 8
FULGOR
 10
0
 20
0
 30
0
 70
128
 71
52
 72
51
 73
28
 74
34
 0
VERTEX
 8
FULGOR
 10
0
 20
0
 30
0
 70
128
 71
336
 72
337
 73
322
 74
314
 0
VERTEX
 8
FULGOR
 10
0
 20
0
 30
0
 70
128
 71
149
 72
162
 73
104
 74
102
 0
VERTEX
 8
FULGOR
 10
0
 20
0
 30
0
 70
128
 71
137
 72
135
 73
127
 74
120
 0
VERTEX
 8
FULGOR
 10
0
 20
0
 30
0
 70
128
 71
162
 72
160
 73
105
 74
104
 0
VERTEX
 8
FULGOR
 10
0
 20
0
 30
0
 70
128
 71
346
 72
347
 73
328
 74
332
 0
VERTEX
 8
FULGOR
 10
0
 20
0
 30
0
 70
128
 71
273
 72
274
 73
226
 74
210
 0
VERTEX
 8
FULGOR
 10
0
 20
0
 30
0
 70
128
 71
274
 72
275
 73
227
 74
226
 0
VERTEX
 8
FULGOR
 10
0
 20
0
 30
0
 70
128
 71
275
 72
281
 73
228
 74
227
 0
VERTEX
 8
FULGOR
 10
0
 20
0
 30
0
 70
128
 71
281
 72
282
 73
229
 74
228
 0
VERTEX
 8
FULGOR
 10
0
 20
0
 30
0
 70
128
 71
282
 72
283
 73
215
 74
229
 0
VERTEX
 8
FULGOR
 10
0
 20
0
 30
0
 70
128
 71
283
 72
284
 73
216
 74
215
 0
VERTEX
 8
FULGOR
 10
0
 20
0
 30
0
 70
128
 71
150
 72
149
 73
102
 74
94
 0
VERTEX
 8
FULGOR
 10
0
 20
0
 30
0
 70
128
 71
129
 72
1
 73
118
 74
117
 0
VERTEX
 8
FULGOR
 10
0
 20
0
 30
0
 70
128
 71
243
 72
244
 73
3
 74
181
 0
VERTEX
 8
FULGOR
 10
0
 20
0
 30
0
 70
128
 71
33
 72
47
 73
46
 74
42
 0
VERTEX
 8
FULGOR
 10
0
 20
0
 30
0
 70
128
 71
163
 72
175
 73
88
 74
81
 0
VERTEX
 8
FULGOR
 10
0
 20
0
 30
0
 70
128
 71
167
 72
154
 73
101
 74
100
 0
VERTEX
 8
FULGOR
 10
0
 20
0
 30
0
 70
128
 71
285
 72
286
 73
218
 74
217
 0
VERTEX
 8
FULGOR
 10
0
 20
0
 30
0
 70
128
 71
160
 72
158
 73
98
 74
105
 0
VERTEX
 8
FULGOR
 10
0
 20
0
 30
0
 70
128
 71
154
 72
153
 73
91
 74
101
 0
VERTEX
 8
FULGOR
 10
0
 20
0
 30
0
 70
128
 71
51
 72
50
 73
35
 74
28
 0
VERTEX
 8
FULGOR
 10
0
 20
0
 30
0
 70
128
 71
249
 72
237
 73
348
 74
184
 0
VERTEX
 8
FULGOR
 10
0
 20
0
 30
0
 70
128
 71
248
 72
249
 73
184
 74
349
 0
VERTEX
 8
FULGOR
 10
0
 20
0
 30
0
 70
128
 71
246
 72
248
 73
349
 74
183
 0
VERTEX
 8
FULGOR
 10
0
 20
0
 30
0
 70
128
 71
286
 72
287
 73
219
 74
218
 0
VERTEX
 8
FULGOR
 10
0
 20
0
 30
0
 70
128
 71
366
 72
309
 73
307
 74
363
 0
VERTEX
 8
FULGOR
 10
0
 20
0
 30
0
 70
128
 71
45
 72
55
 73
54
 74
54
 0
VERTEX
 8
FULGOR
 10
0
 20
0
 30
0
 70
128
 71
159
 72
173
 73
95
 74
90
 0
VERTEX
 8
FULGOR
 10
0
 20
0
 30
0
 70
128
 71
299
 72
311
 73
310
 74
367
 0
VERTEX
 8
FULGOR
 10
0
 20
0
 30
0
 70
128
 71
299
 72
298
 73
317
 74
311
 0
VERTEX
 8
FULGOR
 10
0
 20
0
 30
0
 70
128
 71
310
 72
309
 73
366
 74
367
 0
VERTEX
 8
FULGOR
 10
0
 20
0
 30
0
 70
128
 71
50
 72
49
 73
36
 74
35
 0
VERTEX
 8
FULGOR
 10
0
 20
0
 30
0
 70
128
 71
36
 72
49
 73
48
 74
37
 0
VERTEX
 8
FULGOR
 10
0
 20
0
 30
0
 70
128
 71
307
 72
306
 73
362
 74
363
 0
VERTEX
 8
FULGOR
 10
0
 20
0
 30
0
 70
128
 71
279
 72
280
 73
222
 74
214
 0
VERTEX
 8
FULGOR
 10
0
 20
0
 30
0
 70
128
 71
278
 72
279
 73
214
 74
213
 0
VERTEX
 8
FULGOR
 10
0
 20
0
 30
0
 70
128
 71
280
 72
273
 73
210
 74
222
 0
VERTEX
 8
FULGOR
 10
0
 20
0
 30
0
 70
128
 71
337
 72
338
 73
316
 74
322
 0
VERTEX
 8
FULGOR
 10
0
 20
0
 30
0
 70
128
 71
359
 72
360
 73
315
 74
303
 0
VERTEX
 8
FULGOR
 10
0
 20
0
 30
0
 70
128
 71
44
 72
43
 73
38
 74
56
 0
VERTEX
 8
FULGOR
 10
0
 20
0
 30
0
 70
128
 71
287
 72
288
 73
220
 74
219
 0
VERTEX
 8
FULGOR
 10
0
 20
0
 30
0
 70
128
 71
145
 72
144
 73
106
 74
99
 0
VERTEX
 8
FULGOR
 10
0
 20
0
 30
0
 70
128
 71
152
 72
148
 73
115
 74
112
 0
VERTEX
 8
FULGOR
 10
0
 20
0
 30
0
 70
128
 71
288
 72
289
 73
221
 74
220
 0
VERTEX
 8
FULGOR
 10
0
 20
0
 30
0
 70
128
 71
155
 72
152
 73
112
 74
109
 0
VERTEX
 8
FULGOR
 10
0
 20
0
 30
0
 70
128
 71
141
 72
155
 73
109
 74
103
 0
VERTEX
 8
FULGOR
 10
0
 20
0
 30
0
 70
128
 71
303
 72
302
 73
301
 74
359
 0
VERTEX
 8
FULGOR
 10
0
 20
0
 30
0
 70
128
 71
354
 72
341
 73
330
 74
321
 0
VERTEX
 8
FULGOR
 10
0
 20
0
 30
0
 70
128
 71
156
 72
167
 73
100
 74
97
 0
VERTEX
 8
FULGOR
 10
0
 20
0
 30
0
 70
128
 71
1
 72
138
 73
119
 74
118
 0
VERTEX
 8
FULGOR
 10
0
 20
0
 30
0
 70
128
 71
138
 72
137
 73
120
 74
119
 0
VERTEX
 8
FULGOR
 10
0
 20
0
 30
0
 70
128
 71
289
 72
290
 73
230
 74
221
 0
VERTEX
 8
FULGOR
 10
0
 20
0
 30
0
 70
128
 71
345
 72
350
 73
351
 74
333
 0
VERTEX
 8
FULGOR
 10
0
 20
0
 30
0
 70
128
 71
134
 72
124
 73
131
 74
128
 0
VERTEX
 8
FULGOR
 10
0
 20
0
 30
0
 70
128
 71
290
 72
292
 73
223
 74
230
 0
VERTEX
 8
FULGOR
 10
0
 20
0
 30
0
 70
128
 71
139
 72
361
 73
114
 74
113
 0
VERTEX
 8
FULGOR
 10
0
 20
0
 30
0
 70
128
 71
361
 72
130
 73
125
 74
114
 0
VERTEX
 8
FULGOR
 10
0
 20
0
 30
0
 70
128
 71
244
 72
245
 73
188
 74
3
 0
VERTEX
 8
FULGOR
 10
0
 20
0
 30
0
 70
128
 71
237
 72
238
 73
185
 74
348
 0
VERTEX
 8
FULGOR
 10
0
 20
0
 30
0
 70
128
 71
130
 72
364
 73
126
 74
125
 0
VERTEX
 8
FULGOR
 10
0
 20
0
 30
0
 70
128
 71
364
 72
129
 73
117
 74
126
 0
VERTEX
 8
FULGOR
 10
0
 20
0
 30
0
 70
128
 71
344
 72
346
 73
332
 74
326
 0
VERTEX
 8
FULGOR
 10
0
 20
0
 30
0
 70
128
 71
157
 72
156
 73
97
 74
96
 0
VERTEX
 8
FULGOR
 10
0
 20
0
 30
0
 70
128
 71
305
 72
314
 73
319
 74
312
 0
VERTEX
 8
FULGOR
 10
0
 20
0
 30
0
 70
128
 71
291
 72
296
 73
335
 74
358
 0
VERTEX
 8
FULGOR
 10
0
 20
0
 30
0
 70
128
 71
342
 72
352
 73
324
 74
323
 0
VERTEX
 8
FULGOR
 10
0
 20
0
 30
0
 70
128
 71
173
 72
157
 73
96
 74
95
 0
VERTEX
 8
FULGOR
 10
0
 20
0
 30
0
 70
128
 71
147
 72
136
 73
121
 74
116
 0
VERTEX
 8
FULGOR
 10
0
 20
0
 30
0
 70
128
 71
305
 72
304
 73
336
 74
314
 0
VERTEX
 8
FULGOR
 10
0
 20
0
 30
0
 70
128
 71
347
 72
343
 73
329
 74
328
 0
VERTEX
 8
FULGOR
 10
0
 20
0
 30
0
 70
128
 71
298
 72
312
 73
319
 74
317
 0
VERTEX
 8
FULGOR
 10
0
 20
0
 30
0
 70
128
 71
241
 72
252
 73
313
 74
186
 0
VERTEX
 8
FULGOR
 10
0
 20
0
 30
0
 70
128
 71
142
 72
141
 73
103
 74
108
 0
VERTEX
 8
FULGOR
 10
0
 20
0
 30
0
 70
128
 71
143
 72
142
 73
108
 74
107
 0
VERTEX
 8
FULGOR
 10
0
 20
0
 30
0
 70
128
 71
144
 72
143
 73
107
 74
106
 0
VERTEX
 8
FULGOR
 10
0
 20
0
 30
0
 70
128
 71
291
 72
358
 73
336
 74
304
 0
VERTEX
 8
FULGOR
 10
0
 20
0
 30
0
 70
128
 71
252
 72
243
 73
181
 74
313
 0
VERTEX
 8
FULGOR
 10
0
 20
0
 30
0
 70
128
 71
355
 72
354
 73
321
 74
320
 0
VERTEX
 8
FULGOR
 10
0
 20
0
 30
0
 70
128
 71
175
 72
161
 73
89
 74
88
 0
VERTEX
 8
FULGOR
 10
0
 20
0
 30
0
 70
128
 71
55
 72
45
 73
44
 74
56
 0
VERTEX
 8
FULGOR
 10
0
 20
0
 30
0
 70
128
 71
153
 72
166
 73
92
 74
91
 0
VERTEX
 8
FULGOR
 10
0
 20
0
 30
0
 70
128
 71
166
 72
151
 73
93
 74
92
 0
VERTEX
 8
FULGOR
 10
0
 20
0
 30
0
 70
128
 71
5
 72
8
 73
7
 74
6
 0
VERTEX
 8
FULGOR
 10
0
 20
0
 30
0
 70
128
 71
8
 72
5
 73
4
 74
4
 0
VERTEX
 8
FULGOR
 10
0
 20
0
 30
0
 70
128
 71
8
 72
4
 73
13
 74
2
 0
VERTEX
 8
FULGOR
 10
0
 20
0
 30
0
 70
128
 71
13
 72
12
 73
2
 74
2
 0
VERTEX
 8
FULGOR
 10
0
 20
0
 30
0
 70
128
 71
13
 72
4
 73
15
 74
14
 0
VERTEX
 8
FULGOR
 10
0
 20
0
 30
0
 70
128
 71
213
 72
212
 73
277
 74
278
 0
VERTEX
 8
FULGOR
 10
0
 20
0
 30
0
 70
128
 71
212
 72
205
 73
268
 74
277
 0
VERTEX
 8
FULGOR
 10
0
 20
0
 30
0
 70
128
 71
267
 72
268
 73
205
 74
204
 0
VERTEX
 8
FULGOR
 10
0
 20
0
 30
0
 70
128
 71
270
 72
271
 73
200
 74
211
 0
VERTEX
 8
FULGOR
 10
0
 20
0
 30
0
 70
128
 71
261
 72
270
 73
211
 74
209
 0
VERTEX
 8
FULGOR
 10
0
 20
0
 30
0
 70
128
 71
260
 72
261
 73
209
 74
208
 0
VERTEX
 8
FULGOR
 10
0
 20
0
 30
0
 70
128
 71
269
 72
260
 73
208
 74
196
 0
VERTEX
 8
FULGOR
 10
0
 20
0
 30
0
 70
128
 71
276
 72
267
 73
204
 74
203
 0
VERTEX
 8
FULGOR
 10
0
 20
0
 30
0
 70
128
 71
272
 72
276
 73
203
 74
202
 0
VERTEX
 8
FULGOR
 10
0
 20
0
 30
0
 70
128
 71
264
 72
272
 73
202
 74
201
 0
VERTEX
 8
FULGOR
 10
0
 20
0
 30
0
 70
128
 71
271
 72
264
 73
201
 74
200
 0
VERTEX
 8
FULGOR
 10
0
 20
0
 30
0
 70
128
 71
266
 72
269
 73
196
 74
195
 0
VERTEX
 8
FULGOR
 10
0
 20
0
 30
0
 70
128
 71
257
 72
266
 73
195
 74
194
 0
VERTEX
 8
FULGOR
 10
0
 20
0
 30
0
 70
128
 71
256
 72
257
 73
194
 74
193
 0
VERTEX
 8
FULGOR
 10
0
 20
0
 30
0
 70
128
 71
255
 72
256
 73
193
 74
207
 0
VERTEX
 8
FULGOR
 10
0
 20
0
 30
0
 70
128
 71
254
 72
255
 73
207
 74
206
 0
VERTEX
 8
FULGOR
 10
0
 20
0
 30
0
 70
128
 71
265
 72
254
 73
206
 74
199
 0
VERTEX
 8
FULGOR
 10
0
 20
0
 30
0
 70
128
 71
293
 72
224
 73
165
 74
164
 0
VERTEX
 8
FULGOR
 10
0
 20
0
 30
0
 70
128
 71
224
 72
225
 73
176
 74
165
 0
VERTEX
 8
FULGOR
 10
0
 20
0
 30
0
 70
128
 71
225
 72
233
 73
177
 74
176
 0
VERTEX
 8
FULGOR
 10
0
 20
0
 30
0
 70
128
 71
233
 72
234
 73
168
 74
177
 0
VERTEX
 8
FULGOR
 10
0
 20
0
 30
0
 70
128
 71
234
 72
235
 73
169
 74
168
 0
VERTEX
 8
FULGOR
 10
0
 20
0
 30
0
 70
128
 71
235
 72
236
 73
170
 74
169
 0
VERTEX
 8
FULGOR
 10
0
 20
0
 30
0
 70
128
 71
236
 72
239
 73
171
 74
170
 0
VERTEX
 8
FULGOR
 10
0
 20
0
 30
0
 70
128
 71
239
 72
231
 73
172
 74
171
 0
VERTEX
 8
FULGOR
 10
0
 20
0
 30
0
 70
128
 71
231
 72
232
 73
180
 74
172
 0
VERTEX
 8
FULGOR
 10
0
 20
0
 30
0
 70
128
 71
232
 72
242
 73
182
 74
180
 0
VERTEX
 8
FULGOR
 10
0
 20
0
 30
0
 70
128
 71
242
 72
246
 73
183
 74
182
 0
VERTEX
 8
FULGOR
 10
0
 20
0
 30
0
 70
128
 71
240
 72
241
 73
186
 74
179
 0
VERTEX
 8
FULGOR
 10
0
 20
0
 30
0
 70
128
 71
251
 72
240
 73
179
 74
178
 0
VERTEX
 8
FULGOR
 10
0
 20
0
 30
0
 70
128
 71
238
 72
251
 73
178
 74
185
 0
VERTEX
 8
FULGOR
 10
0
 20
0
 30
0
 70
128
 71
16
 72
74
 73
73
 74
9
 0
VERTEX
 8
FULGOR
 10
0
 20
0
 30
0
 70
128
 71
263
 72
265
 73
199
 74
198
 0
VERTEX
 8
FULGOR
 10
0
 20
0
 30
0
 70
128
 71
262
 72
263
 73
198
 74
197
 0
VERTEX
 8
FULGOR
 10
0
 20
0
 30
0
 70
128
 71
250
 72
262
 73
197
 74
187
 0
VERTEX
 8
FULGOR
 10
0
 20
0
 30
0
 70
128
 71
259
 72
250
 73
187
 74
192
 0
VERTEX
 8
FULGOR
 10
0
 20
0
 30
0
 70
128
 71
258
 72
259
 73
192
 74
191
 0
VERTEX
 8
FULGOR
 10
0
 20
0
 30
0
 70
128
 71
247
 72
258
 73
191
 74
190
 0
VERTEX
 8
FULGOR
 10
0
 20
0
 30
0
 70
128
 71
253
 72
247
 73
190
 74
189
 0
VERTEX
 8
FULGOR
 10
0
 20
0
 30
0
 70
128
 71
245
 72
253
 73
189
 74
188
 0
VERTEX
 8
FULGOR
 10
0
 20
0
 30
0
 70
128
 71
73
 72
72
 73
10
 74
9
 0
VERTEX
 8
FULGOR
 10
0
 20
0
 30
0
 70
128
 71
72
 72
82
 73
11
 74
10
 0
VERTEX
 8
FULGOR
 10
0
 20
0
 30
0
 70
128
 71
82
 72
70
 73
18
 74
17
 0
VERTEX
 8
FULGOR
 10
0
 20
0
 30
0
 70
128
 71
58
 72
57
 73
40
 74
39
 0
VERTEX
 8
FULGOR
 10
0
 20
0
 30
0
 70
128
 71
82
 72
17
 73
11
 74
11
 0
VERTEX
 8
FULGOR
 10
0
 20
0
 30
0
 70
128
 71
43
 72
58
 73
39
 74
38
 0
VERTEX
 8
FULGOR
 10
0
 20
0
 30
0
 70
128
 71
343
 72
345
 73
333
 74
329
 0
VERTEX
 8
FULGOR
 10
0
 20
0
 30
0
 70
128
 71
362
 72
306
 73
315
 74
360
 0
VERTEX
 8
FULGOR
 10
0
 20
0
 30
0
 70
128
 71
148
 72
147
 73
116
 74
115
 0
VERTEX
 8
FULGOR
 10
0
 20
0
 30
0
 70
128
 71
296
 72
295
 73
294
 74
365
 0
VERTEX
 8
FULGOR
 10
0
 20
0
 30
0
 70
128
 71
158
 72
145
 73
99
 74
98
 0
VERTEX
 8
FULGOR
 10
0
 20
0
 30
0
 70
128
 71
70
 72
69
 73
20
 74
19
 0
VERTEX
 8
FULGOR
 10
0
 20
0
 30
0
 70
128
 71
70
 72
19
 73
18
 74
18
 0
VERTEX
 8
FULGOR
 10
0
 20
0
 30
0
 70
128
 71
69
 72
68
 73
27
 74
20
 0
VERTEX
 8
FULGOR
 10
0
 20
0
 30
0
 70
128
 71
68
 72
67
 73
29
 74
27
 0
VERTEX
 8
FULGOR
 10
0
 20
0
 30
0
 70
128
 71
67
 72
66
 73
30
 74
29
 0
VERTEX
 8
FULGOR
 10
0
 20
0
 30
0
 70
128
 71
66
 72
78
 73
31
 74
30
 0
VERTEX
 8
FULGOR
 10
0
 20
0
 30
0
 70
128
 71
78
 72
77
 73
32
 74
31
 0
VERTEX
 8
FULGOR
 10
0
 20
0
 30
0
 70
128
 71
32
 72
77
 73
76
 74
21
 0
VERTEX
 8
FULGOR
 10
0
 20
0
 30
0
 70
128
 71
76
 72
62
 73
21
 74
21
 0
VERTEX
 8
FULGOR
 10
0
 20
0
 30
0
 70
128
 71
62
 72
61
 73
22
 74
21
 0
VERTEX
 8
FULGOR
 10
0
 20
0
 30
0
 70
128
 71
350
 72
331
 73
334
 74
351
 0
VERTEX
 8
FULGOR
 10
0
 20
0
 30
0
 70
128
 71
136
 72
146
 73
122
 74
121
 0
VERTEX
 8
FULGOR
 10
0
 20
0
 30
0
 70
128
 71
47
 72
33
 73
41
 74
41
 0
VERTEX
 8
FULGOR
 10
0
 20
0
 30
0
 70
128
 71
331
 72
335
 73
308
 74
334
 0
VERTEX
 8
FULGOR
 10
0
 20
0
 30
0
 70
128
 71
61
 72
75
 73
22
 74
22
 0
VERTEX
 8
FULGOR
 10
0
 20
0
 30
0
 70
128
 71
146
 72
140
 73
110
 74
122
 0
VERTEX
 8
FULGOR
 10
0
 20
0
 30
0
 70
128
 71
140
 72
133
 73
111
 74
110
 0
VERTEX
 8
FULGOR
 10
0
 20
0
 30
0
 70
128
 71
133
 72
132
 73
123
 74
111
 0
VERTEX
 8
FULGOR
 10
0
 20
0
 30
0
 70
128
 71
132
 72
139
 73
113
 74
123
 0
VERTEX
 8
FULGOR
 10
0
 20
0
 30
0
 70
128
 71
75
 72
59
 73
23
 74
22
 0
VERTEX
 8
FULGOR
 10
0
 20
0
 30
0
 70
128
 71
23
 72
59
 73
71
 74
24
 0
VERTEX
 8
FULGOR
 10
0
 20
0
 30
0
 70
128
 71
292
 72
293
 73
164
 74
223
 0
VERTEX
 8
FULGOR
 10
0
 20
0
 30
0
 70
128
 71
24
 72
71
 73
65
 74
25
 0
VERTEX
 8
FULGOR
 10
0
 20
0
 30
0
 70
128
 71
65
 72
64
 73
25
 74
25
 0
VERTEX
 8
FULGOR
 10
0
 20
0
 30
0
 70
128
 71
64
 72
63
 73
26
 74
25
 0
VERTEX
 8
FULGOR
 10
0
 20
0
 30
0
 70
128
 71
63
 72
60
 73
26
 74
26
 0
VERTEX
 8
FULGOR
 10
0
 20
0
 30
0
 70
128
 71
60
 72
53
 73
34
 74
26
 0
VERTEX
 8
FULGOR
 10
0
 20
0
 30
0
 70
128
 71
53
 72
52
 73
34
 74
34
 0
VERTEX
 8
FULGOR
 10
0
 20
0
 30
0
 70
128
 71
42
 72
46
 73
45
 74
54
 0
VERTEX
 8
FULGOR
 10
0
 20
0
 30
0
 70
128
 71
83
 72
80
 73
79
 74
85
 0
VERTEX
 8
FULGOR
 10
0
 20
0
 30
0
 70
128
 71
353
 72
344
 73
326
 74
325
 0
VERTEX
 8
FULGOR
 10
0
 20
0
 30
0
 70
128
 71
352
 72
353
 73
325
 74
324
 0
VERTEX
 8
FULGOR
 10
0
 20
0
 30
0
 70
128
 71
284
 72
285
 73
217
 74
216
 0
VERTEX
 8
FULGOR
 10
0
 20
0
 30
0
 70
128
 71
340
 72
355
 73
320
 74
327
 0
VERTEX
 8
FULGOR
 10
0
 20
0
 30
0
 70
128
 71
335
 72
296
 73
365
 74
308
 0
VERTEX
 8
FULGOR
 10
0
 20
0
 30
0
 70
128
 71
37
 72
48
 73
47
 74
41
 0
VERTEX
 8
FULGOR
 10
0
 20
0
 30
0
 70
128
 71
341
 72
342
 73
323
 74
330
 0
VERTEX
 8
FULGOR
 10
0
 20
0
 30
0
 70
128
 71
161
 72
174
 73
84
 74
89
 0
VERTEX
 8
FULGOR
 10
0
 20
0
 30
0
 70
128
 71
174
 72
159
 73
90
 74
84
 0
SEQEND
 0
POLYLINE
 8
MILANO
 66
1
 10
0.0
 20
0.0
 30
0.0
 70
64
 71
93
 72
47
 0
VERTEX
 8
MILANO
 10
0.4086
 20
-61.1107
 30
4.1972
 70
192
 0
VERTEX
 8
MILANO
 10
1.1155
 20
-61.1107
 30
3.9297
 70
192
 0
VERTEX
 8
MILANO
 10
1.123
 20
-61.1107
 30
3.8683
 70
192
 0
VERTEX
 8
MILANO
 10
1.1499
 20
-61.1107
 30
3.8124
 70
192
 0
VERTEX
 8
MILANO
 10
1.1949
 20
-61.1107
 30
3.7687
 70
192
 0
VERTEX
 8
MILANO
 10
1.2508
 20
-61.1107
 30
3.7389
 70
192
 0
VERTEX
 8
MILANO
 10
1.3122
 20
-61.1107
 30
3.7215
 70
192
 0
VERTEX
 8
MILANO
 10
1.3757
 20
-61.1107
 30
3.7149
 70
192
 0
VERTEX
 8
MILANO
 10
0.8487
 20
-61.1107
 30
3.7967
 70
192
 0
VERTEX
 8
MILANO
 10
1.4394
 20
-61.1107
 30
3.7195
 70
192
 0
VERTEX
 8
MILANO
 10
1.501
 20
-61.1107
 30
3.736
 70
192
 0
VERTEX
 8
MILANO
 10
1.5567
 20
-61.1107
 30
3.7661
 70
192
 0
VERTEX
 8
MILANO
 10
0.141
 20
-61.1107
 30
3.8321
 70
192
 0
VERTEX
 8
MILANO
 10
0.2415
 20
-61.1107
 30
3.6577
 70
192
 0
VERTEX
 8
MILANO
 10
0.324
 20
-61.1107
 30
3.6577
 70
192
 0
VERTEX
 8
MILANO
 10
1.6002
 20
-61.1107
 30
3.8112
 70
192
 0
VERTEX
 8
MILANO
 10
1.6284
 20
-61.1107
 30
3.8666
 70
192
 0
VERTEX
 8
MILANO
 10
-0.3144
 20
-61.1107
 30
3.6577
 70
192
 0
VERTEX
 8
MILANO
 10
-0.0935
 20
-61.1107
 30
3.8921
 70
192
 0
VERTEX
 8
MILANO
 10
0.1072
 20
-61.1107
 30
3.8921
 70
192
 0
VERTEX
 8
MILANO
 10
1.6375
 20
-61.1107
 30
3.9277
 70
192
 0
VERTEX
 8
MILANO
 10
1.6293
 20
-61.1107
 30
3.989
 70
192
 0
VERTEX
 8
MILANO
 10
1.6022
 20
-61.1107
 30
4.0449
 70
192
 0
VERTEX
 8
MILANO
 10
-0.5901
 20
-61.1107
 30
4.1972
 70
192
 0
VERTEX
 8
MILANO
 10
-0.5901
 20
-61.1107
 30
3.7165
 70
192
 0
VERTEX
 8
MILANO
 10
1.5584
 20
-61.1107
 30
4.0897
 70
192
 0
VERTEX
 8
MILANO
 10
1.5027
 20
-61.1107
 30
4.1198
 70
192
 0
VERTEX
 8
MILANO
 10
1.4411
 20
-61.1107
 30
4.1362
 70
192
 0
VERTEX
 8
MILANO
 10
-0.8705
 20
-61.1107
 30
4.1972
 70
192
 0
VERTEX
 8
MILANO
 10
-0.8009
 20
-61.1107
 30
4.1972
 70
192
 0
VERTEX
 8
MILANO
 10
-0.8009
 20
-61.1107
 30
3.6577
 70
192
 0
VERTEX
 8
MILANO
 10
-0.8705
 20
-61.1107
 30
3.6577
 70
192
 0
VERTEX
 8
MILANO
 10
-1.7082
 20
-61.1107
 30
3.6577
 70
192
 0
VERTEX
 8
MILANO
 10
-1.6215
 20
-61.1107
 30
4.2005
 70
192
 0
VERTEX
 8
MILANO
 10
-1.0933
 20
-61.1107
 30
4.2005
 70
192
 0
VERTEX
 8
MILANO
 10
-1.0675
 20
-61.1107
 30
4.2005
 70
192
 0
VERTEX
 8
MILANO
 10
-0.976
 20
-61.1107
 30
3.6577
 70
192
 0
VERTEX
 8
MILANO
 10
-1.0516
 20
-61.1107
 30
3.6577
 70
192
 0
VERTEX
 8
MILANO
 10
-1.3579
 20
-61.1107
 30
3.6577
 70
192
 0
VERTEX
 8
MILANO
 10
-1.5787
 20
-61.1107
 30
4.0218
 70
192
 0
VERTEX
 8
MILANO
 10
-0.3424
 20
-61.1107
 30
3.7165
 70
192
 0
VERTEX
 8
MILANO
 10
-0.3424
 20
-61.1107
 30
3.6577
 70
192
 0
VERTEX
 8
MILANO
 10
-0.6587
 20
-61.1107
 30
3.6577
 70
192
 0
VERTEX
 8
MILANO
 10
-1.6046
 20
-61.1107
 30
4.2005
 70
192
 0
VERTEX
 8
MILANO
 10
-1.344
 20
-61.1107
 30
3.7685
 70
192
 0
VERTEX
 8
MILANO
 10
-1.1122
 20
-61.1107
 30
4.0218
 70
192
 0
VERTEX
 8
MILANO
 10
-1.3241
 20
-61.1107
 30
3.6577
 70
192
 0
VERTEX
 8
MILANO
 10
-1.6334
 20
-61.1107
 30
3.6577
 70
192
 0
VERTEX
 8
MILANO
 10
1.3776
 20
-61.1107
 30
4.2063
 70
192
 0
VERTEX
 8
MILANO
 10
1.2942
 20
-61.1107
 30
4.2019
 70
192
 0
VERTEX
 8
MILANO
 10
1.2131
 20
-61.1107
 30
4.1823
 70
192
 0
VERTEX
 8
MILANO
 10
1.1416
 20
-61.1107
 30
4.1411
 70
192
 0
VERTEX
 8
MILANO
 10
1.0842
 20
-61.1107
 30
4.0823
 70
192
 0
VERTEX
 8
MILANO
 10
1.0468
 20
-61.1107
 30
4.0103
 70
192
 0
VERTEX
 8
MILANO
 10
1.0352
 20
-61.1107
 30
3.9303
 70
192
 0
VERTEX
 8
MILANO
 10
1.045
 20
-61.1107
 30
3.85
 70
192
 0
VERTEX
 8
MILANO
 10
1.0801
 20
-61.1107
 30
3.7769
 70
192
 0
VERTEX
 8
MILANO
 10
1.1389
 20
-61.1107
 30
3.7197
 70
192
 0
VERTEX
 8
MILANO
 10
1.2121
 20
-61.1107
 30
3.6807
 70
192
 0
VERTEX
 8
MILANO
 10
1.2924
 20
-61.1107
 30
3.6581
 70
192
 0
VERTEX
 8
MILANO
 10
1.3755
 20
-61.1107
 30
3.6493
 70
192
 0
VERTEX
 8
MILANO
 10
1.4588
 20
-61.1107
 30
3.6554
 70
192
 0
VERTEX
 8
MILANO
 10
1.5393
 20
-61.1107
 30
3.677
 70
192
 0
VERTEX
 8
MILANO
 10
1.6122
 20
-61.1107
 30
3.7164
 70
192
 0
VERTEX
 8
MILANO
 10
1.6691
 20
-61.1107
 30
3.7753
 70
192
 0
VERTEX
 8
MILANO
 10
1.7059
 20
-61.1107
 30
3.8478
 70
192
 0
VERTEX
 8
MILANO
 10
1.7178
 20
-61.1107
 30
3.9277
 70
192
 0
VERTEX
 8
MILANO
 10
1.7071
 20
-61.1107
 30
4.0078
 70
192
 0
VERTEX
 8
MILANO
 10
1.6717
 20
-61.1107
 30
4.0809
 70
192
 0
VERTEX
 8
MILANO
 10
1.6144
 20
-61.1107
 30
4.1395
 70
192
 0
VERTEX
 8
MILANO
 10
0.4086
 20
-61.1107
 30
3.6577
 70
192
 0
VERTEX
 8
MILANO
 10
0.4817
 20
-61.1107
 30
3.6577
 70
192
 0
VERTEX
 8
MILANO
 10
0.4817
 20
-61.1107
 30
4.051
 70
192
 0
VERTEX
 8
MILANO
 10
0.8972
 20
-61.1107
 30
3.6577
 70
192
 0
VERTEX
 8
MILANO
 10
0.9211
 20
-61.1107
 30
3.6577
 70
192
 0
VERTEX
 8
MILANO
 10
0.9211
 20
-61.1107
 30
4.1972
 70
192
 0
VERTEX
 8
MILANO
 10
0.8478
 20
-61.1107
 30
4.1972
 70
192
 0
VERTEX
 8
MILANO
 10
1.5415
 20
-61.1107
 30
4.1789
 70
192
 0
VERTEX
 8
MILANO
 10
0.4358
 20
-61.1107
 30
4.1972
 70
192
 0
VERTEX
 8
MILANO
 10
-0.2227
 20
-61.1107
 30
3.6577
 70
192
 0
VERTEX
 8
MILANO
 10
-0.1295
 20
-61.1107
 30
3.8321
 70
192
 0
VERTEX
 8
MILANO
 10
1.461
 20
-61.1107
 30
4.2004
 70
192
 0
VERTEX
 8
MILANO
 10
1.3774
 20
-61.1107
 30
4.1408
 70
192
 0
VERTEX
 8
MILANO
 10
1.3135
 20
-61.1107
 30
4.1374
 70
192
 0
VERTEX
 8
MILANO
 10
0.0181
 20
-61.1107
 30
4.1972
 70
192
 0
VERTEX
 8
MILANO
 10
-0.0055
 20
-61.1107
 30
4.1972
 70
192
 0
VERTEX
 8
MILANO
 10
1.2516
 20
-61.1107
 30
4.1224
 70
192
 0
VERTEX
 8
MILANO
 10
1.1969
 20
-61.1107
 30
4.0909
 70
192
 0
VERTEX
 8
MILANO
 10
1.153
 20
-61.1107
 30
4.046
 70
192
 0
VERTEX
 8
MILANO
 10
0.014
 20
-61.1107
 30
4.0647
 70
192
 0
VERTEX
 8
MILANO
 10
-0.0025
 20
-61.1107
 30
4.0647
 70
192
 0
VERTEX
 8
MILANO
 10
-0.6647
 20
-61.1107
 30
4.1972
 70
192
 0
VERTEX
 8
MILANO
 10
1.1244
 20
-61.1107
 30
3.9909
 70
192
 0
VERTEX
 8
MILANO
 10
0
 20
0
 30
0
 70
128
 71
71
 72
1
 73
73
 74
72
 0
VERTEX
 8
MILANO
 10
0
 20
0
 30
0
 70
128
 71
1
 72
79
 73
73
 74
73
 0
VERTEX
 8
MILANO
 10
0
 20
0
 30
0
 70
128
 71
73
 72
79
 73
9
 74
74
 0
VERTEX
 8
MILANO
 10
0
 20
0
 30
0
 70
128
 71
76
 72
75
 73
9
 74
77
 0
VERTEX
 8
MILANO
 10
0
 20
0
 30
0
 70
128
 71
9
 72
75
 73
74
 74
74
 0
VERTEX
 8
MILANO
 10
0
 20
0
 30
0
 70
128
 71
18
 72
86
 73
19
 74
81
 0
VERTEX
 8
MILANO
 10
0
 20
0
 30
0
 70
128
 71
80
 72
18
 73
81
 74
81
 0
VERTEX
 8
MILANO
 10
0
 20
0
 30
0
 70
128
 71
86
 72
85
 73
90
 74
91
 0
VERTEX
 8
MILANO
 10
0
 20
0
 30
0
 70
128
 71
15
 72
13
 73
20
 74
20
 0
VERTEX
 8
MILANO
 10
0
 20
0
 30
0
 70
128
 71
86
 72
91
 73
19
 74
19
 0
VERTEX
 8
MILANO
 10
0
 20
0
 30
0
 70
128
 71
85
 72
15
 73
20
 74
90
 0
VERTEX
 8
MILANO
 10
0
 20
0
 30
0
 70
128
 71
13
 72
81
 73
19
 74
20
 0
VERTEX
 8
MILANO
 10
0
 20
0
 30
0
 70
128
 71
15
 72
14
 73
13
 74
13
 0
VERTEX
 8
MILANO
 10
0
 20
0
 30
0
 70
128
 71
92
 72
24
 73
25
 74
43
 0
VERTEX
 8
MILANO
 10
0
 20
0
 30
0
 70
128
 71
25
 72
41
 73
42
 74
43
 0
VERTEX
 8
MILANO
 10
0
 20
0
 30
0
 70
128
 71
29
 72
30
 73
31
 74
32
 0
VERTEX
 8
MILANO
 10
0
 20
0
 30
0
 70
128
 71
33
 72
34
 73
40
 74
48
 0
VERTEX
 8
MILANO
 10
0
 20
0
 30
0
 70
128
 71
34
 72
44
 73
40
 74
40
 0
VERTEX
 8
MILANO
 10
0
 20
0
 30
0
 70
128
 71
40
 72
44
 73
45
 74
39
 0
VERTEX
 8
MILANO
 10
0
 20
0
 30
0
 70
128
 71
45
 72
35
 73
46
 74
47
 0
VERTEX
 8
MILANO
 10
0
 20
0
 30
0
 70
128
 71
46
 72
36
 73
37
 74
38
 0
VERTEX
 8
MILANO
 10
0
 20
0
 30
0
 70
128
 71
45
 72
47
 73
39
 74
39
 0
VERTEX
 8
MILANO
 10
0
 20
0
 30
0
 70
128
 71
35
 72
36
 73
46
 74
46
 0
VERTEX
 8
MILANO
 10
0
 20
0
 30
0
 70
128
 71
5
 72
6
 73
59
 74
58
 0
VERTEX
 8
MILANO
 10
0
 20
0
 30
0
 70
128
 71
50
 72
49
 73
83
 74
84
 0
VERTEX
 8
MILANO
 10
0
 20
0
 30
0
 70
128
 71
51
 72
50
 73
84
 74
87
 0
VERTEX
 8
MILANO
 10
0
 20
0
 30
0
 70
128
 71
26
 72
27
 73
78
 74
70
 0
VERTEX
 8
MILANO
 10
0
 20
0
 30
0
 70
128
 71
28
 72
83
 73
49
 74
82
 0
VERTEX
 8
MILANO
 10
0
 20
0
 30
0
 70
128
 71
23
 72
26
 73
70
 74
69
 0
VERTEX
 8
MILANO
 10
0
 20
0
 30
0
 70
128
 71
12
 72
16
 73
65
 74
64
 0
VERTEX
 8
MILANO
 10
0
 20
0
 30
0
 70
128
 71
11
 72
12
 73
64
 74
63
 0
VERTEX
 8
MILANO
 10
0
 20
0
 30
0
 70
128
 71
17
 72
21
 73
67
 74
66
 0
VERTEX
 8
MILANO
 10
0
 20
0
 30
0
 70
128
 71
16
 72
17
 73
66
 74
65
 0
VERTEX
 8
MILANO
 10
0
 20
0
 30
0
 70
128
 71
22
 72
23
 73
69
 74
68
 0
VERTEX
 8
MILANO
 10
0
 20
0
 30
0
 70
128
 71
21
 72
22
 73
68
 74
67
 0
VERTEX
 8
MILANO
 10
0
 20
0
 30
0
 70
128
 71
10
 72
11
 73
63
 74
62
 0
VERTEX
 8
MILANO
 10
0
 20
0
 30
0
 70
128
 71
8
 72
10
 73
62
 74
61
 0
VERTEX
 8
MILANO
 10
0
 20
0
 30
0
 70
128
 71
7
 72
8
 73
61
 74
60
 0
VERTEX
 8
MILANO
 10
0
 20
0
 30
0
 70
128
 71
27
 72
28
 73
82
 74
78
 0
VERTEX
 8
MILANO
 10
0
 20
0
 30
0
 70
128
 71
4
 72
5
 73
58
 74
57
 0
VERTEX
 8
MILANO
 10
0
 20
0
 30
0
 70
128
 71
57
 72
56
 73
3
 74
4
 0
VERTEX
 8
MILANO
 10
0
 20
0
 30
0
 70
128
 71
56
 72
55
 73
2
 74
3
 0
VERTEX
 8
MILANO
 10
0
 20
0
 30
0
 70
128
 71
55
 72
54
 73
93
 74
2
 0
VERTEX
 8
MILANO
 10
0
 20
0
 30
0
 70
128
 71
54
 72
53
 73
89
 74
93
 0
VERTEX
 8
MILANO
 10
0
 20
0
 30
0
 70
128
 71
53
 72
52
 73
88
 74
89
 0
VERTEX
 8
MILANO
 10
0
 20
0
 30
0
 70
128
 71
52
 72
51
 73
87
 74
88
 0
VERTEX
 8
MILANO
 10
0
 20
0
 30
0
 70
128
 71
6
 72
7
 73
60
 74
59
 0
SEQEND
 0
POLYLINE
 8
SFONDO
 66
1
 10
0.0
 20
0.0
 30
0.0
 70
64
 71
8
 72
6
 0
VERTEX
 8
SFONDO
 10
-5.1
 20
-61.1102
 30
2.0065
 70
192
 0
VERTEX
 8
SFONDO
 10
-5.1
 20
-61.1102
 30
6.4065
 70
192
 0
VERTEX
 8
SFONDO
 10
5.1
 20
-61.1102
 30
2.0065
 70
192
 0
VERTEX
 8
SFONDO
 10
5.1
 20
-61.1102
 30
6.4065
 70
192
 0
VERTEX
 8
SFONDO
 10
5.1
 20
-60.9602
 30
2.0065
 70
192
 0
VERTEX
 8
SFONDO
 10
5.1
 20
-60.9602
 30
6.4065
 70
192
 0
VERTEX
 8
SFONDO
 10
-5.1
 20
-60.9602
 30
2.0065
 70
192
 0
VERTEX
 8
SFONDO
 10
-5.1
 20
-60.9602
 30
6.4065
 70
192
 0
VERTEX
 8
SFONDO
 10
0
 20
0
 30
0
 70
128
 71
1
 72
2
 73
4
 74
3
 0
VERTEX
 8
SFONDO
 10
0
 20
0
 30
0
 70
128
 71
3
 72
4
 73
6
 74
5
 0
VERTEX
 8
SFONDO
 10
0
 20
0
 30
0
 70
128
 71
5
 72
6
 73
8
 74
7
 0
VERTEX
 8
SFONDO
 10
0
 20
0
 30
0
 70
128
 71
7
 72
8
 73
2
 74
1
 0
VERTEX
 8
SFONDO
 10
0
 20
0
 30
0
 70
128
 71
2
 72
8
 73
6
 74
4
 0
VERTEX
 8
SFONDO
 10
0
 20
0
 30
0
 70
128
 71
7
 72
1
 73
3
 74
5
 0
SEQEND
 0
POLYLINE
 8
CORNICE
 66
1
 10
0.0
 20
0.0
 30
0.0
 70
64
 71
32
 72
32
 0
VERTEX
 8
CORNICE
 10
-5.5979
 20
-61.3099
 30
1.4965
 70
192
 0
VERTEX
 8
CORNICE
 10
-5.5979
 20
-61.3099
 30
2.0075
 70
192
 0
VERTEX
 8
CORNICE
 10
-5.5979
 20
-61.3099
 30
6.4075
 70
192
 0
VERTEX
 8
CORNICE
 10
-5.5979
 20
-61.3099
 30
8.2044
 70
192
 0
VERTEX
 8
CORNICE
 10
-5.1
 20
-61.3099
 30
1.4965
 70
192
 0
VERTEX
 8
CORNICE
 10
-5.1
 20
-61.3099
 30
2.0075
 70
192
 0
VERTEX
 8
CORNICE
 10
-5.1
 20
-61.3099
 30
6.4075
 70
192
 0
VERTEX
 8
CORNICE
 10
-5.1
 20
-61.3099
 30
8.2044
 70
192
 0
VERTEX
 8
CORNICE
 10
5.1
 20
-61.3099
 30
1.4965
 70
192
 0
VERTEX
 8
CORNICE
 10
5.1
 20
-61.3099
 30
2.0075
 70
192
 0
VERTEX
 8
CORNICE
 10
5.1
 20
-61.3099
 30
6.4075
 70
192
 0
VERTEX
 8
CORNICE
 10
5.1
 20
-61.3099
 30
8.2044
 70
192
 0
VERTEX
 8
CORNICE
 10
5.5979
 20
-61.3099
 30
1.4965
 70
192
 0
VERTEX
 8
CORNICE
 10
5.5979
 20
-61.3099
 30
2.0075
 70
192
 0
VERTEX
 8
CORNICE
 10
5.5979
 20
-61.3099
 30
6.4075
 70
192
 0
VERTEX
 8
CORNICE
 10
5.5979
 20
-61.3099
 30
8.2044
 70
192
 0
VERTEX
 8
CORNICE
 10
5.5979
 20
-60.9599
 30
1.4965
 70
192
 0
VERTEX
 8
CORNICE
 10
5.5979
 20
-60.9599
 30
2.0075
 70
192
 0
VERTEX
 8
CORNICE
 10
5.5979
 20
-60.9599
 30
6.4075
 70
192
 0
VERTEX
 8
CORNICE
 10
5.5979
 20
-60.9599
 30
8.2044
 70
192
 0
VERTEX
 8
CORNICE
 10
5.1
 20
-60.9599
 30
1.4965
 70
192
 0
VERTEX
 8
CORNICE
 10
5.1
 20
-60.9599
 30
2.0075
 70
192
 0
VERTEX
 8
CORNICE
 10
5.1
 20
-60.9599
 30
6.4075
 70
192
 0
VERTEX
 8
CORNICE
 10
5.1
 20
-60.9599
 30
8.2044
 70
192
 0
VERTEX
 8
CORNICE
 10
-5.1
 20
-60.9599
 30
1.4965
 70
192
 0
VERTEX
 8
CORNICE
 10
-5.1
 20
-60.9599
 30
2.0075
 70
192
 0
VERTEX
 8
CORNICE
 10
-5.1
 20
-60.9599
 30
6.4075
 70
192
 0
VERTEX
 8
CORNICE
 10
-5.1
 20
-60.9599
 30
8.2044
 70
192
 0
VERTEX
 8
CORNICE
 10
-5.5979
 20
-60.9599
 30
1.4965
 70
192
 0
VERTEX
 8
CORNICE
 10
-5.5979
 20
-60.9599
 30
2.0075
 70
192
 0
VERTEX
 8
CORNICE
 10
-5.5979
 20
-60.9599
 30
6.4075
 70
192
 0
VERTEX
 8
CORNICE
 10
-5.5979
 20
-60.9599
 30
8.2044
 70
192
 0
VERTEX
 8
CORNICE
 10
0
 20
0
 30
0
 70
128
 71
1
 72
2
 73
6
 74
5
 0
VERTEX
 8
CORNICE
 10
0
 20
0
 30
0
 70
128
 71
5
 72
6
 73
10
 74
9
 0
VERTEX
 8
CORNICE
 10
0
 20
0
 30
0
 70
128
 71
9
 72
10
 73
14
 74
13
 0
VERTEX
 8
CORNICE
 10
0
 20
0
 30
0
 70
128
 71
2
 72
3
 73
7
 74
6
 0
VERTEX
 8
CORNICE
 10
0
 20
0
 30
0
 70
128
 71
21
 72
9
 73
13
 74
17
 0
VERTEX
 8
CORNICE
 10
0
 20
0
 30
0
 70
128
 71
10
 72
11
 73
15
 74
14
 0
VERTEX
 8
CORNICE
 10
0
 20
0
 30
0
 70
128
 71
3
 72
4
 73
8
 74
7
 0
VERTEX
 8
CORNICE
 10
0
 20
0
 30
0
 70
128
 71
7
 72
8
 73
12
 74
11
 0
VERTEX
 8
CORNICE
 10
0
 20
0
 30
0
 70
128
 71
11
 72
12
 73
16
 74
15
 0
VERTEX
 8
CORNICE
 10
0
 20
0
 30
0
 70
128
 71
13
 72
14
 73
18
 74
17
 0
VERTEX
 8
CORNICE
 10
0
 20
0
 30
0
 70
128
 71
14
 72
15
 73
19
 74
18
 0
VERTEX
 8
CORNICE
 10
0
 20
0
 30
0
 70
128
 71
15
 72
16
 73
20
 74
19
 0
VERTEX
 8
CORNICE
 10
0
 20
0
 30
0
 70
128
 71
17
 72
18
 73
22
 74
21
 0
VERTEX
 8
CORNICE
 10
0
 20
0
 30
0
 70
128
 71
21
 72
22
 73
26
 74
25
 0
VERTEX
 8
CORNICE
 10
0
 20
0
 30
0
 70
128
 71
25
 72
26
 73
30
 74
29
 0
VERTEX
 8
CORNICE
 10
0
 20
0
 30
0
 70
128
 71
18
 72
19
 73
23
 74
22
 0
VERTEX
 8
CORNICE
 10
0
 20
0
 30
0
 70
128
 71
25
 72
5
 73
9
 74
21
 0
VERTEX
 8
CORNICE
 10
0
 20
0
 30
0
 70
128
 71
26
 72
27
 73
31
 74
30
 0
VERTEX
 8
CORNICE
 10
0
 20
0
 30
0
 70
128
 71
19
 72
20
 73
24
 74
23
 0
VERTEX
 8
CORNICE
 10
0
 20
0
 30
0
 70
128
 71
23
 72
24
 73
28
 74
27
 0
VERTEX
 8
CORNICE
 10
0
 20
0
 30
0
 70
128
 71
27
 72
28
 73
32
 74
31
 0
VERTEX
 8
CORNICE
 10
0
 20
0
 30
0
 70
128
 71
29
 72
30
 73
2
 74
1
 0
VERTEX
 8
CORNICE
 10
0
 20
0
 30
0
 70
128
 71
30
 72
31
 73
3
 74
2
 0
VERTEX
 8
CORNICE
 10
0
 20
0
 30
0
 70
128
 71
31
 72
32
 73
4
 74
3
 0
VERTEX
 8
CORNICE
 10
0
 20
0
 30
0
 70
128
 71
4
 72
32
 73
28
 74
8
 0
VERTEX
 8
CORNICE
 10
0
 20
0
 30
0
 70
128
 71
8
 72
28
 73
24
 74
12
 0
VERTEX
 8
CORNICE
 10
0
 20
0
 30
0
 70
128
 71
12
 72
24
 73
20
 74
16
 0
VERTEX
 8
CORNICE
 10
0
 20
0
 30
0
 70
128
 71
29
 72
1
 73
5
 74
25
 0
VERTEX
 8
CORNICE
 10
0
 20
0
 30
0
 70
128
 71
7
 72
11
 73
23
 74
27
 0
VERTEX
 8
CORNICE
 10
0
 20
0
 30
0
 70
128
 71
11
 72
10
 73
22
 74
23
 0
VERTEX
 8
CORNICE
 10
0
 20
0
 30
0
 70
128
 71
6
 72
7
 73
27
 74
26
 0
VERTEX
 8
CORNICE
 10
0
 20
0
 30
0
 70
128
 71
10
 72
6
 73
26
 74
22
 0
SEQEND
 0
POLYLINE
 8
LED
 66
1
 10
0.0
 20
0.0
 30
0.0
 70
64
 71
8
 72
6
 0
VERTEX
 8
LED
 10
-53.0475
 20
-41.59
 30
1.1803
 70
192
 0
VERTEX
 8
LED
 10
-53.0475
 20
-41.5862
 30
1.3134
 70
192
 0
VERTEX
 8
LED
 10
-51.0525
 20
-41.59
 30
1.1803
 70
192
 0
VERTEX
 8
LED
 10
-51.0525
 20
-41.5862
 30
1.3134
 70
192
 0
VERTEX
 8
LED
 10
-51.0525
 20
-9.8028
 30
0.275
 70
192
 0
VERTEX
 8
LED
 10
-51.0525
 20
-9.799
 30
0.4081
 70
192
 0
VERTEX
 8
LED
 10
-53.0475
 20
-9.8028
 30
0.275
 70
192
 0
VERTEX
 8
LED
 10
-53.0475
 20
-9.799
 30
0.4081
 70
192
 0
VERTEX
 8
LED
 10
0
 20
0
 30
0
 70
128
 71
1
 72
2
 73
4
 74
3
 0
VERTEX
 8
LED
 10
0
 20
0
 30
0
 70
128
 71
3
 72
4
 73
6
 74
5
 0
VERTEX
 8
LED
 10
0
 20
0
 30
0
 70
128
 71
5
 72
6
 73
8
 74
7
 0
VERTEX
 8
LED
 10
0
 20
0
 30
0
 70
128
 71
7
 72
8
 73
2
 74
1
 0
VERTEX
 8
LED
 10
0
 20
0
 30
0
 70
128
 71
2
 72
8
 73
6
 74
4
 0
VERTEX
 8
LED
 10
0
 20
0
 30
0
 70
128
 71
7
 72
1
 73
3
 74
5
 0
SEQEND
 0
POLYLINE
 8
LED_1
 66
1
 10
0.0
 20
0.0
 30
0.0
 70
64
 71
8
 72
6
 0
VERTEX
 8
LED_1
 10
51.0523
 20
-41.59
 30
1.1803
 70
192
 0
VERTEX
 8
LED_1
 10
51.0523
 20
-41.5862
 30
1.3134
 70
192
 0
VERTEX
 8
LED_1
 10
53.0473
 20
-41.59
 30
1.1803
 70
192
 0
VERTEX
 8
LED_1
 10
53.0473
 20
-41.5862
 30
1.3134
 70
192
 0
VERTEX
 8
LED_1
 10
53.0473
 20
-9.8028
 30
0.275
 70
192
 0
VERTEX
 8
LED_1
 10
53.0473
 20
-9.799
 30
0.4081
 70
192
 0
VERTEX
 8
LED_1
 10
51.0523
 20
-9.8028
 30
0.275
 70
192
 0
VERTEX
 8
LED_1
 10
51.0523
 20
-9.799
 30
0.4081
 70
192
 0
VERTEX
 8
LED_1
 10
0
 20
0
 30
0
 70
128
 71
1
 72
2
 73
4
 74
3
 0
VERTEX
 8
LED_1
 10
0
 20
0
 30
0
 70
128
 71
3
 72
4
 73
6
 74
5
 0
VERTEX
 8
LED_1
 10
0
 20
0
 30
0
 70
128
 71
5
 72
6
 73
8
 74
7
 0
VERTEX
 8
LED_1
 10
0
 20
0
 30
0
 70
128
 71
7
 72
8
 73
2
 74
1
 0
VERTEX
 8
LED_1
 10
0
 20
0
 30
0
 70
128
 71
2
 72
8
 73
6
 74
4
 0
VERTEX
 8
LED_1
 10
0
 20
0
 30
0
 70
128
 71
7
 72
1
 73
3
 74
5
 0
SEQEND
 0
ENDSEC
 0
EOF
