 0
SECTION
 2
HEADER
 9
$ACADVER
 1
AC1009
 0
ENDSEC
 0
SECTION
 2
TABLES
 0
TABLE
 2
LTYPE
 70
1
 0
LTYPE
 2
CONTINUOUS
 70
64
 3
solid line
 72
65
 73
0
 40
0.0
 0
ENDTAB
 0
TABLE
 2
LAYER
 70
6
 0
LAYER
 2
0
 70
0
 62
7
 6
CONTINUOUS
 0
LAYER
 2
FUO_7509_MT_MBK
 70
64
 62
7
 6
CONTINUOUS
 0
LAYER
 2
TARGHETTA_LOGO
 70
64
 62
7
 6
CONTINUOUS
 0
LAYER
 2
LOGO_FULGOR_MILANO
 70
64
 62
7
 6
CONTINUOUS
 0
LAYER
 2
FULGOR
 70
64
 62
7
 6
CONTINUOUS
 0
LAYER
 2
MILANO
 70
64
 62
7
 6
CONTINUOUS
 0
LAYER
 2
CUBO
 70
64
 62
39
 6
CONTINUOUS
 0
LAYER
 2
MANIGLIA
 70
64
 62
7
 6
CONTINUOUS
 0
LAYER
 2
CILINDRO
 70
64
 62
39
 6
CONTINUOUS
 0
LAYER
 2
CUBO_5
 70
64
 62
39
 6
CONTINUOUS
 0
LAYER
 2
CUBO_4
 70
64
 62
39
 6
CONTINUOUS
 0
LAYER
 2
CUBO_3
 70
64
 62
39
 6
CONTINUOUS
 0
LAYER
 2
PANNELLO_FRONTALE
 70
64
 62
39
 6
CONTINUOUS
 0
LAYER
 2
VETRO
 70
64
 62
37
 6
CONTINUOUS
 0
LAYER
 2
CORNICE_DISPLAY
 70
64
 62
39
 6
CONTINUOUS
 0
LAYER
 2
PANNELLO_DISPALY
 70
64
 62
39
 6
CONTINUOUS
 0
LAYER
 2
CUBO_1
 70
64
 62
39
 6
CONTINUOUS
 0
LAYER
 2
FORNO
 70
64
 62
253
 6
CONTINUOUS
 0
LAYER
 2
MANOPOLA
 70
64
 62
7
 6
CONTINUOUS
 0
LAYER
 2
TACCA_1
 70
64
 62
39
 6
CONTINUOUS
 0
LAYER
 2
CILINDRO_1
 70
64
 62
39
 6
CONTINUOUS
 0
LAYER
 2
MANOPOLA_1
 70
64
 62
7
 6
CONTINUOUS
 0
LAYER
 2
TACCA_1_1
 70
64
 62
39
 6
CONTINUOUS
 0
LAYER
 2
CILINDRO_2
 70
64
 62
39
 6
CONTINUOUS
 0
ENDTAB
 0
ENDSEC
 0
SECTION
 2
BLOCKS
 0
ENDSEC
 0
SECTION
 2
ENTITIES
 0
POLYLINE
 8
FULGOR
 66
1
 10
0.0
 20
0.0
 30
0.0
 70
64
 71
726
 72
729
 0
VERTEX
 8
FULGOR
 10
0.219
 20
-4.1887
 30
9.8882
 70
192
 0
VERTEX
 8
FULGOR
 10
-2.5004
 20
-4.1887
 30
9.7855
 70
192
 0
VERTEX
 8
FULGOR
 10
1.3399
 20
-4.1887
 30
9.8115
 70
192
 0
VERTEX
 8
FULGOR
 10
-2.3457
 20
-4.1887
 30
10.0823
 70
192
 0
VERTEX
 8
FULGOR
 10
-2.3457
 20
-4.1887
 30
10.1758
 70
192
 0
VERTEX
 8
FULGOR
 10
-1.966
 20
-4.1887
 30
10.1758
 70
192
 0
VERTEX
 8
FULGOR
 10
-1.966
 20
-4.1887
 30
10.2866
 70
192
 0
VERTEX
 8
FULGOR
 10
-2.5004
 20
-4.1887
 30
10.2866
 70
192
 0
VERTEX
 8
FULGOR
 10
-1.8089
 20
-4.1887
 30
10.0033
 70
192
 0
VERTEX
 8
FULGOR
 10
-1.8076
 20
-4.1887
 30
9.9799
 70
192
 0
VERTEX
 8
FULGOR
 10
-1.804
 20
-4.1887
 30
9.9582
 70
192
 0
VERTEX
 8
FULGOR
 10
-2.3457
 20
-4.1887
 30
9.7855
 70
192
 0
VERTEX
 8
FULGOR
 10
-2.3457
 20
-4.1887
 30
9.9932
 70
192
 0
VERTEX
 8
FULGOR
 10
-1.966
 20
-4.1887
 30
9.9932
 70
192
 0
VERTEX
 8
FULGOR
 10
-1.966
 20
-4.1887
 30
10.0823
 70
192
 0
VERTEX
 8
FULGOR
 10
-1.8089
 20
-4.1887
 30
10.2866
 70
192
 0
VERTEX
 8
FULGOR
 10
-1.7983
 20
-4.1887
 30
9.9383
 70
192
 0
VERTEX
 8
FULGOR
 10
-1.7906
 20
-4.1887
 30
9.92
 70
192
 0
VERTEX
 8
FULGOR
 10
-1.781
 20
-4.1887
 30
9.9033
 70
192
 0
VERTEX
 8
FULGOR
 10
-1.7696
 20
-4.1887
 30
9.8881
 70
192
 0
VERTEX
 8
FULGOR
 10
-1.6322
 20
-4.1887
 30
9.8115
 70
192
 0
VERTEX
 8
FULGOR
 10
-1.5791
 20
-4.1887
 30
9.8006
 70
192
 0
VERTEX
 8
FULGOR
 10
-1.4929
 20
-4.1887
 30
9.7914
 70
192
 0
VERTEX
 8
FULGOR
 10
-1.4035
 20
-4.1887
 30
9.7886
 70
192
 0
VERTEX
 8
FULGOR
 10
-1.3035
 20
-4.1887
 30
9.7922
 70
192
 0
VERTEX
 8
FULGOR
 10
-1.2281
 20
-4.1887
 30
9.8022
 70
192
 0
VERTEX
 8
FULGOR
 10
-1.7566
 20
-4.1887
 30
9.8743
 70
192
 0
VERTEX
 8
FULGOR
 10
-1.1352
 20
-4.1887
 30
9.8275
 70
192
 0
VERTEX
 8
FULGOR
 10
-1.7422
 20
-4.1887
 30
9.8618
 70
192
 0
VERTEX
 8
FULGOR
 10
-1.7264
 20
-4.1887
 30
9.8506
 70
192
 0
VERTEX
 8
FULGOR
 10
-1.7005
 20
-4.1887
 30
9.8361
 70
192
 0
VERTEX
 8
FULGOR
 10
-1.6723
 20
-4.1887
 30
9.8241
 70
192
 0
VERTEX
 8
FULGOR
 10
-1.0325
 20
-4.1887
 30
9.8968
 70
192
 0
VERTEX
 8
FULGOR
 10
-1.1753
 20
-4.1887
 30
9.8143
 70
192
 0
VERTEX
 8
FULGOR
 10
-1.1072
 20
-4.1887
 30
9.8398
 70
192
 0
VERTEX
 8
FULGOR
 10
-1.0814
 20
-4.1887
 30
9.8541
 70
192
 0
VERTEX
 8
FULGOR
 10
-1.0583
 20
-4.1887
 30
9.8708
 70
192
 0
VERTEX
 8
FULGOR
 10
-1.0006
 20
-4.1887
 30
9.9731
 70
192
 0
VERTEX
 8
FULGOR
 10
-0.9994
 20
-4.1887
 30
9.9937
 70
192
 0
VERTEX
 8
FULGOR
 10
-0.9992
 20
-4.1887
 30
10.2866
 70
192
 0
VERTEX
 8
FULGOR
 10
-1.0446
 20
-4.1887
 30
9.8832
 70
192
 0
VERTEX
 8
FULGOR
 10
-1.022
 20
-4.1887
 30
9.9116
 70
192
 0
VERTEX
 8
FULGOR
 10
-1.154
 20
-4.1887
 30
9.9952
 70
192
 0
VERTEX
 8
FULGOR
 10
-1.1548
 20
-4.1887
 30
9.9882
 70
192
 0
VERTEX
 8
FULGOR
 10
-1.1564
 20
-4.1887
 30
9.9812
 70
192
 0
VERTEX
 8
FULGOR
 10
-1.1587
 20
-4.1887
 30
9.9742
 70
192
 0
VERTEX
 8
FULGOR
 10
-1.1618
 20
-4.1887
 30
9.9674
 70
192
 0
VERTEX
 8
FULGOR
 10
-1.1656
 20
-4.1887
 30
9.9607
 70
192
 0
VERTEX
 8
FULGOR
 10
-1.1702
 20
-4.1887
 30
9.9541
 70
192
 0
VERTEX
 8
FULGOR
 10
-1.1786
 20
-4.1887
 30
9.9445
 70
192
 0
VERTEX
 8
FULGOR
 10
-1.1888
 20
-4.1887
 30
9.9354
 70
192
 0
VERTEX
 8
FULGOR
 10
-1.2009
 20
-4.1887
 30
9.9268
 70
192
 0
VERTEX
 8
FULGOR
 10
-1.2149
 20
-4.1887
 30
9.9188
 70
192
 0
VERTEX
 8
FULGOR
 10
-1.0134
 20
-4.1887
 30
9.9276
 70
192
 0
VERTEX
 8
FULGOR
 10
-1.0067
 20
-4.1887
 30
9.9448
 70
192
 0
VERTEX
 8
FULGOR
 10
-1.0021
 20
-4.1887
 30
9.9633
 70
192
 0
VERTEX
 8
FULGOR
 10
-1.1538
 20
-4.1887
 30
10.2866
 70
192
 0
VERTEX
 8
FULGOR
 10
-1.1538
 20
-4.1887
 30
10.0023
 70
192
 0
VERTEX
 8
FULGOR
 10
-1.4916
 20
-4.1887
 30
9.8893
 70
192
 0
VERTEX
 8
FULGOR
 10
-1.2368
 20
-4.1887
 30
9.9091
 70
192
 0
VERTEX
 8
FULGOR
 10
-1.5648
 20
-4.1887
 30
9.903
 70
192
 0
VERTEX
 8
FULGOR
 10
-1.5875
 20
-4.1887
 30
9.9111
 70
192
 0
VERTEX
 8
FULGOR
 10
-1.2623
 20
-4.1887
 30
9.9008
 70
192
 0
VERTEX
 8
FULGOR
 10
-1.2997
 20
-4.1887
 30
9.8927
 70
192
 0
VERTEX
 8
FULGOR
 10
-1.3432
 20
-4.1887
 30
9.8874
 70
192
 0
VERTEX
 8
FULGOR
 10
-1.6319
 20
-4.1887
 30
9.9414
 70
192
 0
VERTEX
 8
FULGOR
 10
-1.6373
 20
-4.1887
 30
9.9482
 70
192
 0
VERTEX
 8
FULGOR
 10
-1.6419
 20
-4.1887
 30
9.9553
 70
192
 0
VERTEX
 8
FULGOR
 10
-1.6457
 20
-4.1887
 30
9.9628
 70
192
 0
VERTEX
 8
FULGOR
 10
-1.6488
 20
-4.1887
 30
9.9707
 70
192
 0
VERTEX
 8
FULGOR
 10
-1.404
 20
-4.1887
 30
9.8851
 70
192
 0
VERTEX
 8
FULGOR
 10
-1.6535
 20
-4.1887
 30
9.9921
 70
192
 0
VERTEX
 8
FULGOR
 10
-1.6543
 20
-4.1887
 30
10.0061
 70
192
 0
VERTEX
 8
FULGOR
 10
-1.6543
 20
-4.1887
 30
10.2866
 70
192
 0
VERTEX
 8
FULGOR
 10
-1.5385
 20
-4.1887
 30
9.8964
 70
192
 0
VERTEX
 8
FULGOR
 10
-1.6022
 20
-4.1887
 30
9.9182
 70
192
 0
VERTEX
 8
FULGOR
 10
-1.6149
 20
-4.1887
 30
9.9262
 70
192
 0
VERTEX
 8
FULGOR
 10
-1.6257
 20
-4.1887
 30
9.935
 70
192
 0
VERTEX
 8
FULGOR
 10
-0.6878
 20
-4.1887
 30
9.8962
 70
192
 0
VERTEX
 8
FULGOR
 10
-0.6878
 20
-4.1887
 30
10.2866
 70
192
 0
VERTEX
 8
FULGOR
 10
0.5411
 20
-4.1887
 30
10.2404
 70
192
 0
VERTEX
 8
FULGOR
 10
-1.6512
 20
-4.1887
 30
9.979
 70
192
 0
VERTEX
 8
FULGOR
 10
-0.8426
 20
-4.1887
 30
10.2866
 70
192
 0
VERTEX
 8
FULGOR
 10
0.2351
 20
-4.1887
 30
10.2861
 70
192
 0
VERTEX
 8
FULGOR
 10
-0.8426
 20
-4.1887
 30
9.7854
 70
192
 0
VERTEX
 8
FULGOR
 10
-0.3081
 20
-4.1887
 30
9.7854
 70
192
 0
VERTEX
 8
FULGOR
 10
-0.3081
 20
-4.1887
 30
9.8962
 70
192
 0
VERTEX
 8
FULGOR
 10
0.4538
 20
-4.1887
 30
10.2602
 70
192
 0
VERTEX
 8
FULGOR
 10
0.3612
 20
-4.1887
 30
10.2749
 70
192
 0
VERTEX
 8
FULGOR
 10
0.1648
 20
-4.1887
 30
10.286
 70
192
 0
VERTEX
 8
FULGOR
 10
-0.1067
 20
-4.1887
 30
10.2102
 70
192
 0
VERTEX
 8
FULGOR
 10
-0.1331
 20
-4.1887
 30
10.193
 70
192
 0
VERTEX
 8
FULGOR
 10
-0.1553
 20
-4.1887
 30
10.1752
 70
192
 0
VERTEX
 8
FULGOR
 10
-0.1742
 20
-4.1887
 30
10.1568
 70
192
 0
VERTEX
 8
FULGOR
 10
0.101
 20
-4.1887
 30
10.2796
 70
192
 0
VERTEX
 8
FULGOR
 10
0.0443
 20
-4.1887
 30
10.2687
 70
192
 0
VERTEX
 8
FULGOR
 10
-0.0114
 20
-4.1887
 30
10.2527
 70
192
 0
VERTEX
 8
FULGOR
 10
-0.2166
 20
-4.1887
 30
10.0889
 70
192
 0
VERTEX
 8
FULGOR
 10
-0.2211
 20
-4.1887
 30
10.0745
 70
192
 0
VERTEX
 8
FULGOR
 10
-0.0617
 20
-4.1887
 30
10.2331
 70
192
 0
VERTEX
 8
FULGOR
 10
-0.0875
 20
-4.1887
 30
10.2207
 70
192
 0
VERTEX
 8
FULGOR
 10
-0.1889
 20
-4.1887
 30
10.1393
 70
192
 0
VERTEX
 8
FULGOR
 10
-0.2255
 20
-4.1887
 30
10.0158
 70
192
 0
VERTEX
 8
FULGOR
 10
-0.1996
 20
-4.1887
 30
10.1238
 70
192
 0
VERTEX
 8
FULGOR
 10
-0.209
 20
-4.1887
 30
10.107
 70
192
 0
VERTEX
 8
FULGOR
 10
-0.2243
 20
-4.1887
 30
10.0593
 70
192
 0
VERTEX
 8
FULGOR
 10
-0.2257
 20
-4.1887
 30
10.0488
 70
192
 0
VERTEX
 8
FULGOR
 10
-0.2265
 20
-4.1887
 30
10.0324
 70
192
 0
VERTEX
 8
FULGOR
 10
-0.2225
 20
-4.1887
 30
9.9996
 70
192
 0
VERTEX
 8
FULGOR
 10
-0.1575
 20
-4.1887
 30
9.8994
 70
192
 0
VERTEX
 8
FULGOR
 10
-0.133
 20
-4.1887
 30
9.8796
 70
192
 0
VERTEX
 8
FULGOR
 10
-0.2178
 20
-4.1887
 30
9.9838
 70
192
 0
VERTEX
 8
FULGOR
 10
-0.065
 20
-4.1887
 30
9.8397
 70
192
 0
VERTEX
 8
FULGOR
 10
-0.0278
 20
-4.1887
 30
9.8242
 70
192
 0
VERTEX
 8
FULGOR
 10
-0.2114
 20
-4.1887
 30
9.9685
 70
192
 0
VERTEX
 8
FULGOR
 10
-0.2034
 20
-4.1887
 30
9.9536
 70
192
 0
VERTEX
 8
FULGOR
 10
0.1472
 20
-4.1887
 30
9.788
 70
192
 0
VERTEX
 8
FULGOR
 10
0.1955
 20
-4.1887
 30
9.7857
 70
192
 0
VERTEX
 8
FULGOR
 10
0.2351
 20
-4.1887
 30
9.7859
 70
192
 0
VERTEX
 8
FULGOR
 10
0.2979
 20
-4.1887
 30
9.7895
 70
192
 0
VERTEX
 8
FULGOR
 10
-0.1904
 20
-4.1887
 30
9.9346
 70
192
 0
VERTEX
 8
FULGOR
 10
-0.175
 20
-4.1887
 30
9.9165
 70
192
 0
VERTEX
 8
FULGOR
 10
-0.1003
 20
-4.1887
 30
9.8582
 70
192
 0
VERTEX
 8
FULGOR
 10
0.3634
 20
-4.1887
 30
10.0456
 70
192
 0
VERTEX
 8
FULGOR
 10
0.0228
 20
-4.1887
 30
9.8084
 70
192
 0
VERTEX
 8
FULGOR
 10
0.0786
 20
-4.1887
 30
9.7964
 70
192
 0
VERTEX
 8
FULGOR
 10
0.3758
 20
-4.1887
 30
9.7998
 70
192
 0
VERTEX
 8
FULGOR
 10
0.5411
 20
-4.1887
 30
9.8316
 70
192
 0
VERTEX
 8
FULGOR
 10
0.1899
 20
-4.1887
 30
9.8885
 70
192
 0
VERTEX
 8
FULGOR
 10
0.1559
 20
-4.1887
 30
9.8912
 70
192
 0
VERTEX
 8
FULGOR
 10
0.5411
 20
-4.1887
 30
10.0456
 70
192
 0
VERTEX
 8
FULGOR
 10
0.0923
 20
-4.1887
 30
9.9054
 70
192
 0
VERTEX
 8
FULGOR
 10
0.0692
 20
-4.1887
 30
9.9144
 70
192
 0
VERTEX
 8
FULGOR
 10
0.3633
 20
-4.1887
 30
9.8989
 70
192
 0
VERTEX
 8
FULGOR
 10
0.3431
 20
-4.1887
 30
9.8952
 70
192
 0
VERTEX
 8
FULGOR
 10
0.0158
 20
-4.1887
 30
9.9483
 70
192
 0
VERTEX
 8
FULGOR
 10
0.2874
 20
-4.1887
 30
9.8895
 70
192
 0
VERTEX
 8
FULGOR
 10
0.2464
 20
-4.1887
 30
9.8879
 70
192
 0
VERTEX
 8
FULGOR
 10
0.1232
 20
-4.1887
 30
9.8968
 70
192
 0
VERTEX
 8
FULGOR
 10
0.0479
 20
-4.1887
 30
9.9252
 70
192
 0
VERTEX
 8
FULGOR
 10
-0.0234
 20
-4.1887
 30
10.0106
 70
192
 0
VERTEX
 8
FULGOR
 10
-0.0258
 20
-4.1887
 30
10.0211
 70
192
 0
VERTEX
 8
FULGOR
 10
-0.0272
 20
-4.1887
 30
10.0321
 70
192
 0
VERTEX
 8
FULGOR
 10
-0.0277
 20
-4.1887
 30
10.0435
 70
192
 0
VERTEX
 8
FULGOR
 10
-0.0271
 20
-4.1887
 30
10.0549
 70
192
 0
VERTEX
 8
FULGOR
 10
0.0287
 20
-4.1887
 30
9.9377
 70
192
 0
VERTEX
 8
FULGOR
 10
0.0044
 20
-4.1887
 30
9.9599
 70
192
 0
VERTEX
 8
FULGOR
 10
-0.0055
 20
-4.1887
 30
9.9724
 70
192
 0
VERTEX
 8
FULGOR
 10
-0.013
 20
-4.1887
 30
10.0952
 70
192
 0
VERTEX
 8
FULGOR
 10
-0.007
 20
-4.1887
 30
10.104
 70
192
 0
VERTEX
 8
FULGOR
 10
-0.0001
 20
-4.1887
 30
10.1123
 70
192
 0
VERTEX
 8
FULGOR
 10
-0.0137
 20
-4.1887
 30
9.9859
 70
192
 0
VERTEX
 8
FULGOR
 10
0.0251
 20
-4.1887
 30
10.1344
 70
192
 0
VERTEX
 8
FULGOR
 10
0.0398
 20
-4.1887
 30
10.1438
 70
192
 0
VERTEX
 8
FULGOR
 10
-0.0202
 20
-4.1887
 30
10.0004
 70
192
 0
VERTEX
 8
FULGOR
 10
0.0891
 20
-4.1887
 30
10.1658
 70
192
 0
VERTEX
 8
FULGOR
 10
0.1182
 20
-4.1887
 30
10.1741
 70
192
 0
VERTEX
 8
FULGOR
 10
-0.0252
 20
-4.1887
 30
10.0657
 70
192
 0
VERTEX
 8
FULGOR
 10
0.1692
 20
-4.1887
 30
10.1821
 70
192
 0
VERTEX
 8
FULGOR
 10
-0.0222
 20
-4.1887
 30
10.0761
 70
192
 0
VERTEX
 8
FULGOR
 10
0.2937
 20
-4.1887
 30
10.178
 70
192
 0
VERTEX
 8
FULGOR
 10
-0.0181
 20
-4.1887
 30
10.0859
 70
192
 0
VERTEX
 8
FULGOR
 10
0.5411
 20
-4.1887
 30
10.1335
 70
192
 0
VERTEX
 8
FULGOR
 10
0.6982
 20
-4.1887
 30
10.036
 70
192
 0
VERTEX
 8
FULGOR
 10
0.6996
 20
-4.1887
 30
10.0137
 70
192
 0
VERTEX
 8
FULGOR
 10
0.0118
 20
-4.1887
 30
10.1239
 70
192
 0
VERTEX
 8
FULGOR
 10
0.0609
 20
-4.1887
 30
10.1548
 70
192
 0
VERTEX
 8
FULGOR
 10
0.718
 20
-4.1887
 30
9.9542
 70
192
 0
VERTEX
 8
FULGOR
 10
0.7284
 20
-4.1887
 30
9.9367
 70
192
 0
VERTEX
 8
FULGOR
 10
0.7408
 20
-4.1887
 30
9.9204
 70
192
 0
VERTEX
 8
FULGOR
 10
0.7549
 20
-4.1887
 30
9.9052
 70
192
 0
VERTEX
 8
FULGOR
 10
0.779
 20
-4.1887
 30
9.8843
 70
192
 0
VERTEX
 8
FULGOR
 10
0.1526
 20
-4.1887
 30
10.1804
 70
192
 0
VERTEX
 8
FULGOR
 10
0.1899
 20
-4.1887
 30
10.183
 70
192
 0
VERTEX
 8
FULGOR
 10
0.3902
 20
-4.1887
 30
10.1642
 70
192
 0
VERTEX
 8
FULGOR
 10
0.7034
 20
-4.1887
 30
9.9927
 70
192
 0
VERTEX
 8
FULGOR
 10
0.7096
 20
-4.1887
 30
9.9728
 70
192
 0
VERTEX
 8
FULGOR
 10
1.0786
 20
-4.1887
 30
9.7895
 70
192
 0
VERTEX
 8
FULGOR
 10
1.1433
 20
-4.1887
 30
9.7869
 70
192
 0
VERTEX
 8
FULGOR
 10
0.8064
 20
-4.1887
 30
9.8658
 70
192
 0
VERTEX
 8
FULGOR
 10
1.3019
 20
-4.1887
 30
9.8022
 70
192
 0
VERTEX
 8
FULGOR
 10
0.8363
 20
-4.1887
 30
9.8495
 70
192
 0
VERTEX
 8
FULGOR
 10
0.8796
 20
-4.1887
 30
9.831
 70
192
 0
VERTEX
 8
FULGOR
 10
0.9372
 20
-4.1887
 30
9.813
 70
192
 0
VERTEX
 8
FULGOR
 10
1.0085
 20
-4.1887
 30
9.798
 70
192
 0
VERTEX
 8
FULGOR
 10
1.2195
 20
-4.1887
 30
9.7905
 70
192
 0
VERTEX
 8
FULGOR
 10
1.5389
 20
-4.1887
 30
9.9127
 70
192
 0
VERTEX
 8
FULGOR
 10
1.3728
 20
-4.1887
 30
9.8196
 70
192
 0
VERTEX
 8
FULGOR
 10
1.429
 20
-4.1887
 30
9.8399
 70
192
 0
VERTEX
 8
FULGOR
 10
1.4704
 20
-4.1887
 30
9.8602
 70
192
 0
VERTEX
 8
FULGOR
 10
1.4987
 20
-4.1887
 30
9.8779
 70
192
 0
VERTEX
 8
FULGOR
 10
1.5239
 20
-4.1887
 30
9.898
 70
192
 0
VERTEX
 8
FULGOR
 10
1.587
 20
-4.1887
 30
10.0136
 70
192
 0
VERTEX
 8
FULGOR
 10
1.5883
 20
-4.1887
 30
10.0358
 70
192
 0
VERTEX
 8
FULGOR
 10
1.587
 20
-4.1887
 30
10.0581
 70
192
 0
VERTEX
 8
FULGOR
 10
1.5832
 20
-4.1887
 30
10.0791
 70
192
 0
VERTEX
 8
FULGOR
 10
1.5521
 20
-4.1887
 30
9.9284
 70
192
 0
VERTEX
 8
FULGOR
 10
1.5636
 20
-4.1887
 30
9.9453
 70
192
 0
VERTEX
 8
FULGOR
 10
1.573
 20
-4.1887
 30
9.9633
 70
192
 0
VERTEX
 8
FULGOR
 10
1.546
 20
-4.1887
 30
10.1513
 70
192
 0
VERTEX
 8
FULGOR
 10
1.5319
 20
-4.1887
 30
10.1666
 70
192
 0
VERTEX
 8
FULGOR
 10
1.5077
 20
-4.1887
 30
10.1874
 70
192
 0
VERTEX
 8
FULGOR
 10
1.4804
 20
-4.1887
 30
10.206
 70
192
 0
VERTEX
 8
FULGOR
 10
1.4504
 20
-4.1887
 30
10.2223
 70
192
 0
VERTEX
 8
FULGOR
 10
1.4072
 20
-4.1887
 30
10.2408
 70
192
 0
VERTEX
 8
FULGOR
 10
1.5803
 20
-4.1887
 30
9.9825
 70
192
 0
VERTEX
 8
FULGOR
 10
1.5853
 20
-4.1887
 30
10.0029
 70
192
 0
VERTEX
 8
FULGOR
 10
1.5771
 20
-4.1887
 30
10.0989
 70
192
 0
VERTEX
 8
FULGOR
 10
1.5688
 20
-4.1887
 30
10.1175
 70
192
 0
VERTEX
 8
FULGOR
 10
1.0672
 20
-4.1887
 30
10.2815
 70
192
 0
VERTEX
 8
FULGOR
 10
1.5583
 20
-4.1887
 30
10.135
 70
192
 0
VERTEX
 8
FULGOR
 10
1.3495
 20
-4.1887
 30
10.2589
 70
192
 0
VERTEX
 8
FULGOR
 10
1.2781
 20
-4.1887
 30
10.274
 70
192
 0
VERTEX
 8
FULGOR
 10
1.2081
 20
-4.1887
 30
10.2825
 70
192
 0
VERTEX
 8
FULGOR
 10
0.7877
 20
-4.1887
 30
10.1941
 70
192
 0
VERTEX
 8
FULGOR
 10
0.7624
 20
-4.1887
 30
10.1741
 70
192
 0
VERTEX
 8
FULGOR
 10
0.7475
 20
-4.1887
 30
10.1594
 70
192
 0
VERTEX
 8
FULGOR
 10
0.7342
 20
-4.1887
 30
10.1436
 70
192
 0
VERTEX
 8
FULGOR
 10
0.7228
 20
-4.1887
 30
10.1267
 70
192
 0
VERTEX
 8
FULGOR
 10
0.7134
 20
-4.1887
 30
10.1086
 70
192
 0
VERTEX
 8
FULGOR
 10
0.7061
 20
-4.1887
 30
10.0894
 70
192
 0
VERTEX
 8
FULGOR
 10
1.1433
 20
-4.1887
 30
10.2851
 70
192
 0
VERTEX
 8
FULGOR
 10
0.6995
 20
-4.1887
 30
10.0583
 70
192
 0
VERTEX
 8
FULGOR
 10
0.8982
 20
-4.1887
 30
10.0358
 70
192
 0
VERTEX
 8
FULGOR
 10
0.8987
 20
-4.1887
 30
10.0238
 70
192
 0
VERTEX
 8
FULGOR
 10
0.9847
 20
-4.1887
 30
10.2698
 70
192
 0
VERTEX
 8
FULGOR
 10
0.9137
 20
-4.1887
 30
10.2524
 70
192
 0
VERTEX
 8
FULGOR
 10
0.8574
 20
-4.1887
 30
10.2322
 70
192
 0
VERTEX
 8
FULGOR
 10
0.816
 20
-4.1887
 30
10.2119
 70
192
 0
VERTEX
 8
FULGOR
 10
0.7011
 20
-4.1887
 30
10.069
 70
192
 0
VERTEX
 8
FULGOR
 10
0.9227
 20
-4.1887
 30
9.9629
 70
192
 0
VERTEX
 8
FULGOR
 10
0.9298
 20
-4.1887
 30
9.9546
 70
192
 0
VERTEX
 8
FULGOR
 10
0.9003
 20
-4.1887
 30
10.0123
 70
192
 0
VERTEX
 8
FULGOR
 10
0.9029
 20
-4.1887
 30
10.0013
 70
192
 0
VERTEX
 8
FULGOR
 10
0.9065
 20
-4.1887
 30
9.9909
 70
192
 0
VERTEX
 8
FULGOR
 10
0.911
 20
-4.1887
 30
9.981
 70
192
 0
VERTEX
 8
FULGOR
 10
1.0189
 20
-4.1887
 30
9.9045
 70
192
 0
VERTEX
 8
FULGOR
 10
1.0528
 20
-4.1887
 30
9.8965
 70
192
 0
VERTEX
 8
FULGOR
 10
0.9164
 20
-4.1887
 30
9.9717
 70
192
 0
VERTEX
 8
FULGOR
 10
1.1433
 20
-4.1887
 30
9.8886
 70
192
 0
VERTEX
 8
FULGOR
 10
1.1974
 20
-4.1887
 30
9.8913
 70
192
 0
VERTEX
 8
FULGOR
 10
0.942
 20
-4.1887
 30
9.9431
 70
192
 0
VERTEX
 8
FULGOR
 10
1.2742
 20
-4.1887
 30
9.9066
 70
192
 0
VERTEX
 8
FULGOR
 10
1.2986
 20
-4.1887
 30
9.9156
 70
192
 0
VERTEX
 8
FULGOR
 10
1.3208
 20
-4.1887
 30
9.9266
 70
192
 0
VERTEX
 8
FULGOR
 10
0.9558
 20
-4.1887
 30
9.9328
 70
192
 0
VERTEX
 8
FULGOR
 10
1.3489
 20
-4.1887
 30
9.9469
 70
192
 0
VERTEX
 8
FULGOR
 10
0.9712
 20
-4.1887
 30
9.9236
 70
192
 0
VERTEX
 8
FULGOR
 10
0.9939
 20
-4.1887
 30
9.9131
 70
192
 0
VERTEX
 8
FULGOR
 10
1.3731
 20
-4.1887
 30
9.9763
 70
192
 0
VERTEX
 8
FULGOR
 10
1.0968
 20
-4.1887
 30
9.8906
 70
192
 0
VERTEX
 8
FULGOR
 10
1.2408
 20
-4.1887
 30
9.8979
 70
192
 0
VERTEX
 8
FULGOR
 10
1.3356
 20
-4.1887
 30
9.9362
 70
192
 0
VERTEX
 8
FULGOR
 10
1.3873
 20
-4.1887
 30
10.018
 70
192
 0
VERTEX
 8
FULGOR
 10
1.388
 20
-4.1887
 30
10.0238
 70
192
 0
VERTEX
 8
FULGOR
 10
1.3886
 20
-4.1887
 30
10.0358
 70
192
 0
VERTEX
 8
FULGOR
 10
1.388
 20
-4.1887
 30
10.0479
 70
192
 0
VERTEX
 8
FULGOR
 10
1.3605
 20
-4.1887
 30
9.9587
 70
192
 0
VERTEX
 8
FULGOR
 10
1.3673
 20
-4.1887
 30
9.9673
 70
192
 0
VERTEX
 8
FULGOR
 10
1.3802
 20
-4.1887
 30
10.0807
 70
192
 0
VERTEX
 8
FULGOR
 10
1.3757
 20
-4.1887
 30
10.0906
 70
192
 0
VERTEX
 8
FULGOR
 10
1.3781
 20
-4.1887
 30
9.9859
 70
192
 0
VERTEX
 8
FULGOR
 10
1.3822
 20
-4.1887
 30
9.9961
 70
192
 0
VERTEX
 8
FULGOR
 10
1.3568
 20
-4.1887
 30
10.1169
 70
192
 0
VERTEX
 8
FULGOR
 10
1.3853
 20
-4.1887
 30
10.0068
 70
192
 0
VERTEX
 8
FULGOR
 10
1.3864
 20
-4.1887
 30
10.0594
 70
192
 0
VERTEX
 8
FULGOR
 10
1.3154
 20
-4.1887
 30
10.1478
 70
192
 0
VERTEX
 8
FULGOR
 10
1.2927
 20
-4.1887
 30
10.1582
 70
192
 0
VERTEX
 8
FULGOR
 10
1.3838
 20
-4.1887
 30
10.0703
 70
192
 0
VERTEX
 8
FULGOR
 10
1.3703
 20
-4.1887
 30
10.0999
 70
192
 0
VERTEX
 8
FULGOR
 10
1.364
 20
-4.1887
 30
10.1087
 70
192
 0
VERTEX
 8
FULGOR
 10
1.3446
 20
-4.1887
 30
10.1284
 70
192
 0
VERTEX
 8
FULGOR
 10
1.0893
 20
-4.1887
 30
10.18
 70
192
 0
VERTEX
 8
FULGOR
 10
1.0459
 20
-4.1887
 30
10.1735
 70
192
 0
VERTEX
 8
FULGOR
 10
1.0126
 20
-4.1887
 30
10.1649
 70
192
 0
VERTEX
 8
FULGOR
 10
1.3308
 20
-4.1887
 30
10.1386
 70
192
 0
VERTEX
 8
FULGOR
 10
1.2677
 20
-4.1887
 30
10.1668
 70
192
 0
VERTEX
 8
FULGOR
 10
1.2338
 20
-4.1887
 30
10.1748
 70
192
 0
VERTEX
 8
FULGOR
 10
1.1898
 20
-4.1887
 30
10.1807
 70
192
 0
VERTEX
 8
FULGOR
 10
1.1433
 20
-4.1887
 30
10.1826
 70
192
 0
VERTEX
 8
FULGOR
 10
0.9881
 20
-4.1887
 30
10.1559
 70
192
 0
VERTEX
 8
FULGOR
 10
0.966
 20
-4.1887
 30
10.1449
 70
192
 0
VERTEX
 8
FULGOR
 10
0.9511
 20
-4.1887
 30
10.1354
 70
192
 0
VERTEX
 8
FULGOR
 10
0.9378
 20
-4.1887
 30
10.1248
 70
192
 0
VERTEX
 8
FULGOR
 10
0.9262
 20
-4.1887
 30
10.113
 70
192
 0
VERTEX
 8
FULGOR
 10
0.9195
 20
-4.1887
 30
10.1044
 70
192
 0
VERTEX
 8
FULGOR
 10
0.9136
 20
-4.1887
 30
10.0954
 70
192
 0
VERTEX
 8
FULGOR
 10
0.9086
 20
-4.1887
 30
10.0858
 70
192
 0
VERTEX
 8
FULGOR
 10
0.9046
 20
-4.1887
 30
10.0757
 70
192
 0
VERTEX
 8
FULGOR
 10
0.9015
 20
-4.1887
 30
10.065
 70
192
 0
VERTEX
 8
FULGOR
 10
1.9943
 20
-4.1887
 30
9.9973
 70
192
 0
VERTEX
 8
FULGOR
 10
0.8994
 20
-4.1887
 30
10.0537
 70
192
 0
VERTEX
 8
FULGOR
 10
0.8987
 20
-4.1887
 30
10.0479
 70
192
 0
VERTEX
 8
FULGOR
 10
1.7454
 20
-4.1887
 30
9.7854
 70
192
 0
VERTEX
 8
FULGOR
 10
1.9001
 20
-4.1887
 30
9.7854
 70
192
 0
VERTEX
 8
FULGOR
 10
1.9001
 20
-4.1887
 30
9.9973
 70
192
 0
VERTEX
 8
FULGOR
 10
2.1035
 20
-4.1887
 30
9.9471
 70
192
 0
VERTEX
 8
FULGOR
 10
2.1155
 20
-4.1887
 30
9.9343
 70
192
 0
VERTEX
 8
FULGOR
 10
2.2242
 20
-4.1887
 30
9.7854
 70
192
 0
VERTEX
 8
FULGOR
 10
2.5002
 20
-4.1887
 30
9.7854
 70
192
 0
VERTEX
 8
FULGOR
 10
2.4632
 20
-4.1887
 30
9.8048
 70
192
 0
VERTEX
 8
FULGOR
 10
2.0454
 20
-4.1887
 30
9.9869
 70
192
 0
VERTEX
 8
FULGOR
 10
2.0581
 20
-4.1887
 30
9.981
 70
192
 0
VERTEX
 8
FULGOR
 10
2.4094
 20
-4.1887
 30
9.8419
 70
192
 0
VERTEX
 8
FULGOR
 10
2.3691
 20
-4.1887
 30
9.8795
 70
192
 0
VERTEX
 8
FULGOR
 10
1.7454
 20
-4.1887
 30
10.0863
 70
192
 0
VERTEX
 8
FULGOR
 10
2.3179
 20
-4.1887
 30
9.9486
 70
192
 0
VERTEX
 8
FULGOR
 10
2.2929
 20
-4.1887
 30
9.9767
 70
192
 0
VERTEX
 8
FULGOR
 10
2.2693
 20
-4.1887
 30
9.9969
 70
192
 0
VERTEX
 8
FULGOR
 10
2.0883
 20
-4.1887
 30
9.9608
 70
192
 0
VERTEX
 8
FULGOR
 10
1.2619
 20
-4.1887
 30
9.7965
 70
192
 0
VERTEX
 8
FULGOR
 10
2.2126
 20
-4.1887
 30
10.0274
 70
192
 0
VERTEX
 8
FULGOR
 10
2.432
 20
-4.1887
 30
9.8243
 70
192
 0
VERTEX
 8
FULGOR
 10
2.2875
 20
-4.1887
 30
10.0589
 70
192
 0
VERTEX
 8
FULGOR
 10
2.2466
 20
-4.1887
 30
10.0118
 70
192
 0
VERTEX
 8
FULGOR
 10
2.314
 20
-4.1887
 30
10.0806
 70
192
 0
VERTEX
 8
FULGOR
 10
2.2291
 20
-4.1887
 30
10.0211
 70
192
 0
VERTEX
 8
FULGOR
 10
2.3388
 20
-4.1887
 30
10.1191
 70
192
 0
VERTEX
 8
FULGOR
 10
2.3443
 20
-4.1887
 30
10.1404
 70
192
 0
VERTEX
 8
FULGOR
 10
2.2485
 20
-4.1887
 30
10.0388
 70
192
 0
VERTEX
 8
FULGOR
 10
2.342
 20
-4.1887
 30
10.1817
 70
192
 0
VERTEX
 8
FULGOR
 10
2.3328
 20
-4.1887
 30
10.2022
 70
192
 0
VERTEX
 8
FULGOR
 10
2.3187
 20
-4.1887
 30
10.22
 70
192
 0
VERTEX
 8
FULGOR
 10
2.2952
 20
-4.1887
 30
10.2387
 70
192
 0
VERTEX
 8
FULGOR
 10
2.3296
 20
-4.1887
 30
10.1004
 70
192
 0
VERTEX
 8
FULGOR
 10
2.1818
 20
-4.1887
 30
10.2783
 70
192
 0
VERTEX
 8
FULGOR
 10
2.1364
 20
-4.1887
 30
10.2843
 70
192
 0
VERTEX
 8
FULGOR
 10
2.3455
 20
-4.1887
 30
10.1583
 70
192
 0
VERTEX
 8
FULGOR
 10
1.9001
 20
-4.1887
 30
10.1974
 70
192
 0
VERTEX
 8
FULGOR
 10
2.2546
 20
-4.1887
 30
10.2589
 70
192
 0
VERTEX
 8
FULGOR
 10
2.0921
 20
-4.1887
 30
10.2866
 70
192
 0
VERTEX
 8
FULGOR
 10
1.7454
 20
-4.1887
 30
10.2866
 70
192
 0
VERTEX
 8
FULGOR
 10
1.9001
 20
-4.1887
 30
10.0865
 70
192
 0
VERTEX
 8
FULGOR
 10
2.0412
 20
-4.1887
 30
10.0863
 70
192
 0
VERTEX
 8
FULGOR
 10
2.0814
 20
-4.1887
 30
10.0896
 70
192
 0
VERTEX
 8
FULGOR
 10
2.1268
 20
-4.1887
 30
10.1059
 70
192
 0
VERTEX
 8
FULGOR
 10
2.1367
 20
-4.1887
 30
10.114
 70
192
 0
VERTEX
 8
FULGOR
 10
2.1429
 20
-4.1887
 30
10.1218
 70
192
 0
VERTEX
 8
FULGOR
 10
2.1484
 20
-4.1887
 30
10.1491
 70
192
 0
VERTEX
 8
FULGOR
 10
2.1458
 20
-4.1887
 30
10.1589
 70
192
 0
VERTEX
 8
FULGOR
 10
2.0731
 20
-4.1887
 30
10.1957
 70
192
 0
VERTEX
 8
FULGOR
 10
2.1235
 20
-4.1887
 30
10.1817
 70
192
 0
VERTEX
 8
FULGOR
 10
2.0555
 20
-4.1887
 30
10.1971
 70
192
 0
VERTEX
 8
FULGOR
 10
2.1054
 20
-4.1887
 30
10.1892
 70
192
 0
VERTEX
 8
FULGOR
 10
2.091
 20
-4.1887
 30
10.1928
 70
192
 0
VERTEX
 8
FULGOR
 10
0.9723
 20
-4.1887
 30
9.8056
 70
192
 0
VERTEX
 8
FULGOR
 10
0.9113
 20
-4.1887
 30
9.8211
 70
192
 0
VERTEX
 8
FULGOR
 10
2.0365
 20
-4.1887
 30
10.1974
 70
192
 0
VERTEX
 8
FULGOR
 10
2.0334
 20
-4.1887
 30
10.2866
 70
192
 0
VERTEX
 8
FULGOR
 10
2.1406
 20
-4.1887
 30
10.1673
 70
192
 0
VERTEX
 8
FULGOR
 10
2.1338
 20
-4.1887
 30
10.1744
 70
192
 0
VERTEX
 8
FULGOR
 10
2.1487
 20
-4.1887
 30
10.1396
 70
192
 0
VERTEX
 8
FULGOR
 10
2.1469
 20
-4.1887
 30
10.1306
 70
192
 0
VERTEX
 8
FULGOR
 10
1.9941
 20
-4.1887
 30
10.0864
 70
192
 0
VERTEX
 8
FULGOR
 10
2.2185
 20
-4.1887
 30
9.7932
 70
192
 0
VERTEX
 8
FULGOR
 10
2.2106
 20
-4.1887
 30
9.8042
 70
192
 0
VERTEX
 8
FULGOR
 10
0.1391
 20
-4.1887
 30
9.8941
 70
192
 0
VERTEX
 8
FULGOR
 10
2.1964
 20
-4.1887
 30
9.8238
 70
192
 0
VERTEX
 8
FULGOR
 10
2.1831
 20
-4.1887
 30
9.8421
 70
192
 0
VERTEX
 8
FULGOR
 10
0.1723
 20
-4.1887
 30
9.8899
 70
192
 0
VERTEX
 8
FULGOR
 10
1.7454
 20
-4.1887
 30
9.9971
 70
192
 0
VERTEX
 8
FULGOR
 10
2.1477
 20
-4.1887
 30
9.8911
 70
192
 0
VERTEX
 8
FULGOR
 10
2.1344
 20
-4.1887
 30
9.9095
 70
192
 0
VERTEX
 8
FULGOR
 10
-2.5004
 20
-4.1085
 30
9.7855
 70
192
 0
VERTEX
 8
FULGOR
 10
-2.3457
 20
-4.1085
 30
10.0823
 70
192
 0
VERTEX
 8
FULGOR
 10
-2.3457
 20
-4.1085
 30
10.1758
 70
192
 0
VERTEX
 8
FULGOR
 10
-1.966
 20
-4.1085
 30
10.1758
 70
192
 0
VERTEX
 8
FULGOR
 10
-1.966
 20
-4.1085
 30
10.2866
 70
192
 0
VERTEX
 8
FULGOR
 10
-2.5004
 20
-4.1085
 30
10.2866
 70
192
 0
VERTEX
 8
FULGOR
 10
-2.3457
 20
-4.1085
 30
9.7855
 70
192
 0
VERTEX
 8
FULGOR
 10
-2.3457
 20
-4.1085
 30
9.9932
 70
192
 0
VERTEX
 8
FULGOR
 10
-1.966
 20
-4.1085
 30
9.9932
 70
192
 0
VERTEX
 8
FULGOR
 10
-1.966
 20
-4.1085
 30
10.0823
 70
192
 0
VERTEX
 8
FULGOR
 10
-1.8089
 20
-4.1085
 30
10.0033
 70
192
 0
VERTEX
 8
FULGOR
 10
-1.8076
 20
-4.1085
 30
9.9799
 70
192
 0
VERTEX
 8
FULGOR
 10
-1.804
 20
-4.1085
 30
9.9582
 70
192
 0
VERTEX
 8
FULGOR
 10
-1.8089
 20
-4.1085
 30
10.2866
 70
192
 0
VERTEX
 8
FULGOR
 10
-1.7983
 20
-4.1085
 30
9.9383
 70
192
 0
VERTEX
 8
FULGOR
 10
-1.7906
 20
-4.1085
 30
9.92
 70
192
 0
VERTEX
 8
FULGOR
 10
-1.781
 20
-4.1085
 30
9.9033
 70
192
 0
VERTEX
 8
FULGOR
 10
-1.7696
 20
-4.1085
 30
9.8881
 70
192
 0
VERTEX
 8
FULGOR
 10
-1.6322
 20
-4.1085
 30
9.8115
 70
192
 0
VERTEX
 8
FULGOR
 10
-1.5791
 20
-4.1085
 30
9.8006
 70
192
 0
VERTEX
 8
FULGOR
 10
-1.4929
 20
-4.1085
 30
9.7914
 70
192
 0
VERTEX
 8
FULGOR
 10
-1.4035
 20
-4.1085
 30
9.7886
 70
192
 0
VERTEX
 8
FULGOR
 10
-1.3035
 20
-4.1085
 30
9.7922
 70
192
 0
VERTEX
 8
FULGOR
 10
-1.2281
 20
-4.1085
 30
9.8022
 70
192
 0
VERTEX
 8
FULGOR
 10
-1.7566
 20
-4.1085
 30
9.8743
 70
192
 0
VERTEX
 8
FULGOR
 10
-1.1352
 20
-4.1085
 30
9.8275
 70
192
 0
VERTEX
 8
FULGOR
 10
-1.7422
 20
-4.1085
 30
9.8618
 70
192
 0
VERTEX
 8
FULGOR
 10
-1.7264
 20
-4.1085
 30
9.8506
 70
192
 0
VERTEX
 8
FULGOR
 10
-1.7005
 20
-4.1085
 30
9.8361
 70
192
 0
VERTEX
 8
FULGOR
 10
-1.6723
 20
-4.1085
 30
9.8241
 70
192
 0
VERTEX
 8
FULGOR
 10
-1.0325
 20
-4.1085
 30
9.8968
 70
192
 0
VERTEX
 8
FULGOR
 10
-1.1753
 20
-4.1085
 30
9.8143
 70
192
 0
VERTEX
 8
FULGOR
 10
-1.1072
 20
-4.1085
 30
9.8398
 70
192
 0
VERTEX
 8
FULGOR
 10
-1.0814
 20
-4.1085
 30
9.8541
 70
192
 0
VERTEX
 8
FULGOR
 10
-1.0583
 20
-4.1085
 30
9.8708
 70
192
 0
VERTEX
 8
FULGOR
 10
-1.0006
 20
-4.1085
 30
9.9731
 70
192
 0
VERTEX
 8
FULGOR
 10
-0.9994
 20
-4.1085
 30
9.9937
 70
192
 0
VERTEX
 8
FULGOR
 10
-0.9992
 20
-4.1085
 30
10.2866
 70
192
 0
VERTEX
 8
FULGOR
 10
-1.0446
 20
-4.1085
 30
9.8832
 70
192
 0
VERTEX
 8
FULGOR
 10
-1.022
 20
-4.1085
 30
9.9116
 70
192
 0
VERTEX
 8
FULGOR
 10
-1.154
 20
-4.1085
 30
9.9952
 70
192
 0
VERTEX
 8
FULGOR
 10
-1.1548
 20
-4.1085
 30
9.9882
 70
192
 0
VERTEX
 8
FULGOR
 10
-1.1564
 20
-4.1085
 30
9.9812
 70
192
 0
VERTEX
 8
FULGOR
 10
-1.1587
 20
-4.1085
 30
9.9742
 70
192
 0
VERTEX
 8
FULGOR
 10
-1.1618
 20
-4.1085
 30
9.9674
 70
192
 0
VERTEX
 8
FULGOR
 10
-1.1656
 20
-4.1085
 30
9.9607
 70
192
 0
VERTEX
 8
FULGOR
 10
-1.1702
 20
-4.1085
 30
9.9541
 70
192
 0
VERTEX
 8
FULGOR
 10
-1.1786
 20
-4.1085
 30
9.9445
 70
192
 0
VERTEX
 8
FULGOR
 10
-1.1888
 20
-4.1085
 30
9.9354
 70
192
 0
VERTEX
 8
FULGOR
 10
-1.2009
 20
-4.1085
 30
9.9268
 70
192
 0
VERTEX
 8
FULGOR
 10
-1.2149
 20
-4.1085
 30
9.9188
 70
192
 0
VERTEX
 8
FULGOR
 10
-1.0134
 20
-4.1085
 30
9.9276
 70
192
 0
VERTEX
 8
FULGOR
 10
-1.0067
 20
-4.1085
 30
9.9448
 70
192
 0
VERTEX
 8
FULGOR
 10
-1.0021
 20
-4.1085
 30
9.9633
 70
192
 0
VERTEX
 8
FULGOR
 10
-1.1538
 20
-4.1085
 30
10.2866
 70
192
 0
VERTEX
 8
FULGOR
 10
-1.1538
 20
-4.1085
 30
10.0023
 70
192
 0
VERTEX
 8
FULGOR
 10
-1.4916
 20
-4.1085
 30
9.8893
 70
192
 0
VERTEX
 8
FULGOR
 10
-1.2368
 20
-4.1085
 30
9.9091
 70
192
 0
VERTEX
 8
FULGOR
 10
-1.5648
 20
-4.1085
 30
9.903
 70
192
 0
VERTEX
 8
FULGOR
 10
-1.5875
 20
-4.1085
 30
9.9111
 70
192
 0
VERTEX
 8
FULGOR
 10
-1.2623
 20
-4.1085
 30
9.9008
 70
192
 0
VERTEX
 8
FULGOR
 10
-1.2997
 20
-4.1085
 30
9.8927
 70
192
 0
VERTEX
 8
FULGOR
 10
-1.3432
 20
-4.1085
 30
9.8874
 70
192
 0
VERTEX
 8
FULGOR
 10
-1.6319
 20
-4.1085
 30
9.9414
 70
192
 0
VERTEX
 8
FULGOR
 10
-1.6373
 20
-4.1085
 30
9.9482
 70
192
 0
VERTEX
 8
FULGOR
 10
-1.6419
 20
-4.1085
 30
9.9553
 70
192
 0
VERTEX
 8
FULGOR
 10
-1.6457
 20
-4.1085
 30
9.9628
 70
192
 0
VERTEX
 8
FULGOR
 10
-1.6488
 20
-4.1085
 30
9.9707
 70
192
 0
VERTEX
 8
FULGOR
 10
-1.404
 20
-4.1085
 30
9.8851
 70
192
 0
VERTEX
 8
FULGOR
 10
-1.6535
 20
-4.1085
 30
9.9921
 70
192
 0
VERTEX
 8
FULGOR
 10
-1.6543
 20
-4.1085
 30
10.0061
 70
192
 0
VERTEX
 8
FULGOR
 10
-1.6543
 20
-4.1085
 30
10.2866
 70
192
 0
VERTEX
 8
FULGOR
 10
-1.5385
 20
-4.1085
 30
9.8964
 70
192
 0
VERTEX
 8
FULGOR
 10
-1.6022
 20
-4.1085
 30
9.9182
 70
192
 0
VERTEX
 8
FULGOR
 10
-1.6149
 20
-4.1085
 30
9.9262
 70
192
 0
VERTEX
 8
FULGOR
 10
-1.6257
 20
-4.1085
 30
9.935
 70
192
 0
VERTEX
 8
FULGOR
 10
-1.6512
 20
-4.1085
 30
9.979
 70
192
 0
VERTEX
 8
FULGOR
 10
-0.6878
 20
-4.1085
 30
9.8962
 70
192
 0
VERTEX
 8
FULGOR
 10
-0.6878
 20
-4.1085
 30
10.2866
 70
192
 0
VERTEX
 8
FULGOR
 10
-0.8426
 20
-4.1085
 30
10.2866
 70
192
 0
VERTEX
 8
FULGOR
 10
-0.8426
 20
-4.1085
 30
9.7854
 70
192
 0
VERTEX
 8
FULGOR
 10
-0.3081
 20
-4.1085
 30
9.7854
 70
192
 0
VERTEX
 8
FULGOR
 10
-0.3081
 20
-4.1085
 30
9.8962
 70
192
 0
VERTEX
 8
FULGOR
 10
1.3399
 20
-4.1085
 30
9.8115
 70
192
 0
VERTEX
 8
FULGOR
 10
0.6982
 20
-4.1085
 30
10.036
 70
192
 0
VERTEX
 8
FULGOR
 10
0.6996
 20
-4.1085
 30
10.0137
 70
192
 0
VERTEX
 8
FULGOR
 10
0.718
 20
-4.1085
 30
9.9542
 70
192
 0
VERTEX
 8
FULGOR
 10
0.7284
 20
-4.1085
 30
9.9367
 70
192
 0
VERTEX
 8
FULGOR
 10
0.7408
 20
-4.1085
 30
9.9204
 70
192
 0
VERTEX
 8
FULGOR
 10
0.7549
 20
-4.1085
 30
9.9052
 70
192
 0
VERTEX
 8
FULGOR
 10
0.779
 20
-4.1085
 30
9.8843
 70
192
 0
VERTEX
 8
FULGOR
 10
0.7034
 20
-4.1085
 30
9.9927
 70
192
 0
VERTEX
 8
FULGOR
 10
0.7096
 20
-4.1085
 30
9.9728
 70
192
 0
VERTEX
 8
FULGOR
 10
1.0786
 20
-4.1085
 30
9.7895
 70
192
 0
VERTEX
 8
FULGOR
 10
1.1433
 20
-4.1085
 30
9.7869
 70
192
 0
VERTEX
 8
FULGOR
 10
0.8064
 20
-4.1085
 30
9.8658
 70
192
 0
VERTEX
 8
FULGOR
 10
1.3019
 20
-4.1085
 30
9.8022
 70
192
 0
VERTEX
 8
FULGOR
 10
0.8363
 20
-4.1085
 30
9.8495
 70
192
 0
VERTEX
 8
FULGOR
 10
0.8796
 20
-4.1085
 30
9.831
 70
192
 0
VERTEX
 8
FULGOR
 10
0.9372
 20
-4.1085
 30
9.813
 70
192
 0
VERTEX
 8
FULGOR
 10
1.0085
 20
-4.1085
 30
9.798
 70
192
 0
VERTEX
 8
FULGOR
 10
1.2195
 20
-4.1085
 30
9.7905
 70
192
 0
VERTEX
 8
FULGOR
 10
1.5389
 20
-4.1085
 30
9.9127
 70
192
 0
VERTEX
 8
FULGOR
 10
1.3728
 20
-4.1085
 30
9.8196
 70
192
 0
VERTEX
 8
FULGOR
 10
1.429
 20
-4.1085
 30
9.8399
 70
192
 0
VERTEX
 8
FULGOR
 10
1.4704
 20
-4.1085
 30
9.8602
 70
192
 0
VERTEX
 8
FULGOR
 10
1.4987
 20
-4.1085
 30
9.8779
 70
192
 0
VERTEX
 8
FULGOR
 10
1.5239
 20
-4.1085
 30
9.898
 70
192
 0
VERTEX
 8
FULGOR
 10
1.587
 20
-4.1085
 30
10.0136
 70
192
 0
VERTEX
 8
FULGOR
 10
1.5883
 20
-4.1085
 30
10.0358
 70
192
 0
VERTEX
 8
FULGOR
 10
1.587
 20
-4.1085
 30
10.0581
 70
192
 0
VERTEX
 8
FULGOR
 10
1.5832
 20
-4.1085
 30
10.0791
 70
192
 0
VERTEX
 8
FULGOR
 10
1.5521
 20
-4.1085
 30
9.9284
 70
192
 0
VERTEX
 8
FULGOR
 10
1.5636
 20
-4.1085
 30
9.9453
 70
192
 0
VERTEX
 8
FULGOR
 10
1.573
 20
-4.1085
 30
9.9633
 70
192
 0
VERTEX
 8
FULGOR
 10
1.546
 20
-4.1085
 30
10.1513
 70
192
 0
VERTEX
 8
FULGOR
 10
1.5319
 20
-4.1085
 30
10.1666
 70
192
 0
VERTEX
 8
FULGOR
 10
1.5077
 20
-4.1085
 30
10.1874
 70
192
 0
VERTEX
 8
FULGOR
 10
1.4804
 20
-4.1085
 30
10.206
 70
192
 0
VERTEX
 8
FULGOR
 10
1.4504
 20
-4.1085
 30
10.2223
 70
192
 0
VERTEX
 8
FULGOR
 10
1.4072
 20
-4.1085
 30
10.2408
 70
192
 0
VERTEX
 8
FULGOR
 10
1.5803
 20
-4.1085
 30
9.9825
 70
192
 0
VERTEX
 8
FULGOR
 10
1.5853
 20
-4.1085
 30
10.0029
 70
192
 0
VERTEX
 8
FULGOR
 10
1.5771
 20
-4.1085
 30
10.0989
 70
192
 0
VERTEX
 8
FULGOR
 10
1.5688
 20
-4.1085
 30
10.1175
 70
192
 0
VERTEX
 8
FULGOR
 10
1.0672
 20
-4.1085
 30
10.2815
 70
192
 0
VERTEX
 8
FULGOR
 10
1.5583
 20
-4.1085
 30
10.135
 70
192
 0
VERTEX
 8
FULGOR
 10
1.3495
 20
-4.1085
 30
10.2589
 70
192
 0
VERTEX
 8
FULGOR
 10
1.2781
 20
-4.1085
 30
10.274
 70
192
 0
VERTEX
 8
FULGOR
 10
1.2081
 20
-4.1085
 30
10.2825
 70
192
 0
VERTEX
 8
FULGOR
 10
0.7877
 20
-4.1085
 30
10.1941
 70
192
 0
VERTEX
 8
FULGOR
 10
0.7624
 20
-4.1085
 30
10.1741
 70
192
 0
VERTEX
 8
FULGOR
 10
0.7475
 20
-4.1085
 30
10.1594
 70
192
 0
VERTEX
 8
FULGOR
 10
0.7342
 20
-4.1085
 30
10.1436
 70
192
 0
VERTEX
 8
FULGOR
 10
0.7228
 20
-4.1085
 30
10.1267
 70
192
 0
VERTEX
 8
FULGOR
 10
0.7134
 20
-4.1085
 30
10.1086
 70
192
 0
VERTEX
 8
FULGOR
 10
0.7061
 20
-4.1085
 30
10.0894
 70
192
 0
VERTEX
 8
FULGOR
 10
1.1433
 20
-4.1085
 30
10.2851
 70
192
 0
VERTEX
 8
FULGOR
 10
0.6995
 20
-4.1085
 30
10.0583
 70
192
 0
VERTEX
 8
FULGOR
 10
0.8982
 20
-4.1085
 30
10.0358
 70
192
 0
VERTEX
 8
FULGOR
 10
0.8987
 20
-4.1085
 30
10.0238
 70
192
 0
VERTEX
 8
FULGOR
 10
0.9847
 20
-4.1085
 30
10.2698
 70
192
 0
VERTEX
 8
FULGOR
 10
0.9137
 20
-4.1085
 30
10.2524
 70
192
 0
VERTEX
 8
FULGOR
 10
0.8574
 20
-4.1085
 30
10.2322
 70
192
 0
VERTEX
 8
FULGOR
 10
0.816
 20
-4.1085
 30
10.2119
 70
192
 0
VERTEX
 8
FULGOR
 10
0.7011
 20
-4.1085
 30
10.069
 70
192
 0
VERTEX
 8
FULGOR
 10
0.9227
 20
-4.1085
 30
9.9629
 70
192
 0
VERTEX
 8
FULGOR
 10
0.9298
 20
-4.1085
 30
9.9546
 70
192
 0
VERTEX
 8
FULGOR
 10
0.9003
 20
-4.1085
 30
10.0123
 70
192
 0
VERTEX
 8
FULGOR
 10
0.9029
 20
-4.1085
 30
10.0013
 70
192
 0
VERTEX
 8
FULGOR
 10
0.9065
 20
-4.1085
 30
9.9909
 70
192
 0
VERTEX
 8
FULGOR
 10
0.911
 20
-4.1085
 30
9.981
 70
192
 0
VERTEX
 8
FULGOR
 10
1.0189
 20
-4.1085
 30
9.9045
 70
192
 0
VERTEX
 8
FULGOR
 10
1.0528
 20
-4.1085
 30
9.8965
 70
192
 0
VERTEX
 8
FULGOR
 10
0.9164
 20
-4.1085
 30
9.9717
 70
192
 0
VERTEX
 8
FULGOR
 10
1.1433
 20
-4.1085
 30
9.8886
 70
192
 0
VERTEX
 8
FULGOR
 10
1.1974
 20
-4.1085
 30
9.8913
 70
192
 0
VERTEX
 8
FULGOR
 10
0.942
 20
-4.1085
 30
9.9431
 70
192
 0
VERTEX
 8
FULGOR
 10
1.2742
 20
-4.1085
 30
9.9066
 70
192
 0
VERTEX
 8
FULGOR
 10
1.2986
 20
-4.1085
 30
9.9156
 70
192
 0
VERTEX
 8
FULGOR
 10
1.3208
 20
-4.1085
 30
9.9266
 70
192
 0
VERTEX
 8
FULGOR
 10
0.9558
 20
-4.1085
 30
9.9328
 70
192
 0
VERTEX
 8
FULGOR
 10
1.3489
 20
-4.1085
 30
9.9469
 70
192
 0
VERTEX
 8
FULGOR
 10
0.9712
 20
-4.1085
 30
9.9236
 70
192
 0
VERTEX
 8
FULGOR
 10
0.9939
 20
-4.1085
 30
9.9131
 70
192
 0
VERTEX
 8
FULGOR
 10
1.3731
 20
-4.1085
 30
9.9763
 70
192
 0
VERTEX
 8
FULGOR
 10
1.0968
 20
-4.1085
 30
9.8906
 70
192
 0
VERTEX
 8
FULGOR
 10
1.2408
 20
-4.1085
 30
9.8979
 70
192
 0
VERTEX
 8
FULGOR
 10
1.3356
 20
-4.1085
 30
9.9362
 70
192
 0
VERTEX
 8
FULGOR
 10
1.3873
 20
-4.1085
 30
10.018
 70
192
 0
VERTEX
 8
FULGOR
 10
1.388
 20
-4.1085
 30
10.0238
 70
192
 0
VERTEX
 8
FULGOR
 10
1.3886
 20
-4.1085
 30
10.0358
 70
192
 0
VERTEX
 8
FULGOR
 10
1.388
 20
-4.1085
 30
10.0479
 70
192
 0
VERTEX
 8
FULGOR
 10
1.3605
 20
-4.1085
 30
9.9587
 70
192
 0
VERTEX
 8
FULGOR
 10
1.3673
 20
-4.1085
 30
9.9673
 70
192
 0
VERTEX
 8
FULGOR
 10
1.3802
 20
-4.1085
 30
10.0807
 70
192
 0
VERTEX
 8
FULGOR
 10
1.3757
 20
-4.1085
 30
10.0906
 70
192
 0
VERTEX
 8
FULGOR
 10
1.3781
 20
-4.1085
 30
9.9859
 70
192
 0
VERTEX
 8
FULGOR
 10
1.3822
 20
-4.1085
 30
9.9961
 70
192
 0
VERTEX
 8
FULGOR
 10
1.3568
 20
-4.1085
 30
10.1169
 70
192
 0
VERTEX
 8
FULGOR
 10
1.3853
 20
-4.1085
 30
10.0068
 70
192
 0
VERTEX
 8
FULGOR
 10
1.3864
 20
-4.1085
 30
10.0594
 70
192
 0
VERTEX
 8
FULGOR
 10
1.3154
 20
-4.1085
 30
10.1478
 70
192
 0
VERTEX
 8
FULGOR
 10
1.2927
 20
-4.1085
 30
10.1582
 70
192
 0
VERTEX
 8
FULGOR
 10
1.3838
 20
-4.1085
 30
10.0703
 70
192
 0
VERTEX
 8
FULGOR
 10
1.3703
 20
-4.1085
 30
10.0999
 70
192
 0
VERTEX
 8
FULGOR
 10
1.364
 20
-4.1085
 30
10.1087
 70
192
 0
VERTEX
 8
FULGOR
 10
1.3446
 20
-4.1085
 30
10.1284
 70
192
 0
VERTEX
 8
FULGOR
 10
1.0893
 20
-4.1085
 30
10.18
 70
192
 0
VERTEX
 8
FULGOR
 10
1.0459
 20
-4.1085
 30
10.1735
 70
192
 0
VERTEX
 8
FULGOR
 10
1.0126
 20
-4.1085
 30
10.1649
 70
192
 0
VERTEX
 8
FULGOR
 10
1.3308
 20
-4.1085
 30
10.1386
 70
192
 0
VERTEX
 8
FULGOR
 10
1.2677
 20
-4.1085
 30
10.1668
 70
192
 0
VERTEX
 8
FULGOR
 10
1.2338
 20
-4.1085
 30
10.1748
 70
192
 0
VERTEX
 8
FULGOR
 10
1.1898
 20
-4.1085
 30
10.1807
 70
192
 0
VERTEX
 8
FULGOR
 10
1.1433
 20
-4.1085
 30
10.1826
 70
192
 0
VERTEX
 8
FULGOR
 10
0.9881
 20
-4.1085
 30
10.1559
 70
192
 0
VERTEX
 8
FULGOR
 10
0.966
 20
-4.1085
 30
10.1449
 70
192
 0
VERTEX
 8
FULGOR
 10
0.9511
 20
-4.1085
 30
10.1354
 70
192
 0
VERTEX
 8
FULGOR
 10
0.9378
 20
-4.1085
 30
10.1248
 70
192
 0
VERTEX
 8
FULGOR
 10
0.9262
 20
-4.1085
 30
10.113
 70
192
 0
VERTEX
 8
FULGOR
 10
0.9195
 20
-4.1085
 30
10.1044
 70
192
 0
VERTEX
 8
FULGOR
 10
0.9136
 20
-4.1085
 30
10.0954
 70
192
 0
VERTEX
 8
FULGOR
 10
0.9086
 20
-4.1085
 30
10.0858
 70
192
 0
VERTEX
 8
FULGOR
 10
0.9046
 20
-4.1085
 30
10.0757
 70
192
 0
VERTEX
 8
FULGOR
 10
0.9015
 20
-4.1085
 30
10.065
 70
192
 0
VERTEX
 8
FULGOR
 10
0.8994
 20
-4.1085
 30
10.0537
 70
192
 0
VERTEX
 8
FULGOR
 10
0.8987
 20
-4.1085
 30
10.0479
 70
192
 0
VERTEX
 8
FULGOR
 10
1.2619
 20
-4.1085
 30
9.7965
 70
192
 0
VERTEX
 8
FULGOR
 10
0.9723
 20
-4.1085
 30
9.8056
 70
192
 0
VERTEX
 8
FULGOR
 10
0.9113
 20
-4.1085
 30
9.8211
 70
192
 0
VERTEX
 8
FULGOR
 10
0.219
 20
-4.1085
 30
9.8882
 70
192
 0
VERTEX
 8
FULGOR
 10
0.5411
 20
-4.1085
 30
10.2404
 70
192
 0
VERTEX
 8
FULGOR
 10
0.2351
 20
-4.1085
 30
10.2861
 70
192
 0
VERTEX
 8
FULGOR
 10
0.4538
 20
-4.1085
 30
10.2602
 70
192
 0
VERTEX
 8
FULGOR
 10
0.3612
 20
-4.1085
 30
10.2749
 70
192
 0
VERTEX
 8
FULGOR
 10
0.1648
 20
-4.1085
 30
10.286
 70
192
 0
VERTEX
 8
FULGOR
 10
-0.1067
 20
-4.1085
 30
10.2102
 70
192
 0
VERTEX
 8
FULGOR
 10
-0.1331
 20
-4.1085
 30
10.193
 70
192
 0
VERTEX
 8
FULGOR
 10
-0.1553
 20
-4.1085
 30
10.1752
 70
192
 0
VERTEX
 8
FULGOR
 10
-0.1742
 20
-4.1085
 30
10.1568
 70
192
 0
VERTEX
 8
FULGOR
 10
0.101
 20
-4.1085
 30
10.2796
 70
192
 0
VERTEX
 8
FULGOR
 10
0.0443
 20
-4.1085
 30
10.2687
 70
192
 0
VERTEX
 8
FULGOR
 10
-0.0114
 20
-4.1085
 30
10.2527
 70
192
 0
VERTEX
 8
FULGOR
 10
-0.2166
 20
-4.1085
 30
10.0889
 70
192
 0
VERTEX
 8
FULGOR
 10
-0.2211
 20
-4.1085
 30
10.0745
 70
192
 0
VERTEX
 8
FULGOR
 10
-0.0617
 20
-4.1085
 30
10.2331
 70
192
 0
VERTEX
 8
FULGOR
 10
-0.0875
 20
-4.1085
 30
10.2207
 70
192
 0
VERTEX
 8
FULGOR
 10
-0.1889
 20
-4.1085
 30
10.1393
 70
192
 0
VERTEX
 8
FULGOR
 10
-0.2255
 20
-4.1085
 30
10.0158
 70
192
 0
VERTEX
 8
FULGOR
 10
-0.1996
 20
-4.1085
 30
10.1238
 70
192
 0
VERTEX
 8
FULGOR
 10
-0.209
 20
-4.1085
 30
10.107
 70
192
 0
VERTEX
 8
FULGOR
 10
-0.2243
 20
-4.1085
 30
10.0593
 70
192
 0
VERTEX
 8
FULGOR
 10
-0.2257
 20
-4.1085
 30
10.0488
 70
192
 0
VERTEX
 8
FULGOR
 10
-0.2265
 20
-4.1085
 30
10.0324
 70
192
 0
VERTEX
 8
FULGOR
 10
-0.2225
 20
-4.1085
 30
9.9996
 70
192
 0
VERTEX
 8
FULGOR
 10
-0.1575
 20
-4.1085
 30
9.8994
 70
192
 0
VERTEX
 8
FULGOR
 10
-0.133
 20
-4.1085
 30
9.8796
 70
192
 0
VERTEX
 8
FULGOR
 10
-0.2178
 20
-4.1085
 30
9.9838
 70
192
 0
VERTEX
 8
FULGOR
 10
-0.065
 20
-4.1085
 30
9.8397
 70
192
 0
VERTEX
 8
FULGOR
 10
-0.0278
 20
-4.1085
 30
9.8242
 70
192
 0
VERTEX
 8
FULGOR
 10
-0.2114
 20
-4.1085
 30
9.9685
 70
192
 0
VERTEX
 8
FULGOR
 10
-0.2034
 20
-4.1085
 30
9.9536
 70
192
 0
VERTEX
 8
FULGOR
 10
0.1472
 20
-4.1085
 30
9.788
 70
192
 0
VERTEX
 8
FULGOR
 10
0.1955
 20
-4.1085
 30
9.7857
 70
192
 0
VERTEX
 8
FULGOR
 10
0.2351
 20
-4.1085
 30
9.7859
 70
192
 0
VERTEX
 8
FULGOR
 10
0.2979
 20
-4.1085
 30
9.7895
 70
192
 0
VERTEX
 8
FULGOR
 10
-0.1904
 20
-4.1085
 30
9.9346
 70
192
 0
VERTEX
 8
FULGOR
 10
-0.175
 20
-4.1085
 30
9.9165
 70
192
 0
VERTEX
 8
FULGOR
 10
-0.1003
 20
-4.1085
 30
9.8582
 70
192
 0
VERTEX
 8
FULGOR
 10
0.3634
 20
-4.1085
 30
10.0456
 70
192
 0
VERTEX
 8
FULGOR
 10
0.0228
 20
-4.1085
 30
9.8084
 70
192
 0
VERTEX
 8
FULGOR
 10
0.0786
 20
-4.1085
 30
9.7964
 70
192
 0
VERTEX
 8
FULGOR
 10
0.3758
 20
-4.1085
 30
9.7998
 70
192
 0
VERTEX
 8
FULGOR
 10
0.5411
 20
-4.1085
 30
9.8316
 70
192
 0
VERTEX
 8
FULGOR
 10
0.1899
 20
-4.1085
 30
9.8885
 70
192
 0
VERTEX
 8
FULGOR
 10
0.1559
 20
-4.1085
 30
9.8912
 70
192
 0
VERTEX
 8
FULGOR
 10
0.5411
 20
-4.1085
 30
10.0456
 70
192
 0
VERTEX
 8
FULGOR
 10
0.0923
 20
-4.1085
 30
9.9054
 70
192
 0
VERTEX
 8
FULGOR
 10
0.0692
 20
-4.1085
 30
9.9144
 70
192
 0
VERTEX
 8
FULGOR
 10
0.3633
 20
-4.1085
 30
9.8989
 70
192
 0
VERTEX
 8
FULGOR
 10
0.3431
 20
-4.1085
 30
9.8952
 70
192
 0
VERTEX
 8
FULGOR
 10
0.0158
 20
-4.1085
 30
9.9483
 70
192
 0
VERTEX
 8
FULGOR
 10
0.2874
 20
-4.1085
 30
9.8895
 70
192
 0
VERTEX
 8
FULGOR
 10
0.2464
 20
-4.1085
 30
9.8879
 70
192
 0
VERTEX
 8
FULGOR
 10
0.1232
 20
-4.1085
 30
9.8968
 70
192
 0
VERTEX
 8
FULGOR
 10
0.0479
 20
-4.1085
 30
9.9252
 70
192
 0
VERTEX
 8
FULGOR
 10
-0.0234
 20
-4.1085
 30
10.0106
 70
192
 0
VERTEX
 8
FULGOR
 10
-0.0258
 20
-4.1085
 30
10.0211
 70
192
 0
VERTEX
 8
FULGOR
 10
-0.0272
 20
-4.1085
 30
10.0321
 70
192
 0
VERTEX
 8
FULGOR
 10
-0.0277
 20
-4.1085
 30
10.0435
 70
192
 0
VERTEX
 8
FULGOR
 10
-0.0271
 20
-4.1085
 30
10.0549
 70
192
 0
VERTEX
 8
FULGOR
 10
0.0287
 20
-4.1085
 30
9.9377
 70
192
 0
VERTEX
 8
FULGOR
 10
0.0044
 20
-4.1085
 30
9.9599
 70
192
 0
VERTEX
 8
FULGOR
 10
-0.0055
 20
-4.1085
 30
9.9724
 70
192
 0
VERTEX
 8
FULGOR
 10
-0.013
 20
-4.1085
 30
10.0952
 70
192
 0
VERTEX
 8
FULGOR
 10
-0.007
 20
-4.1085
 30
10.104
 70
192
 0
VERTEX
 8
FULGOR
 10
-0.0001
 20
-4.1085
 30
10.1123
 70
192
 0
VERTEX
 8
FULGOR
 10
-0.0137
 20
-4.1085
 30
9.9859
 70
192
 0
VERTEX
 8
FULGOR
 10
0.0251
 20
-4.1085
 30
10.1344
 70
192
 0
VERTEX
 8
FULGOR
 10
0.0398
 20
-4.1085
 30
10.1438
 70
192
 0
VERTEX
 8
FULGOR
 10
-0.0202
 20
-4.1085
 30
10.0004
 70
192
 0
VERTEX
 8
FULGOR
 10
0.0891
 20
-4.1085
 30
10.1658
 70
192
 0
VERTEX
 8
FULGOR
 10
0.1182
 20
-4.1085
 30
10.1741
 70
192
 0
VERTEX
 8
FULGOR
 10
-0.0252
 20
-4.1085
 30
10.0657
 70
192
 0
VERTEX
 8
FULGOR
 10
0.1692
 20
-4.1085
 30
10.1821
 70
192
 0
VERTEX
 8
FULGOR
 10
-0.0222
 20
-4.1085
 30
10.0761
 70
192
 0
VERTEX
 8
FULGOR
 10
0.2937
 20
-4.1085
 30
10.178
 70
192
 0
VERTEX
 8
FULGOR
 10
-0.0181
 20
-4.1085
 30
10.0859
 70
192
 0
VERTEX
 8
FULGOR
 10
0.5411
 20
-4.1085
 30
10.1335
 70
192
 0
VERTEX
 8
FULGOR
 10
0.0118
 20
-4.1085
 30
10.1239
 70
192
 0
VERTEX
 8
FULGOR
 10
0.0609
 20
-4.1085
 30
10.1548
 70
192
 0
VERTEX
 8
FULGOR
 10
0.1526
 20
-4.1085
 30
10.1804
 70
192
 0
VERTEX
 8
FULGOR
 10
0.1899
 20
-4.1085
 30
10.183
 70
192
 0
VERTEX
 8
FULGOR
 10
0.3902
 20
-4.1085
 30
10.1642
 70
192
 0
VERTEX
 8
FULGOR
 10
0.1391
 20
-4.1085
 30
9.8941
 70
192
 0
VERTEX
 8
FULGOR
 10
0.1723
 20
-4.1085
 30
9.8899
 70
192
 0
VERTEX
 8
FULGOR
 10
1.9943
 20
-4.1085
 30
9.9973
 70
192
 0
VERTEX
 8
FULGOR
 10
1.7454
 20
-4.1085
 30
9.7854
 70
192
 0
VERTEX
 8
FULGOR
 10
1.9001
 20
-4.1085
 30
9.7854
 70
192
 0
VERTEX
 8
FULGOR
 10
1.9001
 20
-4.1085
 30
9.9973
 70
192
 0
VERTEX
 8
FULGOR
 10
2.1035
 20
-4.1085
 30
9.9471
 70
192
 0
VERTEX
 8
FULGOR
 10
2.1155
 20
-4.1085
 30
9.9343
 70
192
 0
VERTEX
 8
FULGOR
 10
2.2242
 20
-4.1085
 30
9.7854
 70
192
 0
VERTEX
 8
FULGOR
 10
2.5002
 20
-4.1085
 30
9.7854
 70
192
 0
VERTEX
 8
FULGOR
 10
2.4632
 20
-4.1085
 30
9.8048
 70
192
 0
VERTEX
 8
FULGOR
 10
2.0454
 20
-4.1085
 30
9.9869
 70
192
 0
VERTEX
 8
FULGOR
 10
2.0581
 20
-4.1085
 30
9.981
 70
192
 0
VERTEX
 8
FULGOR
 10
2.4094
 20
-4.1085
 30
9.8419
 70
192
 0
VERTEX
 8
FULGOR
 10
2.3691
 20
-4.1085
 30
9.8795
 70
192
 0
VERTEX
 8
FULGOR
 10
1.7454
 20
-4.1085
 30
10.0863
 70
192
 0
VERTEX
 8
FULGOR
 10
2.3179
 20
-4.1085
 30
9.9486
 70
192
 0
VERTEX
 8
FULGOR
 10
2.2929
 20
-4.1085
 30
9.9767
 70
192
 0
VERTEX
 8
FULGOR
 10
2.2693
 20
-4.1085
 30
9.9969
 70
192
 0
VERTEX
 8
FULGOR
 10
2.0883
 20
-4.1085
 30
9.9608
 70
192
 0
VERTEX
 8
FULGOR
 10
2.2126
 20
-4.1085
 30
10.0274
 70
192
 0
VERTEX
 8
FULGOR
 10
2.432
 20
-4.1085
 30
9.8243
 70
192
 0
VERTEX
 8
FULGOR
 10
2.2875
 20
-4.1085
 30
10.0589
 70
192
 0
VERTEX
 8
FULGOR
 10
2.2466
 20
-4.1085
 30
10.0118
 70
192
 0
VERTEX
 8
FULGOR
 10
2.314
 20
-4.1085
 30
10.0806
 70
192
 0
VERTEX
 8
FULGOR
 10
2.2291
 20
-4.1085
 30
10.0211
 70
192
 0
VERTEX
 8
FULGOR
 10
2.3388
 20
-4.1085
 30
10.1191
 70
192
 0
VERTEX
 8
FULGOR
 10
2.3443
 20
-4.1085
 30
10.1404
 70
192
 0
VERTEX
 8
FULGOR
 10
2.2485
 20
-4.1085
 30
10.0388
 70
192
 0
VERTEX
 8
FULGOR
 10
2.342
 20
-4.1085
 30
10.1817
 70
192
 0
VERTEX
 8
FULGOR
 10
2.3328
 20
-4.1085
 30
10.2022
 70
192
 0
VERTEX
 8
FULGOR
 10
2.3187
 20
-4.1085
 30
10.22
 70
192
 0
VERTEX
 8
FULGOR
 10
2.2952
 20
-4.1085
 30
10.2387
 70
192
 0
VERTEX
 8
FULGOR
 10
2.3296
 20
-4.1085
 30
10.1004
 70
192
 0
VERTEX
 8
FULGOR
 10
2.1818
 20
-4.1085
 30
10.2783
 70
192
 0
VERTEX
 8
FULGOR
 10
2.1364
 20
-4.1085
 30
10.2843
 70
192
 0
VERTEX
 8
FULGOR
 10
2.3455
 20
-4.1085
 30
10.1583
 70
192
 0
VERTEX
 8
FULGOR
 10
1.9001
 20
-4.1085
 30
10.1974
 70
192
 0
VERTEX
 8
FULGOR
 10
2.2546
 20
-4.1085
 30
10.2589
 70
192
 0
VERTEX
 8
FULGOR
 10
2.0921
 20
-4.1085
 30
10.2866
 70
192
 0
VERTEX
 8
FULGOR
 10
1.7454
 20
-4.1085
 30
10.2866
 70
192
 0
VERTEX
 8
FULGOR
 10
1.9001
 20
-4.1085
 30
10.0865
 70
192
 0
VERTEX
 8
FULGOR
 10
2.0412
 20
-4.1085
 30
10.0863
 70
192
 0
VERTEX
 8
FULGOR
 10
2.0814
 20
-4.1085
 30
10.0896
 70
192
 0
VERTEX
 8
FULGOR
 10
2.1268
 20
-4.1085
 30
10.1059
 70
192
 0
VERTEX
 8
FULGOR
 10
2.1367
 20
-4.1085
 30
10.114
 70
192
 0
VERTEX
 8
FULGOR
 10
2.1429
 20
-4.1085
 30
10.1218
 70
192
 0
VERTEX
 8
FULGOR
 10
2.1484
 20
-4.1085
 30
10.1491
 70
192
 0
VERTEX
 8
FULGOR
 10
2.1458
 20
-4.1085
 30
10.1589
 70
192
 0
VERTEX
 8
FULGOR
 10
2.0731
 20
-4.1085
 30
10.1957
 70
192
 0
VERTEX
 8
FULGOR
 10
2.1235
 20
-4.1085
 30
10.1817
 70
192
 0
VERTEX
 8
FULGOR
 10
2.0555
 20
-4.1085
 30
10.1971
 70
192
 0
VERTEX
 8
FULGOR
 10
2.1054
 20
-4.1085
 30
10.1892
 70
192
 0
VERTEX
 8
FULGOR
 10
2.091
 20
-4.1085
 30
10.1928
 70
192
 0
VERTEX
 8
FULGOR
 10
2.0365
 20
-4.1085
 30
10.1974
 70
192
 0
VERTEX
 8
FULGOR
 10
2.0334
 20
-4.1085
 30
10.2866
 70
192
 0
VERTEX
 8
FULGOR
 10
2.1406
 20
-4.1085
 30
10.1673
 70
192
 0
VERTEX
 8
FULGOR
 10
2.1338
 20
-4.1085
 30
10.1744
 70
192
 0
VERTEX
 8
FULGOR
 10
2.1487
 20
-4.1085
 30
10.1396
 70
192
 0
VERTEX
 8
FULGOR
 10
2.1469
 20
-4.1085
 30
10.1306
 70
192
 0
VERTEX
 8
FULGOR
 10
1.9941
 20
-4.1085
 30
10.0864
 70
192
 0
VERTEX
 8
FULGOR
 10
2.2185
 20
-4.1085
 30
9.7932
 70
192
 0
VERTEX
 8
FULGOR
 10
2.2106
 20
-4.1085
 30
9.8042
 70
192
 0
VERTEX
 8
FULGOR
 10
2.1964
 20
-4.1085
 30
9.8238
 70
192
 0
VERTEX
 8
FULGOR
 10
2.1831
 20
-4.1085
 30
9.8421
 70
192
 0
VERTEX
 8
FULGOR
 10
1.7454
 20
-4.1085
 30
9.9971
 70
192
 0
VERTEX
 8
FULGOR
 10
2.1477
 20
-4.1085
 30
9.8911
 70
192
 0
VERTEX
 8
FULGOR
 10
2.1344
 20
-4.1085
 30
9.9095
 70
192
 0
VERTEX
 8
FULGOR
 10
0
 20
0
 30
0
 70
128
 71
8
 72
4
 73
13
 74
2
 0
VERTEX
 8
FULGOR
 10
0
 20
0
 30
0
 70
128
 71
13
 72
12
 73
2
 74
2
 0
VERTEX
 8
FULGOR
 10
0
 20
0
 30
0
 70
128
 71
13
 72
4
 73
15
 74
14
 0
VERTEX
 8
FULGOR
 10
0
 20
0
 30
0
 70
128
 71
8
 72
5
 73
4
 74
4
 0
VERTEX
 8
FULGOR
 10
0
 20
0
 30
0
 70
128
 71
5
 72
8
 73
7
 74
6
 0
VERTEX
 8
FULGOR
 10
0
 20
0
 30
0
 70
128
 71
16
 72
74
 73
73
 74
9
 0
VERTEX
 8
FULGOR
 10
0
 20
0
 30
0
 70
128
 71
73
 72
72
 73
10
 74
9
 0
VERTEX
 8
FULGOR
 10
0
 20
0
 30
0
 70
128
 71
72
 72
82
 73
11
 74
10
 0
VERTEX
 8
FULGOR
 10
0
 20
0
 30
0
 70
128
 71
82
 72
17
 73
11
 74
11
 0
VERTEX
 8
FULGOR
 10
0
 20
0
 30
0
 70
128
 71
82
 72
70
 73
18
 74
17
 0
VERTEX
 8
FULGOR
 10
0
 20
0
 30
0
 70
128
 71
70
 72
19
 73
18
 74
18
 0
VERTEX
 8
FULGOR
 10
0
 20
0
 30
0
 70
128
 71
70
 72
69
 73
20
 74
19
 0
VERTEX
 8
FULGOR
 10
0
 20
0
 30
0
 70
128
 71
69
 72
68
 73
27
 74
20
 0
VERTEX
 8
FULGOR
 10
0
 20
0
 30
0
 70
128
 71
68
 72
67
 73
29
 74
27
 0
VERTEX
 8
FULGOR
 10
0
 20
0
 30
0
 70
128
 71
67
 72
66
 73
30
 74
29
 0
VERTEX
 8
FULGOR
 10
0
 20
0
 30
0
 70
128
 71
66
 72
78
 73
31
 74
30
 0
VERTEX
 8
FULGOR
 10
0
 20
0
 30
0
 70
128
 71
78
 72
77
 73
32
 74
31
 0
VERTEX
 8
FULGOR
 10
0
 20
0
 30
0
 70
128
 71
32
 72
77
 73
76
 74
21
 0
VERTEX
 8
FULGOR
 10
0
 20
0
 30
0
 70
128
 71
62
 72
61
 73
22
 74
21
 0
VERTEX
 8
FULGOR
 10
0
 20
0
 30
0
 70
128
 71
75
 72
59
 73
23
 74
22
 0
VERTEX
 8
FULGOR
 10
0
 20
0
 30
0
 70
128
 71
23
 72
59
 73
71
 74
24
 0
VERTEX
 8
FULGOR
 10
0
 20
0
 30
0
 70
128
 71
24
 72
71
 73
65
 74
25
 0
VERTEX
 8
FULGOR
 10
0
 20
0
 30
0
 70
128
 71
64
 72
63
 73
26
 74
25
 0
VERTEX
 8
FULGOR
 10
0
 20
0
 30
0
 70
128
 71
60
 72
53
 73
34
 74
26
 0
VERTEX
 8
FULGOR
 10
0
 20
0
 30
0
 70
128
 71
52
 72
51
 73
28
 74
34
 0
VERTEX
 8
FULGOR
 10
0
 20
0
 30
0
 70
128
 71
51
 72
50
 73
35
 74
28
 0
VERTEX
 8
FULGOR
 10
0
 20
0
 30
0
 70
128
 71
50
 72
49
 73
36
 74
35
 0
VERTEX
 8
FULGOR
 10
0
 20
0
 30
0
 70
128
 71
36
 72
49
 73
48
 74
37
 0
VERTEX
 8
FULGOR
 10
0
 20
0
 30
0
 70
128
 71
37
 72
48
 73
47
 74
41
 0
VERTEX
 8
FULGOR
 10
0
 20
0
 30
0
 70
128
 71
47
 72
33
 73
41
 74
41
 0
VERTEX
 8
FULGOR
 10
0
 20
0
 30
0
 70
128
 71
33
 72
47
 73
46
 74
42
 0
VERTEX
 8
FULGOR
 10
0
 20
0
 30
0
 70
128
 71
42
 72
46
 73
45
 74
54
 0
VERTEX
 8
FULGOR
 10
0
 20
0
 30
0
 70
128
 71
45
 72
55
 73
54
 74
54
 0
VERTEX
 8
FULGOR
 10
0
 20
0
 30
0
 70
128
 71
55
 72
45
 73
44
 74
56
 0
VERTEX
 8
FULGOR
 10
0
 20
0
 30
0
 70
128
 71
44
 72
43
 73
38
 74
56
 0
VERTEX
 8
FULGOR
 10
0
 20
0
 30
0
 70
128
 71
43
 72
58
 73
39
 74
38
 0
VERTEX
 8
FULGOR
 10
0
 20
0
 30
0
 70
128
 71
58
 72
57
 73
40
 74
39
 0
VERTEX
 8
FULGOR
 10
0
 20
0
 30
0
 70
128
 71
53
 72
52
 73
34
 74
34
 0
VERTEX
 8
FULGOR
 10
0
 20
0
 30
0
 70
128
 71
63
 72
60
 73
26
 74
26
 0
VERTEX
 8
FULGOR
 10
0
 20
0
 30
0
 70
128
 71
65
 72
64
 73
25
 74
25
 0
VERTEX
 8
FULGOR
 10
0
 20
0
 30
0
 70
128
 71
61
 72
75
 73
22
 74
22
 0
VERTEX
 8
FULGOR
 10
0
 20
0
 30
0
 70
128
 71
76
 72
62
 73
21
 74
21
 0
VERTEX
 8
FULGOR
 10
0
 20
0
 30
0
 70
128
 71
83
 72
80
 73
79
 74
85
 0
VERTEX
 8
FULGOR
 10
0
 20
0
 30
0
 70
128
 71
79
 72
87
 73
86
 74
85
 0
VERTEX
 8
FULGOR
 10
0
 20
0
 30
0
 70
128
 71
369
 72
365
 73
371
 74
364
 0
VERTEX
 8
FULGOR
 10
0
 20
0
 30
0
 70
128
 71
371
 72
370
 73
364
 74
364
 0
VERTEX
 8
FULGOR
 10
0
 20
0
 30
0
 70
128
 71
371
 72
365
 73
373
 74
372
 0
VERTEX
 8
FULGOR
 10
0
 20
0
 30
0
 70
128
 71
369
 72
366
 73
365
 74
365
 0
VERTEX
 8
FULGOR
 10
0
 20
0
 30
0
 70
128
 71
366
 72
369
 73
368
 74
367
 0
VERTEX
 8
FULGOR
 10
0
 20
0
 30
0
 70
128
 71
377
 72
435
 73
434
 74
374
 0
VERTEX
 8
FULGOR
 10
0
 20
0
 30
0
 70
128
 71
434
 72
433
 73
375
 74
374
 0
VERTEX
 8
FULGOR
 10
0
 20
0
 30
0
 70
128
 71
433
 72
440
 73
376
 74
375
 0
VERTEX
 8
FULGOR
 10
0
 20
0
 30
0
 70
128
 71
440
 72
378
 73
376
 74
376
 0
VERTEX
 8
FULGOR
 10
0
 20
0
 30
0
 70
128
 71
440
 72
431
 73
379
 74
378
 0
VERTEX
 8
FULGOR
 10
0
 20
0
 30
0
 70
128
 71
431
 72
380
 73
379
 74
379
 0
VERTEX
 8
FULGOR
 10
0
 20
0
 30
0
 70
128
 71
431
 72
430
 73
381
 74
380
 0
VERTEX
 8
FULGOR
 10
0
 20
0
 30
0
 70
128
 71
430
 72
429
 73
388
 74
381
 0
VERTEX
 8
FULGOR
 10
0
 20
0
 30
0
 70
128
 71
429
 72
428
 73
390
 74
388
 0
VERTEX
 8
FULGOR
 10
0
 20
0
 30
0
 70
128
 71
428
 72
427
 73
391
 74
390
 0
VERTEX
 8
FULGOR
 10
0
 20
0
 30
0
 70
128
 71
427
 72
439
 73
392
 74
391
 0
VERTEX
 8
FULGOR
 10
0
 20
0
 30
0
 70
128
 71
439
 72
438
 73
393
 74
392
 0
VERTEX
 8
FULGOR
 10
0
 20
0
 30
0
 70
128
 71
393
 72
438
 73
437
 74
382
 0
VERTEX
 8
FULGOR
 10
0
 20
0
 30
0
 70
128
 71
423
 72
422
 73
383
 74
382
 0
VERTEX
 8
FULGOR
 10
0
 20
0
 30
0
 70
128
 71
436
 72
420
 73
384
 74
383
 0
VERTEX
 8
FULGOR
 10
0
 20
0
 30
0
 70
128
 71
384
 72
420
 73
432
 74
385
 0
VERTEX
 8
FULGOR
 10
0
 20
0
 30
0
 70
128
 71
385
 72
432
 73
426
 74
386
 0
VERTEX
 8
FULGOR
 10
0
 20
0
 30
0
 70
128
 71
425
 72
424
 73
387
 74
386
 0
VERTEX
 8
FULGOR
 10
0
 20
0
 30
0
 70
128
 71
421
 72
414
 73
395
 74
387
 0
VERTEX
 8
FULGOR
 10
0
 20
0
 30
0
 70
128
 71
413
 72
412
 73
389
 74
395
 0
VERTEX
 8
FULGOR
 10
0
 20
0
 30
0
 70
128
 71
412
 72
411
 73
396
 74
389
 0
VERTEX
 8
FULGOR
 10
0
 20
0
 30
0
 70
128
 71
411
 72
410
 73
397
 74
396
 0
VERTEX
 8
FULGOR
 10
0
 20
0
 30
0
 70
128
 71
397
 72
410
 73
409
 74
398
 0
VERTEX
 8
FULGOR
 10
0
 20
0
 30
0
 70
128
 71
398
 72
409
 73
408
 74
402
 0
VERTEX
 8
FULGOR
 10
0
 20
0
 30
0
 70
128
 71
408
 72
394
 73
402
 74
402
 0
VERTEX
 8
FULGOR
 10
0
 20
0
 30
0
 70
128
 71
394
 72
408
 73
407
 74
403
 0
VERTEX
 8
FULGOR
 10
0
 20
0
 30
0
 70
128
 71
403
 72
407
 73
406
 74
415
 0
VERTEX
 8
FULGOR
 10
0
 20
0
 30
0
 70
128
 71
406
 72
416
 73
415
 74
415
 0
VERTEX
 8
FULGOR
 10
0
 20
0
 30
0
 70
128
 71
416
 72
406
 73
405
 74
417
 0
VERTEX
 8
FULGOR
 10
0
 20
0
 30
0
 70
128
 71
405
 72
404
 73
399
 74
417
 0
VERTEX
 8
FULGOR
 10
0
 20
0
 30
0
 70
128
 71
404
 72
419
 73
400
 74
399
 0
VERTEX
 8
FULGOR
 10
0
 20
0
 30
0
 70
128
 71
419
 72
418
 73
401
 74
400
 0
VERTEX
 8
FULGOR
 10
0
 20
0
 30
0
 70
128
 71
414
 72
413
 73
395
 74
395
 0
VERTEX
 8
FULGOR
 10
0
 20
0
 30
0
 70
128
 71
424
 72
421
 73
387
 74
387
 0
VERTEX
 8
FULGOR
 10
0
 20
0
 30
0
 70
128
 71
426
 72
425
 73
386
 74
386
 0
VERTEX
 8
FULGOR
 10
0
 20
0
 30
0
 70
128
 71
422
 72
436
 73
383
 74
383
 0
VERTEX
 8
FULGOR
 10
0
 20
0
 30
0
 70
128
 71
437
 72
423
 73
382
 74
382
 0
VERTEX
 8
FULGOR
 10
0
 20
0
 30
0
 70
128
 71
443
 72
442
 73
441
 74
444
 0
VERTEX
 8
FULGOR
 10
0
 20
0
 30
0
 70
128
 71
441
 72
446
 73
445
 74
444
 0
VERTEX
 8
FULGOR
 10
0
 20
0
 30
0
 70
128
 71
244
 72
245
 73
188
 74
3
 0
VERTEX
 8
FULGOR
 10
0
 20
0
 30
0
 70
128
 71
137
 72
135
 73
127
 74
120
 0
VERTEX
 8
FULGOR
 10
0
 20
0
 30
0
 70
128
 71
287
 72
288
 73
220
 74
219
 0
VERTEX
 8
FULGOR
 10
0
 20
0
 30
0
 70
128
 71
135
 72
134
 73
128
 74
127
 0
VERTEX
 8
FULGOR
 10
0
 20
0
 30
0
 70
128
 71
145
 72
144
 73
106
 74
99
 0
VERTEX
 8
FULGOR
 10
0
 20
0
 30
0
 70
128
 71
152
 72
148
 73
115
 74
112
 0
VERTEX
 8
FULGOR
 10
0
 20
0
 30
0
 70
128
 71
288
 72
289
 73
221
 74
220
 0
VERTEX
 8
FULGOR
 10
0
 20
0
 30
0
 70
128
 71
155
 72
152
 73
112
 74
109
 0
VERTEX
 8
FULGOR
 10
0
 20
0
 30
0
 70
128
 71
141
 72
155
 73
109
 74
103
 0
VERTEX
 8
FULGOR
 10
0
 20
0
 30
0
 70
128
 71
289
 72
290
 73
230
 74
221
 0
VERTEX
 8
FULGOR
 10
0
 20
0
 30
0
 70
128
 71
290
 72
292
 73
223
 74
230
 0
VERTEX
 8
FULGOR
 10
0
 20
0
 30
0
 70
128
 71
142
 72
141
 73
103
 74
108
 0
VERTEX
 8
FULGOR
 10
0
 20
0
 30
0
 70
128
 71
143
 72
142
 73
108
 74
107
 0
VERTEX
 8
FULGOR
 10
0
 20
0
 30
0
 70
128
 71
144
 72
143
 73
107
 74
106
 0
VERTEX
 8
FULGOR
 10
0
 20
0
 30
0
 70
128
 71
254
 72
255
 73
207
 74
206
 0
VERTEX
 8
FULGOR
 10
0
 20
0
 30
0
 70
128
 71
265
 72
254
 73
206
 74
199
 0
VERTEX
 8
FULGOR
 10
0
 20
0
 30
0
 70
128
 71
263
 72
265
 73
199
 74
198
 0
VERTEX
 8
FULGOR
 10
0
 20
0
 30
0
 70
128
 71
251
 72
240
 73
179
 74
178
 0
VERTEX
 8
FULGOR
 10
0
 20
0
 30
0
 70
128
 71
237
 72
238
 73
185
 74
346
 0
VERTEX
 8
FULGOR
 10
0
 20
0
 30
0
 70
128
 71
339
 72
340
 73
321
 74
328
 0
VERTEX
 8
FULGOR
 10
0
 20
0
 30
0
 70
128
 71
161
 72
174
 73
84
 74
89
 0
VERTEX
 8
FULGOR
 10
0
 20
0
 30
0
 70
128
 71
174
 72
159
 73
90
 74
84
 0
VERTEX
 8
FULGOR
 10
0
 20
0
 30
0
 70
128
 71
249
 72
237
 73
346
 74
184
 0
VERTEX
 8
FULGOR
 10
0
 20
0
 30
0
 70
128
 71
248
 72
249
 73
184
 74
347
 0
VERTEX
 8
FULGOR
 10
0
 20
0
 30
0
 70
128
 71
159
 72
173
 73
95
 74
90
 0
VERTEX
 8
FULGOR
 10
0
 20
0
 30
0
 70
128
 71
173
 72
157
 73
96
 74
95
 0
VERTEX
 8
FULGOR
 10
0
 20
0
 30
0
 70
128
 71
246
 72
248
 73
347
 74
183
 0
VERTEX
 8
FULGOR
 10
0
 20
0
 30
0
 70
128
 71
362
 72
307
 73
305
 74
359
 0
VERTEX
 8
FULGOR
 10
0
 20
0
 30
0
 70
128
 71
151
 72
150
 73
94
 74
93
 0
VERTEX
 8
FULGOR
 10
0
 20
0
 30
0
 70
128
 71
353
 72
352
 73
319
 74
318
 0
VERTEX
 8
FULGOR
 10
0
 20
0
 30
0
 70
128
 71
175
 72
161
 73
89
 74
88
 0
VERTEX
 8
FULGOR
 10
0
 20
0
 30
0
 70
128
 71
253
 72
247
 73
190
 74
189
 0
VERTEX
 8
FULGOR
 10
0
 20
0
 30
0
 70
128
 71
153
 72
166
 73
92
 74
91
 0
VERTEX
 8
FULGOR
 10
0
 20
0
 30
0
 70
128
 71
166
 72
151
 73
93
 74
92
 0
VERTEX
 8
FULGOR
 10
0
 20
0
 30
0
 70
128
 71
273
 72
274
 73
226
 74
210
 0
VERTEX
 8
FULGOR
 10
0
 20
0
 30
0
 70
128
 71
163
 72
175
 73
88
 74
81
 0
VERTEX
 8
FULGOR
 10
0
 20
0
 30
0
 70
128
 71
167
 72
154
 73
101
 74
100
 0
VERTEX
 8
FULGOR
 10
0
 20
0
 30
0
 70
128
 71
154
 72
153
 73
91
 74
101
 0
VERTEX
 8
FULGOR
 10
0
 20
0
 30
0
 70
128
 71
274
 72
275
 73
227
 74
226
 0
VERTEX
 8
FULGOR
 10
0
 20
0
 30
0
 70
128
 71
275
 72
281
 73
228
 74
227
 0
VERTEX
 8
FULGOR
 10
0
 20
0
 30
0
 70
128
 71
157
 72
156
 73
97
 74
96
 0
VERTEX
 8
FULGOR
 10
0
 20
0
 30
0
 70
128
 71
291
 72
296
 73
333
 74
354
 0
VERTEX
 8
FULGOR
 10
0
 20
0
 30
0
 70
128
 71
281
 72
282
 73
229
 74
228
 0
VERTEX
 8
FULGOR
 10
0
 20
0
 30
0
 70
128
 71
282
 72
283
 73
215
 74
229
 0
VERTEX
 8
FULGOR
 10
0
 20
0
 30
0
 70
128
 71
283
 72
284
 73
216
 74
215
 0
VERTEX
 8
FULGOR
 10
0
 20
0
 30
0
 70
128
 71
129
 72
1
 73
118
 74
117
 0
VERTEX
 8
FULGOR
 10
0
 20
0
 30
0
 70
128
 71
238
 72
251
 73
178
 74
185
 0
VERTEX
 8
FULGOR
 10
0
 20
0
 30
0
 70
128
 71
245
 72
253
 73
189
 74
188
 0
VERTEX
 8
FULGOR
 10
0
 20
0
 30
0
 70
128
 71
337
 72
338
 73
325
 74
316
 0
VERTEX
 8
FULGOR
 10
0
 20
0
 30
0
 70
128
 71
336
 72
337
 73
316
 74
314
 0
VERTEX
 8
FULGOR
 10
0
 20
0
 30
0
 70
128
 71
241
 72
252
 73
311
 74
186
 0
VERTEX
 8
FULGOR
 10
0
 20
0
 30
0
 70
128
 71
156
 72
167
 73
100
 74
97
 0
VERTEX
 8
FULGOR
 10
0
 20
0
 30
0
 70
128
 71
149
 72
162
 73
104
 74
102
 0
VERTEX
 8
FULGOR
 10
0
 20
0
 30
0
 70
128
 71
162
 72
160
 73
105
 74
104
 0
VERTEX
 8
FULGOR
 10
0
 20
0
 30
0
 70
128
 71
266
 72
269
 73
196
 74
195
 0
VERTEX
 8
FULGOR
 10
0
 20
0
 30
0
 70
128
 71
360
 72
129
 73
117
 74
126
 0
VERTEX
 8
FULGOR
 10
0
 20
0
 30
0
 70
128
 71
134
 72
124
 73
131
 74
128
 0
VERTEX
 8
FULGOR
 10
0
 20
0
 30
0
 70
128
 71
334
 72
335
 73
320
 74
312
 0
VERTEX
 8
FULGOR
 10
0
 20
0
 30
0
 70
128
 71
308
 72
307
 73
362
 74
363
 0
VERTEX
 8
FULGOR
 10
0
 20
0
 30
0
 70
128
 71
139
 72
357
 73
114
 74
113
 0
VERTEX
 8
FULGOR
 10
0
 20
0
 30
0
 70
128
 71
305
 72
304
 73
358
 74
359
 0
VERTEX
 8
FULGOR
 10
0
 20
0
 30
0
 70
128
 71
335
 72
336
 73
314
 74
320
 0
VERTEX
 8
FULGOR
 10
0
 20
0
 30
0
 70
128
 71
355
 72
356
 73
313
 74
301
 0
VERTEX
 8
FULGOR
 10
0
 20
0
 30
0
 70
128
 71
301
 72
300
 73
299
 74
355
 0
VERTEX
 8
FULGOR
 10
0
 20
0
 30
0
 70
128
 71
352
 72
339
 73
328
 74
319
 0
VERTEX
 8
FULGOR
 10
0
 20
0
 30
0
 70
128
 71
343
 72
348
 73
349
 74
331
 0
VERTEX
 8
FULGOR
 10
0
 20
0
 30
0
 70
128
 71
342
 72
344
 73
330
 74
324
 0
VERTEX
 8
FULGOR
 10
0
 20
0
 30
0
 70
128
 71
262
 72
263
 73
198
 74
197
 0
VERTEX
 8
FULGOR
 10
0
 20
0
 30
0
 70
128
 71
303
 72
312
 73
317
 74
310
 0
VERTEX
 8
FULGOR
 10
0
 20
0
 30
0
 70
128
 71
250
 72
262
 73
197
 74
187
 0
VERTEX
 8
FULGOR
 10
0
 20
0
 30
0
 70
128
 71
291
 72
354
 73
334
 74
302
 0
VERTEX
 8
FULGOR
 10
0
 20
0
 30
0
 70
128
 71
341
 72
343
 73
331
 74
327
 0
VERTEX
 8
FULGOR
 10
0
 20
0
 30
0
 70
128
 71
150
 72
149
 73
102
 74
94
 0
VERTEX
 8
FULGOR
 10
0
 20
0
 30
0
 70
128
 71
1
 72
138
 73
119
 74
118
 0
VERTEX
 8
FULGOR
 10
0
 20
0
 30
0
 70
128
 71
338
 72
353
 73
318
 74
325
 0
VERTEX
 8
FULGOR
 10
0
 20
0
 30
0
 70
128
 71
280
 72
273
 73
210
 74
222
 0
VERTEX
 8
FULGOR
 10
0
 20
0
 30
0
 70
128
 71
285
 72
286
 73
218
 74
217
 0
VERTEX
 8
FULGOR
 10
0
 20
0
 30
0
 70
128
 71
160
 72
158
 73
98
 74
105
 0
VERTEX
 8
FULGOR
 10
0
 20
0
 30
0
 70
128
 71
138
 72
137
 73
120
 74
119
 0
VERTEX
 8
FULGOR
 10
0
 20
0
 30
0
 70
128
 71
286
 72
287
 73
219
 74
218
 0
VERTEX
 8
FULGOR
 10
0
 20
0
 30
0
 70
128
 71
261
 72
270
 73
211
 74
209
 0
VERTEX
 8
FULGOR
 10
0
 20
0
 30
0
 70
128
 71
348
 72
329
 73
332
 74
349
 0
VERTEX
 8
FULGOR
 10
0
 20
0
 30
0
 70
128
 71
329
 72
333
 73
306
 74
332
 0
VERTEX
 8
FULGOR
 10
0
 20
0
 30
0
 70
128
 71
333
 72
296
 73
361
 74
306
 0
VERTEX
 8
FULGOR
 10
0
 20
0
 30
0
 70
128
 71
296
 72
295
 73
294
 74
361
 0
VERTEX
 8
FULGOR
 10
0
 20
0
 30
0
 70
128
 71
358
 72
304
 73
313
 74
356
 0
VERTEX
 8
FULGOR
 10
0
 20
0
 30
0
 70
128
 71
148
 72
147
 73
116
 74
115
 0
VERTEX
 8
FULGOR
 10
0
 20
0
 30
0
 70
128
 71
158
 72
145
 73
99
 74
98
 0
VERTEX
 8
FULGOR
 10
0
 20
0
 30
0
 70
128
 71
260
 72
261
 73
209
 74
208
 0
VERTEX
 8
FULGOR
 10
0
 20
0
 30
0
 70
128
 71
269
 72
260
 73
208
 74
196
 0
VERTEX
 8
FULGOR
 10
0
 20
0
 30
0
 70
128
 71
276
 72
267
 73
204
 74
203
 0
VERTEX
 8
FULGOR
 10
0
 20
0
 30
0
 70
128
 71
232
 72
242
 73
182
 74
180
 0
VERTEX
 8
FULGOR
 10
0
 20
0
 30
0
 70
128
 71
242
 72
246
 73
183
 74
182
 0
VERTEX
 8
FULGOR
 10
0
 20
0
 30
0
 70
128
 71
272
 72
276
 73
203
 74
202
 0
VERTEX
 8
FULGOR
 10
0
 20
0
 30
0
 70
128
 71
264
 72
272
 73
202
 74
201
 0
VERTEX
 8
FULGOR
 10
0
 20
0
 30
0
 70
128
 71
240
 72
241
 73
186
 74
179
 0
VERTEX
 8
FULGOR
 10
0
 20
0
 30
0
 70
128
 71
147
 72
136
 73
121
 74
116
 0
VERTEX
 8
FULGOR
 10
0
 20
0
 30
0
 70
128
 71
340
 72
350
 73
322
 74
321
 0
VERTEX
 8
FULGOR
 10
0
 20
0
 30
0
 70
128
 71
303
 72
302
 73
334
 74
312
 0
VERTEX
 8
FULGOR
 10
0
 20
0
 30
0
 70
128
 71
345
 72
341
 73
327
 74
326
 0
VERTEX
 8
FULGOR
 10
0
 20
0
 30
0
 70
128
 71
252
 72
243
 73
181
 74
311
 0
VERTEX
 8
FULGOR
 10
0
 20
0
 30
0
 70
128
 71
344
 72
345
 73
326
 74
330
 0
VERTEX
 8
FULGOR
 10
0
 20
0
 30
0
 70
128
 71
231
 72
232
 73
180
 74
172
 0
VERTEX
 8
FULGOR
 10
0
 20
0
 30
0
 70
128
 71
257
 72
266
 73
195
 74
194
 0
VERTEX
 8
FULGOR
 10
0
 20
0
 30
0
 70
128
 71
256
 72
257
 73
194
 74
193
 0
VERTEX
 8
FULGOR
 10
0
 20
0
 30
0
 70
128
 71
297
 72
310
 73
317
 74
315
 0
VERTEX
 8
FULGOR
 10
0
 20
0
 30
0
 70
128
 71
357
 72
130
 73
125
 74
114
 0
VERTEX
 8
FULGOR
 10
0
 20
0
 30
0
 70
128
 71
255
 72
256
 73
193
 74
207
 0
VERTEX
 8
FULGOR
 10
0
 20
0
 30
0
 70
128
 71
298
 72
297
 73
315
 74
309
 0
VERTEX
 8
FULGOR
 10
0
 20
0
 30
0
 70
128
 71
298
 72
309
 73
308
 74
363
 0
VERTEX
 8
FULGOR
 10
0
 20
0
 30
0
 70
128
 71
243
 72
244
 73
3
 74
181
 0
VERTEX
 8
FULGOR
 10
0
 20
0
 30
0
 70
128
 71
259
 72
250
 73
187
 74
192
 0
VERTEX
 8
FULGOR
 10
0
 20
0
 30
0
 70
128
 71
279
 72
280
 73
222
 74
214
 0
VERTEX
 8
FULGOR
 10
0
 20
0
 30
0
 70
128
 71
278
 72
279
 73
214
 74
213
 0
VERTEX
 8
FULGOR
 10
0
 20
0
 30
0
 70
128
 71
258
 72
259
 73
192
 74
191
 0
VERTEX
 8
FULGOR
 10
0
 20
0
 30
0
 70
128
 71
247
 72
258
 73
191
 74
190
 0
VERTEX
 8
FULGOR
 10
0
 20
0
 30
0
 70
128
 71
351
 72
342
 73
324
 74
323
 0
VERTEX
 8
FULGOR
 10
0
 20
0
 30
0
 70
128
 71
350
 72
351
 73
323
 74
322
 0
VERTEX
 8
FULGOR
 10
0
 20
0
 30
0
 70
128
 71
284
 72
285
 73
217
 74
216
 0
VERTEX
 8
FULGOR
 10
0
 20
0
 30
0
 70
128
 71
136
 72
146
 73
122
 74
121
 0
VERTEX
 8
FULGOR
 10
0
 20
0
 30
0
 70
128
 71
146
 72
140
 73
110
 74
122
 0
VERTEX
 8
FULGOR
 10
0
 20
0
 30
0
 70
128
 71
130
 72
360
 73
126
 74
125
 0
VERTEX
 8
FULGOR
 10
0
 20
0
 30
0
 70
128
 71
140
 72
133
 73
111
 74
110
 0
VERTEX
 8
FULGOR
 10
0
 20
0
 30
0
 70
128
 71
133
 72
132
 73
123
 74
111
 0
VERTEX
 8
FULGOR
 10
0
 20
0
 30
0
 70
128
 71
132
 72
139
 73
113
 74
123
 0
VERTEX
 8
FULGOR
 10
0
 20
0
 30
0
 70
128
 71
292
 72
293
 73
164
 74
223
 0
VERTEX
 8
FULGOR
 10
0
 20
0
 30
0
 70
128
 71
293
 72
224
 73
165
 74
164
 0
VERTEX
 8
FULGOR
 10
0
 20
0
 30
0
 70
128
 71
224
 72
225
 73
176
 74
165
 0
VERTEX
 8
FULGOR
 10
0
 20
0
 30
0
 70
128
 71
225
 72
233
 73
177
 74
176
 0
VERTEX
 8
FULGOR
 10
0
 20
0
 30
0
 70
128
 71
233
 72
234
 73
168
 74
177
 0
VERTEX
 8
FULGOR
 10
0
 20
0
 30
0
 70
128
 71
234
 72
235
 73
169
 74
168
 0
VERTEX
 8
FULGOR
 10
0
 20
0
 30
0
 70
128
 71
235
 72
236
 73
170
 74
169
 0
VERTEX
 8
FULGOR
 10
0
 20
0
 30
0
 70
128
 71
236
 72
239
 73
171
 74
170
 0
VERTEX
 8
FULGOR
 10
0
 20
0
 30
0
 70
128
 71
239
 72
231
 73
172
 74
171
 0
VERTEX
 8
FULGOR
 10
0
 20
0
 30
0
 70
128
 71
213
 72
212
 73
277
 74
278
 0
VERTEX
 8
FULGOR
 10
0
 20
0
 30
0
 70
128
 71
212
 72
205
 73
268
 74
277
 0
VERTEX
 8
FULGOR
 10
0
 20
0
 30
0
 70
128
 71
267
 72
268
 73
205
 74
204
 0
VERTEX
 8
FULGOR
 10
0
 20
0
 30
0
 70
128
 71
270
 72
271
 73
200
 74
211
 0
VERTEX
 8
FULGOR
 10
0
 20
0
 30
0
 70
128
 71
271
 72
264
 73
201
 74
200
 0
VERTEX
 8
FULGOR
 10
0
 20
0
 30
0
 70
128
 71
523
 72
524
 73
467
 74
447
 0
VERTEX
 8
FULGOR
 10
0
 20
0
 30
0
 70
128
 71
566
 72
567
 73
499
 74
498
 0
VERTEX
 8
FULGOR
 10
0
 20
0
 30
0
 70
128
 71
567
 72
568
 73
500
 74
499
 0
VERTEX
 8
FULGOR
 10
0
 20
0
 30
0
 70
128
 71
568
 72
569
 73
509
 74
500
 0
VERTEX
 8
FULGOR
 10
0
 20
0
 30
0
 70
128
 71
569
 72
570
 73
502
 74
509
 0
VERTEX
 8
FULGOR
 10
0
 20
0
 30
0
 70
128
 71
533
 72
534
 73
486
 74
485
 0
VERTEX
 8
FULGOR
 10
0
 20
0
 30
0
 70
128
 71
544
 72
533
 73
485
 74
478
 0
VERTEX
 8
FULGOR
 10
0
 20
0
 30
0
 70
128
 71
542
 72
544
 73
478
 74
477
 0
VERTEX
 8
FULGOR
 10
0
 20
0
 30
0
 70
128
 71
530
 72
519
 73
458
 74
457
 0
VERTEX
 8
FULGOR
 10
0
 20
0
 30
0
 70
128
 71
516
 72
517
 73
464
 74
573
 0
VERTEX
 8
FULGOR
 10
0
 20
0
 30
0
 70
128
 71
528
 72
516
 73
573
 74
463
 0
VERTEX
 8
FULGOR
 10
0
 20
0
 30
0
 70
128
 71
527
 72
528
 73
463
 74
574
 0
VERTEX
 8
FULGOR
 10
0
 20
0
 30
0
 70
128
 71
525
 72
527
 73
574
 74
462
 0
VERTEX
 8
FULGOR
 10
0
 20
0
 30
0
 70
128
 71
532
 72
526
 73
469
 74
468
 0
VERTEX
 8
FULGOR
 10
0
 20
0
 30
0
 70
128
 71
552
 72
553
 73
505
 74
489
 0
VERTEX
 8
FULGOR
 10
0
 20
0
 30
0
 70
128
 71
553
 72
554
 73
506
 74
505
 0
VERTEX
 8
FULGOR
 10
0
 20
0
 30
0
 70
128
 71
554
 72
560
 73
507
 74
506
 0
VERTEX
 8
FULGOR
 10
0
 20
0
 30
0
 70
128
 71
560
 72
561
 73
508
 74
507
 0
VERTEX
 8
FULGOR
 10
0
 20
0
 30
0
 70
128
 71
561
 72
562
 73
494
 74
508
 0
VERTEX
 8
FULGOR
 10
0
 20
0
 30
0
 70
128
 71
562
 72
563
 73
495
 74
494
 0
VERTEX
 8
FULGOR
 10
0
 20
0
 30
0
 70
128
 71
517
 72
530
 73
457
 74
464
 0
VERTEX
 8
FULGOR
 10
0
 20
0
 30
0
 70
128
 71
524
 72
532
 73
468
 74
467
 0
VERTEX
 8
FULGOR
 10
0
 20
0
 30
0
 70
128
 71
520
 72
531
 73
572
 74
465
 0
VERTEX
 8
FULGOR
 10
0
 20
0
 30
0
 70
128
 71
545
 72
548
 73
475
 74
474
 0
VERTEX
 8
FULGOR
 10
0
 20
0
 30
0
 70
128
 71
541
 72
542
 73
477
 74
476
 0
VERTEX
 8
FULGOR
 10
0
 20
0
 30
0
 70
128
 71
529
 72
541
 73
476
 74
466
 0
VERTEX
 8
FULGOR
 10
0
 20
0
 30
0
 70
128
 71
559
 72
552
 73
489
 74
501
 0
VERTEX
 8
FULGOR
 10
0
 20
0
 30
0
 70
128
 71
564
 72
565
 73
497
 74
496
 0
VERTEX
 8
FULGOR
 10
0
 20
0
 30
0
 70
128
 71
565
 72
566
 73
498
 74
497
 0
VERTEX
 8
FULGOR
 10
0
 20
0
 30
0
 70
128
 71
540
 72
549
 73
490
 74
488
 0
VERTEX
 8
FULGOR
 10
0
 20
0
 30
0
 70
128
 71
539
 72
540
 73
488
 74
487
 0
VERTEX
 8
FULGOR
 10
0
 20
0
 30
0
 70
128
 71
548
 72
539
 73
487
 74
475
 0
VERTEX
 8
FULGOR
 10
0
 20
0
 30
0
 70
128
 71
555
 72
546
 73
483
 74
482
 0
VERTEX
 8
FULGOR
 10
0
 20
0
 30
0
 70
128
 71
511
 72
521
 73
461
 74
459
 0
VERTEX
 8
FULGOR
 10
0
 20
0
 30
0
 70
128
 71
521
 72
525
 73
462
 74
461
 0
VERTEX
 8
FULGOR
 10
0
 20
0
 30
0
 70
128
 71
551
 72
555
 73
482
 74
481
 0
VERTEX
 8
FULGOR
 10
0
 20
0
 30
0
 70
128
 71
543
 72
551
 73
481
 74
480
 0
VERTEX
 8
FULGOR
 10
0
 20
0
 30
0
 70
128
 71
519
 72
520
 73
465
 74
458
 0
VERTEX
 8
FULGOR
 10
0
 20
0
 30
0
 70
128
 71
531
 72
522
 73
460
 74
572
 0
VERTEX
 8
FULGOR
 10
0
 20
0
 30
0
 70
128
 71
510
 72
511
 73
459
 74
454
 0
VERTEX
 8
FULGOR
 10
0
 20
0
 30
0
 70
128
 71
536
 72
545
 73
474
 74
473
 0
VERTEX
 8
FULGOR
 10
0
 20
0
 30
0
 70
128
 71
535
 72
536
 73
473
 74
472
 0
VERTEX
 8
FULGOR
 10
0
 20
0
 30
0
 70
128
 71
534
 72
535
 73
472
 74
486
 0
VERTEX
 8
FULGOR
 10
0
 20
0
 30
0
 70
128
 71
522
 72
523
 73
447
 74
460
 0
VERTEX
 8
FULGOR
 10
0
 20
0
 30
0
 70
128
 71
538
 72
529
 73
466
 74
471
 0
VERTEX
 8
FULGOR
 10
0
 20
0
 30
0
 70
128
 71
558
 72
559
 73
501
 74
493
 0
VERTEX
 8
FULGOR
 10
0
 20
0
 30
0
 70
128
 71
557
 72
558
 73
493
 74
492
 0
VERTEX
 8
FULGOR
 10
0
 20
0
 30
0
 70
128
 71
537
 72
538
 73
471
 74
470
 0
VERTEX
 8
FULGOR
 10
0
 20
0
 30
0
 70
128
 71
526
 72
537
 73
470
 74
469
 0
VERTEX
 8
FULGOR
 10
0
 20
0
 30
0
 70
128
 71
563
 72
564
 73
496
 74
495
 0
VERTEX
 8
FULGOR
 10
0
 20
0
 30
0
 70
128
 71
570
 72
571
 73
448
 74
502
 0
VERTEX
 8
FULGOR
 10
0
 20
0
 30
0
 70
128
 71
571
 72
503
 73
449
 74
448
 0
VERTEX
 8
FULGOR
 10
0
 20
0
 30
0
 70
128
 71
503
 72
504
 73
455
 74
449
 0
VERTEX
 8
FULGOR
 10
0
 20
0
 30
0
 70
128
 71
504
 72
512
 73
456
 74
455
 0
VERTEX
 8
FULGOR
 10
0
 20
0
 30
0
 70
128
 71
512
 72
513
 73
450
 74
456
 0
VERTEX
 8
FULGOR
 10
0
 20
0
 30
0
 70
128
 71
513
 72
514
 73
451
 74
450
 0
VERTEX
 8
FULGOR
 10
0
 20
0
 30
0
 70
128
 71
514
 72
515
 73
452
 74
451
 0
VERTEX
 8
FULGOR
 10
0
 20
0
 30
0
 70
128
 71
515
 72
518
 73
453
 74
452
 0
VERTEX
 8
FULGOR
 10
0
 20
0
 30
0
 70
128
 71
518
 72
510
 73
454
 74
453
 0
VERTEX
 8
FULGOR
 10
0
 20
0
 30
0
 70
128
 71
492
 72
491
 73
556
 74
557
 0
VERTEX
 8
FULGOR
 10
0
 20
0
 30
0
 70
128
 71
491
 72
484
 73
547
 74
556
 0
VERTEX
 8
FULGOR
 10
0
 20
0
 30
0
 70
128
 71
546
 72
547
 73
484
 74
483
 0
VERTEX
 8
FULGOR
 10
0
 20
0
 30
0
 70
128
 71
549
 72
550
 73
479
 74
490
 0
VERTEX
 8
FULGOR
 10
0
 20
0
 30
0
 70
128
 71
550
 72
543
 73
480
 74
479
 0
VERTEX
 8
FULGOR
 10
0
 20
0
 30
0
 70
128
 71
627
 72
625
 73
617
 74
610
 0
VERTEX
 8
FULGOR
 10
0
 20
0
 30
0
 70
128
 71
625
 72
624
 73
618
 74
617
 0
VERTEX
 8
FULGOR
 10
0
 20
0
 30
0
 70
128
 71
635
 72
634
 73
596
 74
589
 0
VERTEX
 8
FULGOR
 10
0
 20
0
 30
0
 70
128
 71
642
 72
638
 73
605
 74
602
 0
VERTEX
 8
FULGOR
 10
0
 20
0
 30
0
 70
128
 71
645
 72
642
 73
602
 74
599
 0
VERTEX
 8
FULGOR
 10
0
 20
0
 30
0
 70
128
 71
631
 72
645
 73
599
 74
593
 0
VERTEX
 8
FULGOR
 10
0
 20
0
 30
0
 70
128
 71
632
 72
631
 73
593
 74
598
 0
VERTEX
 8
FULGOR
 10
0
 20
0
 30
0
 70
128
 71
633
 72
632
 73
598
 74
597
 0
VERTEX
 8
FULGOR
 10
0
 20
0
 30
0
 70
128
 71
634
 72
633
 73
597
 74
596
 0
VERTEX
 8
FULGOR
 10
0
 20
0
 30
0
 70
128
 71
651
 72
657
 73
577
 74
579
 0
VERTEX
 8
FULGOR
 10
0
 20
0
 30
0
 70
128
 71
657
 72
649
 73
580
 74
577
 0
VERTEX
 8
FULGOR
 10
0
 20
0
 30
0
 70
128
 71
649
 72
656
 73
585
 74
580
 0
VERTEX
 8
FULGOR
 10
0
 20
0
 30
0
 70
128
 71
656
 72
647
 73
586
 74
585
 0
VERTEX
 8
FULGOR
 10
0
 20
0
 30
0
 70
128
 71
641
 72
640
 73
584
 74
583
 0
VERTEX
 8
FULGOR
 10
0
 20
0
 30
0
 70
128
 71
658
 72
651
 73
579
 74
578
 0
VERTEX
 8
FULGOR
 10
0
 20
0
 30
0
 70
128
 71
643
 72
654
 73
582
 74
581
 0
VERTEX
 8
FULGOR
 10
0
 20
0
 30
0
 70
128
 71
654
 72
641
 73
583
 74
582
 0
VERTEX
 8
FULGOR
 10
0
 20
0
 30
0
 70
128
 71
653
 72
658
 73
578
 74
576
 0
VERTEX
 8
FULGOR
 10
0
 20
0
 30
0
 70
128
 71
655
 72
644
 73
591
 74
590
 0
VERTEX
 8
FULGOR
 10
0
 20
0
 30
0
 70
128
 71
644
 72
643
 73
581
 74
591
 0
VERTEX
 8
FULGOR
 10
0
 20
0
 30
0
 70
128
 71
647
 72
646
 73
587
 74
586
 0
VERTEX
 8
FULGOR
 10
0
 20
0
 30
0
 70
128
 71
619
 72
575
 73
608
 74
607
 0
VERTEX
 8
FULGOR
 10
0
 20
0
 30
0
 70
128
 71
646
 72
655
 73
590
 74
587
 0
VERTEX
 8
FULGOR
 10
0
 20
0
 30
0
 70
128
 71
639
 72
652
 73
594
 74
592
 0
VERTEX
 8
FULGOR
 10
0
 20
0
 30
0
 70
128
 71
652
 72
650
 73
595
 74
594
 0
VERTEX
 8
FULGOR
 10
0
 20
0
 30
0
 70
128
 71
660
 72
619
 73
607
 74
616
 0
VERTEX
 8
FULGOR
 10
0
 20
0
 30
0
 70
128
 71
624
 72
614
 73
621
 74
618
 0
VERTEX
 8
FULGOR
 10
0
 20
0
 30
0
 70
128
 71
629
 72
659
 73
604
 74
603
 0
VERTEX
 8
FULGOR
 10
0
 20
0
 30
0
 70
128
 71
640
 72
639
 73
592
 74
584
 0
VERTEX
 8
FULGOR
 10
0
 20
0
 30
0
 70
128
 71
575
 72
628
 73
609
 74
608
 0
VERTEX
 8
FULGOR
 10
0
 20
0
 30
0
 70
128
 71
650
 72
648
 73
588
 74
595
 0
VERTEX
 8
FULGOR
 10
0
 20
0
 30
0
 70
128
 71
628
 72
627
 73
610
 74
609
 0
VERTEX
 8
FULGOR
 10
0
 20
0
 30
0
 70
128
 71
638
 72
637
 73
606
 74
605
 0
VERTEX
 8
FULGOR
 10
0
 20
0
 30
0
 70
128
 71
648
 72
635
 73
589
 74
588
 0
VERTEX
 8
FULGOR
 10
0
 20
0
 30
0
 70
128
 71
637
 72
626
 73
611
 74
606
 0
VERTEX
 8
FULGOR
 10
0
 20
0
 30
0
 70
128
 71
659
 72
620
 73
615
 74
604
 0
VERTEX
 8
FULGOR
 10
0
 20
0
 30
0
 70
128
 71
626
 72
636
 73
612
 74
611
 0
VERTEX
 8
FULGOR
 10
0
 20
0
 30
0
 70
128
 71
636
 72
630
 73
600
 74
612
 0
VERTEX
 8
FULGOR
 10
0
 20
0
 30
0
 70
128
 71
620
 72
660
 73
616
 74
615
 0
VERTEX
 8
FULGOR
 10
0
 20
0
 30
0
 70
128
 71
630
 72
623
 73
601
 74
600
 0
VERTEX
 8
FULGOR
 10
0
 20
0
 30
0
 70
128
 71
623
 72
622
 73
613
 74
601
 0
VERTEX
 8
FULGOR
 10
0
 20
0
 30
0
 70
128
 71
622
 72
629
 73
603
 74
613
 0
VERTEX
 8
FULGOR
 10
0
 20
0
 30
0
 70
128
 71
706
 72
707
 73
688
 74
695
 0
VERTEX
 8
FULGOR
 10
0
 20
0
 30
0
 70
128
 71
725
 72
675
 73
673
 74
723
 0
VERTEX
 8
FULGOR
 10
0
 20
0
 30
0
 70
128
 71
718
 72
717
 73
686
 74
685
 0
VERTEX
 8
FULGOR
 10
0
 20
0
 30
0
 70
128
 71
661
 72
664
 73
700
 74
719
 0
VERTEX
 8
FULGOR
 10
0
 20
0
 30
0
 70
128
 71
704
 72
705
 73
692
 74
683
 0
VERTEX
 8
FULGOR
 10
0
 20
0
 30
0
 70
128
 71
703
 72
704
 73
683
 74
681
 0
VERTEX
 8
FULGOR
 10
0
 20
0
 30
0
 70
128
 71
701
 72
702
 73
687
 74
679
 0
VERTEX
 8
FULGOR
 10
0
 20
0
 30
0
 70
128
 71
676
 72
675
 73
725
 74
726
 0
VERTEX
 8
FULGOR
 10
0
 20
0
 30
0
 70
128
 71
673
 72
672
 73
722
 74
723
 0
VERTEX
 8
FULGOR
 10
0
 20
0
 30
0
 70
128
 71
702
 72
703
 73
681
 74
687
 0
VERTEX
 8
FULGOR
 10
0
 20
0
 30
0
 70
128
 71
720
 72
721
 73
680
 74
669
 0
VERTEX
 8
FULGOR
 10
0
 20
0
 30
0
 70
128
 71
669
 72
668
 73
667
 74
720
 0
VERTEX
 8
FULGOR
 10
0
 20
0
 30
0
 70
128
 71
717
 72
706
 73
695
 74
686
 0
VERTEX
 8
FULGOR
 10
0
 20
0
 30
0
 70
128
 71
710
 72
713
 73
714
 74
698
 0
VERTEX
 8
FULGOR
 10
0
 20
0
 30
0
 70
128
 71
709
 72
711
 73
697
 74
691
 0
VERTEX
 8
FULGOR
 10
0
 20
0
 30
0
 70
128
 71
671
 72
679
 73
684
 74
678
 0
VERTEX
 8
FULGOR
 10
0
 20
0
 30
0
 70
128
 71
661
 72
719
 73
701
 74
670
 0
VERTEX
 8
FULGOR
 10
0
 20
0
 30
0
 70
128
 71
708
 72
710
 73
698
 74
694
 0
VERTEX
 8
FULGOR
 10
0
 20
0
 30
0
 70
128
 71
705
 72
718
 73
685
 74
692
 0
VERTEX
 8
FULGOR
 10
0
 20
0
 30
0
 70
128
 71
713
 72
696
 73
699
 74
714
 0
VERTEX
 8
FULGOR
 10
0
 20
0
 30
0
 70
128
 71
696
 72
700
 73
674
 74
699
 0
VERTEX
 8
FULGOR
 10
0
 20
0
 30
0
 70
128
 71
700
 72
664
 73
724
 74
674
 0
VERTEX
 8
FULGOR
 10
0
 20
0
 30
0
 70
128
 71
664
 72
663
 73
662
 74
724
 0
VERTEX
 8
FULGOR
 10
0
 20
0
 30
0
 70
128
 71
722
 72
672
 73
680
 74
721
 0
VERTEX
 8
FULGOR
 10
0
 20
0
 30
0
 70
128
 71
707
 72
715
 73
689
 74
688
 0
VERTEX
 8
FULGOR
 10
0
 20
0
 30
0
 70
128
 71
671
 72
670
 73
701
 74
679
 0
VERTEX
 8
FULGOR
 10
0
 20
0
 30
0
 70
128
 71
712
 72
708
 73
694
 74
693
 0
VERTEX
 8
FULGOR
 10
0
 20
0
 30
0
 70
128
 71
711
 72
712
 73
693
 74
697
 0
VERTEX
 8
FULGOR
 10
0
 20
0
 30
0
 70
128
 71
665
 72
678
 73
684
 74
682
 0
VERTEX
 8
FULGOR
 10
0
 20
0
 30
0
 70
128
 71
666
 72
665
 73
682
 74
677
 0
VERTEX
 8
FULGOR
 10
0
 20
0
 30
0
 70
128
 71
666
 72
677
 73
676
 74
726
 0
VERTEX
 8
FULGOR
 10
0
 20
0
 30
0
 70
128
 71
716
 72
709
 73
691
 74
690
 0
VERTEX
 8
FULGOR
 10
0
 20
0
 30
0
 70
128
 71
715
 72
716
 73
690
 74
689
 0
VERTEX
 8
FULGOR
 10
0
 20
0
 30
0
 70
128
 71
369
 72
368
 73
7
 74
8
 0
VERTEX
 8
FULGOR
 10
0
 20
0
 30
0
 70
128
 71
368
 72
367
 73
6
 74
7
 0
VERTEX
 8
FULGOR
 10
0
 20
0
 30
0
 70
128
 71
367
 72
366
 73
5
 74
6
 0
VERTEX
 8
FULGOR
 10
0
 20
0
 30
0
 70
128
 71
366
 72
365
 73
4
 74
5
 0
VERTEX
 8
FULGOR
 10
0
 20
0
 30
0
 70
128
 71
365
 72
373
 73
15
 74
4
 0
VERTEX
 8
FULGOR
 10
0
 20
0
 30
0
 70
128
 71
373
 72
372
 73
14
 74
15
 0
VERTEX
 8
FULGOR
 10
0
 20
0
 30
0
 70
128
 71
372
 72
371
 73
13
 74
14
 0
VERTEX
 8
FULGOR
 10
0
 20
0
 30
0
 70
128
 71
371
 72
370
 73
12
 74
13
 0
VERTEX
 8
FULGOR
 10
0
 20
0
 30
0
 70
128
 71
370
 72
364
 73
2
 74
12
 0
VERTEX
 8
FULGOR
 10
0
 20
0
 30
0
 70
128
 71
364
 72
369
 73
8
 74
2
 0
VERTEX
 8
FULGOR
 10
0
 20
0
 30
0
 70
128
 71
377
 72
435
 73
74
 74
16
 0
VERTEX
 8
FULGOR
 10
0
 20
0
 30
0
 70
128
 71
435
 72
434
 73
73
 74
74
 0
VERTEX
 8
FULGOR
 10
0
 20
0
 30
0
 70
128
 71
434
 72
433
 73
72
 74
73
 0
VERTEX
 8
FULGOR
 10
0
 20
0
 30
0
 70
128
 71
433
 72
440
 73
82
 74
72
 0
VERTEX
 8
FULGOR
 10
0
 20
0
 30
0
 70
128
 71
440
 72
431
 73
70
 74
82
 0
VERTEX
 8
FULGOR
 10
0
 20
0
 30
0
 70
128
 71
431
 72
430
 73
69
 74
70
 0
VERTEX
 8
FULGOR
 10
0
 20
0
 30
0
 70
128
 71
430
 72
429
 73
68
 74
69
 0
VERTEX
 8
FULGOR
 10
0
 20
0
 30
0
 70
128
 71
429
 72
428
 73
67
 74
68
 0
VERTEX
 8
FULGOR
 10
0
 20
0
 30
0
 70
128
 71
428
 72
427
 73
66
 74
67
 0
VERTEX
 8
FULGOR
 10
0
 20
0
 30
0
 70
128
 71
427
 72
439
 73
78
 74
66
 0
VERTEX
 8
FULGOR
 10
0
 20
0
 30
0
 70
128
 71
439
 72
438
 73
77
 74
78
 0
VERTEX
 8
FULGOR
 10
0
 20
0
 30
0
 70
128
 71
438
 72
437
 73
76
 74
77
 0
VERTEX
 8
FULGOR
 10
0
 20
0
 30
0
 70
128
 71
437
 72
423
 73
62
 74
76
 0
VERTEX
 8
FULGOR
 10
0
 20
0
 30
0
 70
128
 71
423
 72
422
 73
61
 74
62
 0
VERTEX
 8
FULGOR
 10
0
 20
0
 30
0
 70
128
 71
422
 72
436
 73
75
 74
61
 0
VERTEX
 8
FULGOR
 10
0
 20
0
 30
0
 70
128
 71
436
 72
420
 73
59
 74
75
 0
VERTEX
 8
FULGOR
 10
0
 20
0
 30
0
 70
128
 71
420
 72
432
 73
71
 74
59
 0
VERTEX
 8
FULGOR
 10
0
 20
0
 30
0
 70
128
 71
432
 72
426
 73
65
 74
71
 0
VERTEX
 8
FULGOR
 10
0
 20
0
 30
0
 70
128
 71
426
 72
425
 73
64
 74
65
 0
VERTEX
 8
FULGOR
 10
0
 20
0
 30
0
 70
128
 71
425
 72
424
 73
63
 74
64
 0
VERTEX
 8
FULGOR
 10
0
 20
0
 30
0
 70
128
 71
424
 72
421
 73
60
 74
63
 0
VERTEX
 8
FULGOR
 10
0
 20
0
 30
0
 70
128
 71
421
 72
414
 73
53
 74
60
 0
VERTEX
 8
FULGOR
 10
0
 20
0
 30
0
 70
128
 71
414
 72
413
 73
52
 74
53
 0
VERTEX
 8
FULGOR
 10
0
 20
0
 30
0
 70
128
 71
413
 72
412
 73
51
 74
52
 0
VERTEX
 8
FULGOR
 10
0
 20
0
 30
0
 70
128
 71
412
 72
411
 73
50
 74
51
 0
VERTEX
 8
FULGOR
 10
0
 20
0
 30
0
 70
128
 71
411
 72
410
 73
49
 74
50
 0
VERTEX
 8
FULGOR
 10
0
 20
0
 30
0
 70
128
 71
410
 72
409
 73
48
 74
49
 0
VERTEX
 8
FULGOR
 10
0
 20
0
 30
0
 70
128
 71
409
 72
408
 73
47
 74
48
 0
VERTEX
 8
FULGOR
 10
0
 20
0
 30
0
 70
128
 71
408
 72
407
 73
46
 74
47
 0
VERTEX
 8
FULGOR
 10
0
 20
0
 30
0
 70
128
 71
407
 72
406
 73
45
 74
46
 0
VERTEX
 8
FULGOR
 10
0
 20
0
 30
0
 70
128
 71
406
 72
405
 73
44
 74
45
 0
VERTEX
 8
FULGOR
 10
0
 20
0
 30
0
 70
128
 71
405
 72
404
 73
43
 74
44
 0
VERTEX
 8
FULGOR
 10
0
 20
0
 30
0
 70
128
 71
404
 72
419
 73
58
 74
43
 0
VERTEX
 8
FULGOR
 10
0
 20
0
 30
0
 70
128
 71
419
 72
418
 73
57
 74
58
 0
VERTEX
 8
FULGOR
 10
0
 20
0
 30
0
 70
128
 71
418
 72
401
 73
40
 74
57
 0
VERTEX
 8
FULGOR
 10
0
 20
0
 30
0
 70
128
 71
401
 72
400
 73
39
 74
40
 0
VERTEX
 8
FULGOR
 10
0
 20
0
 30
0
 70
128
 71
400
 72
399
 73
38
 74
39
 0
VERTEX
 8
FULGOR
 10
0
 20
0
 30
0
 70
128
 71
399
 72
417
 73
56
 74
38
 0
VERTEX
 8
FULGOR
 10
0
 20
0
 30
0
 70
128
 71
417
 72
416
 73
55
 74
56
 0
VERTEX
 8
FULGOR
 10
0
 20
0
 30
0
 70
128
 71
416
 72
415
 73
54
 74
55
 0
VERTEX
 8
FULGOR
 10
0
 20
0
 30
0
 70
128
 71
415
 72
403
 73
42
 74
54
 0
VERTEX
 8
FULGOR
 10
0
 20
0
 30
0
 70
128
 71
403
 72
394
 73
33
 74
42
 0
VERTEX
 8
FULGOR
 10
0
 20
0
 30
0
 70
128
 71
394
 72
402
 73
41
 74
33
 0
VERTEX
 8
FULGOR
 10
0
 20
0
 30
0
 70
128
 71
402
 72
398
 73
37
 74
41
 0
VERTEX
 8
FULGOR
 10
0
 20
0
 30
0
 70
128
 71
398
 72
397
 73
36
 74
37
 0
VERTEX
 8
FULGOR
 10
0
 20
0
 30
0
 70
128
 71
397
 72
396
 73
35
 74
36
 0
VERTEX
 8
FULGOR
 10
0
 20
0
 30
0
 70
128
 71
396
 72
389
 73
28
 74
35
 0
VERTEX
 8
FULGOR
 10
0
 20
0
 30
0
 70
128
 71
389
 72
395
 73
34
 74
28
 0
VERTEX
 8
FULGOR
 10
0
 20
0
 30
0
 70
128
 71
395
 72
387
 73
26
 74
34
 0
VERTEX
 8
FULGOR
 10
0
 20
0
 30
0
 70
128
 71
387
 72
386
 73
25
 74
26
 0
VERTEX
 8
FULGOR
 10
0
 20
0
 30
0
 70
128
 71
386
 72
385
 73
24
 74
25
 0
VERTEX
 8
FULGOR
 10
0
 20
0
 30
0
 70
128
 71
385
 72
384
 73
23
 74
24
 0
VERTEX
 8
FULGOR
 10
0
 20
0
 30
0
 70
128
 71
384
 72
383
 73
22
 74
23
 0
VERTEX
 8
FULGOR
 10
0
 20
0
 30
0
 70
128
 71
383
 72
382
 73
21
 74
22
 0
VERTEX
 8
FULGOR
 10
0
 20
0
 30
0
 70
128
 71
382
 72
393
 73
32
 74
21
 0
VERTEX
 8
FULGOR
 10
0
 20
0
 30
0
 70
128
 71
393
 72
392
 73
31
 74
32
 0
VERTEX
 8
FULGOR
 10
0
 20
0
 30
0
 70
128
 71
392
 72
391
 73
30
 74
31
 0
VERTEX
 8
FULGOR
 10
0
 20
0
 30
0
 70
128
 71
391
 72
390
 73
29
 74
30
 0
VERTEX
 8
FULGOR
 10
0
 20
0
 30
0
 70
128
 71
390
 72
388
 73
27
 74
29
 0
VERTEX
 8
FULGOR
 10
0
 20
0
 30
0
 70
128
 71
388
 72
381
 73
20
 74
27
 0
VERTEX
 8
FULGOR
 10
0
 20
0
 30
0
 70
128
 71
381
 72
380
 73
19
 74
20
 0
VERTEX
 8
FULGOR
 10
0
 20
0
 30
0
 70
128
 71
380
 72
379
 73
18
 74
19
 0
VERTEX
 8
FULGOR
 10
0
 20
0
 30
0
 70
128
 71
379
 72
378
 73
17
 74
18
 0
VERTEX
 8
FULGOR
 10
0
 20
0
 30
0
 70
128
 71
378
 72
376
 73
11
 74
17
 0
VERTEX
 8
FULGOR
 10
0
 20
0
 30
0
 70
128
 71
376
 72
375
 73
10
 74
11
 0
VERTEX
 8
FULGOR
 10
0
 20
0
 30
0
 70
128
 71
375
 72
374
 73
9
 74
10
 0
VERTEX
 8
FULGOR
 10
0
 20
0
 30
0
 70
128
 71
374
 72
377
 73
16
 74
9
 0
VERTEX
 8
FULGOR
 10
0
 20
0
 30
0
 70
128
 71
443
 72
442
 73
80
 74
83
 0
VERTEX
 8
FULGOR
 10
0
 20
0
 30
0
 70
128
 71
442
 72
441
 73
79
 74
80
 0
VERTEX
 8
FULGOR
 10
0
 20
0
 30
0
 70
128
 71
441
 72
446
 73
87
 74
79
 0
VERTEX
 8
FULGOR
 10
0
 20
0
 30
0
 70
128
 71
446
 72
445
 73
86
 74
87
 0
VERTEX
 8
FULGOR
 10
0
 20
0
 30
0
 70
128
 71
445
 72
444
 73
85
 74
86
 0
VERTEX
 8
FULGOR
 10
0
 20
0
 30
0
 70
128
 71
444
 72
443
 73
83
 74
85
 0
VERTEX
 8
FULGOR
 10
0
 20
0
 30
0
 70
128
 71
541
 72
542
 73
263
 74
262
 0
VERTEX
 8
FULGOR
 10
0
 20
0
 30
0
 70
128
 71
477
 72
476
 73
197
 74
198
 0
VERTEX
 8
FULGOR
 10
0
 20
0
 30
0
 70
128
 71
491
 72
484
 73
205
 74
212
 0
VERTEX
 8
FULGOR
 10
0
 20
0
 30
0
 70
128
 71
547
 72
556
 73
277
 74
268
 0
VERTEX
 8
FULGOR
 10
0
 20
0
 30
0
 70
128
 71
523
 72
524
 73
245
 74
244
 0
VERTEX
 8
FULGOR
 10
0
 20
0
 30
0
 70
128
 71
467
 72
447
 73
3
 74
188
 0
VERTEX
 8
FULGOR
 10
0
 20
0
 30
0
 70
128
 71
549
 72
550
 73
271
 74
270
 0
VERTEX
 8
FULGOR
 10
0
 20
0
 30
0
 70
128
 71
479
 72
490
 73
211
 74
200
 0
VERTEX
 8
FULGOR
 10
0
 20
0
 30
0
 70
128
 71
566
 72
567
 73
288
 74
287
 0
VERTEX
 8
FULGOR
 10
0
 20
0
 30
0
 70
128
 71
499
 72
498
 73
219
 74
220
 0
VERTEX
 8
FULGOR
 10
0
 20
0
 30
0
 70
128
 71
570
 72
571
 73
293
 74
292
 0
VERTEX
 8
FULGOR
 10
0
 20
0
 30
0
 70
128
 71
448
 72
502
 73
223
 74
164
 0
VERTEX
 8
FULGOR
 10
0
 20
0
 30
0
 70
128
 71
567
 72
568
 73
289
 74
288
 0
VERTEX
 8
FULGOR
 10
0
 20
0
 30
0
 70
128
 71
500
 72
499
 73
220
 74
221
 0
VERTEX
 8
FULGOR
 10
0
 20
0
 30
0
 70
128
 71
559
 72
552
 73
273
 74
280
 0
VERTEX
 8
FULGOR
 10
0
 20
0
 30
0
 70
128
 71
489
 72
501
 73
222
 74
210
 0
VERTEX
 8
FULGOR
 10
0
 20
0
 30
0
 70
128
 71
564
 72
565
 73
286
 74
285
 0
VERTEX
 8
FULGOR
 10
0
 20
0
 30
0
 70
128
 71
497
 72
496
 73
217
 74
218
 0
VERTEX
 8
FULGOR
 10
0
 20
0
 30
0
 70
128
 71
529
 72
541
 73
262
 74
250
 0
VERTEX
 8
FULGOR
 10
0
 20
0
 30
0
 70
128
 71
476
 72
466
 73
187
 74
197
 0
VERTEX
 8
FULGOR
 10
0
 20
0
 30
0
 70
128
 71
513
 72
514
 73
235
 74
234
 0
VERTEX
 8
FULGOR
 10
0
 20
0
 30
0
 70
128
 71
451
 72
450
 73
168
 74
169
 0
VERTEX
 8
FULGOR
 10
0
 20
0
 30
0
 70
128
 71
568
 72
569
 73
290
 74
289
 0
VERTEX
 8
FULGOR
 10
0
 20
0
 30
0
 70
128
 71
509
 72
500
 73
221
 74
230
 0
VERTEX
 8
FULGOR
 10
0
 20
0
 30
0
 70
128
 71
512
 72
513
 73
234
 74
233
 0
VERTEX
 8
FULGOR
 10
0
 20
0
 30
0
 70
128
 71
450
 72
456
 73
177
 74
168
 0
VERTEX
 8
FULGOR
 10
0
 20
0
 30
0
 70
128
 71
569
 72
570
 73
292
 74
290
 0
VERTEX
 8
FULGOR
 10
0
 20
0
 30
0
 70
128
 71
502
 72
509
 73
230
 74
223
 0
VERTEX
 8
FULGOR
 10
0
 20
0
 30
0
 70
128
 71
533
 72
534
 73
255
 74
254
 0
VERTEX
 8
FULGOR
 10
0
 20
0
 30
0
 70
128
 71
486
 72
485
 73
206
 74
207
 0
VERTEX
 8
FULGOR
 10
0
 20
0
 30
0
 70
128
 71
542
 72
544
 73
265
 74
263
 0
VERTEX
 8
FULGOR
 10
0
 20
0
 30
0
 70
128
 71
478
 72
477
 73
198
 74
199
 0
VERTEX
 8
FULGOR
 10
0
 20
0
 30
0
 70
128
 71
544
 72
533
 73
254
 74
265
 0
VERTEX
 8
FULGOR
 10
0
 20
0
 30
0
 70
128
 71
485
 72
478
 73
199
 74
206
 0
VERTEX
 8
FULGOR
 10
0
 20
0
 30
0
 70
128
 71
516
 72
517
 73
238
 74
237
 0
VERTEX
 8
FULGOR
 10
0
 20
0
 30
0
 70
128
 71
464
 72
573
 73
346
 74
185
 0
VERTEX
 8
FULGOR
 10
0
 20
0
 30
0
 70
128
 71
530
 72
519
 73
240
 74
251
 0
VERTEX
 8
FULGOR
 10
0
 20
0
 30
0
 70
128
 71
458
 72
457
 73
178
 74
179
 0
VERTEX
 8
FULGOR
 10
0
 20
0
 30
0
 70
128
 71
540
 72
549
 73
270
 74
261
 0
VERTEX
 8
FULGOR
 10
0
 20
0
 30
0
 70
128
 71
490
 72
488
 73
209
 74
211
 0
VERTEX
 8
FULGOR
 10
0
 20
0
 30
0
 70
128
 71
565
 72
566
 73
287
 74
286
 0
VERTEX
 8
FULGOR
 10
0
 20
0
 30
0
 70
128
 71
498
 72
497
 73
218
 74
219
 0
VERTEX
 8
FULGOR
 10
0
 20
0
 30
0
 70
128
 71
555
 72
546
 73
267
 74
276
 0
VERTEX
 8
FULGOR
 10
0
 20
0
 30
0
 70
128
 71
483
 72
482
 73
203
 74
204
 0
VERTEX
 8
FULGOR
 10
0
 20
0
 30
0
 70
128
 71
528
 72
516
 73
237
 74
249
 0
VERTEX
 8
FULGOR
 10
0
 20
0
 30
0
 70
128
 71
573
 72
463
 73
184
 74
346
 0
VERTEX
 8
FULGOR
 10
0
 20
0
 30
0
 70
128
 71
548
 72
539
 73
260
 74
269
 0
VERTEX
 8
FULGOR
 10
0
 20
0
 30
0
 70
128
 71
487
 72
475
 73
196
 74
208
 0
VERTEX
 8
FULGOR
 10
0
 20
0
 30
0
 70
128
 71
521
 72
525
 73
246
 74
242
 0
VERTEX
 8
FULGOR
 10
0
 20
0
 30
0
 70
128
 71
462
 72
461
 73
182
 74
183
 0
VERTEX
 8
FULGOR
 10
0
 20
0
 30
0
 70
128
 71
511
 72
521
 73
242
 74
232
 0
VERTEX
 8
FULGOR
 10
0
 20
0
 30
0
 70
128
 71
461
 72
459
 73
180
 74
182
 0
VERTEX
 8
FULGOR
 10
0
 20
0
 30
0
 70
128
 71
527
 72
528
 73
249
 74
248
 0
VERTEX
 8
FULGOR
 10
0
 20
0
 30
0
 70
128
 71
463
 72
574
 73
347
 74
184
 0
VERTEX
 8
FULGOR
 10
0
 20
0
 30
0
 70
128
 71
525
 72
527
 73
248
 74
246
 0
VERTEX
 8
FULGOR
 10
0
 20
0
 30
0
 70
128
 71
574
 72
462
 73
183
 74
347
 0
VERTEX
 8
FULGOR
 10
0
 20
0
 30
0
 70
128
 71
539
 72
540
 73
261
 74
260
 0
VERTEX
 8
FULGOR
 10
0
 20
0
 30
0
 70
128
 71
488
 72
487
 73
208
 74
209
 0
VERTEX
 8
FULGOR
 10
0
 20
0
 30
0
 70
128
 71
532
 72
526
 73
247
 74
253
 0
VERTEX
 8
FULGOR
 10
0
 20
0
 30
0
 70
128
 71
469
 72
468
 73
189
 74
190
 0
VERTEX
 8
FULGOR
 10
0
 20
0
 30
0
 70
128
 71
531
 72
522
 73
243
 74
252
 0
VERTEX
 8
FULGOR
 10
0
 20
0
 30
0
 70
128
 71
460
 72
572
 73
311
 74
181
 0
VERTEX
 8
FULGOR
 10
0
 20
0
 30
0
 70
128
 71
519
 72
520
 73
241
 74
240
 0
VERTEX
 8
FULGOR
 10
0
 20
0
 30
0
 70
128
 71
465
 72
458
 73
179
 74
186
 0
VERTEX
 8
FULGOR
 10
0
 20
0
 30
0
 70
128
 71
551
 72
555
 73
276
 74
272
 0
VERTEX
 8
FULGOR
 10
0
 20
0
 30
0
 70
128
 71
482
 72
481
 73
202
 74
203
 0
VERTEX
 8
FULGOR
 10
0
 20
0
 30
0
 70
128
 71
543
 72
551
 73
272
 74
264
 0
VERTEX
 8
FULGOR
 10
0
 20
0
 30
0
 70
128
 71
481
 72
480
 73
201
 74
202
 0
VERTEX
 8
FULGOR
 10
0
 20
0
 30
0
 70
128
 71
552
 72
553
 73
274
 74
273
 0
VERTEX
 8
FULGOR
 10
0
 20
0
 30
0
 70
128
 71
505
 72
489
 73
210
 74
226
 0
VERTEX
 8
FULGOR
 10
0
 20
0
 30
0
 70
128
 71
554
 72
560
 73
281
 74
275
 0
VERTEX
 8
FULGOR
 10
0
 20
0
 30
0
 70
128
 71
507
 72
506
 73
227
 74
228
 0
VERTEX
 8
FULGOR
 10
0
 20
0
 30
0
 70
128
 71
553
 72
554
 73
275
 74
274
 0
VERTEX
 8
FULGOR
 10
0
 20
0
 30
0
 70
128
 71
506
 72
505
 73
226
 74
227
 0
VERTEX
 8
FULGOR
 10
0
 20
0
 30
0
 70
128
 71
536
 72
545
 73
266
 74
257
 0
VERTEX
 8
FULGOR
 10
0
 20
0
 30
0
 70
128
 71
474
 72
473
 73
194
 74
195
 0
VERTEX
 8
FULGOR
 10
0
 20
0
 30
0
 70
128
 71
561
 72
562
 73
283
 74
282
 0
VERTEX
 8
FULGOR
 10
0
 20
0
 30
0
 70
128
 71
494
 72
508
 73
229
 74
215
 0
VERTEX
 8
FULGOR
 10
0
 20
0
 30
0
 70
128
 71
535
 72
536
 73
257
 74
256
 0
VERTEX
 8
FULGOR
 10
0
 20
0
 30
0
 70
128
 71
473
 72
472
 73
193
 74
194
 0
VERTEX
 8
FULGOR
 10
0
 20
0
 30
0
 70
128
 71
562
 72
563
 73
284
 74
283
 0
VERTEX
 8
FULGOR
 10
0
 20
0
 30
0
 70
128
 71
495
 72
494
 73
215
 74
216
 0
VERTEX
 8
FULGOR
 10
0
 20
0
 30
0
 70
128
 71
510
 72
511
 73
232
 74
231
 0
VERTEX
 8
FULGOR
 10
0
 20
0
 30
0
 70
128
 71
459
 72
454
 73
172
 74
180
 0
VERTEX
 8
FULGOR
 10
0
 20
0
 30
0
 70
128
 71
560
 72
561
 73
282
 74
281
 0
VERTEX
 8
FULGOR
 10
0
 20
0
 30
0
 70
128
 71
508
 72
507
 73
228
 74
229
 0
VERTEX
 8
FULGOR
 10
0
 20
0
 30
0
 70
128
 71
524
 72
532
 73
253
 74
245
 0
VERTEX
 8
FULGOR
 10
0
 20
0
 30
0
 70
128
 71
468
 72
467
 73
188
 74
189
 0
VERTEX
 8
FULGOR
 10
0
 20
0
 30
0
 70
128
 71
517
 72
530
 73
251
 74
238
 0
VERTEX
 8
FULGOR
 10
0
 20
0
 30
0
 70
128
 71
457
 72
464
 73
185
 74
178
 0
VERTEX
 8
FULGOR
 10
0
 20
0
 30
0
 70
128
 71
520
 72
531
 73
252
 74
241
 0
VERTEX
 8
FULGOR
 10
0
 20
0
 30
0
 70
128
 71
572
 72
465
 73
186
 74
311
 0
VERTEX
 8
FULGOR
 10
0
 20
0
 30
0
 70
128
 71
545
 72
548
 73
269
 74
266
 0
VERTEX
 8
FULGOR
 10
0
 20
0
 30
0
 70
128
 71
475
 72
474
 73
195
 74
196
 0
VERTEX
 8
FULGOR
 10
0
 20
0
 30
0
 70
128
 71
534
 72
535
 73
256
 74
255
 0
VERTEX
 8
FULGOR
 10
0
 20
0
 30
0
 70
128
 71
472
 72
486
 73
207
 74
193
 0
VERTEX
 8
FULGOR
 10
0
 20
0
 30
0
 70
128
 71
522
 72
523
 73
244
 74
243
 0
VERTEX
 8
FULGOR
 10
0
 20
0
 30
0
 70
128
 71
447
 72
460
 73
181
 74
3
 0
VERTEX
 8
FULGOR
 10
0
 20
0
 30
0
 70
128
 71
538
 72
529
 73
250
 74
259
 0
VERTEX
 8
FULGOR
 10
0
 20
0
 30
0
 70
128
 71
466
 72
471
 73
192
 74
187
 0
VERTEX
 8
FULGOR
 10
0
 20
0
 30
0
 70
128
 71
558
 72
559
 73
280
 74
279
 0
VERTEX
 8
FULGOR
 10
0
 20
0
 30
0
 70
128
 71
501
 72
493
 73
214
 74
222
 0
VERTEX
 8
FULGOR
 10
0
 20
0
 30
0
 70
128
 71
557
 72
558
 73
279
 74
278
 0
VERTEX
 8
FULGOR
 10
0
 20
0
 30
0
 70
128
 71
493
 72
492
 73
213
 74
214
 0
VERTEX
 8
FULGOR
 10
0
 20
0
 30
0
 70
128
 71
537
 72
538
 73
259
 74
258
 0
VERTEX
 8
FULGOR
 10
0
 20
0
 30
0
 70
128
 71
471
 72
470
 73
191
 74
192
 0
VERTEX
 8
FULGOR
 10
0
 20
0
 30
0
 70
128
 71
526
 72
537
 73
258
 74
247
 0
VERTEX
 8
FULGOR
 10
0
 20
0
 30
0
 70
128
 71
470
 72
469
 73
190
 74
191
 0
VERTEX
 8
FULGOR
 10
0
 20
0
 30
0
 70
128
 71
563
 72
564
 73
285
 74
284
 0
VERTEX
 8
FULGOR
 10
0
 20
0
 30
0
 70
128
 71
496
 72
495
 73
216
 74
217
 0
VERTEX
 8
FULGOR
 10
0
 20
0
 30
0
 70
128
 71
571
 72
503
 73
224
 74
293
 0
VERTEX
 8
FULGOR
 10
0
 20
0
 30
0
 70
128
 71
449
 72
448
 73
164
 74
165
 0
VERTEX
 8
FULGOR
 10
0
 20
0
 30
0
 70
128
 71
503
 72
504
 73
225
 74
224
 0
VERTEX
 8
FULGOR
 10
0
 20
0
 30
0
 70
128
 71
455
 72
449
 73
165
 74
176
 0
VERTEX
 8
FULGOR
 10
0
 20
0
 30
0
 70
128
 71
504
 72
512
 73
233
 74
225
 0
VERTEX
 8
FULGOR
 10
0
 20
0
 30
0
 70
128
 71
456
 72
455
 73
176
 74
177
 0
VERTEX
 8
FULGOR
 10
0
 20
0
 30
0
 70
128
 71
514
 72
515
 73
236
 74
235
 0
VERTEX
 8
FULGOR
 10
0
 20
0
 30
0
 70
128
 71
452
 72
451
 73
169
 74
170
 0
VERTEX
 8
FULGOR
 10
0
 20
0
 30
0
 70
128
 71
515
 72
518
 73
239
 74
236
 0
VERTEX
 8
FULGOR
 10
0
 20
0
 30
0
 70
128
 71
453
 72
452
 73
170
 74
171
 0
VERTEX
 8
FULGOR
 10
0
 20
0
 30
0
 70
128
 71
518
 72
510
 73
231
 74
239
 0
VERTEX
 8
FULGOR
 10
0
 20
0
 30
0
 70
128
 71
454
 72
453
 73
171
 74
172
 0
VERTEX
 8
FULGOR
 10
0
 20
0
 30
0
 70
128
 71
492
 72
491
 73
212
 74
213
 0
VERTEX
 8
FULGOR
 10
0
 20
0
 30
0
 70
128
 71
556
 72
557
 73
278
 74
277
 0
VERTEX
 8
FULGOR
 10
0
 20
0
 30
0
 70
128
 71
546
 72
547
 73
268
 74
267
 0
VERTEX
 8
FULGOR
 10
0
 20
0
 30
0
 70
128
 71
484
 72
483
 73
204
 74
205
 0
VERTEX
 8
FULGOR
 10
0
 20
0
 30
0
 70
128
 71
550
 72
543
 73
264
 74
271
 0
VERTEX
 8
FULGOR
 10
0
 20
0
 30
0
 70
128
 71
480
 72
479
 73
200
 74
201
 0
VERTEX
 8
FULGOR
 10
0
 20
0
 30
0
 70
128
 71
627
 72
625
 73
135
 74
137
 0
VERTEX
 8
FULGOR
 10
0
 20
0
 30
0
 70
128
 71
617
 72
610
 73
120
 74
127
 0
VERTEX
 8
FULGOR
 10
0
 20
0
 30
0
 70
128
 71
625
 72
624
 73
134
 74
135
 0
VERTEX
 8
FULGOR
 10
0
 20
0
 30
0
 70
128
 71
618
 72
617
 73
127
 74
128
 0
VERTEX
 8
FULGOR
 10
0
 20
0
 30
0
 70
128
 71
635
 72
634
 73
144
 74
145
 0
VERTEX
 8
FULGOR
 10
0
 20
0
 30
0
 70
128
 71
596
 72
589
 73
99
 74
106
 0
VERTEX
 8
FULGOR
 10
0
 20
0
 30
0
 70
128
 71
575
 72
628
 73
138
 74
1
 0
VERTEX
 8
FULGOR
 10
0
 20
0
 30
0
 70
128
 71
609
 72
608
 73
118
 74
119
 0
VERTEX
 8
FULGOR
 10
0
 20
0
 30
0
 70
128
 71
642
 72
638
 73
148
 74
152
 0
VERTEX
 8
FULGOR
 10
0
 20
0
 30
0
 70
128
 71
605
 72
602
 73
112
 74
115
 0
VERTEX
 8
FULGOR
 10
0
 20
0
 30
0
 70
128
 71
645
 72
642
 73
152
 74
155
 0
VERTEX
 8
FULGOR
 10
0
 20
0
 30
0
 70
128
 71
602
 72
599
 73
109
 74
112
 0
VERTEX
 8
FULGOR
 10
0
 20
0
 30
0
 70
128
 71
631
 72
645
 73
155
 74
141
 0
VERTEX
 8
FULGOR
 10
0
 20
0
 30
0
 70
128
 71
599
 72
593
 73
103
 74
109
 0
VERTEX
 8
FULGOR
 10
0
 20
0
 30
0
 70
128
 71
632
 72
631
 73
141
 74
142
 0
VERTEX
 8
FULGOR
 10
0
 20
0
 30
0
 70
128
 71
593
 72
598
 73
108
 74
103
 0
VERTEX
 8
FULGOR
 10
0
 20
0
 30
0
 70
128
 71
640
 72
639
 73
149
 74
150
 0
VERTEX
 8
FULGOR
 10
0
 20
0
 30
0
 70
128
 71
592
 72
584
 73
94
 74
102
 0
VERTEX
 8
FULGOR
 10
0
 20
0
 30
0
 70
128
 71
633
 72
632
 73
142
 74
143
 0
VERTEX
 8
FULGOR
 10
0
 20
0
 30
0
 70
128
 71
598
 72
597
 73
107
 74
108
 0
VERTEX
 8
FULGOR
 10
0
 20
0
 30
0
 70
128
 71
634
 72
633
 73
143
 74
144
 0
VERTEX
 8
FULGOR
 10
0
 20
0
 30
0
 70
128
 71
597
 72
596
 73
106
 74
107
 0
VERTEX
 8
FULGOR
 10
0
 20
0
 30
0
 70
128
 71
628
 72
627
 73
137
 74
138
 0
VERTEX
 8
FULGOR
 10
0
 20
0
 30
0
 70
128
 71
610
 72
609
 73
119
 74
120
 0
VERTEX
 8
FULGOR
 10
0
 20
0
 30
0
 70
128
 71
650
 72
648
 73
158
 74
160
 0
VERTEX
 8
FULGOR
 10
0
 20
0
 30
0
 70
128
 71
588
 72
595
 73
105
 74
98
 0
VERTEX
 8
FULGOR
 10
0
 20
0
 30
0
 70
128
 71
651
 72
657
 73
174
 74
161
 0
VERTEX
 8
FULGOR
 10
0
 20
0
 30
0
 70
128
 71
577
 72
579
 73
89
 74
84
 0
VERTEX
 8
FULGOR
 10
0
 20
0
 30
0
 70
128
 71
657
 72
649
 73
159
 74
174
 0
VERTEX
 8
FULGOR
 10
0
 20
0
 30
0
 70
128
 71
580
 72
577
 73
84
 74
90
 0
VERTEX
 8
FULGOR
 10
0
 20
0
 30
0
 70
128
 71
649
 72
656
 73
173
 74
159
 0
VERTEX
 8
FULGOR
 10
0
 20
0
 30
0
 70
128
 71
585
 72
580
 73
90
 74
95
 0
VERTEX
 8
FULGOR
 10
0
 20
0
 30
0
 70
128
 71
638
 72
637
 73
147
 74
148
 0
VERTEX
 8
FULGOR
 10
0
 20
0
 30
0
 70
128
 71
606
 72
605
 73
115
 74
116
 0
VERTEX
 8
FULGOR
 10
0
 20
0
 30
0
 70
128
 71
656
 72
647
 73
157
 74
173
 0
VERTEX
 8
FULGOR
 10
0
 20
0
 30
0
 70
128
 71
586
 72
585
 73
95
 74
96
 0
VERTEX
 8
FULGOR
 10
0
 20
0
 30
0
 70
128
 71
641
 72
640
 73
150
 74
151
 0
VERTEX
 8
FULGOR
 10
0
 20
0
 30
0
 70
128
 71
584
 72
583
 73
93
 74
94
 0
VERTEX
 8
FULGOR
 10
0
 20
0
 30
0
 70
128
 71
648
 72
635
 73
145
 74
158
 0
VERTEX
 8
FULGOR
 10
0
 20
0
 30
0
 70
128
 71
589
 72
588
 73
98
 74
99
 0
VERTEX
 8
FULGOR
 10
0
 20
0
 30
0
 70
128
 71
643
 72
654
 73
166
 74
153
 0
VERTEX
 8
FULGOR
 10
0
 20
0
 30
0
 70
128
 71
582
 72
581
 73
91
 74
92
 0
VERTEX
 8
FULGOR
 10
0
 20
0
 30
0
 70
128
 71
658
 72
651
 73
161
 74
175
 0
VERTEX
 8
FULGOR
 10
0
 20
0
 30
0
 70
128
 71
579
 72
578
 73
88
 74
89
 0
VERTEX
 8
FULGOR
 10
0
 20
0
 30
0
 70
128
 71
653
 72
658
 73
175
 74
163
 0
VERTEX
 8
FULGOR
 10
0
 20
0
 30
0
 70
128
 71
578
 72
576
 73
81
 74
88
 0
VERTEX
 8
FULGOR
 10
0
 20
0
 30
0
 70
128
 71
576
 72
653
 73
163
 74
81
 0
VERTEX
 8
FULGOR
 10
0
 20
0
 30
0
 70
128
 71
637
 72
626
 73
136
 74
147
 0
VERTEX
 8
FULGOR
 10
0
 20
0
 30
0
 70
128
 71
611
 72
606
 73
116
 74
121
 0
VERTEX
 8
FULGOR
 10
0
 20
0
 30
0
 70
128
 71
655
 72
644
 73
154
 74
167
 0
VERTEX
 8
FULGOR
 10
0
 20
0
 30
0
 70
128
 71
591
 72
590
 73
100
 74
101
 0
VERTEX
 8
FULGOR
 10
0
 20
0
 30
0
 70
128
 71
654
 72
641
 73
151
 74
166
 0
VERTEX
 8
FULGOR
 10
0
 20
0
 30
0
 70
128
 71
583
 72
582
 73
92
 74
93
 0
VERTEX
 8
FULGOR
 10
0
 20
0
 30
0
 70
128
 71
647
 72
646
 73
156
 74
157
 0
VERTEX
 8
FULGOR
 10
0
 20
0
 30
0
 70
128
 71
587
 72
586
 73
96
 74
97
 0
VERTEX
 8
FULGOR
 10
0
 20
0
 30
0
 70
128
 71
644
 72
643
 73
153
 74
154
 0
VERTEX
 8
FULGOR
 10
0
 20
0
 30
0
 70
128
 71
581
 72
591
 73
101
 74
91
 0
VERTEX
 8
FULGOR
 10
0
 20
0
 30
0
 70
128
 71
659
 72
620
 73
130
 74
357
 0
VERTEX
 8
FULGOR
 10
0
 20
0
 30
0
 70
128
 71
615
 72
604
 73
114
 74
125
 0
VERTEX
 8
FULGOR
 10
0
 20
0
 30
0
 70
128
 71
619
 72
575
 73
1
 74
129
 0
VERTEX
 8
FULGOR
 10
0
 20
0
 30
0
 70
128
 71
608
 72
607
 73
117
 74
118
 0
VERTEX
 8
FULGOR
 10
0
 20
0
 30
0
 70
128
 71
639
 72
652
 73
162
 74
149
 0
VERTEX
 8
FULGOR
 10
0
 20
0
 30
0
 70
128
 71
594
 72
592
 73
102
 74
104
 0
VERTEX
 8
FULGOR
 10
0
 20
0
 30
0
 70
128
 71
646
 72
655
 73
167
 74
156
 0
VERTEX
 8
FULGOR
 10
0
 20
0
 30
0
 70
128
 71
590
 72
587
 73
97
 74
100
 0
VERTEX
 8
FULGOR
 10
0
 20
0
 30
0
 70
128
 71
622
 72
629
 73
139
 74
132
 0
VERTEX
 8
FULGOR
 10
0
 20
0
 30
0
 70
128
 71
603
 72
613
 73
123
 74
113
 0
VERTEX
 8
FULGOR
 10
0
 20
0
 30
0
 70
128
 71
624
 72
614
 73
124
 74
134
 0
VERTEX
 8
FULGOR
 10
0
 20
0
 30
0
 70
128
 71
614
 72
621
 73
131
 74
124
 0
VERTEX
 8
FULGOR
 10
0
 20
0
 30
0
 70
128
 71
621
 72
618
 73
128
 74
131
 0
VERTEX
 8
FULGOR
 10
0
 20
0
 30
0
 70
128
 71
623
 72
622
 73
132
 74
133
 0
VERTEX
 8
FULGOR
 10
0
 20
0
 30
0
 70
128
 71
613
 72
601
 73
111
 74
123
 0
VERTEX
 8
FULGOR
 10
0
 20
0
 30
0
 70
128
 71
660
 72
619
 73
129
 74
360
 0
VERTEX
 8
FULGOR
 10
0
 20
0
 30
0
 70
128
 71
607
 72
616
 73
126
 74
117
 0
VERTEX
 8
FULGOR
 10
0
 20
0
 30
0
 70
128
 71
630
 72
623
 73
133
 74
140
 0
VERTEX
 8
FULGOR
 10
0
 20
0
 30
0
 70
128
 71
601
 72
600
 73
110
 74
111
 0
VERTEX
 8
FULGOR
 10
0
 20
0
 30
0
 70
128
 71
620
 72
660
 73
360
 74
130
 0
VERTEX
 8
FULGOR
 10
0
 20
0
 30
0
 70
128
 71
616
 72
615
 73
125
 74
126
 0
VERTEX
 8
FULGOR
 10
0
 20
0
 30
0
 70
128
 71
652
 72
650
 73
160
 74
162
 0
VERTEX
 8
FULGOR
 10
0
 20
0
 30
0
 70
128
 71
595
 72
594
 73
104
 74
105
 0
VERTEX
 8
FULGOR
 10
0
 20
0
 30
0
 70
128
 71
636
 72
630
 73
140
 74
146
 0
VERTEX
 8
FULGOR
 10
0
 20
0
 30
0
 70
128
 71
600
 72
612
 73
122
 74
110
 0
VERTEX
 8
FULGOR
 10
0
 20
0
 30
0
 70
128
 71
626
 72
636
 73
146
 74
136
 0
VERTEX
 8
FULGOR
 10
0
 20
0
 30
0
 70
128
 71
612
 72
611
 73
121
 74
122
 0
VERTEX
 8
FULGOR
 10
0
 20
0
 30
0
 70
128
 71
629
 72
659
 73
357
 74
139
 0
VERTEX
 8
FULGOR
 10
0
 20
0
 30
0
 70
128
 71
604
 72
603
 73
113
 74
114
 0
VERTEX
 8
FULGOR
 10
0
 20
0
 30
0
 70
128
 71
706
 72
707
 73
340
 74
339
 0
VERTEX
 8
FULGOR
 10
0
 20
0
 30
0
 70
128
 71
688
 72
695
 73
328
 74
321
 0
VERTEX
 8
FULGOR
 10
0
 20
0
 30
0
 70
128
 71
675
 72
673
 73
305
 74
307
 0
VERTEX
 8
FULGOR
 10
0
 20
0
 30
0
 70
128
 71
723
 72
725
 73
362
 74
359
 0
VERTEX
 8
FULGOR
 10
0
 20
0
 30
0
 70
128
 71
707
 72
715
 73
350
 74
340
 0
VERTEX
 8
FULGOR
 10
0
 20
0
 30
0
 70
128
 71
689
 72
688
 73
321
 74
322
 0
VERTEX
 8
FULGOR
 10
0
 20
0
 30
0
 70
128
 71
718
 72
717
 73
352
 74
353
 0
VERTEX
 8
FULGOR
 10
0
 20
0
 30
0
 70
128
 71
686
 72
685
 73
318
 74
319
 0
VERTEX
 8
FULGOR
 10
0
 20
0
 30
0
 70
128
 71
711
 72
712
 73
345
 74
344
 0
VERTEX
 8
FULGOR
 10
0
 20
0
 30
0
 70
128
 71
693
 72
697
 73
330
 74
326
 0
VERTEX
 8
FULGOR
 10
0
 20
0
 30
0
 70
128
 71
661
 72
664
 73
296
 74
291
 0
VERTEX
 8
FULGOR
 10
0
 20
0
 30
0
 70
128
 71
700
 72
719
 73
354
 74
333
 0
VERTEX
 8
FULGOR
 10
0
 20
0
 30
0
 70
128
 71
716
 72
709
 73
342
 74
351
 0
VERTEX
 8
FULGOR
 10
0
 20
0
 30
0
 70
128
 71
691
 72
690
 73
323
 74
324
 0
VERTEX
 8
FULGOR
 10
0
 20
0
 30
0
 70
128
 71
704
 72
705
 73
338
 74
337
 0
VERTEX
 8
FULGOR
 10
0
 20
0
 30
0
 70
128
 71
692
 72
683
 73
316
 74
325
 0
VERTEX
 8
FULGOR
 10
0
 20
0
 30
0
 70
128
 71
677
 72
676
 73
308
 74
309
 0
VERTEX
 8
FULGOR
 10
0
 20
0
 30
0
 70
128
 71
726
 72
666
 73
298
 74
363
 0
VERTEX
 8
FULGOR
 10
0
 20
0
 30
0
 70
128
 71
703
 72
704
 73
337
 74
336
 0
VERTEX
 8
FULGOR
 10
0
 20
0
 30
0
 70
128
 71
683
 72
681
 73
314
 74
316
 0
VERTEX
 8
FULGOR
 10
0
 20
0
 30
0
 70
128
 71
715
 72
716
 73
351
 74
350
 0
VERTEX
 8
FULGOR
 10
0
 20
0
 30
0
 70
128
 71
690
 72
689
 73
322
 74
323
 0
VERTEX
 8
FULGOR
 10
0
 20
0
 30
0
 70
128
 71
701
 72
702
 73
335
 74
334
 0
VERTEX
 8
FULGOR
 10
0
 20
0
 30
0
 70
128
 71
687
 72
679
 73
312
 74
320
 0
VERTEX
 8
FULGOR
 10
0
 20
0
 30
0
 70
128
 71
676
 72
675
 73
307
 74
308
 0
VERTEX
 8
FULGOR
 10
0
 20
0
 30
0
 70
128
 71
725
 72
726
 73
363
 74
362
 0
VERTEX
 8
FULGOR
 10
0
 20
0
 30
0
 70
128
 71
673
 72
672
 73
304
 74
305
 0
VERTEX
 8
FULGOR
 10
0
 20
0
 30
0
 70
128
 71
722
 72
723
 73
359
 74
358
 0
VERTEX
 8
FULGOR
 10
0
 20
0
 30
0
 70
128
 71
702
 72
703
 73
336
 74
335
 0
VERTEX
 8
FULGOR
 10
0
 20
0
 30
0
 70
128
 71
681
 72
687
 73
320
 74
314
 0
VERTEX
 8
FULGOR
 10
0
 20
0
 30
0
 70
128
 71
720
 72
721
 73
356
 74
355
 0
VERTEX
 8
FULGOR
 10
0
 20
0
 30
0
 70
128
 71
680
 72
669
 73
301
 74
313
 0
VERTEX
 8
FULGOR
 10
0
 20
0
 30
0
 70
128
 71
669
 72
668
 73
300
 74
301
 0
VERTEX
 8
FULGOR
 10
0
 20
0
 30
0
 70
128
 71
668
 72
667
 73
299
 74
300
 0
VERTEX
 8
FULGOR
 10
0
 20
0
 30
0
 70
128
 71
667
 72
720
 73
355
 74
299
 0
VERTEX
 8
FULGOR
 10
0
 20
0
 30
0
 70
128
 71
717
 72
706
 73
339
 74
352
 0
VERTEX
 8
FULGOR
 10
0
 20
0
 30
0
 70
128
 71
695
 72
686
 73
319
 74
328
 0
VERTEX
 8
FULGOR
 10
0
 20
0
 30
0
 70
128
 71
710
 72
713
 73
348
 74
343
 0
VERTEX
 8
FULGOR
 10
0
 20
0
 30
0
 70
128
 71
714
 72
698
 73
331
 74
349
 0
VERTEX
 8
FULGOR
 10
0
 20
0
 30
0
 70
128
 71
709
 72
711
 73
344
 74
342
 0
VERTEX
 8
FULGOR
 10
0
 20
0
 30
0
 70
128
 71
697
 72
691
 73
324
 74
330
 0
VERTEX
 8
FULGOR
 10
0
 20
0
 30
0
 70
128
 71
679
 72
684
 73
317
 74
312
 0
VERTEX
 8
FULGOR
 10
0
 20
0
 30
0
 70
128
 71
678
 72
671
 73
303
 74
310
 0
VERTEX
 8
FULGOR
 10
0
 20
0
 30
0
 70
128
 71
719
 72
701
 73
334
 74
354
 0
VERTEX
 8
FULGOR
 10
0
 20
0
 30
0
 70
128
 71
670
 72
661
 73
291
 74
302
 0
VERTEX
 8
FULGOR
 10
0
 20
0
 30
0
 70
128
 71
708
 72
710
 73
343
 74
341
 0
VERTEX
 8
FULGOR
 10
0
 20
0
 30
0
 70
128
 71
698
 72
694
 73
327
 74
331
 0
VERTEX
 8
FULGOR
 10
0
 20
0
 30
0
 70
128
 71
705
 72
718
 73
353
 74
338
 0
VERTEX
 8
FULGOR
 10
0
 20
0
 30
0
 70
128
 71
685
 72
692
 73
325
 74
318
 0
VERTEX
 8
FULGOR
 10
0
 20
0
 30
0
 70
128
 71
713
 72
696
 73
329
 74
348
 0
VERTEX
 8
FULGOR
 10
0
 20
0
 30
0
 70
128
 71
699
 72
714
 73
349
 74
332
 0
VERTEX
 8
FULGOR
 10
0
 20
0
 30
0
 70
128
 71
696
 72
700
 73
333
 74
329
 0
VERTEX
 8
FULGOR
 10
0
 20
0
 30
0
 70
128
 71
674
 72
699
 73
332
 74
306
 0
VERTEX
 8
FULGOR
 10
0
 20
0
 30
0
 70
128
 71
724
 72
674
 73
306
 74
361
 0
VERTEX
 8
FULGOR
 10
0
 20
0
 30
0
 70
128
 71
664
 72
663
 73
295
 74
296
 0
VERTEX
 8
FULGOR
 10
0
 20
0
 30
0
 70
128
 71
663
 72
662
 73
294
 74
295
 0
VERTEX
 8
FULGOR
 10
0
 20
0
 30
0
 70
128
 71
662
 72
724
 73
361
 74
294
 0
VERTEX
 8
FULGOR
 10
0
 20
0
 30
0
 70
128
 71
672
 72
680
 73
313
 74
304
 0
VERTEX
 8
FULGOR
 10
0
 20
0
 30
0
 70
128
 71
721
 72
722
 73
358
 74
356
 0
VERTEX
 8
FULGOR
 10
0
 20
0
 30
0
 70
128
 71
671
 72
670
 73
302
 74
303
 0
VERTEX
 8
FULGOR
 10
0
 20
0
 30
0
 70
128
 71
712
 72
708
 73
341
 74
345
 0
VERTEX
 8
FULGOR
 10
0
 20
0
 30
0
 70
128
 71
694
 72
693
 73
326
 74
327
 0
VERTEX
 8
FULGOR
 10
0
 20
0
 30
0
 70
128
 71
665
 72
678
 73
310
 74
297
 0
VERTEX
 8
FULGOR
 10
0
 20
0
 30
0
 70
128
 71
684
 72
682
 73
315
 74
317
 0
VERTEX
 8
FULGOR
 10
0
 20
0
 30
0
 70
128
 71
666
 72
665
 73
297
 74
298
 0
VERTEX
 8
FULGOR
 10
0
 20
0
 30
0
 70
128
 71
682
 72
677
 73
309
 74
315
 0
SEQEND
 0
POLYLINE
 8
MILANO
 66
1
 10
0.0
 20
0.0
 30
0.0
 70
64
 71
186
 72
187
 0
VERTEX
 8
MILANO
 10
0.2468
 20
-4.1887
 30
9.4503
 70
192
 0
VERTEX
 8
MILANO
 10
0.6788
 20
-4.1887
 30
9.2808
 70
192
 0
VERTEX
 8
MILANO
 10
0.6834
 20
-4.1887
 30
9.2418
 70
192
 0
VERTEX
 8
MILANO
 10
0.6998
 20
-4.1887
 30
9.2064
 70
192
 0
VERTEX
 8
MILANO
 10
0.7272
 20
-4.1887
 30
9.1787
 70
192
 0
VERTEX
 8
MILANO
 10
0.7614
 20
-4.1887
 30
9.1598
 70
192
 0
VERTEX
 8
MILANO
 10
0.7989
 20
-4.1887
 30
9.1488
 70
192
 0
VERTEX
 8
MILANO
 10
0.8378
 20
-4.1887
 30
9.1446
 70
192
 0
VERTEX
 8
MILANO
 10
0.5157
 20
-4.1887
 30
9.1965
 70
192
 0
VERTEX
 8
MILANO
 10
0.8767
 20
-4.1887
 30
9.1476
 70
192
 0
VERTEX
 8
MILANO
 10
0.9143
 20
-4.1887
 30
9.158
 70
192
 0
VERTEX
 8
MILANO
 10
0.9483
 20
-4.1887
 30
9.1771
 70
192
 0
VERTEX
 8
MILANO
 10
0.0833
 20
-4.1887
 30
9.2189
 70
192
 0
VERTEX
 8
MILANO
 10
0.1447
 20
-4.1887
 30
9.1084
 70
192
 0
VERTEX
 8
MILANO
 10
0.1952
 20
-4.1887
 30
9.1084
 70
192
 0
VERTEX
 8
MILANO
 10
0.9749
 20
-4.1887
 30
9.2057
 70
192
 0
VERTEX
 8
MILANO
 10
0.9922
 20
-4.1887
 30
9.2408
 70
192
 0
VERTEX
 8
MILANO
 10
-0.195
 20
-4.1887
 30
9.1084
 70
192
 0
VERTEX
 8
MILANO
 10
-0.0599
 20
-4.1887
 30
9.2569
 70
192
 0
VERTEX
 8
MILANO
 10
0.0627
 20
-4.1887
 30
9.2569
 70
192
 0
VERTEX
 8
MILANO
 10
0.9977
 20
-4.1887
 30
9.2795
 70
192
 0
VERTEX
 8
MILANO
 10
0.9927
 20
-4.1887
 30
9.3184
 70
192
 0
VERTEX
 8
MILANO
 10
0.9762
 20
-4.1887
 30
9.3538
 70
192
 0
VERTEX
 8
MILANO
 10
-0.3634
 20
-4.1887
 30
9.4503
 70
192
 0
VERTEX
 8
MILANO
 10
-0.3634
 20
-4.1887
 30
9.1456
 70
192
 0
VERTEX
 8
MILANO
 10
0.9494
 20
-4.1887
 30
9.3822
 70
192
 0
VERTEX
 8
MILANO
 10
0.9153
 20
-4.1887
 30
9.4013
 70
192
 0
VERTEX
 8
MILANO
 10
0.8777
 20
-4.1887
 30
9.4117
 70
192
 0
VERTEX
 8
MILANO
 10
-0.5347
 20
-4.1887
 30
9.4503
 70
192
 0
VERTEX
 8
MILANO
 10
-0.4922
 20
-4.1887
 30
9.4503
 70
192
 0
VERTEX
 8
MILANO
 10
-0.4922
 20
-4.1887
 30
9.1084
 70
192
 0
VERTEX
 8
MILANO
 10
-0.5347
 20
-4.1887
 30
9.1084
 70
192
 0
VERTEX
 8
MILANO
 10
-1.0466
 20
-4.1887
 30
9.1084
 70
192
 0
VERTEX
 8
MILANO
 10
-0.9936
 20
-4.1887
 30
9.4524
 70
192
 0
VERTEX
 8
MILANO
 10
-0.6709
 20
-4.1887
 30
9.4524
 70
192
 0
VERTEX
 8
MILANO
 10
-0.6551
 20
-4.1887
 30
9.4524
 70
192
 0
VERTEX
 8
MILANO
 10
-0.5992
 20
-4.1887
 30
9.1084
 70
192
 0
VERTEX
 8
MILANO
 10
-0.6454
 20
-4.1887
 30
9.1084
 70
192
 0
VERTEX
 8
MILANO
 10
-0.8325
 20
-4.1887
 30
9.1084
 70
192
 0
VERTEX
 8
MILANO
 10
-0.9675
 20
-4.1887
 30
9.3392
 70
192
 0
VERTEX
 8
MILANO
 10
-0.212
 20
-4.1887
 30
9.1456
 70
192
 0
VERTEX
 8
MILANO
 10
-0.212
 20
-4.1887
 30
9.1084
 70
192
 0
VERTEX
 8
MILANO
 10
-0.4053
 20
-4.1887
 30
9.1084
 70
192
 0
VERTEX
 8
MILANO
 10
-0.9833
 20
-4.1887
 30
9.4524
 70
192
 0
VERTEX
 8
MILANO
 10
-0.824
 20
-4.1887
 30
9.1786
 70
192
 0
VERTEX
 8
MILANO
 10
-0.6824
 20
-4.1887
 30
9.3392
 70
192
 0
VERTEX
 8
MILANO
 10
-0.8119
 20
-4.1887
 30
9.1084
 70
192
 0
VERTEX
 8
MILANO
 10
-1.0009
 20
-4.1887
 30
9.1084
 70
192
 0
VERTEX
 8
MILANO
 10
0.8389
 20
-4.1887
 30
9.4561
 70
192
 0
VERTEX
 8
MILANO
 10
0.7879
 20
-4.1887
 30
9.4533
 70
192
 0
VERTEX
 8
MILANO
 10
0.7384
 20
-4.1887
 30
9.4409
 70
192
 0
VERTEX
 8
MILANO
 10
0.6947
 20
-4.1887
 30
9.4148
 70
192
 0
VERTEX
 8
MILANO
 10
0.6596
 20
-4.1887
 30
9.3775
 70
192
 0
VERTEX
 8
MILANO
 10
0.6368
 20
-4.1887
 30
9.3318
 70
192
 0
VERTEX
 8
MILANO
 10
0.6297
 20
-4.1887
 30
9.2811
 70
192
 0
VERTEX
 8
MILANO
 10
0.6357
 20
-4.1887
 30
9.2302
 70
192
 0
VERTEX
 8
MILANO
 10
0.6571
 20
-4.1887
 30
9.1839
 70
192
 0
VERTEX
 8
MILANO
 10
0.6931
 20
-4.1887
 30
9.1477
 70
192
 0
VERTEX
 8
MILANO
 10
0.7378
 20
-4.1887
 30
9.123
 70
192
 0
VERTEX
 8
MILANO
 10
0.7868
 20
-4.1887
 30
9.1086
 70
192
 0
VERTEX
 8
MILANO
 10
0.8376
 20
-4.1887
 30
9.103
 70
192
 0
VERTEX
 8
MILANO
 10
0.8885
 20
-4.1887
 30
9.1069
 70
192
 0
VERTEX
 8
MILANO
 10
0.9377
 20
-4.1887
 30
9.1206
 70
192
 0
VERTEX
 8
MILANO
 10
0.9822
 20
-4.1887
 30
9.1456
 70
192
 0
VERTEX
 8
MILANO
 10
1.017
 20
-4.1887
 30
9.1829
 70
192
 0
VERTEX
 8
MILANO
 10
1.0395
 20
-4.1887
 30
9.2288
 70
192
 0
VERTEX
 8
MILANO
 10
1.0468
 20
-4.1887
 30
9.2795
 70
192
 0
VERTEX
 8
MILANO
 10
1.0402
 20
-4.1887
 30
9.3303
 70
192
 0
VERTEX
 8
MILANO
 10
1.0186
 20
-4.1887
 30
9.3766
 70
192
 0
VERTEX
 8
MILANO
 10
0.9836
 20
-4.1887
 30
9.4138
 70
192
 0
VERTEX
 8
MILANO
 10
0.2468
 20
-4.1887
 30
9.1084
 70
192
 0
VERTEX
 8
MILANO
 10
0.2915
 20
-4.1887
 30
9.1084
 70
192
 0
VERTEX
 8
MILANO
 10
0.2915
 20
-4.1887
 30
9.3576
 70
192
 0
VERTEX
 8
MILANO
 10
0.5454
 20
-4.1887
 30
9.1084
 70
192
 0
VERTEX
 8
MILANO
 10
0.56
 20
-4.1887
 30
9.1084
 70
192
 0
VERTEX
 8
MILANO
 10
0.56
 20
-4.1887
 30
9.4503
 70
192
 0
VERTEX
 8
MILANO
 10
0.5152
 20
-4.1887
 30
9.4503
 70
192
 0
VERTEX
 8
MILANO
 10
0.9391
 20
-4.1887
 30
9.4388
 70
192
 0
VERTEX
 8
MILANO
 10
0.2634
 20
-4.1887
 30
9.4503
 70
192
 0
VERTEX
 8
MILANO
 10
-0.1389
 20
-4.1887
 30
9.1084
 70
192
 0
VERTEX
 8
MILANO
 10
-0.082
 20
-4.1887
 30
9.2189
 70
192
 0
VERTEX
 8
MILANO
 10
0.8898
 20
-4.1887
 30
9.4523
 70
192
 0
VERTEX
 8
MILANO
 10
0.8388
 20
-4.1887
 30
9.4146
 70
192
 0
VERTEX
 8
MILANO
 10
0.7998
 20
-4.1887
 30
9.4124
 70
192
 0
VERTEX
 8
MILANO
 10
0.0082
 20
-4.1887
 30
9.4503
 70
192
 0
VERTEX
 8
MILANO
 10
-0.0062
 20
-4.1887
 30
9.4503
 70
192
 0
VERTEX
 8
MILANO
 10
0.7619
 20
-4.1887
 30
9.4029
 70
192
 0
VERTEX
 8
MILANO
 10
0.7285
 20
-4.1887
 30
9.383
 70
192
 0
VERTEX
 8
MILANO
 10
0.7016
 20
-4.1887
 30
9.3545
 70
192
 0
VERTEX
 8
MILANO
 10
0.0057
 20
-4.1887
 30
9.3664
 70
192
 0
VERTEX
 8
MILANO
 10
-0.0043
 20
-4.1887
 30
9.3664
 70
192
 0
VERTEX
 8
MILANO
 10
-0.4089
 20
-4.1887
 30
9.4503
 70
192
 0
VERTEX
 8
MILANO
 10
0.6842
 20
-4.1887
 30
9.3195
 70
192
 0
VERTEX
 8
MILANO
 10
0.2468
 20
-4.1086
 30
9.4503
 70
192
 0
VERTEX
 8
MILANO
 10
0.5157
 20
-4.1086
 30
9.1965
 70
192
 0
VERTEX
 8
MILANO
 10
0.2468
 20
-4.1086
 30
9.1084
 70
192
 0
VERTEX
 8
MILANO
 10
0.2915
 20
-4.1086
 30
9.1084
 70
192
 0
VERTEX
 8
MILANO
 10
0.2915
 20
-4.1086
 30
9.3576
 70
192
 0
VERTEX
 8
MILANO
 10
0.5454
 20
-4.1086
 30
9.1084
 70
192
 0
VERTEX
 8
MILANO
 10
0.56
 20
-4.1086
 30
9.1084
 70
192
 0
VERTEX
 8
MILANO
 10
0.56
 20
-4.1086
 30
9.4503
 70
192
 0
VERTEX
 8
MILANO
 10
0.5152
 20
-4.1086
 30
9.4503
 70
192
 0
VERTEX
 8
MILANO
 10
0.2634
 20
-4.1086
 30
9.4503
 70
192
 0
VERTEX
 8
MILANO
 10
0.0833
 20
-4.1086
 30
9.2189
 70
192
 0
VERTEX
 8
MILANO
 10
0.1447
 20
-4.1086
 30
9.1084
 70
192
 0
VERTEX
 8
MILANO
 10
0.1952
 20
-4.1086
 30
9.1084
 70
192
 0
VERTEX
 8
MILANO
 10
-0.195
 20
-4.1086
 30
9.1084
 70
192
 0
VERTEX
 8
MILANO
 10
-0.0599
 20
-4.1086
 30
9.2569
 70
192
 0
VERTEX
 8
MILANO
 10
0.0627
 20
-4.1086
 30
9.2569
 70
192
 0
VERTEX
 8
MILANO
 10
-0.1389
 20
-4.1086
 30
9.1084
 70
192
 0
VERTEX
 8
MILANO
 10
-0.082
 20
-4.1086
 30
9.2189
 70
192
 0
VERTEX
 8
MILANO
 10
0.0082
 20
-4.1086
 30
9.4503
 70
192
 0
VERTEX
 8
MILANO
 10
-0.0062
 20
-4.1086
 30
9.4503
 70
192
 0
VERTEX
 8
MILANO
 10
0.0057
 20
-4.1086
 30
9.3664
 70
192
 0
VERTEX
 8
MILANO
 10
-0.0043
 20
-4.1086
 30
9.3664
 70
192
 0
VERTEX
 8
MILANO
 10
-0.3634
 20
-4.1086
 30
9.4503
 70
192
 0
VERTEX
 8
MILANO
 10
-0.3634
 20
-4.1086
 30
9.1456
 70
192
 0
VERTEX
 8
MILANO
 10
-0.212
 20
-4.1086
 30
9.1456
 70
192
 0
VERTEX
 8
MILANO
 10
-0.212
 20
-4.1086
 30
9.1084
 70
192
 0
VERTEX
 8
MILANO
 10
-0.4053
 20
-4.1086
 30
9.1084
 70
192
 0
VERTEX
 8
MILANO
 10
-0.4089
 20
-4.1086
 30
9.4503
 70
192
 0
VERTEX
 8
MILANO
 10
-1.0466
 20
-4.1086
 30
9.1084
 70
192
 0
VERTEX
 8
MILANO
 10
-0.9936
 20
-4.1086
 30
9.4524
 70
192
 0
VERTEX
 8
MILANO
 10
-0.6709
 20
-4.1086
 30
9.4524
 70
192
 0
VERTEX
 8
MILANO
 10
-0.6551
 20
-4.1086
 30
9.4524
 70
192
 0
VERTEX
 8
MILANO
 10
-0.5992
 20
-4.1086
 30
9.1084
 70
192
 0
VERTEX
 8
MILANO
 10
-0.6454
 20
-4.1086
 30
9.1084
 70
192
 0
VERTEX
 8
MILANO
 10
-0.8325
 20
-4.1086
 30
9.1084
 70
192
 0
VERTEX
 8
MILANO
 10
-0.9675
 20
-4.1086
 30
9.3392
 70
192
 0
VERTEX
 8
MILANO
 10
-0.9833
 20
-4.1086
 30
9.4524
 70
192
 0
VERTEX
 8
MILANO
 10
-0.824
 20
-4.1086
 30
9.1786
 70
192
 0
VERTEX
 8
MILANO
 10
-0.6824
 20
-4.1086
 30
9.3392
 70
192
 0
VERTEX
 8
MILANO
 10
-0.8119
 20
-4.1086
 30
9.1084
 70
192
 0
VERTEX
 8
MILANO
 10
-1.0009
 20
-4.1086
 30
9.1084
 70
192
 0
VERTEX
 8
MILANO
 10
-0.5347
 20
-4.1086
 30
9.4503
 70
192
 0
VERTEX
 8
MILANO
 10
-0.4922
 20
-4.1086
 30
9.4503
 70
192
 0
VERTEX
 8
MILANO
 10
-0.4922
 20
-4.1086
 30
9.1084
 70
192
 0
VERTEX
 8
MILANO
 10
-0.5347
 20
-4.1086
 30
9.1084
 70
192
 0
VERTEX
 8
MILANO
 10
0.6788
 20
-4.1086
 30
9.2808
 70
192
 0
VERTEX
 8
MILANO
 10
0.6834
 20
-4.1086
 30
9.2418
 70
192
 0
VERTEX
 8
MILANO
 10
0.6998
 20
-4.1086
 30
9.2064
 70
192
 0
VERTEX
 8
MILANO
 10
0.7272
 20
-4.1086
 30
9.1787
 70
192
 0
VERTEX
 8
MILANO
 10
0.7614
 20
-4.1086
 30
9.1598
 70
192
 0
VERTEX
 8
MILANO
 10
0.7989
 20
-4.1086
 30
9.1488
 70
192
 0
VERTEX
 8
MILANO
 10
0.8378
 20
-4.1086
 30
9.1446
 70
192
 0
VERTEX
 8
MILANO
 10
0.8767
 20
-4.1086
 30
9.1476
 70
192
 0
VERTEX
 8
MILANO
 10
0.9143
 20
-4.1086
 30
9.158
 70
192
 0
VERTEX
 8
MILANO
 10
0.9483
 20
-4.1086
 30
9.1771
 70
192
 0
VERTEX
 8
MILANO
 10
0.9749
 20
-4.1086
 30
9.2057
 70
192
 0
VERTEX
 8
MILANO
 10
0.9922
 20
-4.1086
 30
9.2408
 70
192
 0
VERTEX
 8
MILANO
 10
0.9977
 20
-4.1086
 30
9.2795
 70
192
 0
VERTEX
 8
MILANO
 10
0.9927
 20
-4.1086
 30
9.3184
 70
192
 0
VERTEX
 8
MILANO
 10
0.9762
 20
-4.1086
 30
9.3538
 70
192
 0
VERTEX
 8
MILANO
 10
0.9494
 20
-4.1086
 30
9.3822
 70
192
 0
VERTEX
 8
MILANO
 10
0.9153
 20
-4.1086
 30
9.4013
 70
192
 0
VERTEX
 8
MILANO
 10
0.8777
 20
-4.1086
 30
9.4117
 70
192
 0
VERTEX
 8
MILANO
 10
0.8389
 20
-4.1086
 30
9.4561
 70
192
 0
VERTEX
 8
MILANO
 10
0.7879
 20
-4.1086
 30
9.4533
 70
192
 0
VERTEX
 8
MILANO
 10
0.7384
 20
-4.1086
 30
9.4409
 70
192
 0
VERTEX
 8
MILANO
 10
0.6947
 20
-4.1086
 30
9.4148
 70
192
 0
VERTEX
 8
MILANO
 10
0.6596
 20
-4.1086
 30
9.3775
 70
192
 0
VERTEX
 8
MILANO
 10
0.6368
 20
-4.1086
 30
9.3318
 70
192
 0
VERTEX
 8
MILANO
 10
0.6297
 20
-4.1086
 30
9.2811
 70
192
 0
VERTEX
 8
MILANO
 10
0.6357
 20
-4.1086
 30
9.2302
 70
192
 0
VERTEX
 8
MILANO
 10
0.6571
 20
-4.1086
 30
9.1839
 70
192
 0
VERTEX
 8
MILANO
 10
0.6931
 20
-4.1086
 30
9.1477
 70
192
 0
VERTEX
 8
MILANO
 10
0.7378
 20
-4.1086
 30
9.123
 70
192
 0
VERTEX
 8
MILANO
 10
0.7868
 20
-4.1086
 30
9.1086
 70
192
 0
VERTEX
 8
MILANO
 10
0.8376
 20
-4.1086
 30
9.103
 70
192
 0
VERTEX
 8
MILANO
 10
0.8885
 20
-4.1086
 30
9.1069
 70
192
 0
VERTEX
 8
MILANO
 10
0.9377
 20
-4.1086
 30
9.1206
 70
192
 0
VERTEX
 8
MILANO
 10
0.9822
 20
-4.1086
 30
9.1456
 70
192
 0
VERTEX
 8
MILANO
 10
1.017
 20
-4.1086
 30
9.1829
 70
192
 0
VERTEX
 8
MILANO
 10
1.0395
 20
-4.1086
 30
9.2288
 70
192
 0
VERTEX
 8
MILANO
 10
1.0468
 20
-4.1086
 30
9.2795
 70
192
 0
VERTEX
 8
MILANO
 10
1.0402
 20
-4.1086
 30
9.3303
 70
192
 0
VERTEX
 8
MILANO
 10
1.0186
 20
-4.1086
 30
9.3766
 70
192
 0
VERTEX
 8
MILANO
 10
0.9836
 20
-4.1086
 30
9.4138
 70
192
 0
VERTEX
 8
MILANO
 10
0.9391
 20
-4.1086
 30
9.4388
 70
192
 0
VERTEX
 8
MILANO
 10
0.8898
 20
-4.1086
 30
9.4523
 70
192
 0
VERTEX
 8
MILANO
 10
0.8388
 20
-4.1086
 30
9.4146
 70
192
 0
VERTEX
 8
MILANO
 10
0.7998
 20
-4.1086
 30
9.4124
 70
192
 0
VERTEX
 8
MILANO
 10
0.7619
 20
-4.1086
 30
9.4029
 70
192
 0
VERTEX
 8
MILANO
 10
0.7285
 20
-4.1086
 30
9.383
 70
192
 0
VERTEX
 8
MILANO
 10
0.7016
 20
-4.1086
 30
9.3545
 70
192
 0
VERTEX
 8
MILANO
 10
0.6842
 20
-4.1086
 30
9.3195
 70
192
 0
VERTEX
 8
MILANO
 10
0
 20
0
 30
0
 70
128
 71
71
 72
1
 73
73
 74
72
 0
VERTEX
 8
MILANO
 10
0
 20
0
 30
0
 70
128
 71
73
 72
79
 73
9
 74
74
 0
VERTEX
 8
MILANO
 10
0
 20
0
 30
0
 70
128
 71
9
 72
75
 73
74
 74
74
 0
VERTEX
 8
MILANO
 10
0
 20
0
 30
0
 70
128
 71
76
 72
75
 73
9
 74
77
 0
VERTEX
 8
MILANO
 10
0
 20
0
 30
0
 70
128
 71
1
 72
79
 73
73
 74
73
 0
VERTEX
 8
MILANO
 10
0
 20
0
 30
0
 70
128
 71
80
 72
18
 73
81
 74
81
 0
VERTEX
 8
MILANO
 10
0
 20
0
 30
0
 70
128
 71
13
 72
81
 73
19
 74
20
 0
VERTEX
 8
MILANO
 10
0
 20
0
 30
0
 70
128
 71
15
 72
14
 73
13
 74
13
 0
VERTEX
 8
MILANO
 10
0
 20
0
 30
0
 70
128
 71
85
 72
15
 73
20
 74
90
 0
VERTEX
 8
MILANO
 10
0
 20
0
 30
0
 70
128
 71
86
 72
85
 73
90
 74
91
 0
VERTEX
 8
MILANO
 10
0
 20
0
 30
0
 70
128
 71
18
 72
86
 73
19
 74
81
 0
VERTEX
 8
MILANO
 10
0
 20
0
 30
0
 70
128
 71
86
 72
91
 73
19
 74
19
 0
VERTEX
 8
MILANO
 10
0
 20
0
 30
0
 70
128
 71
15
 72
13
 73
20
 74
20
 0
VERTEX
 8
MILANO
 10
0
 20
0
 30
0
 70
128
 71
92
 72
24
 73
25
 74
43
 0
VERTEX
 8
MILANO
 10
0
 20
0
 30
0
 70
128
 71
25
 72
41
 73
42
 74
43
 0
VERTEX
 8
MILANO
 10
0
 20
0
 30
0
 70
128
 71
33
 72
34
 73
40
 74
48
 0
VERTEX
 8
MILANO
 10
0
 20
0
 30
0
 70
128
 71
40
 72
44
 73
45
 74
39
 0
VERTEX
 8
MILANO
 10
0
 20
0
 30
0
 70
128
 71
45
 72
47
 73
39
 74
39
 0
VERTEX
 8
MILANO
 10
0
 20
0
 30
0
 70
128
 71
45
 72
35
 73
46
 74
47
 0
VERTEX
 8
MILANO
 10
0
 20
0
 30
0
 70
128
 71
46
 72
36
 73
37
 74
38
 0
VERTEX
 8
MILANO
 10
0
 20
0
 30
0
 70
128
 71
35
 72
36
 73
46
 74
46
 0
VERTEX
 8
MILANO
 10
0
 20
0
 30
0
 70
128
 71
34
 72
44
 73
40
 74
40
 0
VERTEX
 8
MILANO
 10
0
 20
0
 30
0
 70
128
 71
96
 72
94
 73
98
 74
97
 0
VERTEX
 8
MILANO
 10
0
 20
0
 30
0
 70
128
 71
98
 72
103
 73
95
 74
99
 0
VERTEX
 8
MILANO
 10
0
 20
0
 30
0
 70
128
 71
95
 72
100
 73
99
 74
99
 0
VERTEX
 8
MILANO
 10
0
 20
0
 30
0
 70
128
 71
101
 72
100
 73
95
 74
102
 0
VERTEX
 8
MILANO
 10
0
 20
0
 30
0
 70
128
 71
94
 72
103
 73
98
 74
98
 0
VERTEX
 8
MILANO
 10
0
 20
0
 30
0
 70
128
 71
110
 72
107
 73
111
 74
111
 0
VERTEX
 8
MILANO
 10
0
 20
0
 30
0
 70
128
 71
104
 72
111
 73
108
 74
109
 0
VERTEX
 8
MILANO
 10
0
 20
0
 30
0
 70
128
 71
106
 72
105
 73
104
 74
104
 0
VERTEX
 8
MILANO
 10
0
 20
0
 30
0
 70
128
 71
112
 72
106
 73
109
 74
114
 0
VERTEX
 8
MILANO
 10
0
 20
0
 30
0
 70
128
 71
113
 72
112
 73
114
 74
115
 0
VERTEX
 8
MILANO
 10
0
 20
0
 30
0
 70
128
 71
107
 72
113
 73
108
 74
111
 0
VERTEX
 8
MILANO
 10
0
 20
0
 30
0
 70
128
 71
113
 72
115
 73
108
 74
108
 0
VERTEX
 8
MILANO
 10
0
 20
0
 30
0
 70
128
 71
106
 72
104
 73
109
 74
109
 0
VERTEX
 8
MILANO
 10
0
 20
0
 30
0
 70
128
 71
121
 72
116
 73
117
 74
120
 0
VERTEX
 8
MILANO
 10
0
 20
0
 30
0
 70
128
 71
117
 72
118
 73
119
 74
120
 0
VERTEX
 8
MILANO
 10
0
 20
0
 30
0
 70
128
 71
122
 72
123
 73
129
 74
134
 0
VERTEX
 8
MILANO
 10
0
 20
0
 30
0
 70
128
 71
129
 72
130
 73
131
 74
128
 0
VERTEX
 8
MILANO
 10
0
 20
0
 30
0
 70
128
 71
131
 72
133
 73
128
 74
128
 0
VERTEX
 8
MILANO
 10
0
 20
0
 30
0
 70
128
 71
131
 72
124
 73
132
 74
133
 0
VERTEX
 8
MILANO
 10
0
 20
0
 30
0
 70
128
 71
132
 72
125
 73
126
 74
127
 0
VERTEX
 8
MILANO
 10
0
 20
0
 30
0
 70
128
 71
124
 72
125
 73
132
 74
132
 0
VERTEX
 8
MILANO
 10
0
 20
0
 30
0
 70
128
 71
123
 72
130
 73
129
 74
129
 0
VERTEX
 8
MILANO
 10
0
 20
0
 30
0
 70
128
 71
29
 72
30
 73
31
 74
32
 0
VERTEX
 8
MILANO
 10
0
 20
0
 30
0
 70
128
 71
50
 72
49
 73
83
 74
84
 0
VERTEX
 8
MILANO
 10
0
 20
0
 30
0
 70
128
 71
51
 72
50
 73
84
 74
87
 0
VERTEX
 8
MILANO
 10
0
 20
0
 30
0
 70
128
 71
5
 72
6
 73
59
 74
58
 0
VERTEX
 8
MILANO
 10
0
 20
0
 30
0
 70
128
 71
28
 72
83
 73
49
 74
82
 0
VERTEX
 8
MILANO
 10
0
 20
0
 30
0
 70
128
 71
27
 72
28
 73
82
 74
78
 0
VERTEX
 8
MILANO
 10
0
 20
0
 30
0
 70
128
 71
26
 72
27
 73
78
 74
70
 0
VERTEX
 8
MILANO
 10
0
 20
0
 30
0
 70
128
 71
23
 72
26
 73
70
 74
69
 0
VERTEX
 8
MILANO
 10
0
 20
0
 30
0
 70
128
 71
6
 72
7
 73
60
 74
59
 0
VERTEX
 8
MILANO
 10
0
 20
0
 30
0
 70
128
 71
7
 72
8
 73
61
 74
60
 0
VERTEX
 8
MILANO
 10
0
 20
0
 30
0
 70
128
 71
22
 72
23
 73
69
 74
68
 0
VERTEX
 8
MILANO
 10
0
 20
0
 30
0
 70
128
 71
21
 72
22
 73
68
 74
67
 0
VERTEX
 8
MILANO
 10
0
 20
0
 30
0
 70
128
 71
17
 72
21
 73
67
 74
66
 0
VERTEX
 8
MILANO
 10
0
 20
0
 30
0
 70
128
 71
16
 72
17
 73
66
 74
65
 0
VERTEX
 8
MILANO
 10
0
 20
0
 30
0
 70
128
 71
12
 72
16
 73
65
 74
64
 0
VERTEX
 8
MILANO
 10
0
 20
0
 30
0
 70
128
 71
11
 72
12
 73
64
 74
63
 0
VERTEX
 8
MILANO
 10
0
 20
0
 30
0
 70
128
 71
10
 72
11
 73
63
 74
62
 0
VERTEX
 8
MILANO
 10
0
 20
0
 30
0
 70
128
 71
4
 72
5
 73
58
 74
57
 0
VERTEX
 8
MILANO
 10
0
 20
0
 30
0
 70
128
 71
57
 72
56
 73
3
 74
4
 0
VERTEX
 8
MILANO
 10
0
 20
0
 30
0
 70
128
 71
56
 72
55
 73
2
 74
3
 0
VERTEX
 8
MILANO
 10
0
 20
0
 30
0
 70
128
 71
55
 72
54
 73
93
 74
2
 0
VERTEX
 8
MILANO
 10
0
 20
0
 30
0
 70
128
 71
54
 72
53
 73
89
 74
93
 0
VERTEX
 8
MILANO
 10
0
 20
0
 30
0
 70
128
 71
53
 72
52
 73
88
 74
89
 0
VERTEX
 8
MILANO
 10
0
 20
0
 30
0
 70
128
 71
52
 72
51
 73
87
 74
88
 0
VERTEX
 8
MILANO
 10
0
 20
0
 30
0
 70
128
 71
8
 72
10
 73
62
 74
61
 0
VERTEX
 8
MILANO
 10
0
 20
0
 30
0
 70
128
 71
135
 72
136
 73
137
 74
138
 0
VERTEX
 8
MILANO
 10
0
 20
0
 30
0
 70
128
 71
158
 72
157
 73
181
 74
182
 0
VERTEX
 8
MILANO
 10
0
 20
0
 30
0
 70
128
 71
159
 72
158
 73
182
 74
183
 0
VERTEX
 8
MILANO
 10
0
 20
0
 30
0
 70
128
 71
142
 72
143
 73
167
 74
166
 0
VERTEX
 8
MILANO
 10
0
 20
0
 30
0
 70
128
 71
156
 72
181
 73
157
 74
180
 0
VERTEX
 8
MILANO
 10
0
 20
0
 30
0
 70
128
 71
155
 72
156
 73
180
 74
179
 0
VERTEX
 8
MILANO
 10
0
 20
0
 30
0
 70
128
 71
154
 72
155
 73
179
 74
178
 0
VERTEX
 8
MILANO
 10
0
 20
0
 30
0
 70
128
 71
153
 72
154
 73
178
 74
177
 0
VERTEX
 8
MILANO
 10
0
 20
0
 30
0
 70
128
 71
143
 72
144
 73
168
 74
167
 0
VERTEX
 8
MILANO
 10
0
 20
0
 30
0
 70
128
 71
144
 72
145
 73
169
 74
168
 0
VERTEX
 8
MILANO
 10
0
 20
0
 30
0
 70
128
 71
152
 72
153
 73
177
 74
176
 0
VERTEX
 8
MILANO
 10
0
 20
0
 30
0
 70
128
 71
151
 72
152
 73
176
 74
175
 0
VERTEX
 8
MILANO
 10
0
 20
0
 30
0
 70
128
 71
150
 72
151
 73
175
 74
174
 0
VERTEX
 8
MILANO
 10
0
 20
0
 30
0
 70
128
 71
149
 72
150
 73
174
 74
173
 0
VERTEX
 8
MILANO
 10
0
 20
0
 30
0
 70
128
 71
148
 72
149
 73
173
 74
172
 0
VERTEX
 8
MILANO
 10
0
 20
0
 30
0
 70
128
 71
147
 72
148
 73
172
 74
171
 0
VERTEX
 8
MILANO
 10
0
 20
0
 30
0
 70
128
 71
146
 72
147
 73
171
 74
170
 0
VERTEX
 8
MILANO
 10
0
 20
0
 30
0
 70
128
 71
141
 72
142
 73
166
 74
165
 0
VERTEX
 8
MILANO
 10
0
 20
0
 30
0
 70
128
 71
165
 72
164
 73
140
 74
141
 0
VERTEX
 8
MILANO
 10
0
 20
0
 30
0
 70
128
 71
164
 72
163
 73
139
 74
140
 0
VERTEX
 8
MILANO
 10
0
 20
0
 30
0
 70
128
 71
163
 72
162
 73
186
 74
139
 0
VERTEX
 8
MILANO
 10
0
 20
0
 30
0
 70
128
 71
162
 72
161
 73
185
 74
186
 0
VERTEX
 8
MILANO
 10
0
 20
0
 30
0
 70
128
 71
161
 72
160
 73
184
 74
185
 0
VERTEX
 8
MILANO
 10
0
 20
0
 30
0
 70
128
 71
160
 72
159
 73
183
 74
184
 0
VERTEX
 8
MILANO
 10
0
 20
0
 30
0
 70
128
 71
145
 72
146
 73
170
 74
169
 0
VERTEX
 8
MILANO
 10
0
 20
0
 30
0
 70
128
 71
94
 72
103
 73
79
 74
1
 0
VERTEX
 8
MILANO
 10
0
 20
0
 30
0
 70
128
 71
103
 72
95
 73
9
 74
79
 0
VERTEX
 8
MILANO
 10
0
 20
0
 30
0
 70
128
 71
95
 72
102
 73
77
 74
9
 0
VERTEX
 8
MILANO
 10
0
 20
0
 30
0
 70
128
 71
102
 72
101
 73
76
 74
77
 0
VERTEX
 8
MILANO
 10
0
 20
0
 30
0
 70
128
 71
101
 72
100
 73
75
 74
76
 0
VERTEX
 8
MILANO
 10
0
 20
0
 30
0
 70
128
 71
100
 72
99
 73
74
 74
75
 0
VERTEX
 8
MILANO
 10
0
 20
0
 30
0
 70
128
 71
99
 72
98
 73
73
 74
74
 0
VERTEX
 8
MILANO
 10
0
 20
0
 30
0
 70
128
 71
98
 72
97
 73
72
 74
73
 0
VERTEX
 8
MILANO
 10
0
 20
0
 30
0
 70
128
 71
97
 72
96
 73
71
 74
72
 0
VERTEX
 8
MILANO
 10
0
 20
0
 30
0
 70
128
 71
96
 72
94
 73
1
 74
71
 0
VERTEX
 8
MILANO
 10
0
 20
0
 30
0
 70
128
 71
110
 72
107
 73
18
 74
80
 0
VERTEX
 8
MILANO
 10
0
 20
0
 30
0
 70
128
 71
107
 72
113
 73
86
 74
18
 0
VERTEX
 8
MILANO
 10
0
 20
0
 30
0
 70
128
 71
113
 72
112
 73
85
 74
86
 0
VERTEX
 8
MILANO
 10
0
 20
0
 30
0
 70
128
 71
112
 72
106
 73
15
 74
85
 0
VERTEX
 8
MILANO
 10
0
 20
0
 30
0
 70
128
 71
106
 72
105
 73
14
 74
15
 0
VERTEX
 8
MILANO
 10
0
 20
0
 30
0
 70
128
 71
105
 72
104
 73
13
 74
14
 0
VERTEX
 8
MILANO
 10
0
 20
0
 30
0
 70
128
 71
104
 72
111
 73
81
 74
13
 0
VERTEX
 8
MILANO
 10
0
 20
0
 30
0
 70
128
 71
111
 72
110
 73
80
 74
81
 0
VERTEX
 8
MILANO
 10
0
 20
0
 30
0
 70
128
 71
108
 72
109
 73
20
 74
19
 0
VERTEX
 8
MILANO
 10
0
 20
0
 30
0
 70
128
 71
109
 72
114
 73
90
 74
20
 0
VERTEX
 8
MILANO
 10
0
 20
0
 30
0
 70
128
 71
114
 72
115
 73
91
 74
90
 0
VERTEX
 8
MILANO
 10
0
 20
0
 30
0
 70
128
 71
115
 72
108
 73
19
 74
91
 0
VERTEX
 8
MILANO
 10
0
 20
0
 30
0
 70
128
 71
121
 72
116
 73
24
 74
92
 0
VERTEX
 8
MILANO
 10
0
 20
0
 30
0
 70
128
 71
116
 72
117
 73
25
 74
24
 0
VERTEX
 8
MILANO
 10
0
 20
0
 30
0
 70
128
 71
117
 72
118
 73
41
 74
25
 0
VERTEX
 8
MILANO
 10
0
 20
0
 30
0
 70
128
 71
118
 72
119
 73
42
 74
41
 0
VERTEX
 8
MILANO
 10
0
 20
0
 30
0
 70
128
 71
119
 72
120
 73
43
 74
42
 0
VERTEX
 8
MILANO
 10
0
 20
0
 30
0
 70
128
 71
120
 72
121
 73
92
 74
43
 0
VERTEX
 8
MILANO
 10
0
 20
0
 30
0
 70
128
 71
122
 72
123
 73
34
 74
33
 0
VERTEX
 8
MILANO
 10
0
 20
0
 30
0
 70
128
 71
123
 72
130
 73
44
 74
34
 0
VERTEX
 8
MILANO
 10
0
 20
0
 30
0
 70
128
 71
130
 72
131
 73
45
 74
44
 0
VERTEX
 8
MILANO
 10
0
 20
0
 30
0
 70
128
 71
131
 72
124
 73
35
 74
45
 0
VERTEX
 8
MILANO
 10
0
 20
0
 30
0
 70
128
 71
124
 72
125
 73
36
 74
35
 0
VERTEX
 8
MILANO
 10
0
 20
0
 30
0
 70
128
 71
125
 72
126
 73
37
 74
36
 0
VERTEX
 8
MILANO
 10
0
 20
0
 30
0
 70
128
 71
126
 72
127
 73
38
 74
37
 0
VERTEX
 8
MILANO
 10
0
 20
0
 30
0
 70
128
 71
127
 72
132
 73
46
 74
38
 0
VERTEX
 8
MILANO
 10
0
 20
0
 30
0
 70
128
 71
132
 72
133
 73
47
 74
46
 0
VERTEX
 8
MILANO
 10
0
 20
0
 30
0
 70
128
 71
133
 72
128
 73
39
 74
47
 0
VERTEX
 8
MILANO
 10
0
 20
0
 30
0
 70
128
 71
128
 72
129
 73
40
 74
39
 0
VERTEX
 8
MILANO
 10
0
 20
0
 30
0
 70
128
 71
129
 72
134
 73
48
 74
40
 0
VERTEX
 8
MILANO
 10
0
 20
0
 30
0
 70
128
 71
134
 72
122
 73
33
 74
48
 0
VERTEX
 8
MILANO
 10
0
 20
0
 30
0
 70
128
 71
135
 72
136
 73
30
 74
29
 0
VERTEX
 8
MILANO
 10
0
 20
0
 30
0
 70
128
 71
136
 72
137
 73
31
 74
30
 0
VERTEX
 8
MILANO
 10
0
 20
0
 30
0
 70
128
 71
137
 72
138
 73
32
 74
31
 0
VERTEX
 8
MILANO
 10
0
 20
0
 30
0
 70
128
 71
138
 72
135
 73
29
 74
32
 0
VERTEX
 8
MILANO
 10
0
 20
0
 30
0
 70
128
 71
158
 72
157
 73
49
 74
50
 0
VERTEX
 8
MILANO
 10
0
 20
0
 30
0
 70
128
 71
181
 72
182
 73
84
 74
83
 0
VERTEX
 8
MILANO
 10
0
 20
0
 30
0
 70
128
 71
159
 72
158
 73
50
 74
51
 0
VERTEX
 8
MILANO
 10
0
 20
0
 30
0
 70
128
 71
182
 72
183
 73
87
 74
84
 0
VERTEX
 8
MILANO
 10
0
 20
0
 30
0
 70
128
 71
142
 72
143
 73
6
 74
5
 0
VERTEX
 8
MILANO
 10
0
 20
0
 30
0
 70
128
 71
167
 72
166
 73
58
 74
59
 0
VERTEX
 8
MILANO
 10
0
 20
0
 30
0
 70
128
 71
156
 72
181
 73
83
 74
28
 0
VERTEX
 8
MILANO
 10
0
 20
0
 30
0
 70
128
 71
157
 72
180
 73
82
 74
49
 0
VERTEX
 8
MILANO
 10
0
 20
0
 30
0
 70
128
 71
155
 72
156
 73
28
 74
27
 0
VERTEX
 8
MILANO
 10
0
 20
0
 30
0
 70
128
 71
180
 72
179
 73
78
 74
82
 0
VERTEX
 8
MILANO
 10
0
 20
0
 30
0
 70
128
 71
154
 72
155
 73
27
 74
26
 0
VERTEX
 8
MILANO
 10
0
 20
0
 30
0
 70
128
 71
179
 72
178
 73
70
 74
78
 0
VERTEX
 8
MILANO
 10
0
 20
0
 30
0
 70
128
 71
153
 72
154
 73
26
 74
23
 0
VERTEX
 8
MILANO
 10
0
 20
0
 30
0
 70
128
 71
178
 72
177
 73
69
 74
70
 0
VERTEX
 8
MILANO
 10
0
 20
0
 30
0
 70
128
 71
143
 72
144
 73
7
 74
6
 0
VERTEX
 8
MILANO
 10
0
 20
0
 30
0
 70
128
 71
168
 72
167
 73
59
 74
60
 0
VERTEX
 8
MILANO
 10
0
 20
0
 30
0
 70
128
 71
144
 72
145
 73
8
 74
7
 0
VERTEX
 8
MILANO
 10
0
 20
0
 30
0
 70
128
 71
169
 72
168
 73
60
 74
61
 0
VERTEX
 8
MILANO
 10
0
 20
0
 30
0
 70
128
 71
152
 72
153
 73
23
 74
22
 0
VERTEX
 8
MILANO
 10
0
 20
0
 30
0
 70
128
 71
177
 72
176
 73
68
 74
69
 0
VERTEX
 8
MILANO
 10
0
 20
0
 30
0
 70
128
 71
151
 72
152
 73
22
 74
21
 0
VERTEX
 8
MILANO
 10
0
 20
0
 30
0
 70
128
 71
176
 72
175
 73
67
 74
68
 0
VERTEX
 8
MILANO
 10
0
 20
0
 30
0
 70
128
 71
150
 72
151
 73
21
 74
17
 0
VERTEX
 8
MILANO
 10
0
 20
0
 30
0
 70
128
 71
175
 72
174
 73
66
 74
67
 0
VERTEX
 8
MILANO
 10
0
 20
0
 30
0
 70
128
 71
149
 72
150
 73
17
 74
16
 0
VERTEX
 8
MILANO
 10
0
 20
0
 30
0
 70
128
 71
174
 72
173
 73
65
 74
66
 0
VERTEX
 8
MILANO
 10
0
 20
0
 30
0
 70
128
 71
148
 72
149
 73
16
 74
12
 0
VERTEX
 8
MILANO
 10
0
 20
0
 30
0
 70
128
 71
173
 72
172
 73
64
 74
65
 0
VERTEX
 8
MILANO
 10
0
 20
0
 30
0
 70
128
 71
147
 72
148
 73
12
 74
11
 0
VERTEX
 8
MILANO
 10
0
 20
0
 30
0
 70
128
 71
172
 72
171
 73
63
 74
64
 0
VERTEX
 8
MILANO
 10
0
 20
0
 30
0
 70
128
 71
146
 72
147
 73
11
 74
10
 0
VERTEX
 8
MILANO
 10
0
 20
0
 30
0
 70
128
 71
171
 72
170
 73
62
 74
63
 0
VERTEX
 8
MILANO
 10
0
 20
0
 30
0
 70
128
 71
141
 72
142
 73
5
 74
4
 0
VERTEX
 8
MILANO
 10
0
 20
0
 30
0
 70
128
 71
166
 72
165
 73
57
 74
58
 0
VERTEX
 8
MILANO
 10
0
 20
0
 30
0
 70
128
 71
165
 72
164
 73
56
 74
57
 0
VERTEX
 8
MILANO
 10
0
 20
0
 30
0
 70
128
 71
140
 72
141
 73
4
 74
3
 0
VERTEX
 8
MILANO
 10
0
 20
0
 30
0
 70
128
 71
164
 72
163
 73
55
 74
56
 0
VERTEX
 8
MILANO
 10
0
 20
0
 30
0
 70
128
 71
139
 72
140
 73
3
 74
2
 0
VERTEX
 8
MILANO
 10
0
 20
0
 30
0
 70
128
 71
163
 72
162
 73
54
 74
55
 0
VERTEX
 8
MILANO
 10
0
 20
0
 30
0
 70
128
 71
186
 72
139
 73
2
 74
93
 0
VERTEX
 8
MILANO
 10
0
 20
0
 30
0
 70
128
 71
162
 72
161
 73
53
 74
54
 0
VERTEX
 8
MILANO
 10
0
 20
0
 30
0
 70
128
 71
185
 72
186
 73
93
 74
89
 0
VERTEX
 8
MILANO
 10
0
 20
0
 30
0
 70
128
 71
161
 72
160
 73
52
 74
53
 0
VERTEX
 8
MILANO
 10
0
 20
0
 30
0
 70
128
 71
184
 72
185
 73
89
 74
88
 0
VERTEX
 8
MILANO
 10
0
 20
0
 30
0
 70
128
 71
160
 72
159
 73
51
 74
52
 0
VERTEX
 8
MILANO
 10
0
 20
0
 30
0
 70
128
 71
183
 72
184
 73
88
 74
87
 0
VERTEX
 8
MILANO
 10
0
 20
0
 30
0
 70
128
 71
145
 72
146
 73
10
 74
8
 0
VERTEX
 8
MILANO
 10
0
 20
0
 30
0
 70
128
 71
170
 72
169
 73
61
 74
62
 0
SEQEND
 0
POLYLINE
 8
CUBO
 66
1
 10
0.0
 20
0.0
 30
0.0
 70
64
 71
8
 72
6
 0
VERTEX
 8
CUBO
 10
-4.6
 20
-4.1087
 30
13.8142
 70
192
 0
VERTEX
 8
CUBO
 10
-4.6
 20
-3.8586
 30
13.8142
 70
192
 0
VERTEX
 8
CUBO
 10
4.6
 20
-4.1087
 30
13.8142
 70
192
 0
VERTEX
 8
CUBO
 10
4.6
 20
-3.8586
 30
13.8142
 70
192
 0
VERTEX
 8
CUBO
 10
4.6
 20
-4.1087
 30
7.6142
 70
192
 0
VERTEX
 8
CUBO
 10
4.6
 20
-3.8586
 30
7.6142
 70
192
 0
VERTEX
 8
CUBO
 10
-4.6
 20
-4.1087
 30
7.6142
 70
192
 0
VERTEX
 8
CUBO
 10
-4.6
 20
-3.8586
 30
7.6142
 70
192
 0
VERTEX
 8
CUBO
 10
0
 20
0
 30
0
 70
128
 71
1
 72
2
 73
4
 74
3
 0
VERTEX
 8
CUBO
 10
0
 20
0
 30
0
 70
128
 71
3
 72
4
 73
6
 74
5
 0
VERTEX
 8
CUBO
 10
0
 20
0
 30
0
 70
128
 71
5
 72
6
 73
8
 74
7
 0
VERTEX
 8
CUBO
 10
0
 20
0
 30
0
 70
128
 71
7
 72
8
 73
2
 74
1
 0
VERTEX
 8
CUBO
 10
0
 20
0
 30
0
 70
128
 71
2
 72
8
 73
6
 74
4
 0
VERTEX
 8
CUBO
 10
0
 20
0
 30
0
 70
128
 71
7
 72
1
 73
3
 74
5
 0
SEQEND
 0
POLYLINE
 8
CILINDRO
 66
1
 10
0.0
 20
0.0
 30
0.0
 70
64
 71
80
 72
80
 0
VERTEX
 8
CILINDRO
 10
-19.5221
 20
-7.1682
 30
41.4194
 70
192
 0
VERTEX
 8
CILINDRO
 10
19.5221
 20
-7.1682
 30
41.4194
 70
192
 0
VERTEX
 8
CILINDRO
 10
-19.6021
 20
-7.1682
 30
41.7865
 70
192
 0
VERTEX
 8
CILINDRO
 10
19.6021
 20
-7.1682
 30
41.7865
 70
192
 0
VERTEX
 8
CILINDRO
 10
-19.6021
 20
-7.1682
 30
42.5531
 70
192
 0
VERTEX
 8
CILINDRO
 10
19.6021
 20
-7.1682
 30
42.5531
 70
192
 0
VERTEX
 8
CILINDRO
 10
-19.6021
 20
-7.1682
 30
43.2862
 70
192
 0
VERTEX
 8
CILINDRO
 10
19.6021
 20
-7.1682
 30
43.2862
 70
192
 0
VERTEX
 8
CILINDRO
 10
-19.6021
 20
-7.1682
 30
44.0528
 70
192
 0
VERTEX
 8
CILINDRO
 10
-19.5221
 20
-7.1682
 30
44.4199
 70
192
 0
VERTEX
 8
CILINDRO
 10
19.6021
 20
-7.1682
 30
44.0528
 70
192
 0
VERTEX
 8
CILINDRO
 10
19.5221
 20
-7.1682
 30
44.4199
 70
192
 0
VERTEX
 8
CILINDRO
 10
-19.5221
 20
-7.0254
 30
41.7401
 70
192
 0
VERTEX
 8
CILINDRO
 10
19.5221
 20
-7.0254
 30
41.7401
 70
192
 0
VERTEX
 8
CILINDRO
 10
19.5221
 20
-7.0254
 30
44.0992
 70
192
 0
VERTEX
 8
CILINDRO
 10
-19.5221
 20
-7.0254
 30
44.0992
 70
192
 0
VERTEX
 8
CILINDRO
 10
19.5221
 20
-6.8595
 30
43.3187
 70
192
 0
VERTEX
 8
CILINDRO
 10
-19.5221
 20
-6.8595
 30
43.3187
 70
192
 0
VERTEX
 8
CILINDRO
 10
19.5221
 20
-6.8595
 30
42.5207
 70
192
 0
VERTEX
 8
CILINDRO
 10
-19.5221
 20
-6.8595
 30
42.5207
 70
192
 0
VERTEX
 8
CILINDRO
 10
-19.5221
 20
-8.0185
 30
41.4194
 70
192
 0
VERTEX
 8
CILINDRO
 10
19.5221
 20
-8.0185
 30
41.4194
 70
192
 0
VERTEX
 8
CILINDRO
 10
-19.5221
 20
-8.0185
 30
41.7865
 70
192
 0
VERTEX
 8
CILINDRO
 10
19.5221
 20
-8.0185
 30
41.7865
 70
192
 0
VERTEX
 8
CILINDRO
 10
-19.5221
 20
-8.0185
 30
42.5531
 70
192
 0
VERTEX
 8
CILINDRO
 10
19.5221
 20
-8.0185
 30
42.5531
 70
192
 0
VERTEX
 8
CILINDRO
 10
-19.5221
 20
-8.0185
 30
43.2862
 70
192
 0
VERTEX
 8
CILINDRO
 10
19.5221
 20
-8.0185
 30
43.2862
 70
192
 0
VERTEX
 8
CILINDRO
 10
-19.5221
 20
-8.0185
 30
44.0528
 70
192
 0
VERTEX
 8
CILINDRO
 10
-19.5221
 20
-8.0185
 30
44.4199
 70
192
 0
VERTEX
 8
CILINDRO
 10
19.5221
 20
-8.0185
 30
44.0528
 70
192
 0
VERTEX
 8
CILINDRO
 10
19.5221
 20
-8.0185
 30
44.4199
 70
192
 0
VERTEX
 8
CILINDRO
 10
-19.5221
 20
-7.1877
 30
41.4494
 70
192
 0
VERTEX
 8
CILINDRO
 10
-19.5221
 20
-7.1877
 30
44.3899
 70
192
 0
VERTEX
 8
CILINDRO
 10
-19.5221
 20
-7.0541
 30
41.7494
 70
192
 0
VERTEX
 8
CILINDRO
 10
-19.5221
 20
-7.0541
 30
44.0899
 70
192
 0
VERTEX
 8
CILINDRO
 10
-19.5221
 20
-6.8895
 30
43.3155
 70
192
 0
VERTEX
 8
CILINDRO
 10
-19.5221
 20
-6.8895
 30
42.5238
 70
192
 0
VERTEX
 8
CILINDRO
 10
-19.5221
 20
-7.9885
 30
41.4494
 70
192
 0
VERTEX
 8
CILINDRO
 10
-19.5221
 20
-7.9885
 30
41.7865
 70
192
 0
VERTEX
 8
CILINDRO
 10
-19.5221
 20
-7.9885
 30
42.5531
 70
192
 0
VERTEX
 8
CILINDRO
 10
-19.5221
 20
-7.9885
 30
43.2862
 70
192
 0
VERTEX
 8
CILINDRO
 10
-19.5221
 20
-7.9885
 30
44.0528
 70
192
 0
VERTEX
 8
CILINDRO
 10
-19.5221
 20
-7.9885
 30
44.3899
 70
192
 0
VERTEX
 8
CILINDRO
 10
19.5221
 20
-7.1877
 30
41.4494
 70
192
 0
VERTEX
 8
CILINDRO
 10
19.5221
 20
-7.1877
 30
44.3899
 70
192
 0
VERTEX
 8
CILINDRO
 10
19.5221
 20
-7.0541
 30
41.7494
 70
192
 0
VERTEX
 8
CILINDRO
 10
19.5221
 20
-7.0541
 30
44.0899
 70
192
 0
VERTEX
 8
CILINDRO
 10
19.5221
 20
-6.8895
 30
43.3155
 70
192
 0
VERTEX
 8
CILINDRO
 10
19.5221
 20
-6.8895
 30
42.5238
 70
192
 0
VERTEX
 8
CILINDRO
 10
19.5221
 20
-7.9885
 30
41.4494
 70
192
 0
VERTEX
 8
CILINDRO
 10
19.5221
 20
-7.9885
 30
41.7865
 70
192
 0
VERTEX
 8
CILINDRO
 10
19.5221
 20
-7.9885
 30
42.5531
 70
192
 0
VERTEX
 8
CILINDRO
 10
19.5221
 20
-7.9885
 30
43.2862
 70
192
 0
VERTEX
 8
CILINDRO
 10
19.5221
 20
-7.9885
 30
44.0528
 70
192
 0
VERTEX
 8
CILINDRO
 10
19.5221
 20
-7.9885
 30
44.3899
 70
192
 0
VERTEX
 8
CILINDRO
 10
-19.6021
 20
-7.1877
 30
41.4494
 70
192
 0
VERTEX
 8
CILINDRO
 10
-19.6021
 20
-7.1877
 30
44.3899
 70
192
 0
VERTEX
 8
CILINDRO
 10
-19.6021
 20
-7.0541
 30
41.7494
 70
192
 0
VERTEX
 8
CILINDRO
 10
-19.6021
 20
-7.0541
 30
44.0899
 70
192
 0
VERTEX
 8
CILINDRO
 10
-19.6021
 20
-6.8895
 30
43.3155
 70
192
 0
VERTEX
 8
CILINDRO
 10
-19.6021
 20
-6.8895
 30
42.5238
 70
192
 0
VERTEX
 8
CILINDRO
 10
-19.6021
 20
-7.9885
 30
41.4494
 70
192
 0
VERTEX
 8
CILINDRO
 10
-19.6021
 20
-7.9885
 30
41.7865
 70
192
 0
VERTEX
 8
CILINDRO
 10
-19.6021
 20
-7.9885
 30
42.5531
 70
192
 0
VERTEX
 8
CILINDRO
 10
-19.6021
 20
-7.9885
 30
43.2862
 70
192
 0
VERTEX
 8
CILINDRO
 10
-19.6021
 20
-7.9885
 30
44.0528
 70
192
 0
VERTEX
 8
CILINDRO
 10
-19.6021
 20
-7.9885
 30
44.3899
 70
192
 0
VERTEX
 8
CILINDRO
 10
19.6021
 20
-7.1877
 30
41.4494
 70
192
 0
VERTEX
 8
CILINDRO
 10
19.6021
 20
-7.1877
 30
44.3899
 70
192
 0
VERTEX
 8
CILINDRO
 10
19.6021
 20
-7.0541
 30
41.7494
 70
192
 0
VERTEX
 8
CILINDRO
 10
19.6021
 20
-7.0541
 30
44.0899
 70
192
 0
VERTEX
 8
CILINDRO
 10
19.6021
 20
-6.8895
 30
43.3155
 70
192
 0
VERTEX
 8
CILINDRO
 10
19.6021
 20
-6.8895
 30
42.5238
 70
192
 0
VERTEX
 8
CILINDRO
 10
19.6021
 20
-7.9885
 30
41.4494
 70
192
 0
VERTEX
 8
CILINDRO
 10
19.6021
 20
-7.9885
 30
41.7865
 70
192
 0
VERTEX
 8
CILINDRO
 10
19.6021
 20
-7.9885
 30
42.5531
 70
192
 0
VERTEX
 8
CILINDRO
 10
19.6021
 20
-7.9885
 30
43.2862
 70
192
 0
VERTEX
 8
CILINDRO
 10
19.6021
 20
-7.9885
 30
44.0528
 70
192
 0
VERTEX
 8
CILINDRO
 10
19.6021
 20
-7.9885
 30
44.3899
 70
192
 0
VERTEX
 8
CILINDRO
 10
0
 20
0
 30
0
 70
128
 71
3
 72
59
 73
62
 74
5
 0
VERTEX
 8
CILINDRO
 10
0
 20
0
 30
0
 70
128
 71
6
 72
74
 73
71
 74
4
 0
VERTEX
 8
CILINDRO
 10
0
 20
0
 30
0
 70
128
 71
5
 72
62
 73
61
 74
7
 0
VERTEX
 8
CILINDRO
 10
0
 20
0
 30
0
 70
128
 71
8
 72
73
 73
74
 74
6
 0
VERTEX
 8
CILINDRO
 10
0
 20
0
 30
0
 70
128
 71
7
 72
61
 73
60
 74
9
 0
VERTEX
 8
CILINDRO
 10
0
 20
0
 30
0
 70
128
 71
11
 72
72
 73
73
 74
8
 0
VERTEX
 8
CILINDRO
 10
0
 20
0
 30
0
 70
128
 71
10
 72
16
 73
15
 74
12
 0
VERTEX
 8
CILINDRO
 10
0
 20
0
 30
0
 70
128
 71
59
 72
3
 73
57
 74
57
 0
VERTEX
 8
CILINDRO
 10
0
 20
0
 30
0
 70
128
 71
14
 72
13
 73
1
 74
2
 0
VERTEX
 8
CILINDRO
 10
0
 20
0
 30
0
 70
128
 71
4
 72
71
 73
69
 74
69
 0
VERTEX
 8
CILINDRO
 10
0
 20
0
 30
0
 70
128
 71
19
 72
20
 73
13
 74
14
 0
VERTEX
 8
CILINDRO
 10
0
 20
0
 30
0
 70
128
 71
17
 72
18
 73
20
 74
19
 0
VERTEX
 8
CILINDRO
 10
0
 20
0
 30
0
 70
128
 71
15
 72
16
 73
18
 74
17
 0
VERTEX
 8
CILINDRO
 10
0
 20
0
 30
0
 70
128
 71
9
 72
60
 73
58
 74
58
 0
VERTEX
 8
CILINDRO
 10
0
 20
0
 30
0
 70
128
 71
70
 72
72
 73
11
 74
11
 0
VERTEX
 8
CILINDRO
 10
0
 20
0
 30
0
 70
128
 71
30
 72
32
 73
31
 74
29
 0
VERTEX
 8
CILINDRO
 10
0
 20
0
 30
0
 70
128
 71
24
 72
22
 73
21
 74
23
 0
VERTEX
 8
CILINDRO
 10
0
 20
0
 30
0
 70
128
 71
29
 72
31
 73
28
 74
27
 0
VERTEX
 8
CILINDRO
 10
0
 20
0
 30
0
 70
128
 71
24
 72
23
 73
25
 74
26
 0
VERTEX
 8
CILINDRO
 10
0
 20
0
 30
0
 70
128
 71
27
 72
28
 73
26
 74
25
 0
VERTEX
 8
CILINDRO
 10
0
 20
0
 30
0
 70
128
 71
30
 72
10
 73
12
 74
32
 0
VERTEX
 8
CILINDRO
 10
0
 20
0
 30
0
 70
128
 71
80
 72
70
 73
11
 74
79
 0
VERTEX
 8
CILINDRO
 10
0
 20
0
 30
0
 70
128
 71
67
 72
9
 73
58
 74
68
 0
VERTEX
 8
CILINDRO
 10
0
 20
0
 30
0
 70
128
 71
76
 72
4
 73
69
 74
75
 0
VERTEX
 8
CILINDRO
 10
0
 20
0
 30
0
 70
128
 71
22
 72
2
 73
1
 74
21
 0
VERTEX
 8
CILINDRO
 10
0
 20
0
 30
0
 70
128
 71
63
 72
57
 73
3
 74
64
 0
VERTEX
 8
CILINDRO
 10
0
 20
0
 30
0
 70
128
 71
79
 72
11
 73
8
 74
78
 0
VERTEX
 8
CILINDRO
 10
0
 20
0
 30
0
 70
128
 71
66
 72
7
 73
9
 74
67
 0
VERTEX
 8
CILINDRO
 10
0
 20
0
 30
0
 70
128
 71
64
 72
3
 73
5
 74
65
 0
VERTEX
 8
CILINDRO
 10
0
 20
0
 30
0
 70
128
 71
77
 72
6
 73
4
 74
76
 0
VERTEX
 8
CILINDRO
 10
0
 20
0
 30
0
 70
128
 71
78
 72
8
 73
6
 74
77
 0
VERTEX
 8
CILINDRO
 10
0
 20
0
 30
0
 70
128
 71
65
 72
5
 73
7
 74
66
 0
VERTEX
 8
CILINDRO
 10
0
 20
0
 30
0
 70
128
 71
35
 72
13
 73
20
 74
38
 0
VERTEX
 8
CILINDRO
 10
0
 20
0
 30
0
 70
128
 71
38
 72
20
 73
18
 74
37
 0
VERTEX
 8
CILINDRO
 10
0
 20
0
 30
0
 70
128
 71
37
 72
18
 73
16
 74
36
 0
VERTEX
 8
CILINDRO
 10
0
 20
0
 30
0
 70
128
 71
33
 72
1
 73
13
 74
35
 0
VERTEX
 8
CILINDRO
 10
0
 20
0
 30
0
 70
128
 71
36
 72
16
 73
10
 74
34
 0
VERTEX
 8
CILINDRO
 10
0
 20
0
 30
0
 70
128
 71
34
 72
10
 73
30
 74
44
 0
VERTEX
 8
CILINDRO
 10
0
 20
0
 30
0
 70
128
 71
44
 72
30
 73
29
 74
43
 0
VERTEX
 8
CILINDRO
 10
0
 20
0
 30
0
 70
128
 71
39
 72
21
 73
1
 74
33
 0
VERTEX
 8
CILINDRO
 10
0
 20
0
 30
0
 70
128
 71
40
 72
23
 73
21
 74
39
 0
VERTEX
 8
CILINDRO
 10
0
 20
0
 30
0
 70
128
 71
43
 72
29
 73
27
 74
42
 0
VERTEX
 8
CILINDRO
 10
0
 20
0
 30
0
 70
128
 71
41
 72
25
 73
23
 74
40
 0
VERTEX
 8
CILINDRO
 10
0
 20
0
 30
0
 70
128
 71
42
 72
27
 73
25
 74
41
 0
VERTEX
 8
CILINDRO
 10
0
 20
0
 30
0
 70
128
 71
50
 72
19
 73
14
 74
47
 0
VERTEX
 8
CILINDRO
 10
0
 20
0
 30
0
 70
128
 71
49
 72
17
 73
19
 74
50
 0
VERTEX
 8
CILINDRO
 10
0
 20
0
 30
0
 70
128
 71
48
 72
15
 73
17
 74
49
 0
VERTEX
 8
CILINDRO
 10
0
 20
0
 30
0
 70
128
 71
47
 72
14
 73
2
 74
45
 0
VERTEX
 8
CILINDRO
 10
0
 20
0
 30
0
 70
128
 71
46
 72
12
 73
15
 74
48
 0
VERTEX
 8
CILINDRO
 10
0
 20
0
 30
0
 70
128
 71
56
 72
32
 73
12
 74
46
 0
VERTEX
 8
CILINDRO
 10
0
 20
0
 30
0
 70
128
 71
55
 72
31
 73
32
 74
56
 0
VERTEX
 8
CILINDRO
 10
0
 20
0
 30
0
 70
128
 71
45
 72
2
 73
22
 74
51
 0
VERTEX
 8
CILINDRO
 10
0
 20
0
 30
0
 70
128
 71
51
 72
22
 73
24
 74
52
 0
VERTEX
 8
CILINDRO
 10
0
 20
0
 30
0
 70
128
 71
54
 72
28
 73
31
 74
55
 0
VERTEX
 8
CILINDRO
 10
0
 20
0
 30
0
 70
128
 71
52
 72
24
 73
26
 74
53
 0
VERTEX
 8
CILINDRO
 10
0
 20
0
 30
0
 70
128
 71
53
 72
26
 73
28
 74
54
 0
VERTEX
 8
CILINDRO
 10
0
 20
0
 30
0
 70
128
 71
59
 72
35
 73
38
 74
62
 0
VERTEX
 8
CILINDRO
 10
0
 20
0
 30
0
 70
128
 71
62
 72
38
 73
37
 74
61
 0
VERTEX
 8
CILINDRO
 10
0
 20
0
 30
0
 70
128
 71
61
 72
37
 73
36
 74
60
 0
VERTEX
 8
CILINDRO
 10
0
 20
0
 30
0
 70
128
 71
57
 72
33
 73
35
 74
59
 0
VERTEX
 8
CILINDRO
 10
0
 20
0
 30
0
 70
128
 71
60
 72
36
 73
34
 74
58
 0
VERTEX
 8
CILINDRO
 10
0
 20
0
 30
0
 70
128
 71
58
 72
34
 73
44
 74
68
 0
VERTEX
 8
CILINDRO
 10
0
 20
0
 30
0
 70
128
 71
68
 72
44
 73
43
 74
67
 0
VERTEX
 8
CILINDRO
 10
0
 20
0
 30
0
 70
128
 71
63
 72
39
 73
33
 74
57
 0
VERTEX
 8
CILINDRO
 10
0
 20
0
 30
0
 70
128
 71
64
 72
40
 73
39
 74
63
 0
VERTEX
 8
CILINDRO
 10
0
 20
0
 30
0
 70
128
 71
67
 72
43
 73
42
 74
66
 0
VERTEX
 8
CILINDRO
 10
0
 20
0
 30
0
 70
128
 71
65
 72
41
 73
40
 74
64
 0
VERTEX
 8
CILINDRO
 10
0
 20
0
 30
0
 70
128
 71
66
 72
42
 73
41
 74
65
 0
VERTEX
 8
CILINDRO
 10
0
 20
0
 30
0
 70
128
 71
74
 72
50
 73
47
 74
71
 0
VERTEX
 8
CILINDRO
 10
0
 20
0
 30
0
 70
128
 71
73
 72
49
 73
50
 74
74
 0
VERTEX
 8
CILINDRO
 10
0
 20
0
 30
0
 70
128
 71
72
 72
48
 73
49
 74
73
 0
VERTEX
 8
CILINDRO
 10
0
 20
0
 30
0
 70
128
 71
71
 72
47
 73
45
 74
69
 0
VERTEX
 8
CILINDRO
 10
0
 20
0
 30
0
 70
128
 71
70
 72
46
 73
48
 74
72
 0
VERTEX
 8
CILINDRO
 10
0
 20
0
 30
0
 70
128
 71
80
 72
56
 73
46
 74
70
 0
VERTEX
 8
CILINDRO
 10
0
 20
0
 30
0
 70
128
 71
79
 72
55
 73
56
 74
80
 0
VERTEX
 8
CILINDRO
 10
0
 20
0
 30
0
 70
128
 71
69
 72
45
 73
51
 74
75
 0
VERTEX
 8
CILINDRO
 10
0
 20
0
 30
0
 70
128
 71
75
 72
51
 73
52
 74
76
 0
VERTEX
 8
CILINDRO
 10
0
 20
0
 30
0
 70
128
 71
78
 72
54
 73
55
 74
79
 0
VERTEX
 8
CILINDRO
 10
0
 20
0
 30
0
 70
128
 71
76
 72
52
 73
53
 74
77
 0
VERTEX
 8
CILINDRO
 10
0
 20
0
 30
0
 70
128
 71
77
 72
53
 73
54
 74
78
 0
SEQEND
 0
POLYLINE
 8
CUBO_5
 66
1
 10
0.0
 20
0.0
 30
0.0
 70
64
 71
8
 72
6
 0
VERTEX
 8
CUBO_5
 10
-19.5683
 20
-8.0186
 30
41.4199
 70
192
 0
VERTEX
 8
CUBO_5
 10
-19.5683
 20
-8.0186
 30
44.4197
 70
192
 0
VERTEX
 8
CUBO_5
 10
-27.6497
 20
-8.0186
 30
41.4199
 70
192
 0
VERTEX
 8
CUBO_5
 10
-27.6497
 20
-8.0186
 30
44.4197
 70
192
 0
VERTEX
 8
CUBO_5
 10
-27.6497
 20
-4.3187
 30
41.4199
 70
192
 0
VERTEX
 8
CUBO_5
 10
-27.6497
 20
-4.3187
 30
44.4197
 70
192
 0
VERTEX
 8
CUBO_5
 10
-19.6495
 20
-4.3187
 30
41.4199
 70
192
 0
VERTEX
 8
CUBO_5
 10
-19.6495
 20
-4.3187
 30
44.4197
 70
192
 0
VERTEX
 8
CUBO_5
 10
0
 20
0
 30
0
 70
128
 71
1
 72
3
 73
4
 74
2
 0
VERTEX
 8
CUBO_5
 10
0
 20
0
 30
0
 70
128
 71
3
 72
5
 73
6
 74
4
 0
VERTEX
 8
CUBO_5
 10
0
 20
0
 30
0
 70
128
 71
5
 72
7
 73
8
 74
6
 0
VERTEX
 8
CUBO_5
 10
0
 20
0
 30
0
 70
128
 71
7
 72
1
 73
2
 74
8
 0
VERTEX
 8
CUBO_5
 10
0
 20
0
 30
0
 70
128
 71
2
 72
4
 73
6
 74
8
 0
VERTEX
 8
CUBO_5
 10
0
 20
0
 30
0
 70
128
 71
7
 72
5
 73
3
 74
1
 0
SEQEND
 0
POLYLINE
 8
CUBO_4
 66
1
 10
0.0
 20
0.0
 30
0.0
 70
64
 71
8
 72
6
 0
VERTEX
 8
CUBO_4
 10
19.5683
 20
-8.0186
 30
41.4199
 70
192
 0
VERTEX
 8
CUBO_4
 10
19.5683
 20
-8.0186
 30
44.4197
 70
192
 0
VERTEX
 8
CUBO_4
 10
27.6497
 20
-8.0186
 30
41.4199
 70
192
 0
VERTEX
 8
CUBO_4
 10
27.6497
 20
-8.0186
 30
44.4197
 70
192
 0
VERTEX
 8
CUBO_4
 10
27.6497
 20
-4.3187
 30
41.4199
 70
192
 0
VERTEX
 8
CUBO_4
 10
27.6497
 20
-4.3187
 30
44.4197
 70
192
 0
VERTEX
 8
CUBO_4
 10
19.6495
 20
-4.3187
 30
41.4199
 70
192
 0
VERTEX
 8
CUBO_4
 10
19.6495
 20
-4.3187
 30
44.4197
 70
192
 0
VERTEX
 8
CUBO_4
 10
0
 20
0
 30
0
 70
128
 71
1
 72
2
 73
4
 74
3
 0
VERTEX
 8
CUBO_4
 10
0
 20
0
 30
0
 70
128
 71
3
 72
4
 73
6
 74
5
 0
VERTEX
 8
CUBO_4
 10
0
 20
0
 30
0
 70
128
 71
5
 72
6
 73
8
 74
7
 0
VERTEX
 8
CUBO_4
 10
0
 20
0
 30
0
 70
128
 71
7
 72
8
 73
2
 74
1
 0
VERTEX
 8
CUBO_4
 10
0
 20
0
 30
0
 70
128
 71
2
 72
8
 73
6
 74
4
 0
VERTEX
 8
CUBO_4
 10
0
 20
0
 30
0
 70
128
 71
7
 72
1
 73
3
 74
5
 0
SEQEND
 0
POLYLINE
 8
CUBO_3
 66
1
 10
0.0
 20
0.0
 30
0.0
 70
64
 71
8
 72
6
 0
VERTEX
 8
CUBO_3
 10
-27.65
 20
-4.3186
 30
37.7197
 70
192
 0
VERTEX
 8
CUBO_3
 10
-27.65
 20
-4.3186
 30
44.4197
 70
192
 0
VERTEX
 8
CUBO_3
 10
27.65
 20
-4.3186
 30
37.7197
 70
192
 0
VERTEX
 8
CUBO_3
 10
27.65
 20
-4.3186
 30
44.4197
 70
192
 0
VERTEX
 8
CUBO_3
 10
27.65
 20
-3.9385
 30
37.7197
 70
192
 0
VERTEX
 8
CUBO_3
 10
27.65
 20
-3.9385
 30
44.4197
 70
192
 0
VERTEX
 8
CUBO_3
 10
-27.65
 20
-3.9385
 30
37.7197
 70
192
 0
VERTEX
 8
CUBO_3
 10
-27.65
 20
-3.9385
 30
44.4197
 70
192
 0
VERTEX
 8
CUBO_3
 10
0
 20
0
 30
0
 70
128
 71
1
 72
2
 73
4
 74
3
 0
VERTEX
 8
CUBO_3
 10
0
 20
0
 30
0
 70
128
 71
3
 72
4
 73
6
 74
5
 0
VERTEX
 8
CUBO_3
 10
0
 20
0
 30
0
 70
128
 71
5
 72
6
 73
8
 74
7
 0
VERTEX
 8
CUBO_3
 10
0
 20
0
 30
0
 70
128
 71
7
 72
8
 73
2
 74
1
 0
VERTEX
 8
CUBO_3
 10
0
 20
0
 30
0
 70
128
 71
2
 72
8
 73
6
 74
4
 0
VERTEX
 8
CUBO_3
 10
0
 20
0
 30
0
 70
128
 71
7
 72
1
 73
3
 74
5
 0
SEQEND
 0
POLYLINE
 8
PANNELLO_FRONTALE
 66
1
 10
0.0
 20
0.0
 30
0.0
 70
64
 71
32
 72
32
 0
VERTEX
 8
PANNELLO_FRONTALE
 10
-37.5001
 20
-3.9385
 30
2.2148
 70
192
 0
VERTEX
 8
PANNELLO_FRONTALE
 10
-37.5001
 20
-3.9385
 30
46.6145
 70
192
 0
VERTEX
 8
PANNELLO_FRONTALE
 10
37.5003
 20
-3.9385
 30
2.2148
 70
192
 0
VERTEX
 8
PANNELLO_FRONTALE
 10
37.5003
 20
-3.9385
 30
46.6145
 70
192
 0
VERTEX
 8
PANNELLO_FRONTALE
 10
37.5003
 20
-3.3585
 30
2.2148
 70
192
 0
VERTEX
 8
PANNELLO_FRONTALE
 10
37.5003
 20
-3.3585
 30
46.6145
 70
192
 0
VERTEX
 8
PANNELLO_FRONTALE
 10
-37.5001
 20
-3.3585
 30
2.2148
 70
192
 0
VERTEX
 8
PANNELLO_FRONTALE
 10
-37.5001
 20
-3.3585
 30
46.6145
 70
192
 0
VERTEX
 8
PANNELLO_FRONTALE
 10
27.65
 20
-3.9385
 30
46.6145
 70
192
 0
VERTEX
 8
PANNELLO_FRONTALE
 10
27.65
 20
-3.9385
 30
2.2148
 70
192
 0
VERTEX
 8
PANNELLO_FRONTALE
 10
27.65
 20
-3.3585
 30
46.6145
 70
192
 0
VERTEX
 8
PANNELLO_FRONTALE
 10
27.65
 20
-3.3585
 30
2.2148
 70
192
 0
VERTEX
 8
PANNELLO_FRONTALE
 10
-37.5001
 20
-3.9385
 30
37.6197
 70
192
 0
VERTEX
 8
PANNELLO_FRONTALE
 10
27.65
 20
-3.9385
 30
37.6197
 70
192
 0
VERTEX
 8
PANNELLO_FRONTALE
 10
37.5003
 20
-3.9385
 30
37.6197
 70
192
 0
VERTEX
 8
PANNELLO_FRONTALE
 10
37.5003
 20
-3.3585
 30
37.6197
 70
192
 0
VERTEX
 8
PANNELLO_FRONTALE
 10
27.65
 20
-3.3585
 30
37.6197
 70
192
 0
VERTEX
 8
PANNELLO_FRONTALE
 10
-37.5001
 20
-3.3585
 30
37.6197
 70
192
 0
VERTEX
 8
PANNELLO_FRONTALE
 10
-27.65
 20
-3.9385
 30
37.6197
 70
192
 0
VERTEX
 8
PANNELLO_FRONTALE
 10
-27.65
 20
-3.9385
 30
2.2148
 70
192
 0
VERTEX
 8
PANNELLO_FRONTALE
 10
-27.65
 20
-3.3585
 30
46.6145
 70
192
 0
VERTEX
 8
PANNELLO_FRONTALE
 10
-27.65
 20
-3.9385
 30
46.6145
 70
192
 0
VERTEX
 8
PANNELLO_FRONTALE
 10
-27.65
 20
-3.3585
 30
2.2148
 70
192
 0
VERTEX
 8
PANNELLO_FRONTALE
 10
-27.65
 20
-3.3585
 30
37.6197
 70
192
 0
VERTEX
 8
PANNELLO_FRONTALE
 10
-37.5001
 20
-3.9385
 30
12.4151
 70
192
 0
VERTEX
 8
PANNELLO_FRONTALE
 10
-27.65
 20
-3.9385
 30
12.4151
 70
192
 0
VERTEX
 8
PANNELLO_FRONTALE
 10
37.5003
 20
-3.9385
 30
12.4151
 70
192
 0
VERTEX
 8
PANNELLO_FRONTALE
 10
37.5003
 20
-3.3585
 30
12.4151
 70
192
 0
VERTEX
 8
PANNELLO_FRONTALE
 10
27.65
 20
-3.3585
 30
12.4151
 70
192
 0
VERTEX
 8
PANNELLO_FRONTALE
 10
-37.5001
 20
-3.3585
 30
12.4151
 70
192
 0
VERTEX
 8
PANNELLO_FRONTALE
 10
27.65
 20
-3.9385
 30
12.4151
 70
192
 0
VERTEX
 8
PANNELLO_FRONTALE
 10
-27.65
 20
-3.3585
 30
12.4151
 70
192
 0
VERTEX
 8
PANNELLO_FRONTALE
 10
0
 20
0
 30
0
 70
128
 71
1
 72
25
 73
26
 74
20
 0
VERTEX
 8
PANNELLO_FRONTALE
 10
0
 20
0
 30
0
 70
128
 71
3
 72
27
 73
28
 74
5
 0
VERTEX
 8
PANNELLO_FRONTALE
 10
0
 20
0
 30
0
 70
128
 71
5
 72
28
 73
29
 74
12
 0
VERTEX
 8
PANNELLO_FRONTALE
 10
0
 20
0
 30
0
 70
128
 71
7
 72
30
 73
25
 74
1
 0
VERTEX
 8
PANNELLO_FRONTALE
 10
0
 20
0
 30
0
 70
128
 71
2
 72
8
 73
21
 74
22
 0
VERTEX
 8
PANNELLO_FRONTALE
 10
0
 20
0
 30
0
 70
128
 71
7
 72
1
 73
20
 74
23
 0
VERTEX
 8
PANNELLO_FRONTALE
 10
0
 20
0
 30
0
 70
128
 71
9
 72
4
 73
15
 74
14
 0
VERTEX
 8
PANNELLO_FRONTALE
 10
0
 20
0
 30
0
 70
128
 71
11
 72
21
 73
24
 74
17
 0
VERTEX
 8
PANNELLO_FRONTALE
 10
0
 20
0
 30
0
 70
128
 71
11
 72
6
 73
4
 74
9
 0
VERTEX
 8
PANNELLO_FRONTALE
 10
0
 20
0
 30
0
 70
128
 71
10
 72
3
 73
5
 74
12
 0
VERTEX
 8
PANNELLO_FRONTALE
 10
0
 20
0
 30
0
 70
128
 71
13
 72
2
 73
22
 74
19
 0
VERTEX
 8
PANNELLO_FRONTALE
 10
0
 20
0
 30
0
 70
128
 71
15
 72
4
 73
6
 74
16
 0
VERTEX
 8
PANNELLO_FRONTALE
 10
0
 20
0
 30
0
 70
128
 71
16
 72
6
 73
11
 74
17
 0
VERTEX
 8
PANNELLO_FRONTALE
 10
0
 20
0
 30
0
 70
128
 71
18
 72
8
 73
2
 74
13
 0
VERTEX
 8
PANNELLO_FRONTALE
 10
0
 20
0
 30
0
 70
128
 71
15
 72
27
 73
31
 74
14
 0
VERTEX
 8
PANNELLO_FRONTALE
 10
0
 20
0
 30
0
 70
128
 71
18
 72
30
 73
32
 74
24
 0
VERTEX
 8
PANNELLO_FRONTALE
 10
0
 20
0
 30
0
 70
128
 71
31
 72
10
 73
20
 74
26
 0
VERTEX
 8
PANNELLO_FRONTALE
 10
0
 20
0
 30
0
 70
128
 71
21
 72
11
 73
9
 74
22
 0
VERTEX
 8
PANNELLO_FRONTALE
 10
0
 20
0
 30
0
 70
128
 71
20
 72
10
 73
12
 74
23
 0
VERTEX
 8
PANNELLO_FRONTALE
 10
0
 20
0
 30
0
 70
128
 71
21
 72
8
 73
18
 74
24
 0
VERTEX
 8
PANNELLO_FRONTALE
 10
0
 20
0
 30
0
 70
128
 71
22
 72
9
 73
14
 74
19
 0
VERTEX
 8
PANNELLO_FRONTALE
 10
0
 20
0
 30
0
 70
128
 71
23
 72
12
 73
29
 74
32
 0
VERTEX
 8
PANNELLO_FRONTALE
 10
0
 20
0
 30
0
 70
128
 71
25
 72
13
 73
19
 74
26
 0
VERTEX
 8
PANNELLO_FRONTALE
 10
0
 20
0
 30
0
 70
128
 71
27
 72
15
 73
16
 74
28
 0
VERTEX
 8
PANNELLO_FRONTALE
 10
0
 20
0
 30
0
 70
128
 71
28
 72
16
 73
17
 74
29
 0
VERTEX
 8
PANNELLO_FRONTALE
 10
0
 20
0
 30
0
 70
128
 71
30
 72
18
 73
13
 74
25
 0
VERTEX
 8
PANNELLO_FRONTALE
 10
0
 20
0
 30
0
 70
128
 71
27
 72
3
 73
10
 74
31
 0
VERTEX
 8
PANNELLO_FRONTALE
 10
0
 20
0
 30
0
 70
128
 71
30
 72
7
 73
23
 74
32
 0
VERTEX
 8
PANNELLO_FRONTALE
 10
0
 20
0
 30
0
 70
128
 71
26
 72
19
 73
24
 74
32
 0
VERTEX
 8
PANNELLO_FRONTALE
 10
0
 20
0
 30
0
 70
128
 71
31
 72
26
 73
32
 74
29
 0
VERTEX
 8
PANNELLO_FRONTALE
 10
0
 20
0
 30
0
 70
128
 71
17
 72
24
 73
19
 74
14
 0
VERTEX
 8
PANNELLO_FRONTALE
 10
0
 20
0
 30
0
 70
128
 71
29
 72
17
 73
14
 74
31
 0
SEQEND
 0
POLYLINE
 8
VETRO
 66
1
 10
0.0
 20
0.0
 30
0.0
 70
64
 71
8
 72
6
 0
VERTEX
 8
VETRO
 10
27.65
 20
-3.9385
 30
37.6197
 70
192
 0
VERTEX
 8
VETRO
 10
27.65
 20
-3.3585
 30
37.6197
 70
192
 0
VERTEX
 8
VETRO
 10
-27.65
 20
-3.9385
 30
37.6197
 70
192
 0
VERTEX
 8
VETRO
 10
-27.65
 20
-3.3585
 30
37.6197
 70
192
 0
VERTEX
 8
VETRO
 10
-27.65
 20
-3.9385
 30
12.4151
 70
192
 0
VERTEX
 8
VETRO
 10
27.65
 20
-3.3585
 30
12.4151
 70
192
 0
VERTEX
 8
VETRO
 10
27.65
 20
-3.9385
 30
12.4151
 70
192
 0
VERTEX
 8
VETRO
 10
-27.65
 20
-3.3585
 30
12.4151
 70
192
 0
VERTEX
 8
VETRO
 10
0
 20
0
 30
0
 70
128
 71
3
 72
1
 73
7
 74
5
 0
VERTEX
 8
VETRO
 10
0
 20
0
 30
0
 70
128
 71
6
 72
2
 73
4
 74
8
 0
VERTEX
 8
VETRO
 10
0
 20
0
 30
0
 70
128
 71
2
 72
6
 73
7
 74
1
 0
VERTEX
 8
VETRO
 10
0
 20
0
 30
0
 70
128
 71
4
 72
2
 73
1
 74
3
 0
VERTEX
 8
VETRO
 10
0
 20
0
 30
0
 70
128
 71
6
 72
8
 73
5
 74
7
 0
VERTEX
 8
VETRO
 10
0
 20
0
 30
0
 70
128
 71
8
 72
4
 73
3
 74
5
 0
SEQEND
 0
POLYLINE
 8
CORNICE_DISPLAY
 66
1
 10
0.0
 20
0.0
 30
0.0
 70
64
 71
32
 72
32
 0
VERTEX
 8
CORNICE_DISPLAY
 10
-8.5027
 20
-4.0185
 30
49.727
 70
192
 0
VERTEX
 8
CORNICE_DISPLAY
 10
-8.5027
 20
-4.0185
 30
56.7323
 70
192
 0
VERTEX
 8
CORNICE_DISPLAY
 10
8.5027
 20
-4.0185
 30
49.727
 70
192
 0
VERTEX
 8
CORNICE_DISPLAY
 10
8.5027
 20
-4.0185
 30
56.7323
 70
192
 0
VERTEX
 8
CORNICE_DISPLAY
 10
8.5027
 20
-3.4386
 30
49.727
 70
192
 0
VERTEX
 8
CORNICE_DISPLAY
 10
8.5027
 20
-3.4386
 30
56.7323
 70
192
 0
VERTEX
 8
CORNICE_DISPLAY
 10
-8.5027
 20
-3.4386
 30
49.727
 70
192
 0
VERTEX
 8
CORNICE_DISPLAY
 10
-8.5027
 20
-3.4386
 30
56.7323
 70
192
 0
VERTEX
 8
CORNICE_DISPLAY
 10
-8.199
 20
-4.0185
 30
56.7323
 70
192
 0
VERTEX
 8
CORNICE_DISPLAY
 10
-8.199
 20
-4.0185
 30
49.727
 70
192
 0
VERTEX
 8
CORNICE_DISPLAY
 10
-8.199
 20
-3.4386
 30
56.7323
 70
192
 0
VERTEX
 8
CORNICE_DISPLAY
 10
-8.199
 20
-3.4386
 30
49.727
 70
192
 0
VERTEX
 8
CORNICE_DISPLAY
 10
-8.5027
 20
-4.0185
 30
50.0269
 70
192
 0
VERTEX
 8
CORNICE_DISPLAY
 10
-8.199
 20
-4.0185
 30
50.0269
 70
192
 0
VERTEX
 8
CORNICE_DISPLAY
 10
8.5027
 20
-4.0185
 30
50.0269
 70
192
 0
VERTEX
 8
CORNICE_DISPLAY
 10
8.5027
 20
-3.4386
 30
50.0269
 70
192
 0
VERTEX
 8
CORNICE_DISPLAY
 10
-8.199
 20
-3.4386
 30
50.0269
 70
192
 0
VERTEX
 8
CORNICE_DISPLAY
 10
-8.5027
 20
-3.4386
 30
50.0269
 70
192
 0
VERTEX
 8
CORNICE_DISPLAY
 10
8.1989
 20
-3.4386
 30
50.0269
 70
192
 0
VERTEX
 8
CORNICE_DISPLAY
 10
8.1989
 20
-3.4386
 30
49.727
 70
192
 0
VERTEX
 8
CORNICE_DISPLAY
 10
8.1989
 20
-4.0185
 30
56.7323
 70
192
 0
VERTEX
 8
CORNICE_DISPLAY
 10
8.1989
 20
-4.0185
 30
50.0269
 70
192
 0
VERTEX
 8
CORNICE_DISPLAY
 10
8.1989
 20
-3.4386
 30
56.7323
 70
192
 0
VERTEX
 8
CORNICE_DISPLAY
 10
8.1989
 20
-4.0185
 30
49.727
 70
192
 0
VERTEX
 8
CORNICE_DISPLAY
 10
8.1989
 20
-4.0185
 30
56.4321
 70
192
 0
VERTEX
 8
CORNICE_DISPLAY
 10
-8.199
 20
-4.0185
 30
56.4321
 70
192
 0
VERTEX
 8
CORNICE_DISPLAY
 10
-8.5027
 20
-3.4386
 30
56.4321
 70
192
 0
VERTEX
 8
CORNICE_DISPLAY
 10
-8.199
 20
-3.4386
 30
56.4321
 70
192
 0
VERTEX
 8
CORNICE_DISPLAY
 10
-8.5027
 20
-4.0185
 30
56.4321
 70
192
 0
VERTEX
 8
CORNICE_DISPLAY
 10
8.5027
 20
-4.0185
 30
56.4321
 70
192
 0
VERTEX
 8
CORNICE_DISPLAY
 10
8.5027
 20
-3.4386
 30
56.4321
 70
192
 0
VERTEX
 8
CORNICE_DISPLAY
 10
8.1989
 20
-3.4386
 30
56.4321
 70
192
 0
VERTEX
 8
CORNICE_DISPLAY
 10
0
 20
0
 30
0
 70
128
 71
1
 72
13
 73
14
 74
10
 0
VERTEX
 8
CORNICE_DISPLAY
 10
0
 20
0
 30
0
 70
128
 71
3
 72
15
 73
16
 74
5
 0
VERTEX
 8
CORNICE_DISPLAY
 10
0
 20
0
 30
0
 70
128
 71
5
 72
16
 73
19
 74
20
 0
VERTEX
 8
CORNICE_DISPLAY
 10
0
 20
0
 30
0
 70
128
 71
7
 72
18
 73
13
 74
1
 0
VERTEX
 8
CORNICE_DISPLAY
 10
0
 20
0
 30
0
 70
128
 71
2
 72
8
 73
11
 74
9
 0
VERTEX
 8
CORNICE_DISPLAY
 10
0
 20
0
 30
0
 70
128
 71
7
 72
1
 73
10
 74
12
 0
VERTEX
 8
CORNICE_DISPLAY
 10
0
 20
0
 30
0
 70
128
 71
9
 72
21
 73
25
 74
26
 0
VERTEX
 8
CORNICE_DISPLAY
 10
0
 20
0
 30
0
 70
128
 71
11
 72
8
 73
27
 74
28
 0
VERTEX
 8
CORNICE_DISPLAY
 10
0
 20
0
 30
0
 70
128
 71
11
 72
23
 73
21
 74
9
 0
VERTEX
 8
CORNICE_DISPLAY
 10
0
 20
0
 30
0
 70
128
 71
10
 72
24
 73
20
 74
12
 0
VERTEX
 8
CORNICE_DISPLAY
 10
0
 20
0
 30
0
 70
128
 71
13
 72
29
 73
26
 74
14
 0
VERTEX
 8
CORNICE_DISPLAY
 10
0
 20
0
 30
0
 70
128
 71
15
 72
30
 73
31
 74
16
 0
VERTEX
 8
CORNICE_DISPLAY
 10
0
 20
0
 30
0
 70
128
 71
16
 72
31
 73
32
 74
19
 0
VERTEX
 8
CORNICE_DISPLAY
 10
0
 20
0
 30
0
 70
128
 71
18
 72
27
 73
29
 74
13
 0
VERTEX
 8
CORNICE_DISPLAY
 10
0
 20
0
 30
0
 70
128
 71
15
 72
3
 73
24
 74
22
 0
VERTEX
 8
CORNICE_DISPLAY
 10
0
 20
0
 30
0
 70
128
 71
18
 72
7
 73
12
 74
17
 0
VERTEX
 8
CORNICE_DISPLAY
 10
0
 20
0
 30
0
 70
128
 71
19
 72
17
 73
12
 74
20
 0
VERTEX
 8
CORNICE_DISPLAY
 10
0
 20
0
 30
0
 70
128
 71
21
 72
4
 73
30
 74
25
 0
VERTEX
 8
CORNICE_DISPLAY
 10
0
 20
0
 30
0
 70
128
 71
23
 72
6
 73
4
 74
21
 0
VERTEX
 8
CORNICE_DISPLAY
 10
0
 20
0
 30
0
 70
128
 71
24
 72
3
 73
5
 74
20
 0
VERTEX
 8
CORNICE_DISPLAY
 10
0
 20
0
 30
0
 70
128
 71
23
 72
11
 73
28
 74
32
 0
VERTEX
 8
CORNICE_DISPLAY
 10
0
 20
0
 30
0
 70
128
 71
24
 72
10
 73
14
 74
22
 0
VERTEX
 8
CORNICE_DISPLAY
 10
0
 20
0
 30
0
 70
128
 71
30
 72
15
 73
22
 74
25
 0
VERTEX
 8
CORNICE_DISPLAY
 10
0
 20
0
 30
0
 70
128
 71
27
 72
18
 73
17
 74
28
 0
VERTEX
 8
CORNICE_DISPLAY
 10
0
 20
0
 30
0
 70
128
 71
29
 72
2
 73
9
 74
26
 0
VERTEX
 8
CORNICE_DISPLAY
 10
0
 20
0
 30
0
 70
128
 71
30
 72
4
 73
6
 74
31
 0
VERTEX
 8
CORNICE_DISPLAY
 10
0
 20
0
 30
0
 70
128
 71
31
 72
6
 73
23
 74
32
 0
VERTEX
 8
CORNICE_DISPLAY
 10
0
 20
0
 30
0
 70
128
 71
27
 72
8
 73
2
 74
29
 0
VERTEX
 8
CORNICE_DISPLAY
 10
0
 20
0
 30
0
 70
128
 71
28
 72
17
 73
14
 74
26
 0
VERTEX
 8
CORNICE_DISPLAY
 10
0
 20
0
 30
0
 70
128
 71
17
 72
19
 73
22
 74
14
 0
VERTEX
 8
CORNICE_DISPLAY
 10
0
 20
0
 30
0
 70
128
 71
19
 72
32
 73
25
 74
22
 0
VERTEX
 8
CORNICE_DISPLAY
 10
0
 20
0
 30
0
 70
128
 71
32
 72
28
 73
26
 74
25
 0
SEQEND
 0
POLYLINE
 8
PANNELLO_DISPALY
 66
1
 10
0.0
 20
0.0
 30
0.0
 70
64
 71
36
 72
34
 0
VERTEX
 8
PANNELLO_DISPALY
 10
-37.5001
 20
-3.9385
 30
47.5347
 70
192
 0
VERTEX
 8
PANNELLO_DISPALY
 10
-37.5001
 20
-3.9385
 30
59.0145
 70
192
 0
VERTEX
 8
PANNELLO_DISPALY
 10
37.5003
 20
-3.9385
 30
47.5347
 70
192
 0
VERTEX
 8
PANNELLO_DISPALY
 10
37.5003
 20
-3.9385
 30
59.0145
 70
192
 0
VERTEX
 8
PANNELLO_DISPALY
 10
37.5003
 20
-1.744
 30
47.5347
 70
192
 0
VERTEX
 8
PANNELLO_DISPALY
 10
37.5003
 20
-1.744
 30
59.0145
 70
192
 0
VERTEX
 8
PANNELLO_DISPALY
 10
-37.5001
 20
-1.744
 30
47.5347
 70
192
 0
VERTEX
 8
PANNELLO_DISPALY
 10
-37.5001
 20
-1.744
 30
59.0145
 70
192
 0
VERTEX
 8
PANNELLO_DISPALY
 10
-8.199
 20
-3.9385
 30
59.0145
 70
192
 0
VERTEX
 8
PANNELLO_DISPALY
 10
-8.199
 20
-3.9385
 30
47.5347
 70
192
 0
VERTEX
 8
PANNELLO_DISPALY
 10
-8.199
 20
-1.744
 30
59.0145
 70
192
 0
VERTEX
 8
PANNELLO_DISPALY
 10
-8.199
 20
-1.744
 30
47.5347
 70
192
 0
VERTEX
 8
PANNELLO_DISPALY
 10
-37.5001
 20
-3.9385
 30
50.0269
 70
192
 0
VERTEX
 8
PANNELLO_DISPALY
 10
-8.199
 20
-3.9385
 30
50.0269
 70
192
 0
VERTEX
 8
PANNELLO_DISPALY
 10
37.5003
 20
-3.9385
 30
50.0269
 70
192
 0
VERTEX
 8
PANNELLO_DISPALY
 10
37.5003
 20
-1.744
 30
50.0269
 70
192
 0
VERTEX
 8
PANNELLO_DISPALY
 10
-8.199
 20
-1.744
 30
50.0269
 70
192
 0
VERTEX
 8
PANNELLO_DISPALY
 10
-37.5001
 20
-1.744
 30
50.0269
 70
192
 0
VERTEX
 8
PANNELLO_DISPALY
 10
8.1989
 20
-1.744
 30
50.0269
 70
192
 0
VERTEX
 8
PANNELLO_DISPALY
 10
8.1989
 20
-1.744
 30
47.5347
 70
192
 0
VERTEX
 8
PANNELLO_DISPALY
 10
8.1989
 20
-3.9385
 30
59.0145
 70
192
 0
VERTEX
 8
PANNELLO_DISPALY
 10
8.1989
 20
-3.9385
 30
50.0269
 70
192
 0
VERTEX
 8
PANNELLO_DISPALY
 10
8.1989
 20
-1.744
 30
59.0145
 70
192
 0
VERTEX
 8
PANNELLO_DISPALY
 10
8.1989
 20
-3.9385
 30
47.5347
 70
192
 0
VERTEX
 8
PANNELLO_DISPALY
 10
8.1989
 20
-3.9385
 30
56.4321
 70
192
 0
VERTEX
 8
PANNELLO_DISPALY
 10
-8.199
 20
-3.9385
 30
56.4321
 70
192
 0
VERTEX
 8
PANNELLO_DISPALY
 10
-37.5001
 20
-1.744
 30
56.4321
 70
192
 0
VERTEX
 8
PANNELLO_DISPALY
 10
-8.199
 20
-1.744
 30
56.4321
 70
192
 0
VERTEX
 8
PANNELLO_DISPALY
 10
-37.5001
 20
-3.9385
 30
56.4321
 70
192
 0
VERTEX
 8
PANNELLO_DISPALY
 10
37.5003
 20
-3.9385
 30
56.4321
 70
192
 0
VERTEX
 8
PANNELLO_DISPALY
 10
37.5003
 20
-1.744
 30
56.4321
 70
192
 0
VERTEX
 8
PANNELLO_DISPALY
 10
8.1989
 20
-1.744
 30
56.4321
 70
192
 0
VERTEX
 8
PANNELLO_DISPALY
 10
-8.199
 20
-3.8185
 30
50.0269
 70
192
 0
VERTEX
 8
PANNELLO_DISPALY
 10
8.1989
 20
-3.8185
 30
50.0269
 70
192
 0
VERTEX
 8
PANNELLO_DISPALY
 10
8.1989
 20
-3.8185
 30
56.4321
 70
192
 0
VERTEX
 8
PANNELLO_DISPALY
 10
-8.199
 20
-3.8185
 30
56.4321
 70
192
 0
VERTEX
 8
PANNELLO_DISPALY
 10
0
 20
0
 30
0
 70
128
 71
1
 72
13
 73
14
 74
10
 0
VERTEX
 8
PANNELLO_DISPALY
 10
0
 20
0
 30
0
 70
128
 71
3
 72
15
 73
16
 74
5
 0
VERTEX
 8
PANNELLO_DISPALY
 10
0
 20
0
 30
0
 70
128
 71
5
 72
16
 73
19
 74
20
 0
VERTEX
 8
PANNELLO_DISPALY
 10
0
 20
0
 30
0
 70
128
 71
7
 72
18
 73
13
 74
1
 0
VERTEX
 8
PANNELLO_DISPALY
 10
0
 20
0
 30
0
 70
128
 71
2
 72
8
 73
11
 74
9
 0
VERTEX
 8
PANNELLO_DISPALY
 10
0
 20
0
 30
0
 70
128
 71
7
 72
1
 73
10
 74
12
 0
VERTEX
 8
PANNELLO_DISPALY
 10
0
 20
0
 30
0
 70
128
 71
9
 72
21
 73
25
 74
26
 0
VERTEX
 8
PANNELLO_DISPALY
 10
0
 20
0
 30
0
 70
128
 71
11
 72
8
 73
27
 74
28
 0
VERTEX
 8
PANNELLO_DISPALY
 10
0
 20
0
 30
0
 70
128
 71
11
 72
23
 73
21
 74
9
 0
VERTEX
 8
PANNELLO_DISPALY
 10
0
 20
0
 30
0
 70
128
 71
10
 72
24
 73
20
 74
12
 0
VERTEX
 8
PANNELLO_DISPALY
 10
0
 20
0
 30
0
 70
128
 71
13
 72
29
 73
26
 74
14
 0
VERTEX
 8
PANNELLO_DISPALY
 10
0
 20
0
 30
0
 70
128
 71
15
 72
30
 73
31
 74
16
 0
VERTEX
 8
PANNELLO_DISPALY
 10
0
 20
0
 30
0
 70
128
 71
16
 72
31
 73
32
 74
19
 0
VERTEX
 8
PANNELLO_DISPALY
 10
0
 20
0
 30
0
 70
128
 71
18
 72
27
 73
29
 74
13
 0
VERTEX
 8
PANNELLO_DISPALY
 10
0
 20
0
 30
0
 70
128
 71
15
 72
3
 73
24
 74
22
 0
VERTEX
 8
PANNELLO_DISPALY
 10
0
 20
0
 30
0
 70
128
 71
18
 72
7
 73
12
 74
17
 0
VERTEX
 8
PANNELLO_DISPALY
 10
0
 20
0
 30
0
 70
128
 71
19
 72
17
 73
12
 74
20
 0
VERTEX
 8
PANNELLO_DISPALY
 10
0
 20
0
 30
0
 70
128
 71
21
 72
4
 73
30
 74
25
 0
VERTEX
 8
PANNELLO_DISPALY
 10
0
 20
0
 30
0
 70
128
 71
23
 72
6
 73
4
 74
21
 0
VERTEX
 8
PANNELLO_DISPALY
 10
0
 20
0
 30
0
 70
128
 71
24
 72
3
 73
5
 74
20
 0
VERTEX
 8
PANNELLO_DISPALY
 10
0
 20
0
 30
0
 70
128
 71
23
 72
11
 73
28
 74
32
 0
VERTEX
 8
PANNELLO_DISPALY
 10
0
 20
0
 30
0
 70
128
 71
24
 72
10
 73
14
 74
22
 0
VERTEX
 8
PANNELLO_DISPALY
 10
0
 20
0
 30
0
 70
128
 71
35
 72
34
 73
33
 74
36
 0
VERTEX
 8
PANNELLO_DISPALY
 10
0
 20
0
 30
0
 70
128
 71
27
 72
18
 73
17
 74
28
 0
VERTEX
 8
PANNELLO_DISPALY
 10
0
 20
0
 30
0
 70
128
 71
29
 72
2
 73
9
 74
26
 0
VERTEX
 8
PANNELLO_DISPALY
 10
0
 20
0
 30
0
 70
128
 71
30
 72
4
 73
6
 74
31
 0
VERTEX
 8
PANNELLO_DISPALY
 10
0
 20
0
 30
0
 70
128
 71
31
 72
6
 73
23
 74
32
 0
VERTEX
 8
PANNELLO_DISPALY
 10
0
 20
0
 30
0
 70
128
 71
27
 72
8
 73
2
 74
29
 0
VERTEX
 8
PANNELLO_DISPALY
 10
0
 20
0
 30
0
 70
128
 71
30
 72
15
 73
22
 74
25
 0
VERTEX
 8
PANNELLO_DISPALY
 10
0
 20
0
 30
0
 70
128
 71
28
 72
17
 73
19
 74
32
 0
VERTEX
 8
PANNELLO_DISPALY
 10
0
 20
0
 30
0
 70
128
 71
35
 72
25
 73
22
 74
34
 0
VERTEX
 8
PANNELLO_DISPALY
 10
0
 20
0
 30
0
 70
128
 71
34
 72
22
 73
14
 74
33
 0
VERTEX
 8
PANNELLO_DISPALY
 10
0
 20
0
 30
0
 70
128
 71
33
 72
14
 73
26
 74
36
 0
VERTEX
 8
PANNELLO_DISPALY
 10
0
 20
0
 30
0
 70
128
 71
36
 72
26
 73
25
 74
35
 0
SEQEND
 0
POLYLINE
 8
CUBO_1
 66
1
 10
0.0
 20
0.0
 30
0.0
 70
64
 71
98
 72
96
 0
VERTEX
 8
CUBO_1
 10
34.7952
 20
0.1641
 30
2.8663
 70
192
 0
VERTEX
 8
CUBO_1
 10
34.7713
 20
-0.9712
 30
47.4997
 70
192
 0
VERTEX
 8
CUBO_1
 10
34.7952
 20
-1.8263
 30
2.8663
 70
192
 0
VERTEX
 8
CUBO_1
 10
34.7713
 20
-0.971
 30
46.4844
 70
192
 0
VERTEX
 8
CUBO_1
 10
34.7952
 20
0.1641
 30
46.4953
 70
192
 0
VERTEX
 8
CUBO_1
 10
-34.795
 20
0.1641
 30
46.4953
 70
192
 0
VERTEX
 8
CUBO_1
 10
34.7951
 20
-1.8263
 30
47.5391
 70
192
 0
VERTEX
 8
CUBO_1
 10
-37.3983
 20
-1.8263
 30
46.4953
 70
192
 0
VERTEX
 8
CUBO_1
 10
-37.3983
 20
-3.0424
 30
47.5391
 70
192
 0
VERTEX
 8
CUBO_1
 10
37.3986
 20
-3.0424
 30
47.5391
 70
192
 0
VERTEX
 8
CUBO_1
 10
-34.7948
 20
-1.8263
 30
47.5391
 70
192
 0
VERTEX
 8
CUBO_1
 10
37.3986
 20
-1.8263
 30
46.4953
 70
192
 0
VERTEX
 8
CUBO_1
 10
37.3986
 20
-1.8263
 30
47.5391
 70
192
 0
VERTEX
 8
CUBO_1
 10
-34.795
 20
-1.8263
 30
2.8663
 70
192
 0
VERTEX
 8
CUBO_1
 10
-37.3983
 20
-1.8263
 30
47.5391
 70
192
 0
VERTEX
 8
CUBO_1
 10
-34.795
 20
0.1641
 30
2.8663
 70
192
 0
VERTEX
 8
CUBO_1
 10
-34.7405
 20
-0.9712
 30
47.4997
 70
192
 0
VERTEX
 8
CUBO_1
 10
34.7952
 20
-3.4588
 30
46.4844
 70
192
 0
VERTEX
 8
CUBO_1
 10
34.7713
 20
-3.0424
 30
47.4997
 70
192
 0
VERTEX
 8
CUBO_1
 10
-34.7405
 20
-0.971
 30
46.4844
 70
192
 0
VERTEX
 8
CUBO_1
 10
34.7952
 20
0.1641
 30
47.5391
 70
192
 0
VERTEX
 8
CUBO_1
 10
-37.3983
 20
-3.042
 30
2.8663
 70
192
 0
VERTEX
 8
CUBO_1
 10
-34.795
 20
-3.042
 30
2.8663
 70
192
 0
VERTEX
 8
CUBO_1
 10
-34.795
 20
-3.4588
 30
46.4844
 70
192
 0
VERTEX
 8
CUBO_1
 10
37.3986
 20
-3.042
 30
2.8663
 70
192
 0
VERTEX
 8
CUBO_1
 10
34.7713
 20
-3.042
 30
46.4844
 70
192
 0
VERTEX
 8
CUBO_1
 10
-34.7405
 20
-3.0424
 30
47.4997
 70
192
 0
VERTEX
 8
CUBO_1
 10
37.3986
 20
-1.8263
 30
2.8663
 70
192
 0
VERTEX
 8
CUBO_1
 10
-34.795
 20
-3.4588
 30
2.8663
 70
192
 0
VERTEX
 8
CUBO_1
 10
34.7952
 20
-3.4588
 30
2.8663
 70
192
 0
VERTEX
 8
CUBO_1
 10
-37.3983
 20
-1.8263
 30
2.8663
 70
192
 0
VERTEX
 8
CUBO_1
 10
34.7952
 20
-3.042
 30
2.8663
 70
192
 0
VERTEX
 8
CUBO_1
 10
37.3986
 20
-3.042
 30
46.4844
 70
192
 0
VERTEX
 8
CUBO_1
 10
-34.795
 20
0.1641
 30
47.5391
 70
192
 0
VERTEX
 8
CUBO_1
 10
-37.3983
 20
-3.042
 30
46.4844
 70
192
 0
VERTEX
 8
CUBO_1
 10
-34.7405
 20
-3.042
 30
46.4844
 70
192
 0
VERTEX
 8
CUBO_1
 10
-34.7948
 20
-1.8263
 30
46.4953
 70
192
 0
VERTEX
 8
CUBO_1
 10
34.7951
 20
-1.8263
 30
46.4953
 70
192
 0
VERTEX
 8
CUBO_1
 10
34.7952
 20
-1.8974
 30
2.8663
 70
192
 0
VERTEX
 8
CUBO_1
 10
37.3986
 20
-1.8974
 30
2.8663
 70
192
 0
VERTEX
 8
CUBO_1
 10
-37.3983
 20
-1.8974
 30
2.8663
 70
192
 0
VERTEX
 8
CUBO_1
 10
-37.3983
 20
-1.8974
 30
46.4947
 70
192
 0
VERTEX
 8
CUBO_1
 10
-34.7405
 20
-1.8974
 30
47.4997
 70
192
 0
VERTEX
 8
CUBO_1
 10
34.7713
 20
-1.8974
 30
47.4997
 70
192
 0
VERTEX
 8
CUBO_1
 10
34.7713
 20
-1.8974
 30
46.4844
 70
192
 0
VERTEX
 8
CUBO_1
 10
-37.3983
 20
-1.8974
 30
47.5391
 70
192
 0
VERTEX
 8
CUBO_1
 10
-34.7405
 20
-1.8974
 30
46.4844
 70
192
 0
VERTEX
 8
CUBO_1
 10
37.3986
 20
-1.8974
 30
47.5391
 70
192
 0
VERTEX
 8
CUBO_1
 10
37.3986
 20
-1.8974
 30
46.4947
 70
192
 0
VERTEX
 8
CUBO_1
 10
-34.795
 20
-1.8974
 30
2.8663
 70
192
 0
VERTEX
 8
CUBO_1
 10
34.7937
 20
-1.8974
 30
47.5368
 70
192
 0
VERTEX
 8
CUBO_1
 10
-34.7916
 20
-1.8974
 30
47.5368
 70
192
 0
VERTEX
 8
CUBO_1
 10
34.7952
 20
0.1641
 30
2.3946
 70
192
 0
VERTEX
 8
CUBO_1
 10
34.7952
 20
-1.8263
 30
2.3946
 70
192
 0
VERTEX
 8
CUBO_1
 10
-34.795
 20
-1.8263
 30
2.3946
 70
192
 0
VERTEX
 8
CUBO_1
 10
-34.795
 20
0.1641
 30
2.3946
 70
192
 0
VERTEX
 8
CUBO_1
 10
-34.795
 20
-3.042
 30
2.3946
 70
192
 0
VERTEX
 8
CUBO_1
 10
37.3986
 20
-1.8263
 30
2.3946
 70
192
 0
VERTEX
 8
CUBO_1
 10
-34.795
 20
-3.4588
 30
2.3946
 70
192
 0
VERTEX
 8
CUBO_1
 10
34.7952
 20
-3.4588
 30
2.3946
 70
192
 0
VERTEX
 8
CUBO_1
 10
-37.3983
 20
-1.8263
 30
2.3946
 70
192
 0
VERTEX
 8
CUBO_1
 10
34.7952
 20
-3.042
 30
2.3946
 70
192
 0
VERTEX
 8
CUBO_1
 10
34.7952
 20
-1.8974
 30
2.3946
 70
192
 0
VERTEX
 8
CUBO_1
 10
37.3986
 20
-1.8974
 30
2.3946
 70
192
 0
VERTEX
 8
CUBO_1
 10
-37.3983
 20
-1.8974
 30
2.3946
 70
192
 0
VERTEX
 8
CUBO_1
 10
-34.795
 20
-1.8974
 30
2.3946
 70
192
 0
VERTEX
 8
CUBO_1
 10
34.7952
 20
0.1641
 30
1.4327
 70
192
 0
VERTEX
 8
CUBO_1
 10
34.7952
 20
-1.8263
 30
1.4327
 70
192
 0
VERTEX
 8
CUBO_1
 10
-34.795
 20
-1.8263
 30
1.4327
 70
192
 0
VERTEX
 8
CUBO_1
 10
-34.795
 20
0.1641
 30
1.4327
 70
192
 0
VERTEX
 8
CUBO_1
 10
37.3986
 20
-1.8263
 30
1.4327
 70
192
 0
VERTEX
 8
CUBO_1
 10
-37.3983
 20
-1.8263
 30
1.4327
 70
192
 0
VERTEX
 8
CUBO_1
 10
34.7952
 20
-1.8974
 30
1.4327
 70
192
 0
VERTEX
 8
CUBO_1
 10
37.3986
 20
-1.8974
 30
1.4327
 70
192
 0
VERTEX
 8
CUBO_1
 10
-37.3983
 20
-1.8974
 30
1.4327
 70
192
 0
VERTEX
 8
CUBO_1
 10
-34.795
 20
-1.8974
 30
1.4327
 70
192
 0
VERTEX
 8
CUBO_1
 10
34.7952
 20
0.1641
 30
0.1946
 70
192
 0
VERTEX
 8
CUBO_1
 10
34.7952
 20
-1.8263
 30
0.1946
 70
192
 0
VERTEX
 8
CUBO_1
 10
-34.795
 20
-1.8263
 30
0.1946
 70
192
 0
VERTEX
 8
CUBO_1
 10
-34.795
 20
0.1641
 30
0.1946
 70
192
 0
VERTEX
 8
CUBO_1
 10
37.3986
 20
-1.8263
 30
0.1946
 70
192
 0
VERTEX
 8
CUBO_1
 10
-37.3983
 20
-1.8263
 30
0.1946
 70
192
 0
VERTEX
 8
CUBO_1
 10
34.7952
 20
-1.8974
 30
0.1946
 70
192
 0
VERTEX
 8
CUBO_1
 10
37.3986
 20
-1.8974
 30
0.1946
 70
192
 0
VERTEX
 8
CUBO_1
 10
-37.3983
 20
-1.8974
 30
0.1946
 70
192
 0
VERTEX
 8
CUBO_1
 10
-34.795
 20
-1.8974
 30
0.1946
 70
192
 0
VERTEX
 8
CUBO_1
 10
34.7952
 20
-3.9442
 30
1.4327
 70
192
 0
VERTEX
 8
CUBO_1
 10
37.3986
 20
-3.9442
 30
1.4327
 70
192
 0
VERTEX
 8
CUBO_1
 10
-37.3983
 20
-3.9442
 30
1.4327
 70
192
 0
VERTEX
 8
CUBO_1
 10
-34.795
 20
-3.9442
 30
1.4327
 70
192
 0
VERTEX
 8
CUBO_1
 10
34.7952
 20
-3.9442
 30
0.1946
 70
192
 0
VERTEX
 8
CUBO_1
 10
37.3986
 20
-3.9442
 30
0.1946
 70
192
 0
VERTEX
 8
CUBO_1
 10
-37.3983
 20
-3.9442
 30
0.1946
 70
192
 0
VERTEX
 8
CUBO_1
 10
-34.795
 20
-3.9442
 30
0.1946
 70
192
 0
VERTEX
 8
CUBO_1
 10
34.7951
 20
-1.8263
 30
51.2445
 70
192
 0
VERTEX
 8
CUBO_1
 10
-34.7948
 20
-1.8263
 30
51.2445
 70
192
 0
VERTEX
 8
CUBO_1
 10
34.7952
 20
0.1641
 30
51.2445
 70
192
 0
VERTEX
 8
CUBO_1
 10
-34.795
 20
0.1641
 30
51.2445
 70
192
 0
VERTEX
 8
CUBO_1
 10
0
 20
0
 30
0
 70
128
 71
81
 72
78
 73
83
 74
84
 0
VERTEX
 8
CUBO_1
 10
0
 20
0
 30
0
 70
128
 71
28
 72
12
 73
38
 74
3
 0
VERTEX
 8
CUBO_1
 10
0
 20
0
 30
0
 70
128
 71
95
 72
96
 73
98
 74
97
 0
VERTEX
 8
CUBO_1
 10
0
 20
0
 30
0
 70
128
 71
35
 72
9
 73
27
 74
36
 0
VERTEX
 8
CUBO_1
 10
0
 20
0
 30
0
 70
128
 71
12
 72
13
 73
7
 74
38
 0
VERTEX
 8
CUBO_1
 10
0
 20
0
 30
0
 70
128
 71
35
 72
22
 73
41
 74
42
 0
VERTEX
 8
CUBO_1
 10
0
 20
0
 30
0
 70
128
 71
38
 72
5
 73
1
 74
3
 0
VERTEX
 8
CUBO_1
 10
0
 20
0
 30
0
 70
128
 71
14
 72
37
 73
8
 74
31
 0
VERTEX
 8
CUBO_1
 10
0
 20
0
 30
0
 70
128
 71
18
 72
30
 73
29
 74
24
 0
VERTEX
 8
CUBO_1
 10
0
 20
0
 30
0
 70
128
 71
17
 72
43
 73
44
 74
2
 0
VERTEX
 8
CUBO_1
 10
0
 20
0
 30
0
 70
128
 71
2
 72
44
 73
45
 74
4
 0
VERTEX
 8
CUBO_1
 10
0
 20
0
 30
0
 70
128
 71
15
 72
46
 73
42
 74
8
 0
VERTEX
 8
CUBO_1
 10
0
 20
0
 30
0
 70
128
 71
4
 72
45
 73
47
 74
20
 0
VERTEX
 8
CUBO_1
 10
0
 20
0
 30
0
 70
128
 71
20
 72
47
 73
43
 74
17
 0
VERTEX
 8
CUBO_1
 10
0
 20
0
 30
0
 70
128
 71
33
 72
10
 73
48
 74
49
 0
VERTEX
 8
CUBO_1
 10
0
 20
0
 30
0
 70
128
 71
18
 72
26
 73
32
 74
30
 0
VERTEX
 8
CUBO_1
 10
0
 20
0
 30
0
 70
128
 71
19
 72
10
 73
33
 74
26
 0
VERTEX
 8
CUBO_1
 10
0
 20
0
 30
0
 70
128
 71
21
 72
34
 73
6
 74
5
 0
VERTEX
 8
CUBO_1
 10
0
 20
0
 30
0
 70
128
 71
29
 72
23
 73
36
 74
24
 0
VERTEX
 8
CUBO_1
 10
0
 20
0
 30
0
 70
128
 71
24
 72
36
 73
26
 74
18
 0
VERTEX
 8
CUBO_1
 10
0
 20
0
 30
0
 70
128
 71
22
 72
35
 73
36
 74
23
 0
VERTEX
 8
CUBO_1
 10
0
 20
0
 30
0
 70
128
 71
6
 72
16
 73
1
 74
5
 0
VERTEX
 8
CUBO_1
 10
0
 20
0
 30
0
 70
128
 71
33
 72
25
 73
32
 74
26
 0
VERTEX
 8
CUBO_1
 10
0
 20
0
 30
0
 70
128
 71
25
 72
33
 73
49
 74
40
 0
VERTEX
 8
CUBO_1
 10
0
 20
0
 30
0
 70
128
 71
17
 72
2
 73
4
 74
20
 0
VERTEX
 8
CUBO_1
 10
0
 20
0
 30
0
 70
128
 71
22
 72
23
 73
50
 74
41
 0
VERTEX
 8
CUBO_1
 10
0
 20
0
 30
0
 70
128
 71
13
 72
48
 73
51
 74
7
 0
VERTEX
 8
CUBO_1
 10
0
 20
0
 30
0
 70
128
 71
19
 72
27
 73
52
 74
51
 0
VERTEX
 8
CUBO_1
 10
0
 20
0
 30
0
 70
128
 71
37
 72
11
 73
15
 74
8
 0
VERTEX
 8
CUBO_1
 10
0
 20
0
 30
0
 70
128
 71
37
 72
6
 73
34
 74
11
 0
VERTEX
 8
CUBO_1
 10
0
 20
0
 30
0
 70
128
 71
6
 72
37
 73
14
 74
16
 0
VERTEX
 8
CUBO_1
 10
0
 20
0
 30
0
 70
128
 71
27
 72
9
 73
46
 74
52
 0
VERTEX
 8
CUBO_1
 10
0
 20
0
 30
0
 70
128
 71
21
 72
5
 73
38
 74
7
 0
VERTEX
 8
CUBO_1
 10
0
 20
0
 30
0
 70
128
 71
57
 72
59
 73
60
 74
62
 0
VERTEX
 8
CUBO_1
 10
0
 20
0
 30
0
 70
128
 71
62
 72
63
 73
66
 74
57
 0
VERTEX
 8
CUBO_1
 10
0
 20
0
 30
0
 70
128
 71
78
 72
77
 73
80
 74
79
 0
VERTEX
 8
CUBO_1
 10
0
 20
0
 30
0
 70
128
 71
39
 72
32
 73
25
 74
40
 0
VERTEX
 8
CUBO_1
 10
0
 20
0
 30
0
 70
128
 71
41
 72
31
 73
8
 74
42
 0
VERTEX
 8
CUBO_1
 10
0
 20
0
 30
0
 70
128
 71
43
 72
27
 73
19
 74
44
 0
VERTEX
 8
CUBO_1
 10
0
 20
0
 30
0
 70
128
 71
44
 72
19
 73
26
 74
45
 0
VERTEX
 8
CUBO_1
 10
0
 20
0
 30
0
 70
128
 71
46
 72
9
 73
35
 74
42
 0
VERTEX
 8
CUBO_1
 10
0
 20
0
 30
0
 70
128
 71
45
 72
26
 73
36
 74
47
 0
VERTEX
 8
CUBO_1
 10
0
 20
0
 30
0
 70
128
 71
47
 72
36
 73
27
 74
43
 0
VERTEX
 8
CUBO_1
 10
0
 20
0
 30
0
 70
128
 71
48
 72
13
 73
12
 74
49
 0
VERTEX
 8
CUBO_1
 10
0
 20
0
 30
0
 70
128
 71
49
 72
12
 73
28
 74
40
 0
VERTEX
 8
CUBO_1
 10
0
 20
0
 30
0
 70
128
 71
86
 72
79
 73
82
 74
85
 0
VERTEX
 8
CUBO_1
 10
0
 20
0
 30
0
 70
128
 71
48
 72
10
 73
19
 74
51
 0
VERTEX
 8
CUBO_1
 10
0
 20
0
 30
0
 70
128
 71
52
 72
11
 73
7
 74
51
 0
VERTEX
 8
CUBO_1
 10
0
 20
0
 30
0
 70
128
 71
46
 72
15
 73
11
 74
52
 0
VERTEX
 8
CUBO_1
 10
0
 20
0
 30
0
 70
128
 71
83
 72
78
 73
79
 74
86
 0
VERTEX
 8
CUBO_1
 10
0
 20
0
 30
0
 70
128
 71
28
 72
58
 73
64
 74
40
 0
VERTEX
 8
CUBO_1
 10
0
 20
0
 30
0
 70
128
 71
40
 72
64
 73
63
 74
39
 0
VERTEX
 8
CUBO_1
 10
0
 20
0
 30
0
 70
128
 71
3
 72
54
 73
58
 74
28
 0
VERTEX
 8
CUBO_1
 10
0
 20
0
 30
0
 70
128
 71
32
 72
62
 73
60
 74
30
 0
VERTEX
 8
CUBO_1
 10
0
 20
0
 30
0
 70
128
 71
30
 72
60
 73
59
 74
29
 0
VERTEX
 8
CUBO_1
 10
0
 20
0
 30
0
 70
128
 71
29
 72
59
 73
57
 74
23
 0
VERTEX
 8
CUBO_1
 10
0
 20
0
 30
0
 70
128
 71
23
 72
57
 73
66
 74
50
 0
VERTEX
 8
CUBO_1
 10
0
 20
0
 30
0
 70
128
 71
39
 72
63
 73
62
 74
32
 0
VERTEX
 8
CUBO_1
 10
0
 20
0
 30
0
 70
128
 71
14
 72
55
 73
56
 74
16
 0
VERTEX
 8
CUBO_1
 10
0
 20
0
 30
0
 70
128
 71
16
 72
56
 73
53
 74
1
 0
VERTEX
 8
CUBO_1
 10
0
 20
0
 30
0
 70
128
 71
1
 72
53
 73
54
 74
3
 0
VERTEX
 8
CUBO_1
 10
0
 20
0
 30
0
 70
128
 71
50
 72
66
 73
65
 74
41
 0
VERTEX
 8
CUBO_1
 10
0
 20
0
 30
0
 70
128
 71
41
 72
65
 73
61
 74
31
 0
VERTEX
 8
CUBO_1
 10
0
 20
0
 30
0
 70
128
 71
31
 72
61
 73
55
 74
14
 0
VERTEX
 8
CUBO_1
 10
0
 20
0
 30
0
 70
128
 71
58
 72
71
 73
74
 74
64
 0
VERTEX
 8
CUBO_1
 10
0
 20
0
 30
0
 70
128
 71
64
 72
74
 73
73
 74
63
 0
VERTEX
 8
CUBO_1
 10
0
 20
0
 30
0
 70
128
 71
54
 72
68
 73
71
 74
58
 0
VERTEX
 8
CUBO_1
 10
0
 20
0
 30
0
 70
128
 71
55
 72
69
 73
70
 74
56
 0
VERTEX
 8
CUBO_1
 10
0
 20
0
 30
0
 70
128
 71
56
 72
70
 73
67
 74
53
 0
VERTEX
 8
CUBO_1
 10
0
 20
0
 30
0
 70
128
 71
53
 72
67
 73
68
 74
54
 0
VERTEX
 8
CUBO_1
 10
0
 20
0
 30
0
 70
128
 71
66
 72
76
 73
75
 74
65
 0
VERTEX
 8
CUBO_1
 10
0
 20
0
 30
0
 70
128
 71
65
 72
75
 73
72
 74
61
 0
VERTEX
 8
CUBO_1
 10
0
 20
0
 30
0
 70
128
 71
61
 72
72
 73
69
 74
55
 0
VERTEX
 8
CUBO_1
 10
0
 20
0
 30
0
 70
128
 71
63
 72
73
 73
76
 74
66
 0
VERTEX
 8
CUBO_1
 10
0
 20
0
 30
0
 70
128
 71
71
 72
81
 73
84
 74
74
 0
VERTEX
 8
CUBO_1
 10
0
 20
0
 30
0
 70
128
 71
88
 72
92
 73
91
 74
87
 0
VERTEX
 8
CUBO_1
 10
0
 20
0
 30
0
 70
128
 71
68
 72
78
 73
81
 74
71
 0
VERTEX
 8
CUBO_1
 10
0
 20
0
 30
0
 70
128
 71
69
 72
79
 73
80
 74
70
 0
VERTEX
 8
CUBO_1
 10
0
 20
0
 30
0
 70
128
 71
70
 72
80
 73
77
 74
67
 0
VERTEX
 8
CUBO_1
 10
0
 20
0
 30
0
 70
128
 71
67
 72
77
 73
78
 74
68
 0
VERTEX
 8
CUBO_1
 10
0
 20
0
 30
0
 70
128
 71
90
 72
94
 73
93
 74
89
 0
VERTEX
 8
CUBO_1
 10
0
 20
0
 30
0
 70
128
 71
75
 72
85
 73
82
 74
72
 0
VERTEX
 8
CUBO_1
 10
0
 20
0
 30
0
 70
128
 71
72
 72
82
 73
79
 74
69
 0
VERTEX
 8
CUBO_1
 10
0
 20
0
 30
0
 70
128
 71
87
 72
91
 73
94
 74
90
 0
VERTEX
 8
CUBO_1
 10
0
 20
0
 30
0
 70
128
 71
74
 72
88
 73
87
 74
73
 0
VERTEX
 8
CUBO_1
 10
0
 20
0
 30
0
 70
128
 71
83
 72
91
 73
92
 74
84
 0
VERTEX
 8
CUBO_1
 10
0
 20
0
 30
0
 70
128
 71
84
 72
92
 73
88
 74
74
 0
VERTEX
 8
CUBO_1
 10
0
 20
0
 30
0
 70
128
 71
76
 72
90
 73
89
 74
75
 0
VERTEX
 8
CUBO_1
 10
0
 20
0
 30
0
 70
128
 71
75
 72
89
 73
93
 74
85
 0
VERTEX
 8
CUBO_1
 10
0
 20
0
 30
0
 70
128
 71
85
 72
93
 73
94
 74
86
 0
VERTEX
 8
CUBO_1
 10
0
 20
0
 30
0
 70
128
 71
73
 72
87
 73
90
 74
76
 0
VERTEX
 8
CUBO_1
 10
0
 20
0
 30
0
 70
128
 71
86
 72
94
 73
91
 74
83
 0
VERTEX
 8
CUBO_1
 10
0
 20
0
 30
0
 70
128
 71
7
 72
95
 73
97
 74
21
 0
VERTEX
 8
CUBO_1
 10
0
 20
0
 30
0
 70
128
 71
21
 72
97
 73
98
 74
34
 0
VERTEX
 8
CUBO_1
 10
0
 20
0
 30
0
 70
128
 71
34
 72
98
 73
96
 74
11
 0
VERTEX
 8
CUBO_1
 10
0
 20
0
 30
0
 70
128
 71
11
 72
96
 73
95
 74
7
 0
SEQEND
 0
POLYLINE
 8
FORNO
 66
1
 10
0.0
 20
0.0
 30
0.0
 70
64
 71
34
 72
32
 0
VERTEX
 8
FORNO
 10
-34.1
 20
0.1641
 30
0
 70
192
 0
VERTEX
 8
FORNO
 10
-34.1
 20
0.1641
 30
56.3786
 70
192
 0
VERTEX
 8
FORNO
 10
34.1
 20
0.1641
 30
0
 70
192
 0
VERTEX
 8
FORNO
 10
34.1
 20
0.1641
 30
56.3786
 70
192
 0
VERTEX
 8
FORNO
 10
34.1
 20
51.23
 30
0
 70
192
 0
VERTEX
 8
FORNO
 10
34.1
 20
51.23
 30
48.7707
 70
192
 0
VERTEX
 8
FORNO
 10
-34.1
 20
51.23
 30
0
 70
192
 0
VERTEX
 8
FORNO
 10
-34.1
 20
51.23
 30
48.7707
 70
192
 0
VERTEX
 8
FORNO
 10
-34.1
 20
0.1641
 30
50.8349
 70
192
 0
VERTEX
 8
FORNO
 10
34.1
 20
0.1641
 30
50.8349
 70
192
 0
VERTEX
 8
FORNO
 10
34.1
 20
51.23
 30
43.227
 70
192
 0
VERTEX
 8
FORNO
 10
-34.1
 20
51.23
 30
43.227
 70
192
 0
VERTEX
 8
FORNO
 10
34.1
 20
3.3783
 30
50.8349
 70
192
 0
VERTEX
 8
FORNO
 10
34.1
 20
3.3783
 30
0
 70
192
 0
VERTEX
 8
FORNO
 10
-34.1
 20
3.3783
 30
50.8349
 70
192
 0
VERTEX
 8
FORNO
 10
-34.1
 20
3.3783
 30
0
 70
192
 0
VERTEX
 8
FORNO
 10
-34.1
 20
3.3783
 30
56.3786
 70
192
 0
VERTEX
 8
FORNO
 10
34.1
 20
3.3783
 30
56.3786
 70
192
 0
VERTEX
 8
FORNO
 10
-34.1
 20
38.5484
 30
50.8349
 70
192
 0
VERTEX
 8
FORNO
 10
-34.1
 20
38.5484
 30
0
 70
192
 0
VERTEX
 8
FORNO
 10
34.1
 20
38.5484
 30
0
 70
192
 0
VERTEX
 8
FORNO
 10
-34.1
 20
38.5484
 30
56.3786
 70
192
 0
VERTEX
 8
FORNO
 10
34.1
 20
38.5484
 30
50.8349
 70
192
 0
VERTEX
 8
FORNO
 10
34.1
 20
38.5484
 30
56.3786
 70
192
 0
VERTEX
 8
FORNO
 10
-34.1
 20
-1.8288
 30
56.3786
 70
192
 0
VERTEX
 8
FORNO
 10
34.1
 20
-1.8288
 30
56.3786
 70
192
 0
VERTEX
 8
FORNO
 10
-34.1
 20
-1.8288
 30
50.8349
 70
192
 0
VERTEX
 8
FORNO
 10
34.1
 20
-1.8288
 30
50.8349
 70
192
 0
VERTEX
 8
FORNO
 10
-34.1
 20
0.1641
 30
58.179
 70
192
 0
VERTEX
 8
FORNO
 10
34.1
 20
0.1641
 30
58.179
 70
192
 0
VERTEX
 8
FORNO
 10
-34.1
 20
3.3783
 30
58.179
 70
192
 0
VERTEX
 8
FORNO
 10
34.1
 20
3.3783
 30
58.179
 70
192
 0
VERTEX
 8
FORNO
 10
-34.1
 20
-1.8288
 30
58.179
 70
192
 0
VERTEX
 8
FORNO
 10
34.1
 20
-1.8288
 30
58.179
 70
192
 0
VERTEX
 8
FORNO
 10
0
 20
0
 30
0
 70
128
 71
1
 72
9
 73
10
 74
3
 0
VERTEX
 8
FORNO
 10
0
 20
0
 30
0
 70
128
 71
3
 72
10
 73
13
 74
14
 0
VERTEX
 8
FORNO
 10
0
 20
0
 30
0
 70
128
 71
5
 72
11
 73
12
 74
7
 0
VERTEX
 8
FORNO
 10
0
 20
0
 30
0
 70
128
 71
7
 72
12
 73
19
 74
20
 0
VERTEX
 8
FORNO
 10
0
 20
0
 30
0
 70
128
 71
29
 72
31
 73
32
 74
30
 0
VERTEX
 8
FORNO
 10
0
 20
0
 30
0
 70
128
 71
7
 72
20
 73
21
 74
5
 0
VERTEX
 8
FORNO
 10
0
 20
0
 30
0
 70
128
 71
27
 72
25
 73
26
 74
28
 0
VERTEX
 8
FORNO
 10
0
 20
0
 30
0
 70
128
 71
10
 72
4
 73
18
 74
13
 0
VERTEX
 8
FORNO
 10
0
 20
0
 30
0
 70
128
 71
11
 72
6
 73
8
 74
12
 0
VERTEX
 8
FORNO
 10
0
 20
0
 30
0
 70
128
 71
12
 72
8
 73
22
 74
19
 0
VERTEX
 8
FORNO
 10
0
 20
0
 30
0
 70
128
 71
13
 72
23
 73
21
 74
14
 0
VERTEX
 8
FORNO
 10
0
 20
0
 30
0
 70
128
 71
15
 72
9
 73
1
 74
16
 0
VERTEX
 8
FORNO
 10
0
 20
0
 30
0
 70
128
 71
17
 72
22
 73
24
 74
18
 0
VERTEX
 8
FORNO
 10
0
 20
0
 30
0
 70
128
 71
16
 72
1
 73
3
 74
14
 0
VERTEX
 8
FORNO
 10
0
 20
0
 30
0
 70
128
 71
18
 72
24
 73
23
 74
13
 0
VERTEX
 8
FORNO
 10
0
 20
0
 30
0
 70
128
 71
17
 72
2
 73
9
 74
15
 0
VERTEX
 8
FORNO
 10
0
 20
0
 30
0
 70
128
 71
19
 72
15
 73
16
 74
20
 0
VERTEX
 8
FORNO
 10
0
 20
0
 30
0
 70
128
 71
20
 72
16
 73
14
 74
21
 0
VERTEX
 8
FORNO
 10
0
 20
0
 30
0
 70
128
 71
22
 72
17
 73
15
 74
19
 0
VERTEX
 8
FORNO
 10
0
 20
0
 30
0
 70
128
 71
23
 72
11
 73
5
 74
21
 0
VERTEX
 8
FORNO
 10
0
 20
0
 30
0
 70
128
 71
22
 72
8
 73
6
 74
24
 0
VERTEX
 8
FORNO
 10
0
 20
0
 30
0
 70
128
 71
24
 72
6
 73
11
 74
23
 0
VERTEX
 8
FORNO
 10
0
 20
0
 30
0
 70
128
 71
9
 72
27
 73
28
 74
10
 0
VERTEX
 8
FORNO
 10
0
 20
0
 30
0
 70
128
 71
10
 72
28
 73
26
 74
4
 0
VERTEX
 8
FORNO
 10
0
 20
0
 30
0
 70
128
 71
30
 72
34
 73
33
 74
29
 0
VERTEX
 8
FORNO
 10
0
 20
0
 30
0
 70
128
 71
2
 72
25
 73
27
 74
9
 0
VERTEX
 8
FORNO
 10
0
 20
0
 30
0
 70
128
 71
4
 72
30
 73
32
 74
18
 0
VERTEX
 8
FORNO
 10
0
 20
0
 30
0
 70
128
 71
18
 72
32
 73
31
 74
17
 0
VERTEX
 8
FORNO
 10
0
 20
0
 30
0
 70
128
 71
17
 72
31
 73
29
 74
2
 0
VERTEX
 8
FORNO
 10
0
 20
0
 30
0
 70
128
 71
2
 72
29
 73
33
 74
25
 0
VERTEX
 8
FORNO
 10
0
 20
0
 30
0
 70
128
 71
25
 72
33
 73
34
 74
26
 0
VERTEX
 8
FORNO
 10
0
 20
0
 30
0
 70
128
 71
26
 72
34
 73
30
 74
4
 0
SEQEND
 0
POLYLINE
 8
TACCA_1
 66
1
 10
0.0
 20
0.0
 30
0.0
 70
64
 71
80
 72
80
 0
VERTEX
 8
TACCA_1
 10
-15.1402
 20
-4.802
 30
54.5043
 70
192
 0
VERTEX
 8
TACCA_1
 10
-15.1402
 20
-4.802
 30
55.5471
 70
192
 0
VERTEX
 8
TACCA_1
 10
-15.1402
 20
-4.8036
 30
55.553
 70
192
 0
VERTEX
 8
TACCA_1
 10
-15.1402
 20
-4.8068
 30
55.5559
 70
192
 0
VERTEX
 8
TACCA_1
 10
-15.1402
 20
-4.8128
 30
55.5571
 70
192
 0
VERTEX
 8
TACCA_1
 10
-15.1402
 20
-6.2289
 30
55.5446
 70
192
 0
VERTEX
 8
TACCA_1
 10
-15.1402
 20
-6.2465
 30
55.5385
 70
192
 0
VERTEX
 8
TACCA_1
 10
-15.1402
 20
-6.2584
 30
55.5256
 70
192
 0
VERTEX
 8
TACCA_1
 10
-15.1402
 20
-6.2629
 30
55.5075
 70
192
 0
VERTEX
 8
TACCA_1
 10
-15.1402
 20
-6.2629
 30
54.5043
 70
192
 0
VERTEX
 8
TACCA_1
 10
-15.1264
 20
-6.2829
 30
54.4843
 70
192
 0
VERTEX
 8
TACCA_1
 10
-14.874
 20
-4.782
 30
54.4843
 70
192
 0
VERTEX
 8
TACCA_1
 10
-15.1264
 20
-6.2829
 30
55.5099
 70
192
 0
VERTEX
 8
TACCA_1
 10
-14.874
 20
-6.2829
 30
54.4843
 70
192
 0
VERTEX
 8
TACCA_1
 10
-14.8602
 20
-6.2629
 30
54.5043
 70
192
 0
VERTEX
 8
TACCA_1
 10
-14.8602
 20
-6.2629
 30
55.5075
 70
192
 0
VERTEX
 8
TACCA_1
 10
-14.8602
 20
-6.2584
 30
55.5256
 70
192
 0
VERTEX
 8
TACCA_1
 10
-14.8602
 20
-6.2465
 30
55.5385
 70
192
 0
VERTEX
 8
TACCA_1
 10
-14.8602
 20
-6.2289
 30
55.5446
 70
192
 0
VERTEX
 8
TACCA_1
 10
-14.8602
 20
-4.8128
 30
55.5571
 70
192
 0
VERTEX
 8
TACCA_1
 10
-14.8602
 20
-4.8068
 30
55.5559
 70
192
 0
VERTEX
 8
TACCA_1
 10
-14.8602
 20
-4.8036
 30
55.553
 70
192
 0
VERTEX
 8
TACCA_1
 10
-14.8602
 20
-4.802
 30
55.5471
 70
192
 0
VERTEX
 8
TACCA_1
 10
-14.8602
 20
-4.802
 30
54.5043
 70
192
 0
VERTEX
 8
TACCA_1
 10
-14.874
 20
-4.782
 30
55.5498
 70
192
 0
VERTEX
 8
TACCA_1
 10
-15.1264
 20
-4.782
 30
54.4843
 70
192
 0
VERTEX
 8
TACCA_1
 10
-15.1264
 20
-6.2331
 30
55.5643
 70
192
 0
VERTEX
 8
TACCA_1
 10
-14.874
 20
-6.2578
 30
55.5558
 70
192
 0
VERTEX
 8
TACCA_1
 10
-15.1264
 20
-4.8119
 30
55.5772
 70
192
 0
VERTEX
 8
TACCA_1
 10
-14.874
 20
-6.2331
 30
55.5643
 70
192
 0
VERTEX
 8
TACCA_1
 10
-15.1264
 20
-6.2766
 30
55.5353
 70
192
 0
VERTEX
 8
TACCA_1
 10
-14.874
 20
-6.2829
 30
55.5099
 70
192
 0
VERTEX
 8
TACCA_1
 10
-15.1264
 20
-6.2578
 30
55.5558
 70
192
 0
VERTEX
 8
TACCA_1
 10
-14.874
 20
-6.2766
 30
55.5353
 70
192
 0
VERTEX
 8
TACCA_1
 10
-15.1264
 20
-4.7975
 30
55.5746
 70
192
 0
VERTEX
 8
TACCA_1
 10
-14.874
 20
-4.8119
 30
55.5772
 70
192
 0
VERTEX
 8
TACCA_1
 10
-15.1264
 20
-4.782
 30
55.5498
 70
192
 0
VERTEX
 8
TACCA_1
 10
-14.874
 20
-4.7859
 30
55.5639
 70
192
 0
VERTEX
 8
TACCA_1
 10
-15.1264
 20
-4.7859
 30
55.5639
 70
192
 0
VERTEX
 8
TACCA_1
 10
-14.874
 20
-4.7975
 30
55.5746
 70
192
 0
VERTEX
 8
TACCA_1
 10
-15.1385
 20
-4.7922
 30
54.4945
 70
192
 0
VERTEX
 8
TACCA_1
 10
-15.1332
 20
-4.7846
 30
54.4869
 70
192
 0
VERTEX
 8
TACCA_1
 10
-15.1385
 20
-4.7922
 30
55.5484
 70
192
 0
VERTEX
 8
TACCA_1
 10
-15.1332
 20
-4.7846
 30
55.5495
 70
192
 0
VERTEX
 8
TACCA_1
 10
-15.1385
 20
-4.795
 30
55.5584
 70
192
 0
VERTEX
 8
TACCA_1
 10
-15.1332
 20
-4.7881
 30
55.5625
 70
192
 0
VERTEX
 8
TACCA_1
 10
-15.1385
 20
-4.8023
 30
55.5651
 70
192
 0
VERTEX
 8
TACCA_1
 10
-15.1332
 20
-4.7987
 30
55.5722
 70
192
 0
VERTEX
 8
TACCA_1
 10
-15.1385
 20
-4.8124
 30
55.5669
 70
192
 0
VERTEX
 8
TACCA_1
 10
-15.1332
 20
-4.812
 30
55.5746
 70
192
 0
VERTEX
 8
TACCA_1
 10
-15.1385
 20
-6.231
 30
55.5542
 70
192
 0
VERTEX
 8
TACCA_1
 10
-15.1332
 20
-6.2325
 30
55.5618
 70
192
 0
VERTEX
 8
TACCA_1
 10
-15.1385
 20
-6.2521
 30
55.547
 70
192
 0
VERTEX
 8
TACCA_1
 10
-15.1332
 20
-6.2564
 30
55.5536
 70
192
 0
VERTEX
 8
TACCA_1
 10
-15.1385
 20
-6.2673
 30
55.5303
 70
192
 0
VERTEX
 8
TACCA_1
 10
-15.1332
 20
-6.2743
 30
55.5341
 70
192
 0
VERTEX
 8
TACCA_1
 10
-15.1385
 20
-6.2727
 30
55.5087
 70
192
 0
VERTEX
 8
TACCA_1
 10
-15.1332
 20
-6.2803
 30
55.5096
 70
192
 0
VERTEX
 8
TACCA_1
 10
-15.1385
 20
-6.2727
 30
54.4945
 70
192
 0
VERTEX
 8
TACCA_1
 10
-15.1332
 20
-6.2803
 30
54.4869
 70
192
 0
VERTEX
 8
TACCA_1
 10
-14.8673
 20
-6.2803
 30
54.4869
 70
192
 0
VERTEX
 8
TACCA_1
 10
-14.862
 20
-6.2727
 30
54.4945
 70
192
 0
VERTEX
 8
TACCA_1
 10
-14.8673
 20
-4.7846
 30
54.4869
 70
192
 0
VERTEX
 8
TACCA_1
 10
-14.862
 20
-4.7922
 30
54.4945
 70
192
 0
VERTEX
 8
TACCA_1
 10
-14.8673
 20
-6.2803
 30
55.5096
 70
192
 0
VERTEX
 8
TACCA_1
 10
-14.862
 20
-6.2727
 30
55.5087
 70
192
 0
VERTEX
 8
TACCA_1
 10
-14.862
 20
-6.2673
 30
55.5303
 70
192
 0
VERTEX
 8
TACCA_1
 10
-14.8673
 20
-6.2743
 30
55.5341
 70
192
 0
VERTEX
 8
TACCA_1
 10
-14.862
 20
-6.2521
 30
55.547
 70
192
 0
VERTEX
 8
TACCA_1
 10
-14.8673
 20
-6.2564
 30
55.5536
 70
192
 0
VERTEX
 8
TACCA_1
 10
-14.862
 20
-6.231
 30
55.5542
 70
192
 0
VERTEX
 8
TACCA_1
 10
-14.8673
 20
-6.2325
 30
55.5618
 70
192
 0
VERTEX
 8
TACCA_1
 10
-14.862
 20
-4.8124
 30
55.5669
 70
192
 0
VERTEX
 8
TACCA_1
 10
-14.8673
 20
-4.812
 30
55.5746
 70
192
 0
VERTEX
 8
TACCA_1
 10
-14.862
 20
-4.8023
 30
55.5651
 70
192
 0
VERTEX
 8
TACCA_1
 10
-14.8673
 20
-4.7987
 30
55.5722
 70
192
 0
VERTEX
 8
TACCA_1
 10
-14.862
 20
-4.795
 30
55.5584
 70
192
 0
VERTEX
 8
TACCA_1
 10
-14.8673
 20
-4.7881
 30
55.5625
 70
192
 0
VERTEX
 8
TACCA_1
 10
-14.862
 20
-4.7922
 30
55.5484
 70
192
 0
VERTEX
 8
TACCA_1
 10
-14.8673
 20
-4.7846
 30
55.5495
 70
192
 0
VERTEX
 8
TACCA_1
 10
0
 20
0
 30
0
 70
128
 71
11
 72
13
 73
32
 74
14
 0
VERTEX
 8
TACCA_1
 10
0
 20
0
 30
0
 70
128
 71
19
 72
15
 73
16
 74
18
 0
VERTEX
 8
TACCA_1
 10
0
 20
0
 30
0
 70
128
 71
12
 72
25
 73
37
 74
26
 0
VERTEX
 8
TACCA_1
 10
0
 20
0
 30
0
 70
128
 71
1
 72
2
 73
5
 74
5
 0
VERTEX
 8
TACCA_1
 10
0
 20
0
 30
0
 70
128
 71
27
 72
29
 73
36
 74
30
 0
VERTEX
 8
TACCA_1
 10
0
 20
0
 30
0
 70
128
 71
26
 72
11
 73
14
 74
12
 0
VERTEX
 8
TACCA_1
 10
0
 20
0
 30
0
 70
128
 71
20
 72
21
 73
22
 74
23
 0
VERTEX
 8
TACCA_1
 10
0
 20
0
 30
0
 70
128
 71
16
 72
17
 73
18
 74
18
 0
VERTEX
 8
TACCA_1
 10
0
 20
0
 30
0
 70
128
 71
5
 72
2
 73
3
 74
4
 0
VERTEX
 8
TACCA_1
 10
0
 20
0
 30
0
 70
128
 71
6
 72
7
 73
8
 74
8
 0
VERTEX
 8
TACCA_1
 10
0
 20
0
 30
0
 70
128
 71
13
 72
31
 73
34
 74
32
 0
VERTEX
 8
TACCA_1
 10
0
 20
0
 30
0
 70
128
 71
31
 72
33
 73
28
 74
34
 0
VERTEX
 8
TACCA_1
 10
0
 20
0
 30
0
 70
128
 71
33
 72
27
 73
30
 74
28
 0
VERTEX
 8
TACCA_1
 10
0
 20
0
 30
0
 70
128
 71
20
 72
23
 73
24
 74
24
 0
VERTEX
 8
TACCA_1
 10
0
 20
0
 30
0
 70
128
 71
24
 72
15
 73
19
 74
20
 0
VERTEX
 8
TACCA_1
 10
0
 20
0
 30
0
 70
128
 71
6
 72
8
 73
9
 74
10
 0
VERTEX
 8
TACCA_1
 10
0
 20
0
 30
0
 70
128
 71
1
 72
5
 73
6
 74
10
 0
VERTEX
 8
TACCA_1
 10
0
 20
0
 30
0
 70
128
 71
29
 72
35
 73
40
 74
36
 0
VERTEX
 8
TACCA_1
 10
0
 20
0
 30
0
 70
128
 71
35
 72
39
 73
38
 74
40
 0
VERTEX
 8
TACCA_1
 10
0
 20
0
 30
0
 70
128
 71
39
 72
37
 73
25
 74
38
 0
VERTEX
 8
TACCA_1
 10
0
 20
0
 30
0
 70
128
 71
9
 72
57
 73
59
 74
10
 0
VERTEX
 8
TACCA_1
 10
0
 20
0
 30
0
 70
128
 71
32
 72
65
 73
61
 74
14
 0
VERTEX
 8
TACCA_1
 10
0
 20
0
 30
0
 70
128
 71
30
 72
72
 73
70
 74
28
 0
VERTEX
 8
TACCA_1
 10
0
 20
0
 30
0
 70
128
 71
12
 72
63
 73
80
 74
25
 0
VERTEX
 8
TACCA_1
 10
0
 20
0
 30
0
 70
128
 71
1
 72
41
 73
43
 74
2
 0
VERTEX
 8
TACCA_1
 10
0
 20
0
 30
0
 70
128
 71
5
 72
49
 73
51
 74
6
 0
VERTEX
 8
TACCA_1
 10
0
 20
0
 30
0
 70
128
 71
36
 72
74
 73
72
 74
30
 0
VERTEX
 8
TACCA_1
 10
0
 20
0
 30
0
 70
128
 71
10
 72
59
 73
41
 74
1
 0
VERTEX
 8
TACCA_1
 10
0
 20
0
 30
0
 70
128
 71
14
 72
61
 73
63
 74
12
 0
VERTEX
 8
TACCA_1
 10
0
 20
0
 30
0
 70
128
 71
34
 72
68
 73
65
 74
32
 0
VERTEX
 8
TACCA_1
 10
0
 20
0
 30
0
 70
128
 71
28
 72
70
 73
68
 74
34
 0
VERTEX
 8
TACCA_1
 10
0
 20
0
 30
0
 70
128
 71
6
 72
51
 73
53
 74
7
 0
VERTEX
 8
TACCA_1
 10
0
 20
0
 30
0
 70
128
 71
8
 72
55
 73
57
 74
9
 0
VERTEX
 8
TACCA_1
 10
0
 20
0
 30
0
 70
128
 71
7
 72
53
 73
55
 74
8
 0
VERTEX
 8
TACCA_1
 10
0
 20
0
 30
0
 70
128
 71
40
 72
76
 73
74
 74
36
 0
VERTEX
 8
TACCA_1
 10
0
 20
0
 30
0
 70
128
 71
38
 72
78
 73
76
 74
40
 0
VERTEX
 8
TACCA_1
 10
0
 20
0
 30
0
 70
128
 71
25
 72
80
 73
78
 74
38
 0
VERTEX
 8
TACCA_1
 10
0
 20
0
 30
0
 70
128
 71
2
 72
43
 73
45
 74
3
 0
VERTEX
 8
TACCA_1
 10
0
 20
0
 30
0
 70
128
 71
3
 72
45
 73
47
 74
4
 0
VERTEX
 8
TACCA_1
 10
0
 20
0
 30
0
 70
128
 71
4
 72
47
 73
49
 74
5
 0
VERTEX
 8
TACCA_1
 10
0
 20
0
 30
0
 70
128
 71
57
 72
58
 73
60
 74
59
 0
VERTEX
 8
TACCA_1
 10
0
 20
0
 30
0
 70
128
 71
58
 72
13
 73
11
 74
60
 0
VERTEX
 8
TACCA_1
 10
0
 20
0
 30
0
 70
128
 71
65
 72
66
 73
62
 74
61
 0
VERTEX
 8
TACCA_1
 10
0
 20
0
 30
0
 70
128
 71
66
 72
16
 73
15
 74
62
 0
VERTEX
 8
TACCA_1
 10
0
 20
0
 30
0
 70
128
 71
72
 72
71
 73
69
 74
70
 0
VERTEX
 8
TACCA_1
 10
0
 20
0
 30
0
 70
128
 71
71
 72
19
 73
18
 74
69
 0
VERTEX
 8
TACCA_1
 10
0
 20
0
 30
0
 70
128
 71
63
 72
64
 73
79
 74
80
 0
VERTEX
 8
TACCA_1
 10
0
 20
0
 30
0
 70
128
 71
64
 72
24
 73
23
 74
79
 0
VERTEX
 8
TACCA_1
 10
0
 20
0
 30
0
 70
128
 71
41
 72
42
 73
44
 74
43
 0
VERTEX
 8
TACCA_1
 10
0
 20
0
 30
0
 70
128
 71
42
 72
26
 73
37
 74
44
 0
VERTEX
 8
TACCA_1
 10
0
 20
0
 30
0
 70
128
 71
49
 72
50
 73
52
 74
51
 0
VERTEX
 8
TACCA_1
 10
0
 20
0
 30
0
 70
128
 71
50
 72
29
 73
27
 74
52
 0
VERTEX
 8
TACCA_1
 10
0
 20
0
 30
0
 70
128
 71
74
 72
73
 73
71
 74
72
 0
VERTEX
 8
TACCA_1
 10
0
 20
0
 30
0
 70
128
 71
73
 72
20
 73
19
 74
71
 0
VERTEX
 8
TACCA_1
 10
0
 20
0
 30
0
 70
128
 71
59
 72
60
 73
42
 74
41
 0
VERTEX
 8
TACCA_1
 10
0
 20
0
 30
0
 70
128
 71
60
 72
11
 73
26
 74
42
 0
VERTEX
 8
TACCA_1
 10
0
 20
0
 30
0
 70
128
 71
61
 72
62
 73
64
 74
63
 0
VERTEX
 8
TACCA_1
 10
0
 20
0
 30
0
 70
128
 71
62
 72
15
 73
24
 74
64
 0
VERTEX
 8
TACCA_1
 10
0
 20
0
 30
0
 70
128
 71
68
 72
67
 73
66
 74
65
 0
VERTEX
 8
TACCA_1
 10
0
 20
0
 30
0
 70
128
 71
67
 72
17
 73
16
 74
66
 0
VERTEX
 8
TACCA_1
 10
0
 20
0
 30
0
 70
128
 71
70
 72
69
 73
67
 74
68
 0
VERTEX
 8
TACCA_1
 10
0
 20
0
 30
0
 70
128
 71
69
 72
18
 73
17
 74
67
 0
VERTEX
 8
TACCA_1
 10
0
 20
0
 30
0
 70
128
 71
51
 72
52
 73
54
 74
53
 0
VERTEX
 8
TACCA_1
 10
0
 20
0
 30
0
 70
128
 71
52
 72
27
 73
33
 74
54
 0
VERTEX
 8
TACCA_1
 10
0
 20
0
 30
0
 70
128
 71
55
 72
56
 73
58
 74
57
 0
VERTEX
 8
TACCA_1
 10
0
 20
0
 30
0
 70
128
 71
56
 72
31
 73
13
 74
58
 0
VERTEX
 8
TACCA_1
 10
0
 20
0
 30
0
 70
128
 71
53
 72
54
 73
56
 74
55
 0
VERTEX
 8
TACCA_1
 10
0
 20
0
 30
0
 70
128
 71
54
 72
33
 73
31
 74
56
 0
VERTEX
 8
TACCA_1
 10
0
 20
0
 30
0
 70
128
 71
76
 72
75
 73
73
 74
74
 0
VERTEX
 8
TACCA_1
 10
0
 20
0
 30
0
 70
128
 71
75
 72
21
 73
20
 74
73
 0
VERTEX
 8
TACCA_1
 10
0
 20
0
 30
0
 70
128
 71
78
 72
77
 73
75
 74
76
 0
VERTEX
 8
TACCA_1
 10
0
 20
0
 30
0
 70
128
 71
77
 72
22
 73
21
 74
75
 0
VERTEX
 8
TACCA_1
 10
0
 20
0
 30
0
 70
128
 71
80
 72
79
 73
77
 74
78
 0
VERTEX
 8
TACCA_1
 10
0
 20
0
 30
0
 70
128
 71
79
 72
23
 73
22
 74
77
 0
VERTEX
 8
TACCA_1
 10
0
 20
0
 30
0
 70
128
 71
43
 72
44
 73
46
 74
45
 0
VERTEX
 8
TACCA_1
 10
0
 20
0
 30
0
 70
128
 71
44
 72
37
 73
39
 74
46
 0
VERTEX
 8
TACCA_1
 10
0
 20
0
 30
0
 70
128
 71
45
 72
46
 73
48
 74
47
 0
VERTEX
 8
TACCA_1
 10
0
 20
0
 30
0
 70
128
 71
46
 72
39
 73
35
 74
48
 0
VERTEX
 8
TACCA_1
 10
0
 20
0
 30
0
 70
128
 71
47
 72
48
 73
50
 74
49
 0
VERTEX
 8
TACCA_1
 10
0
 20
0
 30
0
 70
128
 71
48
 72
35
 73
29
 74
50
 0
SEQEND
 0
POLYLINE
 8
CILINDRO_1
 66
1
 10
0.0
 20
0.0
 30
0.0
 70
64
 71
242
 72
280
 0
VERTEX
 8
CILINDRO_1
 10
-15.0002
 20
-3.949
 30
53.2261
 70
192
 0
VERTEX
 8
CILINDRO_1
 10
-15.0002
 20
-6.2326
 30
53.2261
 70
192
 0
VERTEX
 8
CILINDRO_1
 10
-17.2157
 20
-4.4324
 30
53.2261
 70
192
 0
VERTEX
 8
CILINDRO_1
 10
-17.2157
 20
-6.2326
 30
53.2261
 70
192
 0
VERTEX
 8
CILINDRO_1
 10
-17.1885
 20
-4.4324
 30
52.8795
 70
192
 0
VERTEX
 8
CILINDRO_1
 10
-17.1885
 20
-6.2326
 30
52.8795
 70
192
 0
VERTEX
 8
CILINDRO_1
 10
-17.1073
 20
-4.4324
 30
52.5415
 70
192
 0
VERTEX
 8
CILINDRO_1
 10
-17.1073
 20
-6.2326
 30
52.5415
 70
192
 0
VERTEX
 8
CILINDRO_1
 10
-16.9743
 20
-4.4324
 30
52.2203
 70
192
 0
VERTEX
 8
CILINDRO_1
 10
-16.9743
 20
-6.2326
 30
52.2203
 70
192
 0
VERTEX
 8
CILINDRO_1
 10
-16.7926
 20
-4.4324
 30
51.9238
 70
192
 0
VERTEX
 8
CILINDRO_1
 10
-16.7926
 20
-6.2326
 30
51.9238
 70
192
 0
VERTEX
 8
CILINDRO_1
 10
-16.5668
 20
-4.4324
 30
51.6595
 70
192
 0
VERTEX
 8
CILINDRO_1
 10
-16.5668
 20
-6.2326
 30
51.6595
 70
192
 0
VERTEX
 8
CILINDRO_1
 10
-16.3025
 20
-4.4324
 30
51.4337
 70
192
 0
VERTEX
 8
CILINDRO_1
 10
-16.3025
 20
-6.2326
 30
51.4337
 70
192
 0
VERTEX
 8
CILINDRO_1
 10
-16.006
 20
-4.4324
 30
51.2521
 70
192
 0
VERTEX
 8
CILINDRO_1
 10
-16.006
 20
-6.2326
 30
51.2521
 70
192
 0
VERTEX
 8
CILINDRO_1
 10
-15.6849
 20
-4.4324
 30
51.119
 70
192
 0
VERTEX
 8
CILINDRO_1
 10
-15.6849
 20
-6.2326
 30
51.119
 70
192
 0
VERTEX
 8
CILINDRO_1
 10
-15.3468
 20
-4.4324
 30
51.0379
 70
192
 0
VERTEX
 8
CILINDRO_1
 10
-15.3468
 20
-6.2326
 30
51.0379
 70
192
 0
VERTEX
 8
CILINDRO_1
 10
-15.0002
 20
-4.4324
 30
51.0106
 70
192
 0
VERTEX
 8
CILINDRO_1
 10
-15.0002
 20
-6.2326
 30
51.0106
 70
192
 0
VERTEX
 8
CILINDRO_1
 10
-14.6536
 20
-4.4324
 30
51.0379
 70
192
 0
VERTEX
 8
CILINDRO_1
 10
-14.6536
 20
-6.2326
 30
51.0379
 70
192
 0
VERTEX
 8
CILINDRO_1
 10
-14.3156
 20
-4.4324
 30
51.119
 70
192
 0
VERTEX
 8
CILINDRO_1
 10
-14.3156
 20
-6.2326
 30
51.119
 70
192
 0
VERTEX
 8
CILINDRO_1
 10
-13.9944
 20
-4.4324
 30
51.2521
 70
192
 0
VERTEX
 8
CILINDRO_1
 10
-13.9944
 20
-6.2326
 30
51.2521
 70
192
 0
VERTEX
 8
CILINDRO_1
 10
-13.698
 20
-4.4324
 30
51.4337
 70
192
 0
VERTEX
 8
CILINDRO_1
 10
-13.698
 20
-6.2326
 30
51.4337
 70
192
 0
VERTEX
 8
CILINDRO_1
 10
-13.4336
 20
-4.4324
 30
51.6595
 70
192
 0
VERTEX
 8
CILINDRO_1
 10
-13.4336
 20
-6.2326
 30
51.6595
 70
192
 0
VERTEX
 8
CILINDRO_1
 10
-13.2079
 20
-4.4324
 30
51.9238
 70
192
 0
VERTEX
 8
CILINDRO_1
 10
-13.2079
 20
-6.2326
 30
51.9238
 70
192
 0
VERTEX
 8
CILINDRO_1
 10
-13.0262
 20
-4.4324
 30
52.2203
 70
192
 0
VERTEX
 8
CILINDRO_1
 10
-13.0262
 20
-6.2326
 30
52.2203
 70
192
 0
VERTEX
 8
CILINDRO_1
 10
-12.8932
 20
-4.4324
 30
52.5415
 70
192
 0
VERTEX
 8
CILINDRO_1
 10
-12.8932
 20
-6.2326
 30
52.5415
 70
192
 0
VERTEX
 8
CILINDRO_1
 10
-12.812
 20
-4.4324
 30
52.8795
 70
192
 0
VERTEX
 8
CILINDRO_1
 10
-12.812
 20
-6.2326
 30
52.8795
 70
192
 0
VERTEX
 8
CILINDRO_1
 10
-12.7847
 20
-4.4324
 30
53.2261
 70
192
 0
VERTEX
 8
CILINDRO_1
 10
-12.7847
 20
-6.2326
 30
53.2261
 70
192
 0
VERTEX
 8
CILINDRO_1
 10
-12.812
 20
-4.4324
 30
53.5727
 70
192
 0
VERTEX
 8
CILINDRO_1
 10
-12.812
 20
-6.2326
 30
53.5727
 70
192
 0
VERTEX
 8
CILINDRO_1
 10
-12.8932
 20
-4.4324
 30
53.9107
 70
192
 0
VERTEX
 8
CILINDRO_1
 10
-12.8932
 20
-6.2326
 30
53.9107
 70
192
 0
VERTEX
 8
CILINDRO_1
 10
-13.0262
 20
-4.4324
 30
54.2319
 70
192
 0
VERTEX
 8
CILINDRO_1
 10
-13.0262
 20
-6.2326
 30
54.2319
 70
192
 0
VERTEX
 8
CILINDRO_1
 10
-13.2079
 20
-4.4324
 30
54.5283
 70
192
 0
VERTEX
 8
CILINDRO_1
 10
-13.2079
 20
-6.2326
 30
54.5283
 70
192
 0
VERTEX
 8
CILINDRO_1
 10
-13.4336
 20
-4.4324
 30
54.7927
 70
192
 0
VERTEX
 8
CILINDRO_1
 10
-13.4336
 20
-6.2326
 30
54.7927
 70
192
 0
VERTEX
 8
CILINDRO_1
 10
-13.698
 20
-4.4324
 30
55.0185
 70
192
 0
VERTEX
 8
CILINDRO_1
 10
-13.698
 20
-6.2326
 30
55.0185
 70
192
 0
VERTEX
 8
CILINDRO_1
 10
-13.9944
 20
-4.4324
 30
55.2001
 70
192
 0
VERTEX
 8
CILINDRO_1
 10
-13.9944
 20
-6.2326
 30
55.2001
 70
192
 0
VERTEX
 8
CILINDRO_1
 10
-14.3156
 20
-4.4324
 30
55.3331
 70
192
 0
VERTEX
 8
CILINDRO_1
 10
-14.3156
 20
-6.2326
 30
55.3331
 70
192
 0
VERTEX
 8
CILINDRO_1
 10
-14.6536
 20
-4.4324
 30
55.4143
 70
192
 0
VERTEX
 8
CILINDRO_1
 10
-14.6536
 20
-6.2326
 30
55.4143
 70
192
 0
VERTEX
 8
CILINDRO_1
 10
-15.0002
 20
-4.4324
 30
55.4416
 70
192
 0
VERTEX
 8
CILINDRO_1
 10
-15.0002
 20
-6.2326
 30
55.4416
 70
192
 0
VERTEX
 8
CILINDRO_1
 10
-15.3468
 20
-4.4324
 30
55.4143
 70
192
 0
VERTEX
 8
CILINDRO_1
 10
-15.3468
 20
-6.2326
 30
55.4143
 70
192
 0
VERTEX
 8
CILINDRO_1
 10
-15.6849
 20
-4.4324
 30
55.3331
 70
192
 0
VERTEX
 8
CILINDRO_1
 10
-15.6849
 20
-6.2326
 30
55.3331
 70
192
 0
VERTEX
 8
CILINDRO_1
 10
-16.006
 20
-4.4324
 30
55.2001
 70
192
 0
VERTEX
 8
CILINDRO_1
 10
-16.006
 20
-6.2326
 30
55.2001
 70
192
 0
VERTEX
 8
CILINDRO_1
 10
-16.3025
 20
-4.4324
 30
55.0185
 70
192
 0
VERTEX
 8
CILINDRO_1
 10
-16.3025
 20
-6.2326
 30
55.0185
 70
192
 0
VERTEX
 8
CILINDRO_1
 10
-16.5668
 20
-4.4324
 30
54.7927
 70
192
 0
VERTEX
 8
CILINDRO_1
 10
-16.5668
 20
-6.2326
 30
54.7927
 70
192
 0
VERTEX
 8
CILINDRO_1
 10
-16.7926
 20
-4.4324
 30
54.5283
 70
192
 0
VERTEX
 8
CILINDRO_1
 10
-16.7926
 20
-6.2326
 30
54.5283
 70
192
 0
VERTEX
 8
CILINDRO_1
 10
-16.9743
 20
-4.4324
 30
54.2319
 70
192
 0
VERTEX
 8
CILINDRO_1
 10
-16.9743
 20
-6.2326
 30
54.2319
 70
192
 0
VERTEX
 8
CILINDRO_1
 10
-17.1073
 20
-4.4324
 30
53.9107
 70
192
 0
VERTEX
 8
CILINDRO_1
 10
-17.1073
 20
-6.2326
 30
53.9107
 70
192
 0
VERTEX
 8
CILINDRO_1
 10
-17.1885
 20
-4.4324
 30
53.5727
 70
192
 0
VERTEX
 8
CILINDRO_1
 10
-17.1885
 20
-6.2326
 30
53.5727
 70
192
 0
VERTEX
 8
CILINDRO_1
 10
-17.0051
 20
-4.4324
 30
53.2261
 70
192
 0
VERTEX
 8
CILINDRO_1
 10
-16.9804
 20
-4.4324
 30
52.9125
 70
192
 0
VERTEX
 8
CILINDRO_1
 10
-16.907
 20
-4.4324
 30
52.6065
 70
192
 0
VERTEX
 8
CILINDRO_1
 10
-16.7866
 20
-4.4324
 30
52.3159
 70
192
 0
VERTEX
 8
CILINDRO_1
 10
-16.6222
 20
-4.4324
 30
52.0477
 70
192
 0
VERTEX
 8
CILINDRO_1
 10
-16.4179
 20
-4.4324
 30
51.8084
 70
192
 0
VERTEX
 8
CILINDRO_1
 10
-16.1787
 20
-4.4324
 30
51.6041
 70
192
 0
VERTEX
 8
CILINDRO_1
 10
-15.9104
 20
-4.4324
 30
51.4397
 70
192
 0
VERTEX
 8
CILINDRO_1
 10
-15.6198
 20
-4.4324
 30
51.3194
 70
192
 0
VERTEX
 8
CILINDRO_1
 10
-15.3139
 20
-4.4324
 30
51.2459
 70
192
 0
VERTEX
 8
CILINDRO_1
 10
-15.0002
 20
-4.4324
 30
51.2212
 70
192
 0
VERTEX
 8
CILINDRO_1
 10
-14.6866
 20
-4.4324
 30
51.2459
 70
192
 0
VERTEX
 8
CILINDRO_1
 10
-14.3807
 20
-4.4324
 30
51.3194
 70
192
 0
VERTEX
 8
CILINDRO_1
 10
-14.09
 20
-4.4324
 30
51.4397
 70
192
 0
VERTEX
 8
CILINDRO_1
 10
-13.8218
 20
-4.4324
 30
51.6041
 70
192
 0
VERTEX
 8
CILINDRO_1
 10
-13.5826
 20
-4.4324
 30
51.8084
 70
192
 0
VERTEX
 8
CILINDRO_1
 10
-13.3783
 20
-4.4324
 30
52.0477
 70
192
 0
VERTEX
 8
CILINDRO_1
 10
-13.2139
 20
-4.4324
 30
52.3159
 70
192
 0
VERTEX
 8
CILINDRO_1
 10
-13.0935
 20
-4.4324
 30
52.6065
 70
192
 0
VERTEX
 8
CILINDRO_1
 10
-13.0201
 20
-4.4324
 30
52.9125
 70
192
 0
VERTEX
 8
CILINDRO_1
 10
-12.9954
 20
-4.4324
 30
53.2261
 70
192
 0
VERTEX
 8
CILINDRO_1
 10
-13.0201
 20
-4.4324
 30
53.5397
 70
192
 0
VERTEX
 8
CILINDRO_1
 10
-13.0935
 20
-4.4324
 30
53.8456
 70
192
 0
VERTEX
 8
CILINDRO_1
 10
-13.2139
 20
-4.4324
 30
54.1363
 70
192
 0
VERTEX
 8
CILINDRO_1
 10
-13.3783
 20
-4.4324
 30
54.4045
 70
192
 0
VERTEX
 8
CILINDRO_1
 10
-13.5826
 20
-4.4324
 30
54.6437
 70
192
 0
VERTEX
 8
CILINDRO_1
 10
-13.8218
 20
-4.4324
 30
54.848
 70
192
 0
VERTEX
 8
CILINDRO_1
 10
-14.09
 20
-4.4324
 30
55.0124
 70
192
 0
VERTEX
 8
CILINDRO_1
 10
-14.3807
 20
-4.4324
 30
55.1328
 70
192
 0
VERTEX
 8
CILINDRO_1
 10
-14.6866
 20
-4.4324
 30
55.2062
 70
192
 0
VERTEX
 8
CILINDRO_1
 10
-15.0002
 20
-4.4324
 30
55.2309
 70
192
 0
VERTEX
 8
CILINDRO_1
 10
-15.3139
 20
-4.4324
 30
55.2062
 70
192
 0
VERTEX
 8
CILINDRO_1
 10
-15.6198
 20
-4.4324
 30
55.1328
 70
192
 0
VERTEX
 8
CILINDRO_1
 10
-15.9104
 20
-4.4324
 30
55.0124
 70
192
 0
VERTEX
 8
CILINDRO_1
 10
-16.1787
 20
-4.4324
 30
54.848
 70
192
 0
VERTEX
 8
CILINDRO_1
 10
-16.4179
 20
-4.4324
 30
54.6437
 70
192
 0
VERTEX
 8
CILINDRO_1
 10
-16.6222
 20
-4.4324
 30
54.4045
 70
192
 0
VERTEX
 8
CILINDRO_1
 10
-16.7866
 20
-4.4324
 30
54.1363
 70
192
 0
VERTEX
 8
CILINDRO_1
 10
-16.907
 20
-4.4324
 30
53.8456
 70
192
 0
VERTEX
 8
CILINDRO_1
 10
-16.9804
 20
-4.4324
 30
53.5397
 70
192
 0
VERTEX
 8
CILINDRO_1
 10
-17.0051
 20
-4.0812
 30
53.2261
 70
192
 0
VERTEX
 8
CILINDRO_1
 10
-16.9804
 20
-4.0812
 30
52.9125
 70
192
 0
VERTEX
 8
CILINDRO_1
 10
-16.907
 20
-4.0812
 30
52.6065
 70
192
 0
VERTEX
 8
CILINDRO_1
 10
-16.7866
 20
-4.0812
 30
52.3159
 70
192
 0
VERTEX
 8
CILINDRO_1
 10
-16.6222
 20
-4.0812
 30
52.0477
 70
192
 0
VERTEX
 8
CILINDRO_1
 10
-16.4179
 20
-4.0812
 30
51.8084
 70
192
 0
VERTEX
 8
CILINDRO_1
 10
-16.1787
 20
-4.0812
 30
51.6041
 70
192
 0
VERTEX
 8
CILINDRO_1
 10
-15.9104
 20
-4.0812
 30
51.4397
 70
192
 0
VERTEX
 8
CILINDRO_1
 10
-15.6198
 20
-4.0812
 30
51.3194
 70
192
 0
VERTEX
 8
CILINDRO_1
 10
-15.3139
 20
-4.0812
 30
51.2459
 70
192
 0
VERTEX
 8
CILINDRO_1
 10
-15.0002
 20
-4.0812
 30
51.2212
 70
192
 0
VERTEX
 8
CILINDRO_1
 10
-14.6866
 20
-4.0812
 30
51.2459
 70
192
 0
VERTEX
 8
CILINDRO_1
 10
-14.3807
 20
-4.0812
 30
51.3194
 70
192
 0
VERTEX
 8
CILINDRO_1
 10
-14.09
 20
-4.0812
 30
51.4397
 70
192
 0
VERTEX
 8
CILINDRO_1
 10
-13.8218
 20
-4.0812
 30
51.6041
 70
192
 0
VERTEX
 8
CILINDRO_1
 10
-13.5826
 20
-4.0812
 30
51.8084
 70
192
 0
VERTEX
 8
CILINDRO_1
 10
-13.3783
 20
-4.0812
 30
52.0477
 70
192
 0
VERTEX
 8
CILINDRO_1
 10
-13.2139
 20
-4.0812
 30
52.3159
 70
192
 0
VERTEX
 8
CILINDRO_1
 10
-13.0935
 20
-4.0812
 30
52.6065
 70
192
 0
VERTEX
 8
CILINDRO_1
 10
-13.0201
 20
-4.0812
 30
52.9125
 70
192
 0
VERTEX
 8
CILINDRO_1
 10
-12.9954
 20
-4.0812
 30
53.2261
 70
192
 0
VERTEX
 8
CILINDRO_1
 10
-13.0201
 20
-4.0812
 30
53.5397
 70
192
 0
VERTEX
 8
CILINDRO_1
 10
-13.0935
 20
-4.0812
 30
53.8456
 70
192
 0
VERTEX
 8
CILINDRO_1
 10
-13.2139
 20
-4.0812
 30
54.1363
 70
192
 0
VERTEX
 8
CILINDRO_1
 10
-13.3783
 20
-4.0812
 30
54.4045
 70
192
 0
VERTEX
 8
CILINDRO_1
 10
-13.5826
 20
-4.0812
 30
54.6437
 70
192
 0
VERTEX
 8
CILINDRO_1
 10
-13.8218
 20
-4.0812
 30
54.848
 70
192
 0
VERTEX
 8
CILINDRO_1
 10
-14.09
 20
-4.0812
 30
55.0124
 70
192
 0
VERTEX
 8
CILINDRO_1
 10
-14.3807
 20
-4.0812
 30
55.1328
 70
192
 0
VERTEX
 8
CILINDRO_1
 10
-14.6866
 20
-4.0812
 30
55.2062
 70
192
 0
VERTEX
 8
CILINDRO_1
 10
-15.0002
 20
-4.0812
 30
55.2309
 70
192
 0
VERTEX
 8
CILINDRO_1
 10
-15.3139
 20
-4.0812
 30
55.2062
 70
192
 0
VERTEX
 8
CILINDRO_1
 10
-15.6198
 20
-4.0812
 30
55.1328
 70
192
 0
VERTEX
 8
CILINDRO_1
 10
-15.9104
 20
-4.0812
 30
55.0124
 70
192
 0
VERTEX
 8
CILINDRO_1
 10
-16.1787
 20
-4.0812
 30
54.848
 70
192
 0
VERTEX
 8
CILINDRO_1
 10
-16.4179
 20
-4.0812
 30
54.6437
 70
192
 0
VERTEX
 8
CILINDRO_1
 10
-16.6222
 20
-4.0812
 30
54.4045
 70
192
 0
VERTEX
 8
CILINDRO_1
 10
-16.7866
 20
-4.0812
 30
54.1363
 70
192
 0
VERTEX
 8
CILINDRO_1
 10
-16.907
 20
-4.0812
 30
53.8456
 70
192
 0
VERTEX
 8
CILINDRO_1
 10
-16.9804
 20
-4.0812
 30
53.5397
 70
192
 0
VERTEX
 8
CILINDRO_1
 10
-17.2002
 20
-4.343
 30
53.2261
 70
192
 0
VERTEX
 8
CILINDRO_1
 10
-17.1731
 20
-4.343
 30
52.8819
 70
192
 0
VERTEX
 8
CILINDRO_1
 10
-17.0925
 20
-4.343
 30
52.5463
 70
192
 0
VERTEX
 8
CILINDRO_1
 10
-16.9604
 20
-4.343
 30
52.2273
 70
192
 0
VERTEX
 8
CILINDRO_1
 10
-16.78
 20
-4.343
 30
51.933
 70
192
 0
VERTEX
 8
CILINDRO_1
 10
-16.5558
 20
-4.343
 30
51.6705
 70
192
 0
VERTEX
 8
CILINDRO_1
 10
-16.2933
 20
-4.343
 30
51.4463
 70
192
 0
VERTEX
 8
CILINDRO_1
 10
-15.999
 20
-4.343
 30
51.2659
 70
192
 0
VERTEX
 8
CILINDRO_1
 10
-15.6801
 20
-4.343
 30
51.1338
 70
192
 0
VERTEX
 8
CILINDRO_1
 10
-15.3444
 20
-4.343
 30
51.0532
 70
192
 0
VERTEX
 8
CILINDRO_1
 10
-15.0002
 20
-4.343
 30
51.0261
 70
192
 0
VERTEX
 8
CILINDRO_1
 10
-14.6561
 20
-4.343
 30
51.0532
 70
192
 0
VERTEX
 8
CILINDRO_1
 10
-14.3204
 20
-4.343
 30
51.1338
 70
192
 0
VERTEX
 8
CILINDRO_1
 10
-14.0015
 20
-4.343
 30
51.2659
 70
192
 0
VERTEX
 8
CILINDRO_1
 10
-13.7071
 20
-4.343
 30
51.4463
 70
192
 0
VERTEX
 8
CILINDRO_1
 10
-13.4446
 20
-4.343
 30
51.6705
 70
192
 0
VERTEX
 8
CILINDRO_1
 10
-13.2204
 20
-4.343
 30
51.933
 70
192
 0
VERTEX
 8
CILINDRO_1
 10
-13.0401
 20
-4.343
 30
52.2273
 70
192
 0
VERTEX
 8
CILINDRO_1
 10
-12.908
 20
-4.343
 30
52.5463
 70
192
 0
VERTEX
 8
CILINDRO_1
 10
-12.8274
 20
-4.343
 30
52.8819
 70
192
 0
VERTEX
 8
CILINDRO_1
 10
-12.8003
 20
-4.343
 30
53.2261
 70
192
 0
VERTEX
 8
CILINDRO_1
 10
-12.8274
 20
-4.343
 30
53.5702
 70
192
 0
VERTEX
 8
CILINDRO_1
 10
-12.908
 20
-4.343
 30
53.9059
 70
192
 0
VERTEX
 8
CILINDRO_1
 10
-13.0401
 20
-4.343
 30
54.2248
 70
192
 0
VERTEX
 8
CILINDRO_1
 10
-13.2204
 20
-4.343
 30
54.5192
 70
192
 0
VERTEX
 8
CILINDRO_1
 10
-13.4446
 20
-4.343
 30
54.7817
 70
192
 0
VERTEX
 8
CILINDRO_1
 10
-13.7071
 20
-4.343
 30
55.0059
 70
192
 0
VERTEX
 8
CILINDRO_1
 10
-14.0015
 20
-4.343
 30
55.1863
 70
192
 0
VERTEX
 8
CILINDRO_1
 10
-14.3204
 20
-4.343
 30
55.3184
 70
192
 0
VERTEX
 8
CILINDRO_1
 10
-14.6561
 20
-4.343
 30
55.3989
 70
192
 0
VERTEX
 8
CILINDRO_1
 10
-15.0002
 20
-4.343
 30
55.426
 70
192
 0
VERTEX
 8
CILINDRO_1
 10
-15.3444
 20
-4.343
 30
55.3989
 70
192
 0
VERTEX
 8
CILINDRO_1
 10
-15.6801
 20
-4.343
 30
55.3184
 70
192
 0
VERTEX
 8
CILINDRO_1
 10
-15.999
 20
-4.343
 30
55.1863
 70
192
 0
VERTEX
 8
CILINDRO_1
 10
-16.2933
 20
-4.343
 30
55.0059
 70
192
 0
VERTEX
 8
CILINDRO_1
 10
-16.5558
 20
-4.343
 30
54.7817
 70
192
 0
VERTEX
 8
CILINDRO_1
 10
-16.78
 20
-4.343
 30
54.5192
 70
192
 0
VERTEX
 8
CILINDRO_1
 10
-16.9604
 20
-4.343
 30
54.2248
 70
192
 0
VERTEX
 8
CILINDRO_1
 10
-17.0925
 20
-4.343
 30
53.9059
 70
192
 0
VERTEX
 8
CILINDRO_1
 10
-17.1731
 20
-4.343
 30
53.5702
 70
192
 0
VERTEX
 8
CILINDRO_1
 10
-17.2002
 20
-3.949
 30
53.2261
 70
192
 0
VERTEX
 8
CILINDRO_1
 10
-17.1731
 20
-3.949
 30
52.8819
 70
192
 0
VERTEX
 8
CILINDRO_1
 10
-17.0925
 20
-3.949
 30
52.5463
 70
192
 0
VERTEX
 8
CILINDRO_1
 10
-16.9604
 20
-3.949
 30
52.2273
 70
192
 0
VERTEX
 8
CILINDRO_1
 10
-16.78
 20
-3.949
 30
51.933
 70
192
 0
VERTEX
 8
CILINDRO_1
 10
-16.5558
 20
-3.949
 30
51.6705
 70
192
 0
VERTEX
 8
CILINDRO_1
 10
-16.2933
 20
-3.949
 30
51.4463
 70
192
 0
VERTEX
 8
CILINDRO_1
 10
-15.999
 20
-3.949
 30
51.2659
 70
192
 0
VERTEX
 8
CILINDRO_1
 10
-15.6801
 20
-3.949
 30
51.1338
 70
192
 0
VERTEX
 8
CILINDRO_1
 10
-15.3444
 20
-3.949
 30
51.0532
 70
192
 0
VERTEX
 8
CILINDRO_1
 10
-15.0002
 20
-3.949
 30
51.0261
 70
192
 0
VERTEX
 8
CILINDRO_1
 10
-14.6561
 20
-3.949
 30
51.0532
 70
192
 0
VERTEX
 8
CILINDRO_1
 10
-14.3204
 20
-3.949
 30
51.1338
 70
192
 0
VERTEX
 8
CILINDRO_1
 10
-14.0015
 20
-3.949
 30
51.2659
 70
192
 0
VERTEX
 8
CILINDRO_1
 10
-13.7071
 20
-3.949
 30
51.4463
 70
192
 0
VERTEX
 8
CILINDRO_1
 10
-13.4446
 20
-3.949
 30
51.6705
 70
192
 0
VERTEX
 8
CILINDRO_1
 10
-13.2204
 20
-3.949
 30
51.933
 70
192
 0
VERTEX
 8
CILINDRO_1
 10
-13.0401
 20
-3.949
 30
52.2273
 70
192
 0
VERTEX
 8
CILINDRO_1
 10
-12.908
 20
-3.949
 30
52.5463
 70
192
 0
VERTEX
 8
CILINDRO_1
 10
-12.8274
 20
-3.949
 30
52.8819
 70
192
 0
VERTEX
 8
CILINDRO_1
 10
-12.8003
 20
-3.949
 30
53.2261
 70
192
 0
VERTEX
 8
CILINDRO_1
 10
-12.8274
 20
-3.949
 30
53.5702
 70
192
 0
VERTEX
 8
CILINDRO_1
 10
-12.908
 20
-3.949
 30
53.9059
 70
192
 0
VERTEX
 8
CILINDRO_1
 10
-13.0401
 20
-3.949
 30
54.2248
 70
192
 0
VERTEX
 8
CILINDRO_1
 10
-13.2204
 20
-3.949
 30
54.5192
 70
192
 0
VERTEX
 8
CILINDRO_1
 10
-13.4446
 20
-3.949
 30
54.7817
 70
192
 0
VERTEX
 8
CILINDRO_1
 10
-13.7071
 20
-3.949
 30
55.0059
 70
192
 0
VERTEX
 8
CILINDRO_1
 10
-14.0015
 20
-3.949
 30
55.1863
 70
192
 0
VERTEX
 8
CILINDRO_1
 10
-14.3204
 20
-3.949
 30
55.3184
 70
192
 0
VERTEX
 8
CILINDRO_1
 10
-14.6561
 20
-3.949
 30
55.3989
 70
192
 0
VERTEX
 8
CILINDRO_1
 10
-15.0002
 20
-3.949
 30
55.426
 70
192
 0
VERTEX
 8
CILINDRO_1
 10
-15.3444
 20
-3.949
 30
55.3989
 70
192
 0
VERTEX
 8
CILINDRO_1
 10
-15.6801
 20
-3.949
 30
55.3184
 70
192
 0
VERTEX
 8
CILINDRO_1
 10
-15.999
 20
-3.949
 30
55.1863
 70
192
 0
VERTEX
 8
CILINDRO_1
 10
-16.2933
 20
-3.949
 30
55.0059
 70
192
 0
VERTEX
 8
CILINDRO_1
 10
-16.5558
 20
-3.949
 30
54.7817
 70
192
 0
VERTEX
 8
CILINDRO_1
 10
-16.78
 20
-3.949
 30
54.5192
 70
192
 0
VERTEX
 8
CILINDRO_1
 10
-16.9604
 20
-3.949
 30
54.2248
 70
192
 0
VERTEX
 8
CILINDRO_1
 10
-17.0925
 20
-3.949
 30
53.9059
 70
192
 0
VERTEX
 8
CILINDRO_1
 10
-17.1731
 20
-3.949
 30
53.5702
 70
192
 0
VERTEX
 8
CILINDRO_1
 10
0
 20
0
 30
0
 70
128
 71
1
 72
203
 73
204
 74
204
 0
VERTEX
 8
CILINDRO_1
 10
0
 20
0
 30
0
 70
128
 71
3
 72
4
 73
6
 74
5
 0
VERTEX
 8
CILINDRO_1
 10
0
 20
0
 30
0
 70
128
 71
4
 72
2
 73
6
 74
6
 0
VERTEX
 8
CILINDRO_1
 10
0
 20
0
 30
0
 70
128
 71
1
 72
204
 73
205
 74
205
 0
VERTEX
 8
CILINDRO_1
 10
0
 20
0
 30
0
 70
128
 71
5
 72
6
 73
8
 74
7
 0
VERTEX
 8
CILINDRO_1
 10
0
 20
0
 30
0
 70
128
 71
6
 72
2
 73
8
 74
8
 0
VERTEX
 8
CILINDRO_1
 10
0
 20
0
 30
0
 70
128
 71
1
 72
205
 73
206
 74
206
 0
VERTEX
 8
CILINDRO_1
 10
0
 20
0
 30
0
 70
128
 71
7
 72
8
 73
10
 74
9
 0
VERTEX
 8
CILINDRO_1
 10
0
 20
0
 30
0
 70
128
 71
8
 72
2
 73
10
 74
10
 0
VERTEX
 8
CILINDRO_1
 10
0
 20
0
 30
0
 70
128
 71
1
 72
206
 73
207
 74
207
 0
VERTEX
 8
CILINDRO_1
 10
0
 20
0
 30
0
 70
128
 71
9
 72
10
 73
12
 74
11
 0
VERTEX
 8
CILINDRO_1
 10
0
 20
0
 30
0
 70
128
 71
10
 72
2
 73
12
 74
12
 0
VERTEX
 8
CILINDRO_1
 10
0
 20
0
 30
0
 70
128
 71
1
 72
207
 73
208
 74
208
 0
VERTEX
 8
CILINDRO_1
 10
0
 20
0
 30
0
 70
128
 71
11
 72
12
 73
14
 74
13
 0
VERTEX
 8
CILINDRO_1
 10
0
 20
0
 30
0
 70
128
 71
12
 72
2
 73
14
 74
14
 0
VERTEX
 8
CILINDRO_1
 10
0
 20
0
 30
0
 70
128
 71
1
 72
208
 73
209
 74
209
 0
VERTEX
 8
CILINDRO_1
 10
0
 20
0
 30
0
 70
128
 71
13
 72
14
 73
16
 74
15
 0
VERTEX
 8
CILINDRO_1
 10
0
 20
0
 30
0
 70
128
 71
14
 72
2
 73
16
 74
16
 0
VERTEX
 8
CILINDRO_1
 10
0
 20
0
 30
0
 70
128
 71
1
 72
209
 73
210
 74
210
 0
VERTEX
 8
CILINDRO_1
 10
0
 20
0
 30
0
 70
128
 71
15
 72
16
 73
18
 74
17
 0
VERTEX
 8
CILINDRO_1
 10
0
 20
0
 30
0
 70
128
 71
16
 72
2
 73
18
 74
18
 0
VERTEX
 8
CILINDRO_1
 10
0
 20
0
 30
0
 70
128
 71
1
 72
210
 73
211
 74
211
 0
VERTEX
 8
CILINDRO_1
 10
0
 20
0
 30
0
 70
128
 71
17
 72
18
 73
20
 74
19
 0
VERTEX
 8
CILINDRO_1
 10
0
 20
0
 30
0
 70
128
 71
18
 72
2
 73
20
 74
20
 0
VERTEX
 8
CILINDRO_1
 10
0
 20
0
 30
0
 70
128
 71
1
 72
211
 73
212
 74
212
 0
VERTEX
 8
CILINDRO_1
 10
0
 20
0
 30
0
 70
128
 71
19
 72
20
 73
22
 74
21
 0
VERTEX
 8
CILINDRO_1
 10
0
 20
0
 30
0
 70
128
 71
20
 72
2
 73
22
 74
22
 0
VERTEX
 8
CILINDRO_1
 10
0
 20
0
 30
0
 70
128
 71
1
 72
212
 73
213
 74
213
 0
VERTEX
 8
CILINDRO_1
 10
0
 20
0
 30
0
 70
128
 71
21
 72
22
 73
24
 74
23
 0
VERTEX
 8
CILINDRO_1
 10
0
 20
0
 30
0
 70
128
 71
22
 72
2
 73
24
 74
24
 0
VERTEX
 8
CILINDRO_1
 10
0
 20
0
 30
0
 70
128
 71
1
 72
213
 73
214
 74
214
 0
VERTEX
 8
CILINDRO_1
 10
0
 20
0
 30
0
 70
128
 71
23
 72
24
 73
26
 74
25
 0
VERTEX
 8
CILINDRO_1
 10
0
 20
0
 30
0
 70
128
 71
24
 72
2
 73
26
 74
26
 0
VERTEX
 8
CILINDRO_1
 10
0
 20
0
 30
0
 70
128
 71
1
 72
214
 73
215
 74
215
 0
VERTEX
 8
CILINDRO_1
 10
0
 20
0
 30
0
 70
128
 71
25
 72
26
 73
28
 74
27
 0
VERTEX
 8
CILINDRO_1
 10
0
 20
0
 30
0
 70
128
 71
26
 72
2
 73
28
 74
28
 0
VERTEX
 8
CILINDRO_1
 10
0
 20
0
 30
0
 70
128
 71
1
 72
215
 73
216
 74
216
 0
VERTEX
 8
CILINDRO_1
 10
0
 20
0
 30
0
 70
128
 71
27
 72
28
 73
30
 74
29
 0
VERTEX
 8
CILINDRO_1
 10
0
 20
0
 30
0
 70
128
 71
28
 72
2
 73
30
 74
30
 0
VERTEX
 8
CILINDRO_1
 10
0
 20
0
 30
0
 70
128
 71
1
 72
216
 73
217
 74
217
 0
VERTEX
 8
CILINDRO_1
 10
0
 20
0
 30
0
 70
128
 71
29
 72
30
 73
32
 74
31
 0
VERTEX
 8
CILINDRO_1
 10
0
 20
0
 30
0
 70
128
 71
30
 72
2
 73
32
 74
32
 0
VERTEX
 8
CILINDRO_1
 10
0
 20
0
 30
0
 70
128
 71
1
 72
217
 73
218
 74
218
 0
VERTEX
 8
CILINDRO_1
 10
0
 20
0
 30
0
 70
128
 71
31
 72
32
 73
34
 74
33
 0
VERTEX
 8
CILINDRO_1
 10
0
 20
0
 30
0
 70
128
 71
32
 72
2
 73
34
 74
34
 0
VERTEX
 8
CILINDRO_1
 10
0
 20
0
 30
0
 70
128
 71
1
 72
218
 73
219
 74
219
 0
VERTEX
 8
CILINDRO_1
 10
0
 20
0
 30
0
 70
128
 71
33
 72
34
 73
36
 74
35
 0
VERTEX
 8
CILINDRO_1
 10
0
 20
0
 30
0
 70
128
 71
34
 72
2
 73
36
 74
36
 0
VERTEX
 8
CILINDRO_1
 10
0
 20
0
 30
0
 70
128
 71
1
 72
219
 73
220
 74
220
 0
VERTEX
 8
CILINDRO_1
 10
0
 20
0
 30
0
 70
128
 71
35
 72
36
 73
38
 74
37
 0
VERTEX
 8
CILINDRO_1
 10
0
 20
0
 30
0
 70
128
 71
36
 72
2
 73
38
 74
38
 0
VERTEX
 8
CILINDRO_1
 10
0
 20
0
 30
0
 70
128
 71
1
 72
220
 73
221
 74
221
 0
VERTEX
 8
CILINDRO_1
 10
0
 20
0
 30
0
 70
128
 71
37
 72
38
 73
40
 74
39
 0
VERTEX
 8
CILINDRO_1
 10
0
 20
0
 30
0
 70
128
 71
38
 72
2
 73
40
 74
40
 0
VERTEX
 8
CILINDRO_1
 10
0
 20
0
 30
0
 70
128
 71
1
 72
221
 73
222
 74
222
 0
VERTEX
 8
CILINDRO_1
 10
0
 20
0
 30
0
 70
128
 71
39
 72
40
 73
42
 74
41
 0
VERTEX
 8
CILINDRO_1
 10
0
 20
0
 30
0
 70
128
 71
40
 72
2
 73
42
 74
42
 0
VERTEX
 8
CILINDRO_1
 10
0
 20
0
 30
0
 70
128
 71
1
 72
222
 73
223
 74
223
 0
VERTEX
 8
CILINDRO_1
 10
0
 20
0
 30
0
 70
128
 71
41
 72
42
 73
44
 74
43
 0
VERTEX
 8
CILINDRO_1
 10
0
 20
0
 30
0
 70
128
 71
42
 72
2
 73
44
 74
44
 0
VERTEX
 8
CILINDRO_1
 10
0
 20
0
 30
0
 70
128
 71
1
 72
223
 73
224
 74
224
 0
VERTEX
 8
CILINDRO_1
 10
0
 20
0
 30
0
 70
128
 71
43
 72
44
 73
46
 74
45
 0
VERTEX
 8
CILINDRO_1
 10
0
 20
0
 30
0
 70
128
 71
44
 72
2
 73
46
 74
46
 0
VERTEX
 8
CILINDRO_1
 10
0
 20
0
 30
0
 70
128
 71
1
 72
224
 73
225
 74
225
 0
VERTEX
 8
CILINDRO_1
 10
0
 20
0
 30
0
 70
128
 71
45
 72
46
 73
48
 74
47
 0
VERTEX
 8
CILINDRO_1
 10
0
 20
0
 30
0
 70
128
 71
46
 72
2
 73
48
 74
48
 0
VERTEX
 8
CILINDRO_1
 10
0
 20
0
 30
0
 70
128
 71
1
 72
225
 73
226
 74
226
 0
VERTEX
 8
CILINDRO_1
 10
0
 20
0
 30
0
 70
128
 71
47
 72
48
 73
50
 74
49
 0
VERTEX
 8
CILINDRO_1
 10
0
 20
0
 30
0
 70
128
 71
48
 72
2
 73
50
 74
50
 0
VERTEX
 8
CILINDRO_1
 10
0
 20
0
 30
0
 70
128
 71
1
 72
226
 73
227
 74
227
 0
VERTEX
 8
CILINDRO_1
 10
0
 20
0
 30
0
 70
128
 71
49
 72
50
 73
52
 74
51
 0
VERTEX
 8
CILINDRO_1
 10
0
 20
0
 30
0
 70
128
 71
50
 72
2
 73
52
 74
52
 0
VERTEX
 8
CILINDRO_1
 10
0
 20
0
 30
0
 70
128
 71
1
 72
227
 73
228
 74
228
 0
VERTEX
 8
CILINDRO_1
 10
0
 20
0
 30
0
 70
128
 71
51
 72
52
 73
54
 74
53
 0
VERTEX
 8
CILINDRO_1
 10
0
 20
0
 30
0
 70
128
 71
52
 72
2
 73
54
 74
54
 0
VERTEX
 8
CILINDRO_1
 10
0
 20
0
 30
0
 70
128
 71
1
 72
228
 73
229
 74
229
 0
VERTEX
 8
CILINDRO_1
 10
0
 20
0
 30
0
 70
128
 71
53
 72
54
 73
56
 74
55
 0
VERTEX
 8
CILINDRO_1
 10
0
 20
0
 30
0
 70
128
 71
54
 72
2
 73
56
 74
56
 0
VERTEX
 8
CILINDRO_1
 10
0
 20
0
 30
0
 70
128
 71
1
 72
229
 73
230
 74
230
 0
VERTEX
 8
CILINDRO_1
 10
0
 20
0
 30
0
 70
128
 71
55
 72
56
 73
58
 74
57
 0
VERTEX
 8
CILINDRO_1
 10
0
 20
0
 30
0
 70
128
 71
56
 72
2
 73
58
 74
58
 0
VERTEX
 8
CILINDRO_1
 10
0
 20
0
 30
0
 70
128
 71
1
 72
230
 73
231
 74
231
 0
VERTEX
 8
CILINDRO_1
 10
0
 20
0
 30
0
 70
128
 71
57
 72
58
 73
60
 74
59
 0
VERTEX
 8
CILINDRO_1
 10
0
 20
0
 30
0
 70
128
 71
58
 72
2
 73
60
 74
60
 0
VERTEX
 8
CILINDRO_1
 10
0
 20
0
 30
0
 70
128
 71
1
 72
231
 73
232
 74
232
 0
VERTEX
 8
CILINDRO_1
 10
0
 20
0
 30
0
 70
128
 71
59
 72
60
 73
62
 74
61
 0
VERTEX
 8
CILINDRO_1
 10
0
 20
0
 30
0
 70
128
 71
60
 72
2
 73
62
 74
62
 0
VERTEX
 8
CILINDRO_1
 10
0
 20
0
 30
0
 70
128
 71
1
 72
232
 73
233
 74
233
 0
VERTEX
 8
CILINDRO_1
 10
0
 20
0
 30
0
 70
128
 71
61
 72
62
 73
64
 74
63
 0
VERTEX
 8
CILINDRO_1
 10
0
 20
0
 30
0
 70
128
 71
62
 72
2
 73
64
 74
64
 0
VERTEX
 8
CILINDRO_1
 10
0
 20
0
 30
0
 70
128
 71
1
 72
233
 73
234
 74
234
 0
VERTEX
 8
CILINDRO_1
 10
0
 20
0
 30
0
 70
128
 71
63
 72
64
 73
66
 74
65
 0
VERTEX
 8
CILINDRO_1
 10
0
 20
0
 30
0
 70
128
 71
64
 72
2
 73
66
 74
66
 0
VERTEX
 8
CILINDRO_1
 10
0
 20
0
 30
0
 70
128
 71
1
 72
234
 73
235
 74
235
 0
VERTEX
 8
CILINDRO_1
 10
0
 20
0
 30
0
 70
128
 71
65
 72
66
 73
68
 74
67
 0
VERTEX
 8
CILINDRO_1
 10
0
 20
0
 30
0
 70
128
 71
66
 72
2
 73
68
 74
68
 0
VERTEX
 8
CILINDRO_1
 10
0
 20
0
 30
0
 70
128
 71
1
 72
235
 73
236
 74
236
 0
VERTEX
 8
CILINDRO_1
 10
0
 20
0
 30
0
 70
128
 71
67
 72
68
 73
70
 74
69
 0
VERTEX
 8
CILINDRO_1
 10
0
 20
0
 30
0
 70
128
 71
68
 72
2
 73
70
 74
70
 0
VERTEX
 8
CILINDRO_1
 10
0
 20
0
 30
0
 70
128
 71
1
 72
236
 73
237
 74
237
 0
VERTEX
 8
CILINDRO_1
 10
0
 20
0
 30
0
 70
128
 71
69
 72
70
 73
72
 74
71
 0
VERTEX
 8
CILINDRO_1
 10
0
 20
0
 30
0
 70
128
 71
70
 72
2
 73
72
 74
72
 0
VERTEX
 8
CILINDRO_1
 10
0
 20
0
 30
0
 70
128
 71
1
 72
237
 73
238
 74
238
 0
VERTEX
 8
CILINDRO_1
 10
0
 20
0
 30
0
 70
128
 71
71
 72
72
 73
74
 74
73
 0
VERTEX
 8
CILINDRO_1
 10
0
 20
0
 30
0
 70
128
 71
72
 72
2
 73
74
 74
74
 0
VERTEX
 8
CILINDRO_1
 10
0
 20
0
 30
0
 70
128
 71
1
 72
238
 73
239
 74
239
 0
VERTEX
 8
CILINDRO_1
 10
0
 20
0
 30
0
 70
128
 71
73
 72
74
 73
76
 74
75
 0
VERTEX
 8
CILINDRO_1
 10
0
 20
0
 30
0
 70
128
 71
74
 72
2
 73
76
 74
76
 0
VERTEX
 8
CILINDRO_1
 10
0
 20
0
 30
0
 70
128
 71
1
 72
239
 73
240
 74
240
 0
VERTEX
 8
CILINDRO_1
 10
0
 20
0
 30
0
 70
128
 71
75
 72
76
 73
78
 74
77
 0
VERTEX
 8
CILINDRO_1
 10
0
 20
0
 30
0
 70
128
 71
76
 72
2
 73
78
 74
78
 0
VERTEX
 8
CILINDRO_1
 10
0
 20
0
 30
0
 70
128
 71
1
 72
240
 73
241
 74
241
 0
VERTEX
 8
CILINDRO_1
 10
0
 20
0
 30
0
 70
128
 71
77
 72
78
 73
80
 74
79
 0
VERTEX
 8
CILINDRO_1
 10
0
 20
0
 30
0
 70
128
 71
78
 72
2
 73
80
 74
80
 0
VERTEX
 8
CILINDRO_1
 10
0
 20
0
 30
0
 70
128
 71
1
 72
241
 73
242
 74
242
 0
VERTEX
 8
CILINDRO_1
 10
0
 20
0
 30
0
 70
128
 71
79
 72
80
 73
82
 74
81
 0
VERTEX
 8
CILINDRO_1
 10
0
 20
0
 30
0
 70
128
 71
80
 72
2
 73
82
 74
82
 0
VERTEX
 8
CILINDRO_1
 10
0
 20
0
 30
0
 70
128
 71
1
 72
242
 73
203
 74
203
 0
VERTEX
 8
CILINDRO_1
 10
0
 20
0
 30
0
 70
128
 71
81
 72
82
 73
4
 74
3
 0
VERTEX
 8
CILINDRO_1
 10
0
 20
0
 30
0
 70
128
 71
82
 72
2
 73
4
 74
4
 0
VERTEX
 8
CILINDRO_1
 10
0
 20
0
 30
0
 70
128
 71
83
 72
3
 73
5
 74
84
 0
VERTEX
 8
CILINDRO_1
 10
0
 20
0
 30
0
 70
128
 71
84
 72
5
 73
7
 74
85
 0
VERTEX
 8
CILINDRO_1
 10
0
 20
0
 30
0
 70
128
 71
85
 72
7
 73
9
 74
86
 0
VERTEX
 8
CILINDRO_1
 10
0
 20
0
 30
0
 70
128
 71
86
 72
9
 73
11
 74
87
 0
VERTEX
 8
CILINDRO_1
 10
0
 20
0
 30
0
 70
128
 71
87
 72
11
 73
13
 74
88
 0
VERTEX
 8
CILINDRO_1
 10
0
 20
0
 30
0
 70
128
 71
88
 72
13
 73
15
 74
89
 0
VERTEX
 8
CILINDRO_1
 10
0
 20
0
 30
0
 70
128
 71
89
 72
15
 73
17
 74
90
 0
VERTEX
 8
CILINDRO_1
 10
0
 20
0
 30
0
 70
128
 71
90
 72
17
 73
19
 74
91
 0
VERTEX
 8
CILINDRO_1
 10
0
 20
0
 30
0
 70
128
 71
91
 72
19
 73
21
 74
92
 0
VERTEX
 8
CILINDRO_1
 10
0
 20
0
 30
0
 70
128
 71
92
 72
21
 73
23
 74
93
 0
VERTEX
 8
CILINDRO_1
 10
0
 20
0
 30
0
 70
128
 71
93
 72
23
 73
25
 74
94
 0
VERTEX
 8
CILINDRO_1
 10
0
 20
0
 30
0
 70
128
 71
94
 72
25
 73
27
 74
95
 0
VERTEX
 8
CILINDRO_1
 10
0
 20
0
 30
0
 70
128
 71
95
 72
27
 73
29
 74
96
 0
VERTEX
 8
CILINDRO_1
 10
0
 20
0
 30
0
 70
128
 71
96
 72
29
 73
31
 74
97
 0
VERTEX
 8
CILINDRO_1
 10
0
 20
0
 30
0
 70
128
 71
97
 72
31
 73
33
 74
98
 0
VERTEX
 8
CILINDRO_1
 10
0
 20
0
 30
0
 70
128
 71
98
 72
33
 73
35
 74
99
 0
VERTEX
 8
CILINDRO_1
 10
0
 20
0
 30
0
 70
128
 71
99
 72
35
 73
37
 74
100
 0
VERTEX
 8
CILINDRO_1
 10
0
 20
0
 30
0
 70
128
 71
100
 72
37
 73
39
 74
101
 0
VERTEX
 8
CILINDRO_1
 10
0
 20
0
 30
0
 70
128
 71
101
 72
39
 73
41
 74
102
 0
VERTEX
 8
CILINDRO_1
 10
0
 20
0
 30
0
 70
128
 71
102
 72
41
 73
43
 74
103
 0
VERTEX
 8
CILINDRO_1
 10
0
 20
0
 30
0
 70
128
 71
103
 72
43
 73
45
 74
104
 0
VERTEX
 8
CILINDRO_1
 10
0
 20
0
 30
0
 70
128
 71
104
 72
45
 73
47
 74
105
 0
VERTEX
 8
CILINDRO_1
 10
0
 20
0
 30
0
 70
128
 71
105
 72
47
 73
49
 74
106
 0
VERTEX
 8
CILINDRO_1
 10
0
 20
0
 30
0
 70
128
 71
106
 72
49
 73
51
 74
107
 0
VERTEX
 8
CILINDRO_1
 10
0
 20
0
 30
0
 70
128
 71
107
 72
51
 73
53
 74
108
 0
VERTEX
 8
CILINDRO_1
 10
0
 20
0
 30
0
 70
128
 71
108
 72
53
 73
55
 74
109
 0
VERTEX
 8
CILINDRO_1
 10
0
 20
0
 30
0
 70
128
 71
109
 72
55
 73
57
 74
110
 0
VERTEX
 8
CILINDRO_1
 10
0
 20
0
 30
0
 70
128
 71
110
 72
57
 73
59
 74
111
 0
VERTEX
 8
CILINDRO_1
 10
0
 20
0
 30
0
 70
128
 71
111
 72
59
 73
61
 74
112
 0
VERTEX
 8
CILINDRO_1
 10
0
 20
0
 30
0
 70
128
 71
112
 72
61
 73
63
 74
113
 0
VERTEX
 8
CILINDRO_1
 10
0
 20
0
 30
0
 70
128
 71
113
 72
63
 73
65
 74
114
 0
VERTEX
 8
CILINDRO_1
 10
0
 20
0
 30
0
 70
128
 71
114
 72
65
 73
67
 74
115
 0
VERTEX
 8
CILINDRO_1
 10
0
 20
0
 30
0
 70
128
 71
115
 72
67
 73
69
 74
116
 0
VERTEX
 8
CILINDRO_1
 10
0
 20
0
 30
0
 70
128
 71
116
 72
69
 73
71
 74
117
 0
VERTEX
 8
CILINDRO_1
 10
0
 20
0
 30
0
 70
128
 71
117
 72
71
 73
73
 74
118
 0
VERTEX
 8
CILINDRO_1
 10
0
 20
0
 30
0
 70
128
 71
118
 72
73
 73
75
 74
119
 0
VERTEX
 8
CILINDRO_1
 10
0
 20
0
 30
0
 70
128
 71
119
 72
75
 73
77
 74
120
 0
VERTEX
 8
CILINDRO_1
 10
0
 20
0
 30
0
 70
128
 71
120
 72
77
 73
79
 74
121
 0
VERTEX
 8
CILINDRO_1
 10
0
 20
0
 30
0
 70
128
 71
121
 72
79
 73
81
 74
122
 0
VERTEX
 8
CILINDRO_1
 10
0
 20
0
 30
0
 70
128
 71
122
 72
81
 73
3
 74
83
 0
VERTEX
 8
CILINDRO_1
 10
0
 20
0
 30
0
 70
128
 71
123
 72
83
 73
84
 74
124
 0
VERTEX
 8
CILINDRO_1
 10
0
 20
0
 30
0
 70
128
 71
124
 72
84
 73
85
 74
125
 0
VERTEX
 8
CILINDRO_1
 10
0
 20
0
 30
0
 70
128
 71
125
 72
85
 73
86
 74
126
 0
VERTEX
 8
CILINDRO_1
 10
0
 20
0
 30
0
 70
128
 71
126
 72
86
 73
87
 74
127
 0
VERTEX
 8
CILINDRO_1
 10
0
 20
0
 30
0
 70
128
 71
127
 72
87
 73
88
 74
128
 0
VERTEX
 8
CILINDRO_1
 10
0
 20
0
 30
0
 70
128
 71
128
 72
88
 73
89
 74
129
 0
VERTEX
 8
CILINDRO_1
 10
0
 20
0
 30
0
 70
128
 71
129
 72
89
 73
90
 74
130
 0
VERTEX
 8
CILINDRO_1
 10
0
 20
0
 30
0
 70
128
 71
130
 72
90
 73
91
 74
131
 0
VERTEX
 8
CILINDRO_1
 10
0
 20
0
 30
0
 70
128
 71
131
 72
91
 73
92
 74
132
 0
VERTEX
 8
CILINDRO_1
 10
0
 20
0
 30
0
 70
128
 71
132
 72
92
 73
93
 74
133
 0
VERTEX
 8
CILINDRO_1
 10
0
 20
0
 30
0
 70
128
 71
133
 72
93
 73
94
 74
134
 0
VERTEX
 8
CILINDRO_1
 10
0
 20
0
 30
0
 70
128
 71
134
 72
94
 73
95
 74
135
 0
VERTEX
 8
CILINDRO_1
 10
0
 20
0
 30
0
 70
128
 71
135
 72
95
 73
96
 74
136
 0
VERTEX
 8
CILINDRO_1
 10
0
 20
0
 30
0
 70
128
 71
136
 72
96
 73
97
 74
137
 0
VERTEX
 8
CILINDRO_1
 10
0
 20
0
 30
0
 70
128
 71
137
 72
97
 73
98
 74
138
 0
VERTEX
 8
CILINDRO_1
 10
0
 20
0
 30
0
 70
128
 71
138
 72
98
 73
99
 74
139
 0
VERTEX
 8
CILINDRO_1
 10
0
 20
0
 30
0
 70
128
 71
139
 72
99
 73
100
 74
140
 0
VERTEX
 8
CILINDRO_1
 10
0
 20
0
 30
0
 70
128
 71
140
 72
100
 73
101
 74
141
 0
VERTEX
 8
CILINDRO_1
 10
0
 20
0
 30
0
 70
128
 71
141
 72
101
 73
102
 74
142
 0
VERTEX
 8
CILINDRO_1
 10
0
 20
0
 30
0
 70
128
 71
142
 72
102
 73
103
 74
143
 0
VERTEX
 8
CILINDRO_1
 10
0
 20
0
 30
0
 70
128
 71
143
 72
103
 73
104
 74
144
 0
VERTEX
 8
CILINDRO_1
 10
0
 20
0
 30
0
 70
128
 71
144
 72
104
 73
105
 74
145
 0
VERTEX
 8
CILINDRO_1
 10
0
 20
0
 30
0
 70
128
 71
145
 72
105
 73
106
 74
146
 0
VERTEX
 8
CILINDRO_1
 10
0
 20
0
 30
0
 70
128
 71
146
 72
106
 73
107
 74
147
 0
VERTEX
 8
CILINDRO_1
 10
0
 20
0
 30
0
 70
128
 71
147
 72
107
 73
108
 74
148
 0
VERTEX
 8
CILINDRO_1
 10
0
 20
0
 30
0
 70
128
 71
148
 72
108
 73
109
 74
149
 0
VERTEX
 8
CILINDRO_1
 10
0
 20
0
 30
0
 70
128
 71
149
 72
109
 73
110
 74
150
 0
VERTEX
 8
CILINDRO_1
 10
0
 20
0
 30
0
 70
128
 71
150
 72
110
 73
111
 74
151
 0
VERTEX
 8
CILINDRO_1
 10
0
 20
0
 30
0
 70
128
 71
151
 72
111
 73
112
 74
152
 0
VERTEX
 8
CILINDRO_1
 10
0
 20
0
 30
0
 70
128
 71
152
 72
112
 73
113
 74
153
 0
VERTEX
 8
CILINDRO_1
 10
0
 20
0
 30
0
 70
128
 71
153
 72
113
 73
114
 74
154
 0
VERTEX
 8
CILINDRO_1
 10
0
 20
0
 30
0
 70
128
 71
154
 72
114
 73
115
 74
155
 0
VERTEX
 8
CILINDRO_1
 10
0
 20
0
 30
0
 70
128
 71
155
 72
115
 73
116
 74
156
 0
VERTEX
 8
CILINDRO_1
 10
0
 20
0
 30
0
 70
128
 71
156
 72
116
 73
117
 74
157
 0
VERTEX
 8
CILINDRO_1
 10
0
 20
0
 30
0
 70
128
 71
157
 72
117
 73
118
 74
158
 0
VERTEX
 8
CILINDRO_1
 10
0
 20
0
 30
0
 70
128
 71
158
 72
118
 73
119
 74
159
 0
VERTEX
 8
CILINDRO_1
 10
0
 20
0
 30
0
 70
128
 71
159
 72
119
 73
120
 74
160
 0
VERTEX
 8
CILINDRO_1
 10
0
 20
0
 30
0
 70
128
 71
160
 72
120
 73
121
 74
161
 0
VERTEX
 8
CILINDRO_1
 10
0
 20
0
 30
0
 70
128
 71
161
 72
121
 73
122
 74
162
 0
VERTEX
 8
CILINDRO_1
 10
0
 20
0
 30
0
 70
128
 71
162
 72
122
 73
83
 74
123
 0
VERTEX
 8
CILINDRO_1
 10
0
 20
0
 30
0
 70
128
 71
163
 72
123
 73
124
 74
164
 0
VERTEX
 8
CILINDRO_1
 10
0
 20
0
 30
0
 70
128
 71
164
 72
124
 73
125
 74
165
 0
VERTEX
 8
CILINDRO_1
 10
0
 20
0
 30
0
 70
128
 71
165
 72
125
 73
126
 74
166
 0
VERTEX
 8
CILINDRO_1
 10
0
 20
0
 30
0
 70
128
 71
166
 72
126
 73
127
 74
167
 0
VERTEX
 8
CILINDRO_1
 10
0
 20
0
 30
0
 70
128
 71
167
 72
127
 73
128
 74
168
 0
VERTEX
 8
CILINDRO_1
 10
0
 20
0
 30
0
 70
128
 71
168
 72
128
 73
129
 74
169
 0
VERTEX
 8
CILINDRO_1
 10
0
 20
0
 30
0
 70
128
 71
169
 72
129
 73
130
 74
170
 0
VERTEX
 8
CILINDRO_1
 10
0
 20
0
 30
0
 70
128
 71
170
 72
130
 73
131
 74
171
 0
VERTEX
 8
CILINDRO_1
 10
0
 20
0
 30
0
 70
128
 71
171
 72
131
 73
132
 74
172
 0
VERTEX
 8
CILINDRO_1
 10
0
 20
0
 30
0
 70
128
 71
172
 72
132
 73
133
 74
173
 0
VERTEX
 8
CILINDRO_1
 10
0
 20
0
 30
0
 70
128
 71
173
 72
133
 73
134
 74
174
 0
VERTEX
 8
CILINDRO_1
 10
0
 20
0
 30
0
 70
128
 71
174
 72
134
 73
135
 74
175
 0
VERTEX
 8
CILINDRO_1
 10
0
 20
0
 30
0
 70
128
 71
175
 72
135
 73
136
 74
176
 0
VERTEX
 8
CILINDRO_1
 10
0
 20
0
 30
0
 70
128
 71
176
 72
136
 73
137
 74
177
 0
VERTEX
 8
CILINDRO_1
 10
0
 20
0
 30
0
 70
128
 71
177
 72
137
 73
138
 74
178
 0
VERTEX
 8
CILINDRO_1
 10
0
 20
0
 30
0
 70
128
 71
178
 72
138
 73
139
 74
179
 0
VERTEX
 8
CILINDRO_1
 10
0
 20
0
 30
0
 70
128
 71
179
 72
139
 73
140
 74
180
 0
VERTEX
 8
CILINDRO_1
 10
0
 20
0
 30
0
 70
128
 71
180
 72
140
 73
141
 74
181
 0
VERTEX
 8
CILINDRO_1
 10
0
 20
0
 30
0
 70
128
 71
181
 72
141
 73
142
 74
182
 0
VERTEX
 8
CILINDRO_1
 10
0
 20
0
 30
0
 70
128
 71
182
 72
142
 73
143
 74
183
 0
VERTEX
 8
CILINDRO_1
 10
0
 20
0
 30
0
 70
128
 71
183
 72
143
 73
144
 74
184
 0
VERTEX
 8
CILINDRO_1
 10
0
 20
0
 30
0
 70
128
 71
184
 72
144
 73
145
 74
185
 0
VERTEX
 8
CILINDRO_1
 10
0
 20
0
 30
0
 70
128
 71
185
 72
145
 73
146
 74
186
 0
VERTEX
 8
CILINDRO_1
 10
0
 20
0
 30
0
 70
128
 71
186
 72
146
 73
147
 74
187
 0
VERTEX
 8
CILINDRO_1
 10
0
 20
0
 30
0
 70
128
 71
187
 72
147
 73
148
 74
188
 0
VERTEX
 8
CILINDRO_1
 10
0
 20
0
 30
0
 70
128
 71
188
 72
148
 73
149
 74
189
 0
VERTEX
 8
CILINDRO_1
 10
0
 20
0
 30
0
 70
128
 71
189
 72
149
 73
150
 74
190
 0
VERTEX
 8
CILINDRO_1
 10
0
 20
0
 30
0
 70
128
 71
190
 72
150
 73
151
 74
191
 0
VERTEX
 8
CILINDRO_1
 10
0
 20
0
 30
0
 70
128
 71
191
 72
151
 73
152
 74
192
 0
VERTEX
 8
CILINDRO_1
 10
0
 20
0
 30
0
 70
128
 71
192
 72
152
 73
153
 74
193
 0
VERTEX
 8
CILINDRO_1
 10
0
 20
0
 30
0
 70
128
 71
193
 72
153
 73
154
 74
194
 0
VERTEX
 8
CILINDRO_1
 10
0
 20
0
 30
0
 70
128
 71
194
 72
154
 73
155
 74
195
 0
VERTEX
 8
CILINDRO_1
 10
0
 20
0
 30
0
 70
128
 71
195
 72
155
 73
156
 74
196
 0
VERTEX
 8
CILINDRO_1
 10
0
 20
0
 30
0
 70
128
 71
196
 72
156
 73
157
 74
197
 0
VERTEX
 8
CILINDRO_1
 10
0
 20
0
 30
0
 70
128
 71
197
 72
157
 73
158
 74
198
 0
VERTEX
 8
CILINDRO_1
 10
0
 20
0
 30
0
 70
128
 71
198
 72
158
 73
159
 74
199
 0
VERTEX
 8
CILINDRO_1
 10
0
 20
0
 30
0
 70
128
 71
199
 72
159
 73
160
 74
200
 0
VERTEX
 8
CILINDRO_1
 10
0
 20
0
 30
0
 70
128
 71
200
 72
160
 73
161
 74
201
 0
VERTEX
 8
CILINDRO_1
 10
0
 20
0
 30
0
 70
128
 71
201
 72
161
 73
162
 74
202
 0
VERTEX
 8
CILINDRO_1
 10
0
 20
0
 30
0
 70
128
 71
202
 72
162
 73
123
 74
163
 0
VERTEX
 8
CILINDRO_1
 10
0
 20
0
 30
0
 70
128
 71
203
 72
163
 73
164
 74
204
 0
VERTEX
 8
CILINDRO_1
 10
0
 20
0
 30
0
 70
128
 71
204
 72
164
 73
165
 74
205
 0
VERTEX
 8
CILINDRO_1
 10
0
 20
0
 30
0
 70
128
 71
205
 72
165
 73
166
 74
206
 0
VERTEX
 8
CILINDRO_1
 10
0
 20
0
 30
0
 70
128
 71
206
 72
166
 73
167
 74
207
 0
VERTEX
 8
CILINDRO_1
 10
0
 20
0
 30
0
 70
128
 71
207
 72
167
 73
168
 74
208
 0
VERTEX
 8
CILINDRO_1
 10
0
 20
0
 30
0
 70
128
 71
208
 72
168
 73
169
 74
209
 0
VERTEX
 8
CILINDRO_1
 10
0
 20
0
 30
0
 70
128
 71
209
 72
169
 73
170
 74
210
 0
VERTEX
 8
CILINDRO_1
 10
0
 20
0
 30
0
 70
128
 71
210
 72
170
 73
171
 74
211
 0
VERTEX
 8
CILINDRO_1
 10
0
 20
0
 30
0
 70
128
 71
211
 72
171
 73
172
 74
212
 0
VERTEX
 8
CILINDRO_1
 10
0
 20
0
 30
0
 70
128
 71
212
 72
172
 73
173
 74
213
 0
VERTEX
 8
CILINDRO_1
 10
0
 20
0
 30
0
 70
128
 71
213
 72
173
 73
174
 74
214
 0
VERTEX
 8
CILINDRO_1
 10
0
 20
0
 30
0
 70
128
 71
214
 72
174
 73
175
 74
215
 0
VERTEX
 8
CILINDRO_1
 10
0
 20
0
 30
0
 70
128
 71
215
 72
175
 73
176
 74
216
 0
VERTEX
 8
CILINDRO_1
 10
0
 20
0
 30
0
 70
128
 71
216
 72
176
 73
177
 74
217
 0
VERTEX
 8
CILINDRO_1
 10
0
 20
0
 30
0
 70
128
 71
217
 72
177
 73
178
 74
218
 0
VERTEX
 8
CILINDRO_1
 10
0
 20
0
 30
0
 70
128
 71
218
 72
178
 73
179
 74
219
 0
VERTEX
 8
CILINDRO_1
 10
0
 20
0
 30
0
 70
128
 71
219
 72
179
 73
180
 74
220
 0
VERTEX
 8
CILINDRO_1
 10
0
 20
0
 30
0
 70
128
 71
220
 72
180
 73
181
 74
221
 0
VERTEX
 8
CILINDRO_1
 10
0
 20
0
 30
0
 70
128
 71
221
 72
181
 73
182
 74
222
 0
VERTEX
 8
CILINDRO_1
 10
0
 20
0
 30
0
 70
128
 71
222
 72
182
 73
183
 74
223
 0
VERTEX
 8
CILINDRO_1
 10
0
 20
0
 30
0
 70
128
 71
223
 72
183
 73
184
 74
224
 0
VERTEX
 8
CILINDRO_1
 10
0
 20
0
 30
0
 70
128
 71
224
 72
184
 73
185
 74
225
 0
VERTEX
 8
CILINDRO_1
 10
0
 20
0
 30
0
 70
128
 71
225
 72
185
 73
186
 74
226
 0
VERTEX
 8
CILINDRO_1
 10
0
 20
0
 30
0
 70
128
 71
226
 72
186
 73
187
 74
227
 0
VERTEX
 8
CILINDRO_1
 10
0
 20
0
 30
0
 70
128
 71
227
 72
187
 73
188
 74
228
 0
VERTEX
 8
CILINDRO_1
 10
0
 20
0
 30
0
 70
128
 71
228
 72
188
 73
189
 74
229
 0
VERTEX
 8
CILINDRO_1
 10
0
 20
0
 30
0
 70
128
 71
229
 72
189
 73
190
 74
230
 0
VERTEX
 8
CILINDRO_1
 10
0
 20
0
 30
0
 70
128
 71
230
 72
190
 73
191
 74
231
 0
VERTEX
 8
CILINDRO_1
 10
0
 20
0
 30
0
 70
128
 71
231
 72
191
 73
192
 74
232
 0
VERTEX
 8
CILINDRO_1
 10
0
 20
0
 30
0
 70
128
 71
232
 72
192
 73
193
 74
233
 0
VERTEX
 8
CILINDRO_1
 10
0
 20
0
 30
0
 70
128
 71
233
 72
193
 73
194
 74
234
 0
VERTEX
 8
CILINDRO_1
 10
0
 20
0
 30
0
 70
128
 71
234
 72
194
 73
195
 74
235
 0
VERTEX
 8
CILINDRO_1
 10
0
 20
0
 30
0
 70
128
 71
235
 72
195
 73
196
 74
236
 0
VERTEX
 8
CILINDRO_1
 10
0
 20
0
 30
0
 70
128
 71
236
 72
196
 73
197
 74
237
 0
VERTEX
 8
CILINDRO_1
 10
0
 20
0
 30
0
 70
128
 71
237
 72
197
 73
198
 74
238
 0
VERTEX
 8
CILINDRO_1
 10
0
 20
0
 30
0
 70
128
 71
238
 72
198
 73
199
 74
239
 0
VERTEX
 8
CILINDRO_1
 10
0
 20
0
 30
0
 70
128
 71
239
 72
199
 73
200
 74
240
 0
VERTEX
 8
CILINDRO_1
 10
0
 20
0
 30
0
 70
128
 71
240
 72
200
 73
201
 74
241
 0
VERTEX
 8
CILINDRO_1
 10
0
 20
0
 30
0
 70
128
 71
241
 72
201
 73
202
 74
242
 0
VERTEX
 8
CILINDRO_1
 10
0
 20
0
 30
0
 70
128
 71
242
 72
202
 73
163
 74
203
 0
SEQEND
 0
POLYLINE
 8
TACCA_1_1
 66
1
 10
0.0
 20
0.0
 30
0.0
 70
64
 71
80
 72
80
 0
VERTEX
 8
TACCA_1_1
 10
14.86
 20
-4.802
 30
54.5043
 70
192
 0
VERTEX
 8
TACCA_1_1
 10
14.86
 20
-4.802
 30
55.5471
 70
192
 0
VERTEX
 8
TACCA_1_1
 10
14.86
 20
-4.8036
 30
55.553
 70
192
 0
VERTEX
 8
TACCA_1_1
 10
14.86
 20
-4.8068
 30
55.5559
 70
192
 0
VERTEX
 8
TACCA_1_1
 10
14.86
 20
-4.8128
 30
55.5571
 70
192
 0
VERTEX
 8
TACCA_1_1
 10
14.86
 20
-6.2289
 30
55.5446
 70
192
 0
VERTEX
 8
TACCA_1_1
 10
14.86
 20
-6.2465
 30
55.5385
 70
192
 0
VERTEX
 8
TACCA_1_1
 10
14.86
 20
-6.2584
 30
55.5256
 70
192
 0
VERTEX
 8
TACCA_1_1
 10
14.86
 20
-6.2629
 30
55.5075
 70
192
 0
VERTEX
 8
TACCA_1_1
 10
14.86
 20
-6.2629
 30
54.5043
 70
192
 0
VERTEX
 8
TACCA_1_1
 10
14.8738
 20
-6.2829
 30
54.4843
 70
192
 0
VERTEX
 8
TACCA_1_1
 10
15.1262
 20
-4.782
 30
54.4843
 70
192
 0
VERTEX
 8
TACCA_1_1
 10
14.8738
 20
-6.2829
 30
55.5099
 70
192
 0
VERTEX
 8
TACCA_1_1
 10
15.1262
 20
-6.2829
 30
54.4843
 70
192
 0
VERTEX
 8
TACCA_1_1
 10
15.14
 20
-6.2629
 30
54.5043
 70
192
 0
VERTEX
 8
TACCA_1_1
 10
15.14
 20
-6.2629
 30
55.5075
 70
192
 0
VERTEX
 8
TACCA_1_1
 10
15.14
 20
-6.2584
 30
55.5256
 70
192
 0
VERTEX
 8
TACCA_1_1
 10
15.14
 20
-6.2465
 30
55.5385
 70
192
 0
VERTEX
 8
TACCA_1_1
 10
15.14
 20
-6.2289
 30
55.5446
 70
192
 0
VERTEX
 8
TACCA_1_1
 10
15.14
 20
-4.8128
 30
55.5571
 70
192
 0
VERTEX
 8
TACCA_1_1
 10
15.14
 20
-4.8068
 30
55.5559
 70
192
 0
VERTEX
 8
TACCA_1_1
 10
15.14
 20
-4.8036
 30
55.553
 70
192
 0
VERTEX
 8
TACCA_1_1
 10
15.14
 20
-4.802
 30
55.5471
 70
192
 0
VERTEX
 8
TACCA_1_1
 10
15.14
 20
-4.802
 30
54.5043
 70
192
 0
VERTEX
 8
TACCA_1_1
 10
15.1262
 20
-4.782
 30
55.5498
 70
192
 0
VERTEX
 8
TACCA_1_1
 10
14.8738
 20
-4.782
 30
54.4843
 70
192
 0
VERTEX
 8
TACCA_1_1
 10
14.8738
 20
-6.2331
 30
55.5643
 70
192
 0
VERTEX
 8
TACCA_1_1
 10
15.1262
 20
-6.2578
 30
55.5558
 70
192
 0
VERTEX
 8
TACCA_1_1
 10
14.8738
 20
-4.8119
 30
55.5772
 70
192
 0
VERTEX
 8
TACCA_1_1
 10
15.1262
 20
-6.2331
 30
55.5643
 70
192
 0
VERTEX
 8
TACCA_1_1
 10
14.8738
 20
-6.2766
 30
55.5353
 70
192
 0
VERTEX
 8
TACCA_1_1
 10
15.1262
 20
-6.2829
 30
55.5099
 70
192
 0
VERTEX
 8
TACCA_1_1
 10
14.8738
 20
-6.2578
 30
55.5558
 70
192
 0
VERTEX
 8
TACCA_1_1
 10
15.1262
 20
-6.2766
 30
55.5353
 70
192
 0
VERTEX
 8
TACCA_1_1
 10
14.8738
 20
-4.7975
 30
55.5746
 70
192
 0
VERTEX
 8
TACCA_1_1
 10
15.1262
 20
-4.8119
 30
55.5772
 70
192
 0
VERTEX
 8
TACCA_1_1
 10
14.8738
 20
-4.782
 30
55.5498
 70
192
 0
VERTEX
 8
TACCA_1_1
 10
15.1262
 20
-4.7859
 30
55.5639
 70
192
 0
VERTEX
 8
TACCA_1_1
 10
14.8738
 20
-4.7859
 30
55.5639
 70
192
 0
VERTEX
 8
TACCA_1_1
 10
15.1262
 20
-4.7975
 30
55.5746
 70
192
 0
VERTEX
 8
TACCA_1_1
 10
14.8617
 20
-4.7922
 30
54.4945
 70
192
 0
VERTEX
 8
TACCA_1_1
 10
14.867
 20
-4.7846
 30
54.4869
 70
192
 0
VERTEX
 8
TACCA_1_1
 10
14.8617
 20
-4.7922
 30
55.5484
 70
192
 0
VERTEX
 8
TACCA_1_1
 10
14.867
 20
-4.7846
 30
55.5495
 70
192
 0
VERTEX
 8
TACCA_1_1
 10
14.8617
 20
-4.795
 30
55.5584
 70
192
 0
VERTEX
 8
TACCA_1_1
 10
14.867
 20
-4.7881
 30
55.5625
 70
192
 0
VERTEX
 8
TACCA_1_1
 10
14.8617
 20
-4.8023
 30
55.5651
 70
192
 0
VERTEX
 8
TACCA_1_1
 10
14.867
 20
-4.7987
 30
55.5722
 70
192
 0
VERTEX
 8
TACCA_1_1
 10
14.8617
 20
-4.8124
 30
55.5669
 70
192
 0
VERTEX
 8
TACCA_1_1
 10
14.867
 20
-4.812
 30
55.5746
 70
192
 0
VERTEX
 8
TACCA_1_1
 10
14.8617
 20
-6.231
 30
55.5542
 70
192
 0
VERTEX
 8
TACCA_1_1
 10
14.867
 20
-6.2325
 30
55.5618
 70
192
 0
VERTEX
 8
TACCA_1_1
 10
14.8617
 20
-6.2521
 30
55.547
 70
192
 0
VERTEX
 8
TACCA_1_1
 10
14.867
 20
-6.2564
 30
55.5536
 70
192
 0
VERTEX
 8
TACCA_1_1
 10
14.8617
 20
-6.2673
 30
55.5303
 70
192
 0
VERTEX
 8
TACCA_1_1
 10
14.867
 20
-6.2743
 30
55.5341
 70
192
 0
VERTEX
 8
TACCA_1_1
 10
14.8617
 20
-6.2727
 30
55.5087
 70
192
 0
VERTEX
 8
TACCA_1_1
 10
14.867
 20
-6.2803
 30
55.5096
 70
192
 0
VERTEX
 8
TACCA_1_1
 10
14.8617
 20
-6.2727
 30
54.4945
 70
192
 0
VERTEX
 8
TACCA_1_1
 10
14.867
 20
-6.2803
 30
54.4869
 70
192
 0
VERTEX
 8
TACCA_1_1
 10
15.1329
 20
-6.2803
 30
54.4869
 70
192
 0
VERTEX
 8
TACCA_1_1
 10
15.1382
 20
-6.2727
 30
54.4945
 70
192
 0
VERTEX
 8
TACCA_1_1
 10
15.1329
 20
-4.7846
 30
54.4869
 70
192
 0
VERTEX
 8
TACCA_1_1
 10
15.1382
 20
-4.7922
 30
54.4945
 70
192
 0
VERTEX
 8
TACCA_1_1
 10
15.1329
 20
-6.2803
 30
55.5096
 70
192
 0
VERTEX
 8
TACCA_1_1
 10
15.1382
 20
-6.2727
 30
55.5087
 70
192
 0
VERTEX
 8
TACCA_1_1
 10
15.1382
 20
-6.2673
 30
55.5303
 70
192
 0
VERTEX
 8
TACCA_1_1
 10
15.1329
 20
-6.2743
 30
55.5341
 70
192
 0
VERTEX
 8
TACCA_1_1
 10
15.1382
 20
-6.2521
 30
55.547
 70
192
 0
VERTEX
 8
TACCA_1_1
 10
15.1329
 20
-6.2564
 30
55.5536
 70
192
 0
VERTEX
 8
TACCA_1_1
 10
15.1382
 20
-6.231
 30
55.5542
 70
192
 0
VERTEX
 8
TACCA_1_1
 10
15.1329
 20
-6.2325
 30
55.5618
 70
192
 0
VERTEX
 8
TACCA_1_1
 10
15.1382
 20
-4.8124
 30
55.5669
 70
192
 0
VERTEX
 8
TACCA_1_1
 10
15.1329
 20
-4.812
 30
55.5746
 70
192
 0
VERTEX
 8
TACCA_1_1
 10
15.1382
 20
-4.8023
 30
55.5651
 70
192
 0
VERTEX
 8
TACCA_1_1
 10
15.1329
 20
-4.7987
 30
55.5722
 70
192
 0
VERTEX
 8
TACCA_1_1
 10
15.1382
 20
-4.795
 30
55.5584
 70
192
 0
VERTEX
 8
TACCA_1_1
 10
15.1329
 20
-4.7881
 30
55.5625
 70
192
 0
VERTEX
 8
TACCA_1_1
 10
15.1382
 20
-4.7922
 30
55.5484
 70
192
 0
VERTEX
 8
TACCA_1_1
 10
15.1329
 20
-4.7846
 30
55.5495
 70
192
 0
VERTEX
 8
TACCA_1_1
 10
0
 20
0
 30
0
 70
128
 71
11
 72
13
 73
32
 74
14
 0
VERTEX
 8
TACCA_1_1
 10
0
 20
0
 30
0
 70
128
 71
19
 72
15
 73
16
 74
18
 0
VERTEX
 8
TACCA_1_1
 10
0
 20
0
 30
0
 70
128
 71
12
 72
25
 73
37
 74
26
 0
VERTEX
 8
TACCA_1_1
 10
0
 20
0
 30
0
 70
128
 71
1
 72
2
 73
5
 74
5
 0
VERTEX
 8
TACCA_1_1
 10
0
 20
0
 30
0
 70
128
 71
27
 72
29
 73
36
 74
30
 0
VERTEX
 8
TACCA_1_1
 10
0
 20
0
 30
0
 70
128
 71
26
 72
11
 73
14
 74
12
 0
VERTEX
 8
TACCA_1_1
 10
0
 20
0
 30
0
 70
128
 71
20
 72
21
 73
22
 74
23
 0
VERTEX
 8
TACCA_1_1
 10
0
 20
0
 30
0
 70
128
 71
16
 72
17
 73
18
 74
18
 0
VERTEX
 8
TACCA_1_1
 10
0
 20
0
 30
0
 70
128
 71
5
 72
2
 73
3
 74
4
 0
VERTEX
 8
TACCA_1_1
 10
0
 20
0
 30
0
 70
128
 71
6
 72
7
 73
8
 74
8
 0
VERTEX
 8
TACCA_1_1
 10
0
 20
0
 30
0
 70
128
 71
13
 72
31
 73
34
 74
32
 0
VERTEX
 8
TACCA_1_1
 10
0
 20
0
 30
0
 70
128
 71
31
 72
33
 73
28
 74
34
 0
VERTEX
 8
TACCA_1_1
 10
0
 20
0
 30
0
 70
128
 71
33
 72
27
 73
30
 74
28
 0
VERTEX
 8
TACCA_1_1
 10
0
 20
0
 30
0
 70
128
 71
20
 72
23
 73
24
 74
24
 0
VERTEX
 8
TACCA_1_1
 10
0
 20
0
 30
0
 70
128
 71
24
 72
15
 73
19
 74
20
 0
VERTEX
 8
TACCA_1_1
 10
0
 20
0
 30
0
 70
128
 71
6
 72
8
 73
9
 74
10
 0
VERTEX
 8
TACCA_1_1
 10
0
 20
0
 30
0
 70
128
 71
1
 72
5
 73
6
 74
10
 0
VERTEX
 8
TACCA_1_1
 10
0
 20
0
 30
0
 70
128
 71
29
 72
35
 73
40
 74
36
 0
VERTEX
 8
TACCA_1_1
 10
0
 20
0
 30
0
 70
128
 71
35
 72
39
 73
38
 74
40
 0
VERTEX
 8
TACCA_1_1
 10
0
 20
0
 30
0
 70
128
 71
39
 72
37
 73
25
 74
38
 0
VERTEX
 8
TACCA_1_1
 10
0
 20
0
 30
0
 70
128
 71
9
 72
57
 73
59
 74
10
 0
VERTEX
 8
TACCA_1_1
 10
0
 20
0
 30
0
 70
128
 71
32
 72
65
 73
61
 74
14
 0
VERTEX
 8
TACCA_1_1
 10
0
 20
0
 30
0
 70
128
 71
30
 72
72
 73
70
 74
28
 0
VERTEX
 8
TACCA_1_1
 10
0
 20
0
 30
0
 70
128
 71
12
 72
63
 73
80
 74
25
 0
VERTEX
 8
TACCA_1_1
 10
0
 20
0
 30
0
 70
128
 71
1
 72
41
 73
43
 74
2
 0
VERTEX
 8
TACCA_1_1
 10
0
 20
0
 30
0
 70
128
 71
5
 72
49
 73
51
 74
6
 0
VERTEX
 8
TACCA_1_1
 10
0
 20
0
 30
0
 70
128
 71
36
 72
74
 73
72
 74
30
 0
VERTEX
 8
TACCA_1_1
 10
0
 20
0
 30
0
 70
128
 71
10
 72
59
 73
41
 74
1
 0
VERTEX
 8
TACCA_1_1
 10
0
 20
0
 30
0
 70
128
 71
14
 72
61
 73
63
 74
12
 0
VERTEX
 8
TACCA_1_1
 10
0
 20
0
 30
0
 70
128
 71
34
 72
68
 73
65
 74
32
 0
VERTEX
 8
TACCA_1_1
 10
0
 20
0
 30
0
 70
128
 71
28
 72
70
 73
68
 74
34
 0
VERTEX
 8
TACCA_1_1
 10
0
 20
0
 30
0
 70
128
 71
6
 72
51
 73
53
 74
7
 0
VERTEX
 8
TACCA_1_1
 10
0
 20
0
 30
0
 70
128
 71
8
 72
55
 73
57
 74
9
 0
VERTEX
 8
TACCA_1_1
 10
0
 20
0
 30
0
 70
128
 71
7
 72
53
 73
55
 74
8
 0
VERTEX
 8
TACCA_1_1
 10
0
 20
0
 30
0
 70
128
 71
40
 72
76
 73
74
 74
36
 0
VERTEX
 8
TACCA_1_1
 10
0
 20
0
 30
0
 70
128
 71
38
 72
78
 73
76
 74
40
 0
VERTEX
 8
TACCA_1_1
 10
0
 20
0
 30
0
 70
128
 71
25
 72
80
 73
78
 74
38
 0
VERTEX
 8
TACCA_1_1
 10
0
 20
0
 30
0
 70
128
 71
2
 72
43
 73
45
 74
3
 0
VERTEX
 8
TACCA_1_1
 10
0
 20
0
 30
0
 70
128
 71
3
 72
45
 73
47
 74
4
 0
VERTEX
 8
TACCA_1_1
 10
0
 20
0
 30
0
 70
128
 71
4
 72
47
 73
49
 74
5
 0
VERTEX
 8
TACCA_1_1
 10
0
 20
0
 30
0
 70
128
 71
57
 72
58
 73
60
 74
59
 0
VERTEX
 8
TACCA_1_1
 10
0
 20
0
 30
0
 70
128
 71
58
 72
13
 73
11
 74
60
 0
VERTEX
 8
TACCA_1_1
 10
0
 20
0
 30
0
 70
128
 71
65
 72
66
 73
62
 74
61
 0
VERTEX
 8
TACCA_1_1
 10
0
 20
0
 30
0
 70
128
 71
66
 72
16
 73
15
 74
62
 0
VERTEX
 8
TACCA_1_1
 10
0
 20
0
 30
0
 70
128
 71
72
 72
71
 73
69
 74
70
 0
VERTEX
 8
TACCA_1_1
 10
0
 20
0
 30
0
 70
128
 71
71
 72
19
 73
18
 74
69
 0
VERTEX
 8
TACCA_1_1
 10
0
 20
0
 30
0
 70
128
 71
63
 72
64
 73
79
 74
80
 0
VERTEX
 8
TACCA_1_1
 10
0
 20
0
 30
0
 70
128
 71
64
 72
24
 73
23
 74
79
 0
VERTEX
 8
TACCA_1_1
 10
0
 20
0
 30
0
 70
128
 71
41
 72
42
 73
44
 74
43
 0
VERTEX
 8
TACCA_1_1
 10
0
 20
0
 30
0
 70
128
 71
42
 72
26
 73
37
 74
44
 0
VERTEX
 8
TACCA_1_1
 10
0
 20
0
 30
0
 70
128
 71
49
 72
50
 73
52
 74
51
 0
VERTEX
 8
TACCA_1_1
 10
0
 20
0
 30
0
 70
128
 71
50
 72
29
 73
27
 74
52
 0
VERTEX
 8
TACCA_1_1
 10
0
 20
0
 30
0
 70
128
 71
74
 72
73
 73
71
 74
72
 0
VERTEX
 8
TACCA_1_1
 10
0
 20
0
 30
0
 70
128
 71
73
 72
20
 73
19
 74
71
 0
VERTEX
 8
TACCA_1_1
 10
0
 20
0
 30
0
 70
128
 71
59
 72
60
 73
42
 74
41
 0
VERTEX
 8
TACCA_1_1
 10
0
 20
0
 30
0
 70
128
 71
60
 72
11
 73
26
 74
42
 0
VERTEX
 8
TACCA_1_1
 10
0
 20
0
 30
0
 70
128
 71
61
 72
62
 73
64
 74
63
 0
VERTEX
 8
TACCA_1_1
 10
0
 20
0
 30
0
 70
128
 71
62
 72
15
 73
24
 74
64
 0
VERTEX
 8
TACCA_1_1
 10
0
 20
0
 30
0
 70
128
 71
68
 72
67
 73
66
 74
65
 0
VERTEX
 8
TACCA_1_1
 10
0
 20
0
 30
0
 70
128
 71
67
 72
17
 73
16
 74
66
 0
VERTEX
 8
TACCA_1_1
 10
0
 20
0
 30
0
 70
128
 71
70
 72
69
 73
67
 74
68
 0
VERTEX
 8
TACCA_1_1
 10
0
 20
0
 30
0
 70
128
 71
69
 72
18
 73
17
 74
67
 0
VERTEX
 8
TACCA_1_1
 10
0
 20
0
 30
0
 70
128
 71
51
 72
52
 73
54
 74
53
 0
VERTEX
 8
TACCA_1_1
 10
0
 20
0
 30
0
 70
128
 71
52
 72
27
 73
33
 74
54
 0
VERTEX
 8
TACCA_1_1
 10
0
 20
0
 30
0
 70
128
 71
55
 72
56
 73
58
 74
57
 0
VERTEX
 8
TACCA_1_1
 10
0
 20
0
 30
0
 70
128
 71
56
 72
31
 73
13
 74
58
 0
VERTEX
 8
TACCA_1_1
 10
0
 20
0
 30
0
 70
128
 71
53
 72
54
 73
56
 74
55
 0
VERTEX
 8
TACCA_1_1
 10
0
 20
0
 30
0
 70
128
 71
54
 72
33
 73
31
 74
56
 0
VERTEX
 8
TACCA_1_1
 10
0
 20
0
 30
0
 70
128
 71
76
 72
75
 73
73
 74
74
 0
VERTEX
 8
TACCA_1_1
 10
0
 20
0
 30
0
 70
128
 71
75
 72
21
 73
20
 74
73
 0
VERTEX
 8
TACCA_1_1
 10
0
 20
0
 30
0
 70
128
 71
78
 72
77
 73
75
 74
76
 0
VERTEX
 8
TACCA_1_1
 10
0
 20
0
 30
0
 70
128
 71
77
 72
22
 73
21
 74
75
 0
VERTEX
 8
TACCA_1_1
 10
0
 20
0
 30
0
 70
128
 71
80
 72
79
 73
77
 74
78
 0
VERTEX
 8
TACCA_1_1
 10
0
 20
0
 30
0
 70
128
 71
79
 72
23
 73
22
 74
77
 0
VERTEX
 8
TACCA_1_1
 10
0
 20
0
 30
0
 70
128
 71
43
 72
44
 73
46
 74
45
 0
VERTEX
 8
TACCA_1_1
 10
0
 20
0
 30
0
 70
128
 71
44
 72
37
 73
39
 74
46
 0
VERTEX
 8
TACCA_1_1
 10
0
 20
0
 30
0
 70
128
 71
45
 72
46
 73
48
 74
47
 0
VERTEX
 8
TACCA_1_1
 10
0
 20
0
 30
0
 70
128
 71
46
 72
39
 73
35
 74
48
 0
VERTEX
 8
TACCA_1_1
 10
0
 20
0
 30
0
 70
128
 71
47
 72
48
 73
50
 74
49
 0
VERTEX
 8
TACCA_1_1
 10
0
 20
0
 30
0
 70
128
 71
48
 72
35
 73
29
 74
50
 0
SEQEND
 0
POLYLINE
 8
CILINDRO_2
 66
1
 10
0.0
 20
0.0
 30
0.0
 70
64
 71
242
 72
280
 0
VERTEX
 8
CILINDRO_2
 10
15
 20
-3.949
 30
53.2261
 70
192
 0
VERTEX
 8
CILINDRO_2
 10
15
 20
-6.2326
 30
53.2261
 70
192
 0
VERTEX
 8
CILINDRO_2
 10
12.7845
 20
-4.4324
 30
53.2261
 70
192
 0
VERTEX
 8
CILINDRO_2
 10
12.7845
 20
-6.2326
 30
53.2261
 70
192
 0
VERTEX
 8
CILINDRO_2
 10
12.8117
 20
-4.4324
 30
52.8795
 70
192
 0
VERTEX
 8
CILINDRO_2
 10
12.8117
 20
-6.2326
 30
52.8795
 70
192
 0
VERTEX
 8
CILINDRO_2
 10
12.8929
 20
-4.4324
 30
52.5415
 70
192
 0
VERTEX
 8
CILINDRO_2
 10
12.8929
 20
-6.2326
 30
52.5415
 70
192
 0
VERTEX
 8
CILINDRO_2
 10
13.0259
 20
-4.4324
 30
52.2203
 70
192
 0
VERTEX
 8
CILINDRO_2
 10
13.0259
 20
-6.2326
 30
52.2203
 70
192
 0
VERTEX
 8
CILINDRO_2
 10
13.2076
 20
-4.4324
 30
51.9238
 70
192
 0
VERTEX
 8
CILINDRO_2
 10
13.2076
 20
-6.2326
 30
51.9238
 70
192
 0
VERTEX
 8
CILINDRO_2
 10
13.4334
 20
-4.4324
 30
51.6595
 70
192
 0
VERTEX
 8
CILINDRO_2
 10
13.4334
 20
-6.2326
 30
51.6595
 70
192
 0
VERTEX
 8
CILINDRO_2
 10
13.6977
 20
-4.4324
 30
51.4337
 70
192
 0
VERTEX
 8
CILINDRO_2
 10
13.6977
 20
-6.2326
 30
51.4337
 70
192
 0
VERTEX
 8
CILINDRO_2
 10
13.9942
 20
-4.4324
 30
51.2521
 70
192
 0
VERTEX
 8
CILINDRO_2
 10
13.9942
 20
-6.2326
 30
51.2521
 70
192
 0
VERTEX
 8
CILINDRO_2
 10
14.3153
 20
-4.4324
 30
51.119
 70
192
 0
VERTEX
 8
CILINDRO_2
 10
14.3153
 20
-6.2326
 30
51.119
 70
192
 0
VERTEX
 8
CILINDRO_2
 10
14.6534
 20
-4.4324
 30
51.0379
 70
192
 0
VERTEX
 8
CILINDRO_2
 10
14.6534
 20
-6.2326
 30
51.0379
 70
192
 0
VERTEX
 8
CILINDRO_2
 10
15
 20
-4.4324
 30
51.0106
 70
192
 0
VERTEX
 8
CILINDRO_2
 10
15
 20
-6.2326
 30
51.0106
 70
192
 0
VERTEX
 8
CILINDRO_2
 10
15.3465
 20
-4.4324
 30
51.0379
 70
192
 0
VERTEX
 8
CILINDRO_2
 10
15.3465
 20
-6.2326
 30
51.0379
 70
192
 0
VERTEX
 8
CILINDRO_2
 10
15.6846
 20
-4.4324
 30
51.119
 70
192
 0
VERTEX
 8
CILINDRO_2
 10
15.6846
 20
-6.2326
 30
51.119
 70
192
 0
VERTEX
 8
CILINDRO_2
 10
16.0058
 20
-4.4324
 30
51.2521
 70
192
 0
VERTEX
 8
CILINDRO_2
 10
16.0058
 20
-6.2326
 30
51.2521
 70
192
 0
VERTEX
 8
CILINDRO_2
 10
16.3022
 20
-4.4324
 30
51.4337
 70
192
 0
VERTEX
 8
CILINDRO_2
 10
16.3022
 20
-6.2326
 30
51.4337
 70
192
 0
VERTEX
 8
CILINDRO_2
 10
16.5666
 20
-4.4324
 30
51.6595
 70
192
 0
VERTEX
 8
CILINDRO_2
 10
16.5666
 20
-6.2326
 30
51.6595
 70
192
 0
VERTEX
 8
CILINDRO_2
 10
16.7923
 20
-4.4324
 30
51.9238
 70
192
 0
VERTEX
 8
CILINDRO_2
 10
16.7923
 20
-6.2326
 30
51.9238
 70
192
 0
VERTEX
 8
CILINDRO_2
 10
16.974
 20
-4.4324
 30
52.2203
 70
192
 0
VERTEX
 8
CILINDRO_2
 10
16.974
 20
-6.2326
 30
52.2203
 70
192
 0
VERTEX
 8
CILINDRO_2
 10
17.107
 20
-4.4324
 30
52.5415
 70
192
 0
VERTEX
 8
CILINDRO_2
 10
17.107
 20
-6.2326
 30
52.5415
 70
192
 0
VERTEX
 8
CILINDRO_2
 10
17.1882
 20
-4.4324
 30
52.8795
 70
192
 0
VERTEX
 8
CILINDRO_2
 10
17.1882
 20
-6.2326
 30
52.8795
 70
192
 0
VERTEX
 8
CILINDRO_2
 10
17.2155
 20
-4.4324
 30
53.2261
 70
192
 0
VERTEX
 8
CILINDRO_2
 10
17.2155
 20
-6.2326
 30
53.2261
 70
192
 0
VERTEX
 8
CILINDRO_2
 10
17.1882
 20
-4.4324
 30
53.5727
 70
192
 0
VERTEX
 8
CILINDRO_2
 10
17.1882
 20
-6.2326
 30
53.5727
 70
192
 0
VERTEX
 8
CILINDRO_2
 10
17.107
 20
-4.4324
 30
53.9107
 70
192
 0
VERTEX
 8
CILINDRO_2
 10
17.107
 20
-6.2326
 30
53.9107
 70
192
 0
VERTEX
 8
CILINDRO_2
 10
16.974
 20
-4.4324
 30
54.2319
 70
192
 0
VERTEX
 8
CILINDRO_2
 10
16.974
 20
-6.2326
 30
54.2319
 70
192
 0
VERTEX
 8
CILINDRO_2
 10
16.7923
 20
-4.4324
 30
54.5283
 70
192
 0
VERTEX
 8
CILINDRO_2
 10
16.7923
 20
-6.2326
 30
54.5283
 70
192
 0
VERTEX
 8
CILINDRO_2
 10
16.5666
 20
-4.4324
 30
54.7927
 70
192
 0
VERTEX
 8
CILINDRO_2
 10
16.5666
 20
-6.2326
 30
54.7927
 70
192
 0
VERTEX
 8
CILINDRO_2
 10
16.3022
 20
-4.4324
 30
55.0185
 70
192
 0
VERTEX
 8
CILINDRO_2
 10
16.3022
 20
-6.2326
 30
55.0185
 70
192
 0
VERTEX
 8
CILINDRO_2
 10
16.0058
 20
-4.4324
 30
55.2001
 70
192
 0
VERTEX
 8
CILINDRO_2
 10
16.0058
 20
-6.2326
 30
55.2001
 70
192
 0
VERTEX
 8
CILINDRO_2
 10
15.6846
 20
-4.4324
 30
55.3331
 70
192
 0
VERTEX
 8
CILINDRO_2
 10
15.6846
 20
-6.2326
 30
55.3331
 70
192
 0
VERTEX
 8
CILINDRO_2
 10
15.3465
 20
-4.4324
 30
55.4143
 70
192
 0
VERTEX
 8
CILINDRO_2
 10
15.3465
 20
-6.2326
 30
55.4143
 70
192
 0
VERTEX
 8
CILINDRO_2
 10
15
 20
-4.4324
 30
55.4416
 70
192
 0
VERTEX
 8
CILINDRO_2
 10
15
 20
-6.2326
 30
55.4416
 70
192
 0
VERTEX
 8
CILINDRO_2
 10
14.6534
 20
-4.4324
 30
55.4143
 70
192
 0
VERTEX
 8
CILINDRO_2
 10
14.6534
 20
-6.2326
 30
55.4143
 70
192
 0
VERTEX
 8
CILINDRO_2
 10
14.3153
 20
-4.4324
 30
55.3331
 70
192
 0
VERTEX
 8
CILINDRO_2
 10
14.3153
 20
-6.2326
 30
55.3331
 70
192
 0
VERTEX
 8
CILINDRO_2
 10
13.9942
 20
-4.4324
 30
55.2001
 70
192
 0
VERTEX
 8
CILINDRO_2
 10
13.9942
 20
-6.2326
 30
55.2001
 70
192
 0
VERTEX
 8
CILINDRO_2
 10
13.6977
 20
-4.4324
 30
55.0185
 70
192
 0
VERTEX
 8
CILINDRO_2
 10
13.6977
 20
-6.2326
 30
55.0185
 70
192
 0
VERTEX
 8
CILINDRO_2
 10
13.4334
 20
-4.4324
 30
54.7927
 70
192
 0
VERTEX
 8
CILINDRO_2
 10
13.4334
 20
-6.2326
 30
54.7927
 70
192
 0
VERTEX
 8
CILINDRO_2
 10
13.2076
 20
-4.4324
 30
54.5283
 70
192
 0
VERTEX
 8
CILINDRO_2
 10
13.2076
 20
-6.2326
 30
54.5283
 70
192
 0
VERTEX
 8
CILINDRO_2
 10
13.0259
 20
-4.4324
 30
54.2319
 70
192
 0
VERTEX
 8
CILINDRO_2
 10
13.0259
 20
-6.2326
 30
54.2319
 70
192
 0
VERTEX
 8
CILINDRO_2
 10
12.8929
 20
-4.4324
 30
53.9107
 70
192
 0
VERTEX
 8
CILINDRO_2
 10
12.8929
 20
-6.2326
 30
53.9107
 70
192
 0
VERTEX
 8
CILINDRO_2
 10
12.8117
 20
-4.4324
 30
53.5727
 70
192
 0
VERTEX
 8
CILINDRO_2
 10
12.8117
 20
-6.2326
 30
53.5727
 70
192
 0
VERTEX
 8
CILINDRO_2
 10
12.9951
 20
-4.4324
 30
53.2261
 70
192
 0
VERTEX
 8
CILINDRO_2
 10
13.0198
 20
-4.4324
 30
52.9125
 70
192
 0
VERTEX
 8
CILINDRO_2
 10
13.0932
 20
-4.4324
 30
52.6065
 70
192
 0
VERTEX
 8
CILINDRO_2
 10
13.2136
 20
-4.4324
 30
52.3159
 70
192
 0
VERTEX
 8
CILINDRO_2
 10
13.378
 20
-4.4324
 30
52.0477
 70
192
 0
VERTEX
 8
CILINDRO_2
 10
13.5823
 20
-4.4324
 30
51.8084
 70
192
 0
VERTEX
 8
CILINDRO_2
 10
13.8215
 20
-4.4324
 30
51.6041
 70
192
 0
VERTEX
 8
CILINDRO_2
 10
14.0898
 20
-4.4324
 30
51.4397
 70
192
 0
VERTEX
 8
CILINDRO_2
 10
14.3804
 20
-4.4324
 30
51.3194
 70
192
 0
VERTEX
 8
CILINDRO_2
 10
14.6863
 20
-4.4324
 30
51.2459
 70
192
 0
VERTEX
 8
CILINDRO_2
 10
15
 20
-4.4324
 30
51.2212
 70
192
 0
VERTEX
 8
CILINDRO_2
 10
15.3136
 20
-4.4324
 30
51.2459
 70
192
 0
VERTEX
 8
CILINDRO_2
 10
15.6195
 20
-4.4324
 30
51.3194
 70
192
 0
VERTEX
 8
CILINDRO_2
 10
15.9102
 20
-4.4324
 30
51.4397
 70
192
 0
VERTEX
 8
CILINDRO_2
 10
16.1784
 20
-4.4324
 30
51.6041
 70
192
 0
VERTEX
 8
CILINDRO_2
 10
16.4176
 20
-4.4324
 30
51.8084
 70
192
 0
VERTEX
 8
CILINDRO_2
 10
16.6219
 20
-4.4324
 30
52.0477
 70
192
 0
VERTEX
 8
CILINDRO_2
 10
16.7863
 20
-4.4324
 30
52.3159
 70
192
 0
VERTEX
 8
CILINDRO_2
 10
16.9067
 20
-4.4324
 30
52.6065
 70
192
 0
VERTEX
 8
CILINDRO_2
 10
16.9801
 20
-4.4324
 30
52.9125
 70
192
 0
VERTEX
 8
CILINDRO_2
 10
17.0048
 20
-4.4324
 30
53.2261
 70
192
 0
VERTEX
 8
CILINDRO_2
 10
16.9801
 20
-4.4324
 30
53.5397
 70
192
 0
VERTEX
 8
CILINDRO_2
 10
16.9067
 20
-4.4324
 30
53.8456
 70
192
 0
VERTEX
 8
CILINDRO_2
 10
16.7863
 20
-4.4324
 30
54.1363
 70
192
 0
VERTEX
 8
CILINDRO_2
 10
16.6219
 20
-4.4324
 30
54.4045
 70
192
 0
VERTEX
 8
CILINDRO_2
 10
16.4176
 20
-4.4324
 30
54.6437
 70
192
 0
VERTEX
 8
CILINDRO_2
 10
16.1784
 20
-4.4324
 30
54.848
 70
192
 0
VERTEX
 8
CILINDRO_2
 10
15.9102
 20
-4.4324
 30
55.0124
 70
192
 0
VERTEX
 8
CILINDRO_2
 10
15.6195
 20
-4.4324
 30
55.1328
 70
192
 0
VERTEX
 8
CILINDRO_2
 10
15.3136
 20
-4.4324
 30
55.2062
 70
192
 0
VERTEX
 8
CILINDRO_2
 10
15
 20
-4.4324
 30
55.2309
 70
192
 0
VERTEX
 8
CILINDRO_2
 10
14.6863
 20
-4.4324
 30
55.2062
 70
192
 0
VERTEX
 8
CILINDRO_2
 10
14.3804
 20
-4.4324
 30
55.1328
 70
192
 0
VERTEX
 8
CILINDRO_2
 10
14.0898
 20
-4.4324
 30
55.0124
 70
192
 0
VERTEX
 8
CILINDRO_2
 10
13.8215
 20
-4.4324
 30
54.848
 70
192
 0
VERTEX
 8
CILINDRO_2
 10
13.5823
 20
-4.4324
 30
54.6437
 70
192
 0
VERTEX
 8
CILINDRO_2
 10
13.378
 20
-4.4324
 30
54.4045
 70
192
 0
VERTEX
 8
CILINDRO_2
 10
13.2136
 20
-4.4324
 30
54.1363
 70
192
 0
VERTEX
 8
CILINDRO_2
 10
13.0932
 20
-4.4324
 30
53.8456
 70
192
 0
VERTEX
 8
CILINDRO_2
 10
13.0198
 20
-4.4324
 30
53.5397
 70
192
 0
VERTEX
 8
CILINDRO_2
 10
12.9951
 20
-4.0812
 30
53.2261
 70
192
 0
VERTEX
 8
CILINDRO_2
 10
13.0198
 20
-4.0812
 30
52.9125
 70
192
 0
VERTEX
 8
CILINDRO_2
 10
13.0932
 20
-4.0812
 30
52.6065
 70
192
 0
VERTEX
 8
CILINDRO_2
 10
13.2136
 20
-4.0812
 30
52.3159
 70
192
 0
VERTEX
 8
CILINDRO_2
 10
13.378
 20
-4.0812
 30
52.0477
 70
192
 0
VERTEX
 8
CILINDRO_2
 10
13.5823
 20
-4.0812
 30
51.8084
 70
192
 0
VERTEX
 8
CILINDRO_2
 10
13.8215
 20
-4.0812
 30
51.6041
 70
192
 0
VERTEX
 8
CILINDRO_2
 10
14.0898
 20
-4.0812
 30
51.4397
 70
192
 0
VERTEX
 8
CILINDRO_2
 10
14.3804
 20
-4.0812
 30
51.3194
 70
192
 0
VERTEX
 8
CILINDRO_2
 10
14.6863
 20
-4.0812
 30
51.2459
 70
192
 0
VERTEX
 8
CILINDRO_2
 10
15
 20
-4.0812
 30
51.2212
 70
192
 0
VERTEX
 8
CILINDRO_2
 10
15.3136
 20
-4.0812
 30
51.2459
 70
192
 0
VERTEX
 8
CILINDRO_2
 10
15.6195
 20
-4.0812
 30
51.3194
 70
192
 0
VERTEX
 8
CILINDRO_2
 10
15.9102
 20
-4.0812
 30
51.4397
 70
192
 0
VERTEX
 8
CILINDRO_2
 10
16.1784
 20
-4.0812
 30
51.6041
 70
192
 0
VERTEX
 8
CILINDRO_2
 10
16.4176
 20
-4.0812
 30
51.8084
 70
192
 0
VERTEX
 8
CILINDRO_2
 10
16.6219
 20
-4.0812
 30
52.0477
 70
192
 0
VERTEX
 8
CILINDRO_2
 10
16.7863
 20
-4.0812
 30
52.3159
 70
192
 0
VERTEX
 8
CILINDRO_2
 10
16.9067
 20
-4.0812
 30
52.6065
 70
192
 0
VERTEX
 8
CILINDRO_2
 10
16.9801
 20
-4.0812
 30
52.9125
 70
192
 0
VERTEX
 8
CILINDRO_2
 10
17.0048
 20
-4.0812
 30
53.2261
 70
192
 0
VERTEX
 8
CILINDRO_2
 10
16.9801
 20
-4.0812
 30
53.5397
 70
192
 0
VERTEX
 8
CILINDRO_2
 10
16.9067
 20
-4.0812
 30
53.8456
 70
192
 0
VERTEX
 8
CILINDRO_2
 10
16.7863
 20
-4.0812
 30
54.1363
 70
192
 0
VERTEX
 8
CILINDRO_2
 10
16.6219
 20
-4.0812
 30
54.4045
 70
192
 0
VERTEX
 8
CILINDRO_2
 10
16.4176
 20
-4.0812
 30
54.6437
 70
192
 0
VERTEX
 8
CILINDRO_2
 10
16.1784
 20
-4.0812
 30
54.848
 70
192
 0
VERTEX
 8
CILINDRO_2
 10
15.9102
 20
-4.0812
 30
55.0124
 70
192
 0
VERTEX
 8
CILINDRO_2
 10
15.6195
 20
-4.0812
 30
55.1328
 70
192
 0
VERTEX
 8
CILINDRO_2
 10
15.3136
 20
-4.0812
 30
55.2062
 70
192
 0
VERTEX
 8
CILINDRO_2
 10
15
 20
-4.0812
 30
55.2309
 70
192
 0
VERTEX
 8
CILINDRO_2
 10
14.6863
 20
-4.0812
 30
55.2062
 70
192
 0
VERTEX
 8
CILINDRO_2
 10
14.3804
 20
-4.0812
 30
55.1328
 70
192
 0
VERTEX
 8
CILINDRO_2
 10
14.0898
 20
-4.0812
 30
55.0124
 70
192
 0
VERTEX
 8
CILINDRO_2
 10
13.8215
 20
-4.0812
 30
54.848
 70
192
 0
VERTEX
 8
CILINDRO_2
 10
13.5823
 20
-4.0812
 30
54.6437
 70
192
 0
VERTEX
 8
CILINDRO_2
 10
13.378
 20
-4.0812
 30
54.4045
 70
192
 0
VERTEX
 8
CILINDRO_2
 10
13.2136
 20
-4.0812
 30
54.1363
 70
192
 0
VERTEX
 8
CILINDRO_2
 10
13.0932
 20
-4.0812
 30
53.8456
 70
192
 0
VERTEX
 8
CILINDRO_2
 10
13.0198
 20
-4.0812
 30
53.5397
 70
192
 0
VERTEX
 8
CILINDRO_2
 10
12.8
 20
-4.343
 30
53.2261
 70
192
 0
VERTEX
 8
CILINDRO_2
 10
12.8271
 20
-4.343
 30
52.8819
 70
192
 0
VERTEX
 8
CILINDRO_2
 10
12.9077
 20
-4.343
 30
52.5463
 70
192
 0
VERTEX
 8
CILINDRO_2
 10
13.0398
 20
-4.343
 30
52.2273
 70
192
 0
VERTEX
 8
CILINDRO_2
 10
13.2202
 20
-4.343
 30
51.933
 70
192
 0
VERTEX
 8
CILINDRO_2
 10
13.4444
 20
-4.343
 30
51.6705
 70
192
 0
VERTEX
 8
CILINDRO_2
 10
13.7069
 20
-4.343
 30
51.4463
 70
192
 0
VERTEX
 8
CILINDRO_2
 10
14.0012
 20
-4.343
 30
51.2659
 70
192
 0
VERTEX
 8
CILINDRO_2
 10
14.3201
 20
-4.343
 30
51.1338
 70
192
 0
VERTEX
 8
CILINDRO_2
 10
14.6558
 20
-4.343
 30
51.0532
 70
192
 0
VERTEX
 8
CILINDRO_2
 10
15
 20
-4.343
 30
51.0261
 70
192
 0
VERTEX
 8
CILINDRO_2
 10
15.3441
 20
-4.343
 30
51.0532
 70
192
 0
VERTEX
 8
CILINDRO_2
 10
15.6798
 20
-4.343
 30
51.1338
 70
192
 0
VERTEX
 8
CILINDRO_2
 10
15.9987
 20
-4.343
 30
51.2659
 70
192
 0
VERTEX
 8
CILINDRO_2
 10
16.2931
 20
-4.343
 30
51.4463
 70
192
 0
VERTEX
 8
CILINDRO_2
 10
16.5556
 20
-4.343
 30
51.6705
 70
192
 0
VERTEX
 8
CILINDRO_2
 10
16.7798
 20
-4.343
 30
51.933
 70
192
 0
VERTEX
 8
CILINDRO_2
 10
16.9601
 20
-4.343
 30
52.2273
 70
192
 0
VERTEX
 8
CILINDRO_2
 10
17.0922
 20
-4.343
 30
52.5463
 70
192
 0
VERTEX
 8
CILINDRO_2
 10
17.1728
 20
-4.343
 30
52.8819
 70
192
 0
VERTEX
 8
CILINDRO_2
 10
17.1999
 20
-4.343
 30
53.2261
 70
192
 0
VERTEX
 8
CILINDRO_2
 10
17.1728
 20
-4.343
 30
53.5702
 70
192
 0
VERTEX
 8
CILINDRO_2
 10
17.0922
 20
-4.343
 30
53.9059
 70
192
 0
VERTEX
 8
CILINDRO_2
 10
16.9601
 20
-4.343
 30
54.2248
 70
192
 0
VERTEX
 8
CILINDRO_2
 10
16.7798
 20
-4.343
 30
54.5192
 70
192
 0
VERTEX
 8
CILINDRO_2
 10
16.5556
 20
-4.343
 30
54.7817
 70
192
 0
VERTEX
 8
CILINDRO_2
 10
16.2931
 20
-4.343
 30
55.0059
 70
192
 0
VERTEX
 8
CILINDRO_2
 10
15.9987
 20
-4.343
 30
55.1863
 70
192
 0
VERTEX
 8
CILINDRO_2
 10
15.6798
 20
-4.343
 30
55.3184
 70
192
 0
VERTEX
 8
CILINDRO_2
 10
15.3441
 20
-4.343
 30
55.3989
 70
192
 0
VERTEX
 8
CILINDRO_2
 10
15
 20
-4.343
 30
55.426
 70
192
 0
VERTEX
 8
CILINDRO_2
 10
14.6558
 20
-4.343
 30
55.3989
 70
192
 0
VERTEX
 8
CILINDRO_2
 10
14.3201
 20
-4.343
 30
55.3184
 70
192
 0
VERTEX
 8
CILINDRO_2
 10
14.0012
 20
-4.343
 30
55.1863
 70
192
 0
VERTEX
 8
CILINDRO_2
 10
13.7069
 20
-4.343
 30
55.0059
 70
192
 0
VERTEX
 8
CILINDRO_2
 10
13.4444
 20
-4.343
 30
54.7817
 70
192
 0
VERTEX
 8
CILINDRO_2
 10
13.2202
 20
-4.343
 30
54.5192
 70
192
 0
VERTEX
 8
CILINDRO_2
 10
13.0398
 20
-4.343
 30
54.2248
 70
192
 0
VERTEX
 8
CILINDRO_2
 10
12.9077
 20
-4.343
 30
53.9059
 70
192
 0
VERTEX
 8
CILINDRO_2
 10
12.8271
 20
-4.343
 30
53.5702
 70
192
 0
VERTEX
 8
CILINDRO_2
 10
12.8
 20
-3.949
 30
53.2261
 70
192
 0
VERTEX
 8
CILINDRO_2
 10
12.8271
 20
-3.949
 30
52.8819
 70
192
 0
VERTEX
 8
CILINDRO_2
 10
12.9077
 20
-3.949
 30
52.5463
 70
192
 0
VERTEX
 8
CILINDRO_2
 10
13.0398
 20
-3.949
 30
52.2273
 70
192
 0
VERTEX
 8
CILINDRO_2
 10
13.2202
 20
-3.949
 30
51.933
 70
192
 0
VERTEX
 8
CILINDRO_2
 10
13.4444
 20
-3.949
 30
51.6705
 70
192
 0
VERTEX
 8
CILINDRO_2
 10
13.7069
 20
-3.949
 30
51.4463
 70
192
 0
VERTEX
 8
CILINDRO_2
 10
14.0012
 20
-3.949
 30
51.2659
 70
192
 0
VERTEX
 8
CILINDRO_2
 10
14.3201
 20
-3.949
 30
51.1338
 70
192
 0
VERTEX
 8
CILINDRO_2
 10
14.6558
 20
-3.949
 30
51.0532
 70
192
 0
VERTEX
 8
CILINDRO_2
 10
15
 20
-3.949
 30
51.0261
 70
192
 0
VERTEX
 8
CILINDRO_2
 10
15.3441
 20
-3.949
 30
51.0532
 70
192
 0
VERTEX
 8
CILINDRO_2
 10
15.6798
 20
-3.949
 30
51.1338
 70
192
 0
VERTEX
 8
CILINDRO_2
 10
15.9987
 20
-3.949
 30
51.2659
 70
192
 0
VERTEX
 8
CILINDRO_2
 10
16.2931
 20
-3.949
 30
51.4463
 70
192
 0
VERTEX
 8
CILINDRO_2
 10
16.5556
 20
-3.949
 30
51.6705
 70
192
 0
VERTEX
 8
CILINDRO_2
 10
16.7798
 20
-3.949
 30
51.933
 70
192
 0
VERTEX
 8
CILINDRO_2
 10
16.9601
 20
-3.949
 30
52.2273
 70
192
 0
VERTEX
 8
CILINDRO_2
 10
17.0922
 20
-3.949
 30
52.5463
 70
192
 0
VERTEX
 8
CILINDRO_2
 10
17.1728
 20
-3.949
 30
52.8819
 70
192
 0
VERTEX
 8
CILINDRO_2
 10
17.1999
 20
-3.949
 30
53.2261
 70
192
 0
VERTEX
 8
CILINDRO_2
 10
17.1728
 20
-3.949
 30
53.5702
 70
192
 0
VERTEX
 8
CILINDRO_2
 10
17.0922
 20
-3.949
 30
53.9059
 70
192
 0
VERTEX
 8
CILINDRO_2
 10
16.9601
 20
-3.949
 30
54.2248
 70
192
 0
VERTEX
 8
CILINDRO_2
 10
16.7798
 20
-3.949
 30
54.5192
 70
192
 0
VERTEX
 8
CILINDRO_2
 10
16.5556
 20
-3.949
 30
54.7817
 70
192
 0
VERTEX
 8
CILINDRO_2
 10
16.2931
 20
-3.949
 30
55.0059
 70
192
 0
VERTEX
 8
CILINDRO_2
 10
15.9987
 20
-3.949
 30
55.1863
 70
192
 0
VERTEX
 8
CILINDRO_2
 10
15.6798
 20
-3.949
 30
55.3184
 70
192
 0
VERTEX
 8
CILINDRO_2
 10
15.3441
 20
-3.949
 30
55.3989
 70
192
 0
VERTEX
 8
CILINDRO_2
 10
15
 20
-3.949
 30
55.426
 70
192
 0
VERTEX
 8
CILINDRO_2
 10
14.6558
 20
-3.949
 30
55.3989
 70
192
 0
VERTEX
 8
CILINDRO_2
 10
14.3201
 20
-3.949
 30
55.3184
 70
192
 0
VERTEX
 8
CILINDRO_2
 10
14.0012
 20
-3.949
 30
55.1863
 70
192
 0
VERTEX
 8
CILINDRO_2
 10
13.7069
 20
-3.949
 30
55.0059
 70
192
 0
VERTEX
 8
CILINDRO_2
 10
13.4444
 20
-3.949
 30
54.7817
 70
192
 0
VERTEX
 8
CILINDRO_2
 10
13.2202
 20
-3.949
 30
54.5192
 70
192
 0
VERTEX
 8
CILINDRO_2
 10
13.0398
 20
-3.949
 30
54.2248
 70
192
 0
VERTEX
 8
CILINDRO_2
 10
12.9077
 20
-3.949
 30
53.9059
 70
192
 0
VERTEX
 8
CILINDRO_2
 10
12.8271
 20
-3.949
 30
53.5702
 70
192
 0
VERTEX
 8
CILINDRO_2
 10
0
 20
0
 30
0
 70
128
 71
1
 72
203
 73
204
 74
204
 0
VERTEX
 8
CILINDRO_2
 10
0
 20
0
 30
0
 70
128
 71
3
 72
4
 73
6
 74
5
 0
VERTEX
 8
CILINDRO_2
 10
0
 20
0
 30
0
 70
128
 71
4
 72
2
 73
6
 74
6
 0
VERTEX
 8
CILINDRO_2
 10
0
 20
0
 30
0
 70
128
 71
1
 72
204
 73
205
 74
205
 0
VERTEX
 8
CILINDRO_2
 10
0
 20
0
 30
0
 70
128
 71
5
 72
6
 73
8
 74
7
 0
VERTEX
 8
CILINDRO_2
 10
0
 20
0
 30
0
 70
128
 71
6
 72
2
 73
8
 74
8
 0
VERTEX
 8
CILINDRO_2
 10
0
 20
0
 30
0
 70
128
 71
1
 72
205
 73
206
 74
206
 0
VERTEX
 8
CILINDRO_2
 10
0
 20
0
 30
0
 70
128
 71
7
 72
8
 73
10
 74
9
 0
VERTEX
 8
CILINDRO_2
 10
0
 20
0
 30
0
 70
128
 71
8
 72
2
 73
10
 74
10
 0
VERTEX
 8
CILINDRO_2
 10
0
 20
0
 30
0
 70
128
 71
1
 72
206
 73
207
 74
207
 0
VERTEX
 8
CILINDRO_2
 10
0
 20
0
 30
0
 70
128
 71
9
 72
10
 73
12
 74
11
 0
VERTEX
 8
CILINDRO_2
 10
0
 20
0
 30
0
 70
128
 71
10
 72
2
 73
12
 74
12
 0
VERTEX
 8
CILINDRO_2
 10
0
 20
0
 30
0
 70
128
 71
1
 72
207
 73
208
 74
208
 0
VERTEX
 8
CILINDRO_2
 10
0
 20
0
 30
0
 70
128
 71
11
 72
12
 73
14
 74
13
 0
VERTEX
 8
CILINDRO_2
 10
0
 20
0
 30
0
 70
128
 71
12
 72
2
 73
14
 74
14
 0
VERTEX
 8
CILINDRO_2
 10
0
 20
0
 30
0
 70
128
 71
1
 72
208
 73
209
 74
209
 0
VERTEX
 8
CILINDRO_2
 10
0
 20
0
 30
0
 70
128
 71
13
 72
14
 73
16
 74
15
 0
VERTEX
 8
CILINDRO_2
 10
0
 20
0
 30
0
 70
128
 71
14
 72
2
 73
16
 74
16
 0
VERTEX
 8
CILINDRO_2
 10
0
 20
0
 30
0
 70
128
 71
1
 72
209
 73
210
 74
210
 0
VERTEX
 8
CILINDRO_2
 10
0
 20
0
 30
0
 70
128
 71
15
 72
16
 73
18
 74
17
 0
VERTEX
 8
CILINDRO_2
 10
0
 20
0
 30
0
 70
128
 71
16
 72
2
 73
18
 74
18
 0
VERTEX
 8
CILINDRO_2
 10
0
 20
0
 30
0
 70
128
 71
1
 72
210
 73
211
 74
211
 0
VERTEX
 8
CILINDRO_2
 10
0
 20
0
 30
0
 70
128
 71
17
 72
18
 73
20
 74
19
 0
VERTEX
 8
CILINDRO_2
 10
0
 20
0
 30
0
 70
128
 71
18
 72
2
 73
20
 74
20
 0
VERTEX
 8
CILINDRO_2
 10
0
 20
0
 30
0
 70
128
 71
1
 72
211
 73
212
 74
212
 0
VERTEX
 8
CILINDRO_2
 10
0
 20
0
 30
0
 70
128
 71
19
 72
20
 73
22
 74
21
 0
VERTEX
 8
CILINDRO_2
 10
0
 20
0
 30
0
 70
128
 71
20
 72
2
 73
22
 74
22
 0
VERTEX
 8
CILINDRO_2
 10
0
 20
0
 30
0
 70
128
 71
1
 72
212
 73
213
 74
213
 0
VERTEX
 8
CILINDRO_2
 10
0
 20
0
 30
0
 70
128
 71
21
 72
22
 73
24
 74
23
 0
VERTEX
 8
CILINDRO_2
 10
0
 20
0
 30
0
 70
128
 71
22
 72
2
 73
24
 74
24
 0
VERTEX
 8
CILINDRO_2
 10
0
 20
0
 30
0
 70
128
 71
1
 72
213
 73
214
 74
214
 0
VERTEX
 8
CILINDRO_2
 10
0
 20
0
 30
0
 70
128
 71
23
 72
24
 73
26
 74
25
 0
VERTEX
 8
CILINDRO_2
 10
0
 20
0
 30
0
 70
128
 71
24
 72
2
 73
26
 74
26
 0
VERTEX
 8
CILINDRO_2
 10
0
 20
0
 30
0
 70
128
 71
1
 72
214
 73
215
 74
215
 0
VERTEX
 8
CILINDRO_2
 10
0
 20
0
 30
0
 70
128
 71
25
 72
26
 73
28
 74
27
 0
VERTEX
 8
CILINDRO_2
 10
0
 20
0
 30
0
 70
128
 71
26
 72
2
 73
28
 74
28
 0
VERTEX
 8
CILINDRO_2
 10
0
 20
0
 30
0
 70
128
 71
1
 72
215
 73
216
 74
216
 0
VERTEX
 8
CILINDRO_2
 10
0
 20
0
 30
0
 70
128
 71
27
 72
28
 73
30
 74
29
 0
VERTEX
 8
CILINDRO_2
 10
0
 20
0
 30
0
 70
128
 71
28
 72
2
 73
30
 74
30
 0
VERTEX
 8
CILINDRO_2
 10
0
 20
0
 30
0
 70
128
 71
1
 72
216
 73
217
 74
217
 0
VERTEX
 8
CILINDRO_2
 10
0
 20
0
 30
0
 70
128
 71
29
 72
30
 73
32
 74
31
 0
VERTEX
 8
CILINDRO_2
 10
0
 20
0
 30
0
 70
128
 71
30
 72
2
 73
32
 74
32
 0
VERTEX
 8
CILINDRO_2
 10
0
 20
0
 30
0
 70
128
 71
1
 72
217
 73
218
 74
218
 0
VERTEX
 8
CILINDRO_2
 10
0
 20
0
 30
0
 70
128
 71
31
 72
32
 73
34
 74
33
 0
VERTEX
 8
CILINDRO_2
 10
0
 20
0
 30
0
 70
128
 71
32
 72
2
 73
34
 74
34
 0
VERTEX
 8
CILINDRO_2
 10
0
 20
0
 30
0
 70
128
 71
1
 72
218
 73
219
 74
219
 0
VERTEX
 8
CILINDRO_2
 10
0
 20
0
 30
0
 70
128
 71
33
 72
34
 73
36
 74
35
 0
VERTEX
 8
CILINDRO_2
 10
0
 20
0
 30
0
 70
128
 71
34
 72
2
 73
36
 74
36
 0
VERTEX
 8
CILINDRO_2
 10
0
 20
0
 30
0
 70
128
 71
1
 72
219
 73
220
 74
220
 0
VERTEX
 8
CILINDRO_2
 10
0
 20
0
 30
0
 70
128
 71
35
 72
36
 73
38
 74
37
 0
VERTEX
 8
CILINDRO_2
 10
0
 20
0
 30
0
 70
128
 71
36
 72
2
 73
38
 74
38
 0
VERTEX
 8
CILINDRO_2
 10
0
 20
0
 30
0
 70
128
 71
1
 72
220
 73
221
 74
221
 0
VERTEX
 8
CILINDRO_2
 10
0
 20
0
 30
0
 70
128
 71
37
 72
38
 73
40
 74
39
 0
VERTEX
 8
CILINDRO_2
 10
0
 20
0
 30
0
 70
128
 71
38
 72
2
 73
40
 74
40
 0
VERTEX
 8
CILINDRO_2
 10
0
 20
0
 30
0
 70
128
 71
1
 72
221
 73
222
 74
222
 0
VERTEX
 8
CILINDRO_2
 10
0
 20
0
 30
0
 70
128
 71
39
 72
40
 73
42
 74
41
 0
VERTEX
 8
CILINDRO_2
 10
0
 20
0
 30
0
 70
128
 71
40
 72
2
 73
42
 74
42
 0
VERTEX
 8
CILINDRO_2
 10
0
 20
0
 30
0
 70
128
 71
1
 72
222
 73
223
 74
223
 0
VERTEX
 8
CILINDRO_2
 10
0
 20
0
 30
0
 70
128
 71
41
 72
42
 73
44
 74
43
 0
VERTEX
 8
CILINDRO_2
 10
0
 20
0
 30
0
 70
128
 71
42
 72
2
 73
44
 74
44
 0
VERTEX
 8
CILINDRO_2
 10
0
 20
0
 30
0
 70
128
 71
1
 72
223
 73
224
 74
224
 0
VERTEX
 8
CILINDRO_2
 10
0
 20
0
 30
0
 70
128
 71
43
 72
44
 73
46
 74
45
 0
VERTEX
 8
CILINDRO_2
 10
0
 20
0
 30
0
 70
128
 71
44
 72
2
 73
46
 74
46
 0
VERTEX
 8
CILINDRO_2
 10
0
 20
0
 30
0
 70
128
 71
1
 72
224
 73
225
 74
225
 0
VERTEX
 8
CILINDRO_2
 10
0
 20
0
 30
0
 70
128
 71
45
 72
46
 73
48
 74
47
 0
VERTEX
 8
CILINDRO_2
 10
0
 20
0
 30
0
 70
128
 71
46
 72
2
 73
48
 74
48
 0
VERTEX
 8
CILINDRO_2
 10
0
 20
0
 30
0
 70
128
 71
1
 72
225
 73
226
 74
226
 0
VERTEX
 8
CILINDRO_2
 10
0
 20
0
 30
0
 70
128
 71
47
 72
48
 73
50
 74
49
 0
VERTEX
 8
CILINDRO_2
 10
0
 20
0
 30
0
 70
128
 71
48
 72
2
 73
50
 74
50
 0
VERTEX
 8
CILINDRO_2
 10
0
 20
0
 30
0
 70
128
 71
1
 72
226
 73
227
 74
227
 0
VERTEX
 8
CILINDRO_2
 10
0
 20
0
 30
0
 70
128
 71
49
 72
50
 73
52
 74
51
 0
VERTEX
 8
CILINDRO_2
 10
0
 20
0
 30
0
 70
128
 71
50
 72
2
 73
52
 74
52
 0
VERTEX
 8
CILINDRO_2
 10
0
 20
0
 30
0
 70
128
 71
1
 72
227
 73
228
 74
228
 0
VERTEX
 8
CILINDRO_2
 10
0
 20
0
 30
0
 70
128
 71
51
 72
52
 73
54
 74
53
 0
VERTEX
 8
CILINDRO_2
 10
0
 20
0
 30
0
 70
128
 71
52
 72
2
 73
54
 74
54
 0
VERTEX
 8
CILINDRO_2
 10
0
 20
0
 30
0
 70
128
 71
1
 72
228
 73
229
 74
229
 0
VERTEX
 8
CILINDRO_2
 10
0
 20
0
 30
0
 70
128
 71
53
 72
54
 73
56
 74
55
 0
VERTEX
 8
CILINDRO_2
 10
0
 20
0
 30
0
 70
128
 71
54
 72
2
 73
56
 74
56
 0
VERTEX
 8
CILINDRO_2
 10
0
 20
0
 30
0
 70
128
 71
1
 72
229
 73
230
 74
230
 0
VERTEX
 8
CILINDRO_2
 10
0
 20
0
 30
0
 70
128
 71
55
 72
56
 73
58
 74
57
 0
VERTEX
 8
CILINDRO_2
 10
0
 20
0
 30
0
 70
128
 71
56
 72
2
 73
58
 74
58
 0
VERTEX
 8
CILINDRO_2
 10
0
 20
0
 30
0
 70
128
 71
1
 72
230
 73
231
 74
231
 0
VERTEX
 8
CILINDRO_2
 10
0
 20
0
 30
0
 70
128
 71
57
 72
58
 73
60
 74
59
 0
VERTEX
 8
CILINDRO_2
 10
0
 20
0
 30
0
 70
128
 71
58
 72
2
 73
60
 74
60
 0
VERTEX
 8
CILINDRO_2
 10
0
 20
0
 30
0
 70
128
 71
1
 72
231
 73
232
 74
232
 0
VERTEX
 8
CILINDRO_2
 10
0
 20
0
 30
0
 70
128
 71
59
 72
60
 73
62
 74
61
 0
VERTEX
 8
CILINDRO_2
 10
0
 20
0
 30
0
 70
128
 71
60
 72
2
 73
62
 74
62
 0
VERTEX
 8
CILINDRO_2
 10
0
 20
0
 30
0
 70
128
 71
1
 72
232
 73
233
 74
233
 0
VERTEX
 8
CILINDRO_2
 10
0
 20
0
 30
0
 70
128
 71
61
 72
62
 73
64
 74
63
 0
VERTEX
 8
CILINDRO_2
 10
0
 20
0
 30
0
 70
128
 71
62
 72
2
 73
64
 74
64
 0
VERTEX
 8
CILINDRO_2
 10
0
 20
0
 30
0
 70
128
 71
1
 72
233
 73
234
 74
234
 0
VERTEX
 8
CILINDRO_2
 10
0
 20
0
 30
0
 70
128
 71
63
 72
64
 73
66
 74
65
 0
VERTEX
 8
CILINDRO_2
 10
0
 20
0
 30
0
 70
128
 71
64
 72
2
 73
66
 74
66
 0
VERTEX
 8
CILINDRO_2
 10
0
 20
0
 30
0
 70
128
 71
1
 72
234
 73
235
 74
235
 0
VERTEX
 8
CILINDRO_2
 10
0
 20
0
 30
0
 70
128
 71
65
 72
66
 73
68
 74
67
 0
VERTEX
 8
CILINDRO_2
 10
0
 20
0
 30
0
 70
128
 71
66
 72
2
 73
68
 74
68
 0
VERTEX
 8
CILINDRO_2
 10
0
 20
0
 30
0
 70
128
 71
1
 72
235
 73
236
 74
236
 0
VERTEX
 8
CILINDRO_2
 10
0
 20
0
 30
0
 70
128
 71
67
 72
68
 73
70
 74
69
 0
VERTEX
 8
CILINDRO_2
 10
0
 20
0
 30
0
 70
128
 71
68
 72
2
 73
70
 74
70
 0
VERTEX
 8
CILINDRO_2
 10
0
 20
0
 30
0
 70
128
 71
1
 72
236
 73
237
 74
237
 0
VERTEX
 8
CILINDRO_2
 10
0
 20
0
 30
0
 70
128
 71
69
 72
70
 73
72
 74
71
 0
VERTEX
 8
CILINDRO_2
 10
0
 20
0
 30
0
 70
128
 71
70
 72
2
 73
72
 74
72
 0
VERTEX
 8
CILINDRO_2
 10
0
 20
0
 30
0
 70
128
 71
1
 72
237
 73
238
 74
238
 0
VERTEX
 8
CILINDRO_2
 10
0
 20
0
 30
0
 70
128
 71
71
 72
72
 73
74
 74
73
 0
VERTEX
 8
CILINDRO_2
 10
0
 20
0
 30
0
 70
128
 71
72
 72
2
 73
74
 74
74
 0
VERTEX
 8
CILINDRO_2
 10
0
 20
0
 30
0
 70
128
 71
1
 72
238
 73
239
 74
239
 0
VERTEX
 8
CILINDRO_2
 10
0
 20
0
 30
0
 70
128
 71
73
 72
74
 73
76
 74
75
 0
VERTEX
 8
CILINDRO_2
 10
0
 20
0
 30
0
 70
128
 71
74
 72
2
 73
76
 74
76
 0
VERTEX
 8
CILINDRO_2
 10
0
 20
0
 30
0
 70
128
 71
1
 72
239
 73
240
 74
240
 0
VERTEX
 8
CILINDRO_2
 10
0
 20
0
 30
0
 70
128
 71
75
 72
76
 73
78
 74
77
 0
VERTEX
 8
CILINDRO_2
 10
0
 20
0
 30
0
 70
128
 71
76
 72
2
 73
78
 74
78
 0
VERTEX
 8
CILINDRO_2
 10
0
 20
0
 30
0
 70
128
 71
1
 72
240
 73
241
 74
241
 0
VERTEX
 8
CILINDRO_2
 10
0
 20
0
 30
0
 70
128
 71
77
 72
78
 73
80
 74
79
 0
VERTEX
 8
CILINDRO_2
 10
0
 20
0
 30
0
 70
128
 71
78
 72
2
 73
80
 74
80
 0
VERTEX
 8
CILINDRO_2
 10
0
 20
0
 30
0
 70
128
 71
1
 72
241
 73
242
 74
242
 0
VERTEX
 8
CILINDRO_2
 10
0
 20
0
 30
0
 70
128
 71
79
 72
80
 73
82
 74
81
 0
VERTEX
 8
CILINDRO_2
 10
0
 20
0
 30
0
 70
128
 71
80
 72
2
 73
82
 74
82
 0
VERTEX
 8
CILINDRO_2
 10
0
 20
0
 30
0
 70
128
 71
1
 72
242
 73
203
 74
203
 0
VERTEX
 8
CILINDRO_2
 10
0
 20
0
 30
0
 70
128
 71
81
 72
82
 73
4
 74
3
 0
VERTEX
 8
CILINDRO_2
 10
0
 20
0
 30
0
 70
128
 71
82
 72
2
 73
4
 74
4
 0
VERTEX
 8
CILINDRO_2
 10
0
 20
0
 30
0
 70
128
 71
83
 72
3
 73
5
 74
84
 0
VERTEX
 8
CILINDRO_2
 10
0
 20
0
 30
0
 70
128
 71
84
 72
5
 73
7
 74
85
 0
VERTEX
 8
CILINDRO_2
 10
0
 20
0
 30
0
 70
128
 71
85
 72
7
 73
9
 74
86
 0
VERTEX
 8
CILINDRO_2
 10
0
 20
0
 30
0
 70
128
 71
86
 72
9
 73
11
 74
87
 0
VERTEX
 8
CILINDRO_2
 10
0
 20
0
 30
0
 70
128
 71
87
 72
11
 73
13
 74
88
 0
VERTEX
 8
CILINDRO_2
 10
0
 20
0
 30
0
 70
128
 71
88
 72
13
 73
15
 74
89
 0
VERTEX
 8
CILINDRO_2
 10
0
 20
0
 30
0
 70
128
 71
89
 72
15
 73
17
 74
90
 0
VERTEX
 8
CILINDRO_2
 10
0
 20
0
 30
0
 70
128
 71
90
 72
17
 73
19
 74
91
 0
VERTEX
 8
CILINDRO_2
 10
0
 20
0
 30
0
 70
128
 71
91
 72
19
 73
21
 74
92
 0
VERTEX
 8
CILINDRO_2
 10
0
 20
0
 30
0
 70
128
 71
92
 72
21
 73
23
 74
93
 0
VERTEX
 8
CILINDRO_2
 10
0
 20
0
 30
0
 70
128
 71
93
 72
23
 73
25
 74
94
 0
VERTEX
 8
CILINDRO_2
 10
0
 20
0
 30
0
 70
128
 71
94
 72
25
 73
27
 74
95
 0
VERTEX
 8
CILINDRO_2
 10
0
 20
0
 30
0
 70
128
 71
95
 72
27
 73
29
 74
96
 0
VERTEX
 8
CILINDRO_2
 10
0
 20
0
 30
0
 70
128
 71
96
 72
29
 73
31
 74
97
 0
VERTEX
 8
CILINDRO_2
 10
0
 20
0
 30
0
 70
128
 71
97
 72
31
 73
33
 74
98
 0
VERTEX
 8
CILINDRO_2
 10
0
 20
0
 30
0
 70
128
 71
98
 72
33
 73
35
 74
99
 0
VERTEX
 8
CILINDRO_2
 10
0
 20
0
 30
0
 70
128
 71
99
 72
35
 73
37
 74
100
 0
VERTEX
 8
CILINDRO_2
 10
0
 20
0
 30
0
 70
128
 71
100
 72
37
 73
39
 74
101
 0
VERTEX
 8
CILINDRO_2
 10
0
 20
0
 30
0
 70
128
 71
101
 72
39
 73
41
 74
102
 0
VERTEX
 8
CILINDRO_2
 10
0
 20
0
 30
0
 70
128
 71
102
 72
41
 73
43
 74
103
 0
VERTEX
 8
CILINDRO_2
 10
0
 20
0
 30
0
 70
128
 71
103
 72
43
 73
45
 74
104
 0
VERTEX
 8
CILINDRO_2
 10
0
 20
0
 30
0
 70
128
 71
104
 72
45
 73
47
 74
105
 0
VERTEX
 8
CILINDRO_2
 10
0
 20
0
 30
0
 70
128
 71
105
 72
47
 73
49
 74
106
 0
VERTEX
 8
CILINDRO_2
 10
0
 20
0
 30
0
 70
128
 71
106
 72
49
 73
51
 74
107
 0
VERTEX
 8
CILINDRO_2
 10
0
 20
0
 30
0
 70
128
 71
107
 72
51
 73
53
 74
108
 0
VERTEX
 8
CILINDRO_2
 10
0
 20
0
 30
0
 70
128
 71
108
 72
53
 73
55
 74
109
 0
VERTEX
 8
CILINDRO_2
 10
0
 20
0
 30
0
 70
128
 71
109
 72
55
 73
57
 74
110
 0
VERTEX
 8
CILINDRO_2
 10
0
 20
0
 30
0
 70
128
 71
110
 72
57
 73
59
 74
111
 0
VERTEX
 8
CILINDRO_2
 10
0
 20
0
 30
0
 70
128
 71
111
 72
59
 73
61
 74
112
 0
VERTEX
 8
CILINDRO_2
 10
0
 20
0
 30
0
 70
128
 71
112
 72
61
 73
63
 74
113
 0
VERTEX
 8
CILINDRO_2
 10
0
 20
0
 30
0
 70
128
 71
113
 72
63
 73
65
 74
114
 0
VERTEX
 8
CILINDRO_2
 10
0
 20
0
 30
0
 70
128
 71
114
 72
65
 73
67
 74
115
 0
VERTEX
 8
CILINDRO_2
 10
0
 20
0
 30
0
 70
128
 71
115
 72
67
 73
69
 74
116
 0
VERTEX
 8
CILINDRO_2
 10
0
 20
0
 30
0
 70
128
 71
116
 72
69
 73
71
 74
117
 0
VERTEX
 8
CILINDRO_2
 10
0
 20
0
 30
0
 70
128
 71
117
 72
71
 73
73
 74
118
 0
VERTEX
 8
CILINDRO_2
 10
0
 20
0
 30
0
 70
128
 71
118
 72
73
 73
75
 74
119
 0
VERTEX
 8
CILINDRO_2
 10
0
 20
0
 30
0
 70
128
 71
119
 72
75
 73
77
 74
120
 0
VERTEX
 8
CILINDRO_2
 10
0
 20
0
 30
0
 70
128
 71
120
 72
77
 73
79
 74
121
 0
VERTEX
 8
CILINDRO_2
 10
0
 20
0
 30
0
 70
128
 71
121
 72
79
 73
81
 74
122
 0
VERTEX
 8
CILINDRO_2
 10
0
 20
0
 30
0
 70
128
 71
122
 72
81
 73
3
 74
83
 0
VERTEX
 8
CILINDRO_2
 10
0
 20
0
 30
0
 70
128
 71
123
 72
83
 73
84
 74
124
 0
VERTEX
 8
CILINDRO_2
 10
0
 20
0
 30
0
 70
128
 71
124
 72
84
 73
85
 74
125
 0
VERTEX
 8
CILINDRO_2
 10
0
 20
0
 30
0
 70
128
 71
125
 72
85
 73
86
 74
126
 0
VERTEX
 8
CILINDRO_2
 10
0
 20
0
 30
0
 70
128
 71
126
 72
86
 73
87
 74
127
 0
VERTEX
 8
CILINDRO_2
 10
0
 20
0
 30
0
 70
128
 71
127
 72
87
 73
88
 74
128
 0
VERTEX
 8
CILINDRO_2
 10
0
 20
0
 30
0
 70
128
 71
128
 72
88
 73
89
 74
129
 0
VERTEX
 8
CILINDRO_2
 10
0
 20
0
 30
0
 70
128
 71
129
 72
89
 73
90
 74
130
 0
VERTEX
 8
CILINDRO_2
 10
0
 20
0
 30
0
 70
128
 71
130
 72
90
 73
91
 74
131
 0
VERTEX
 8
CILINDRO_2
 10
0
 20
0
 30
0
 70
128
 71
131
 72
91
 73
92
 74
132
 0
VERTEX
 8
CILINDRO_2
 10
0
 20
0
 30
0
 70
128
 71
132
 72
92
 73
93
 74
133
 0
VERTEX
 8
CILINDRO_2
 10
0
 20
0
 30
0
 70
128
 71
133
 72
93
 73
94
 74
134
 0
VERTEX
 8
CILINDRO_2
 10
0
 20
0
 30
0
 70
128
 71
134
 72
94
 73
95
 74
135
 0
VERTEX
 8
CILINDRO_2
 10
0
 20
0
 30
0
 70
128
 71
135
 72
95
 73
96
 74
136
 0
VERTEX
 8
CILINDRO_2
 10
0
 20
0
 30
0
 70
128
 71
136
 72
96
 73
97
 74
137
 0
VERTEX
 8
CILINDRO_2
 10
0
 20
0
 30
0
 70
128
 71
137
 72
97
 73
98
 74
138
 0
VERTEX
 8
CILINDRO_2
 10
0
 20
0
 30
0
 70
128
 71
138
 72
98
 73
99
 74
139
 0
VERTEX
 8
CILINDRO_2
 10
0
 20
0
 30
0
 70
128
 71
139
 72
99
 73
100
 74
140
 0
VERTEX
 8
CILINDRO_2
 10
0
 20
0
 30
0
 70
128
 71
140
 72
100
 73
101
 74
141
 0
VERTEX
 8
CILINDRO_2
 10
0
 20
0
 30
0
 70
128
 71
141
 72
101
 73
102
 74
142
 0
VERTEX
 8
CILINDRO_2
 10
0
 20
0
 30
0
 70
128
 71
142
 72
102
 73
103
 74
143
 0
VERTEX
 8
CILINDRO_2
 10
0
 20
0
 30
0
 70
128
 71
143
 72
103
 73
104
 74
144
 0
VERTEX
 8
CILINDRO_2
 10
0
 20
0
 30
0
 70
128
 71
144
 72
104
 73
105
 74
145
 0
VERTEX
 8
CILINDRO_2
 10
0
 20
0
 30
0
 70
128
 71
145
 72
105
 73
106
 74
146
 0
VERTEX
 8
CILINDRO_2
 10
0
 20
0
 30
0
 70
128
 71
146
 72
106
 73
107
 74
147
 0
VERTEX
 8
CILINDRO_2
 10
0
 20
0
 30
0
 70
128
 71
147
 72
107
 73
108
 74
148
 0
VERTEX
 8
CILINDRO_2
 10
0
 20
0
 30
0
 70
128
 71
148
 72
108
 73
109
 74
149
 0
VERTEX
 8
CILINDRO_2
 10
0
 20
0
 30
0
 70
128
 71
149
 72
109
 73
110
 74
150
 0
VERTEX
 8
CILINDRO_2
 10
0
 20
0
 30
0
 70
128
 71
150
 72
110
 73
111
 74
151
 0
VERTEX
 8
CILINDRO_2
 10
0
 20
0
 30
0
 70
128
 71
151
 72
111
 73
112
 74
152
 0
VERTEX
 8
CILINDRO_2
 10
0
 20
0
 30
0
 70
128
 71
152
 72
112
 73
113
 74
153
 0
VERTEX
 8
CILINDRO_2
 10
0
 20
0
 30
0
 70
128
 71
153
 72
113
 73
114
 74
154
 0
VERTEX
 8
CILINDRO_2
 10
0
 20
0
 30
0
 70
128
 71
154
 72
114
 73
115
 74
155
 0
VERTEX
 8
CILINDRO_2
 10
0
 20
0
 30
0
 70
128
 71
155
 72
115
 73
116
 74
156
 0
VERTEX
 8
CILINDRO_2
 10
0
 20
0
 30
0
 70
128
 71
156
 72
116
 73
117
 74
157
 0
VERTEX
 8
CILINDRO_2
 10
0
 20
0
 30
0
 70
128
 71
157
 72
117
 73
118
 74
158
 0
VERTEX
 8
CILINDRO_2
 10
0
 20
0
 30
0
 70
128
 71
158
 72
118
 73
119
 74
159
 0
VERTEX
 8
CILINDRO_2
 10
0
 20
0
 30
0
 70
128
 71
159
 72
119
 73
120
 74
160
 0
VERTEX
 8
CILINDRO_2
 10
0
 20
0
 30
0
 70
128
 71
160
 72
120
 73
121
 74
161
 0
VERTEX
 8
CILINDRO_2
 10
0
 20
0
 30
0
 70
128
 71
161
 72
121
 73
122
 74
162
 0
VERTEX
 8
CILINDRO_2
 10
0
 20
0
 30
0
 70
128
 71
162
 72
122
 73
83
 74
123
 0
VERTEX
 8
CILINDRO_2
 10
0
 20
0
 30
0
 70
128
 71
163
 72
123
 73
124
 74
164
 0
VERTEX
 8
CILINDRO_2
 10
0
 20
0
 30
0
 70
128
 71
164
 72
124
 73
125
 74
165
 0
VERTEX
 8
CILINDRO_2
 10
0
 20
0
 30
0
 70
128
 71
165
 72
125
 73
126
 74
166
 0
VERTEX
 8
CILINDRO_2
 10
0
 20
0
 30
0
 70
128
 71
166
 72
126
 73
127
 74
167
 0
VERTEX
 8
CILINDRO_2
 10
0
 20
0
 30
0
 70
128
 71
167
 72
127
 73
128
 74
168
 0
VERTEX
 8
CILINDRO_2
 10
0
 20
0
 30
0
 70
128
 71
168
 72
128
 73
129
 74
169
 0
VERTEX
 8
CILINDRO_2
 10
0
 20
0
 30
0
 70
128
 71
169
 72
129
 73
130
 74
170
 0
VERTEX
 8
CILINDRO_2
 10
0
 20
0
 30
0
 70
128
 71
170
 72
130
 73
131
 74
171
 0
VERTEX
 8
CILINDRO_2
 10
0
 20
0
 30
0
 70
128
 71
171
 72
131
 73
132
 74
172
 0
VERTEX
 8
CILINDRO_2
 10
0
 20
0
 30
0
 70
128
 71
172
 72
132
 73
133
 74
173
 0
VERTEX
 8
CILINDRO_2
 10
0
 20
0
 30
0
 70
128
 71
173
 72
133
 73
134
 74
174
 0
VERTEX
 8
CILINDRO_2
 10
0
 20
0
 30
0
 70
128
 71
174
 72
134
 73
135
 74
175
 0
VERTEX
 8
CILINDRO_2
 10
0
 20
0
 30
0
 70
128
 71
175
 72
135
 73
136
 74
176
 0
VERTEX
 8
CILINDRO_2
 10
0
 20
0
 30
0
 70
128
 71
176
 72
136
 73
137
 74
177
 0
VERTEX
 8
CILINDRO_2
 10
0
 20
0
 30
0
 70
128
 71
177
 72
137
 73
138
 74
178
 0
VERTEX
 8
CILINDRO_2
 10
0
 20
0
 30
0
 70
128
 71
178
 72
138
 73
139
 74
179
 0
VERTEX
 8
CILINDRO_2
 10
0
 20
0
 30
0
 70
128
 71
179
 72
139
 73
140
 74
180
 0
VERTEX
 8
CILINDRO_2
 10
0
 20
0
 30
0
 70
128
 71
180
 72
140
 73
141
 74
181
 0
VERTEX
 8
CILINDRO_2
 10
0
 20
0
 30
0
 70
128
 71
181
 72
141
 73
142
 74
182
 0
VERTEX
 8
CILINDRO_2
 10
0
 20
0
 30
0
 70
128
 71
182
 72
142
 73
143
 74
183
 0
VERTEX
 8
CILINDRO_2
 10
0
 20
0
 30
0
 70
128
 71
183
 72
143
 73
144
 74
184
 0
VERTEX
 8
CILINDRO_2
 10
0
 20
0
 30
0
 70
128
 71
184
 72
144
 73
145
 74
185
 0
VERTEX
 8
CILINDRO_2
 10
0
 20
0
 30
0
 70
128
 71
185
 72
145
 73
146
 74
186
 0
VERTEX
 8
CILINDRO_2
 10
0
 20
0
 30
0
 70
128
 71
186
 72
146
 73
147
 74
187
 0
VERTEX
 8
CILINDRO_2
 10
0
 20
0
 30
0
 70
128
 71
187
 72
147
 73
148
 74
188
 0
VERTEX
 8
CILINDRO_2
 10
0
 20
0
 30
0
 70
128
 71
188
 72
148
 73
149
 74
189
 0
VERTEX
 8
CILINDRO_2
 10
0
 20
0
 30
0
 70
128
 71
189
 72
149
 73
150
 74
190
 0
VERTEX
 8
CILINDRO_2
 10
0
 20
0
 30
0
 70
128
 71
190
 72
150
 73
151
 74
191
 0
VERTEX
 8
CILINDRO_2
 10
0
 20
0
 30
0
 70
128
 71
191
 72
151
 73
152
 74
192
 0
VERTEX
 8
CILINDRO_2
 10
0
 20
0
 30
0
 70
128
 71
192
 72
152
 73
153
 74
193
 0
VERTEX
 8
CILINDRO_2
 10
0
 20
0
 30
0
 70
128
 71
193
 72
153
 73
154
 74
194
 0
VERTEX
 8
CILINDRO_2
 10
0
 20
0
 30
0
 70
128
 71
194
 72
154
 73
155
 74
195
 0
VERTEX
 8
CILINDRO_2
 10
0
 20
0
 30
0
 70
128
 71
195
 72
155
 73
156
 74
196
 0
VERTEX
 8
CILINDRO_2
 10
0
 20
0
 30
0
 70
128
 71
196
 72
156
 73
157
 74
197
 0
VERTEX
 8
CILINDRO_2
 10
0
 20
0
 30
0
 70
128
 71
197
 72
157
 73
158
 74
198
 0
VERTEX
 8
CILINDRO_2
 10
0
 20
0
 30
0
 70
128
 71
198
 72
158
 73
159
 74
199
 0
VERTEX
 8
CILINDRO_2
 10
0
 20
0
 30
0
 70
128
 71
199
 72
159
 73
160
 74
200
 0
VERTEX
 8
CILINDRO_2
 10
0
 20
0
 30
0
 70
128
 71
200
 72
160
 73
161
 74
201
 0
VERTEX
 8
CILINDRO_2
 10
0
 20
0
 30
0
 70
128
 71
201
 72
161
 73
162
 74
202
 0
VERTEX
 8
CILINDRO_2
 10
0
 20
0
 30
0
 70
128
 71
202
 72
162
 73
123
 74
163
 0
VERTEX
 8
CILINDRO_2
 10
0
 20
0
 30
0
 70
128
 71
203
 72
163
 73
164
 74
204
 0
VERTEX
 8
CILINDRO_2
 10
0
 20
0
 30
0
 70
128
 71
204
 72
164
 73
165
 74
205
 0
VERTEX
 8
CILINDRO_2
 10
0
 20
0
 30
0
 70
128
 71
205
 72
165
 73
166
 74
206
 0
VERTEX
 8
CILINDRO_2
 10
0
 20
0
 30
0
 70
128
 71
206
 72
166
 73
167
 74
207
 0
VERTEX
 8
CILINDRO_2
 10
0
 20
0
 30
0
 70
128
 71
207
 72
167
 73
168
 74
208
 0
VERTEX
 8
CILINDRO_2
 10
0
 20
0
 30
0
 70
128
 71
208
 72
168
 73
169
 74
209
 0
VERTEX
 8
CILINDRO_2
 10
0
 20
0
 30
0
 70
128
 71
209
 72
169
 73
170
 74
210
 0
VERTEX
 8
CILINDRO_2
 10
0
 20
0
 30
0
 70
128
 71
210
 72
170
 73
171
 74
211
 0
VERTEX
 8
CILINDRO_2
 10
0
 20
0
 30
0
 70
128
 71
211
 72
171
 73
172
 74
212
 0
VERTEX
 8
CILINDRO_2
 10
0
 20
0
 30
0
 70
128
 71
212
 72
172
 73
173
 74
213
 0
VERTEX
 8
CILINDRO_2
 10
0
 20
0
 30
0
 70
128
 71
213
 72
173
 73
174
 74
214
 0
VERTEX
 8
CILINDRO_2
 10
0
 20
0
 30
0
 70
128
 71
214
 72
174
 73
175
 74
215
 0
VERTEX
 8
CILINDRO_2
 10
0
 20
0
 30
0
 70
128
 71
215
 72
175
 73
176
 74
216
 0
VERTEX
 8
CILINDRO_2
 10
0
 20
0
 30
0
 70
128
 71
216
 72
176
 73
177
 74
217
 0
VERTEX
 8
CILINDRO_2
 10
0
 20
0
 30
0
 70
128
 71
217
 72
177
 73
178
 74
218
 0
VERTEX
 8
CILINDRO_2
 10
0
 20
0
 30
0
 70
128
 71
218
 72
178
 73
179
 74
219
 0
VERTEX
 8
CILINDRO_2
 10
0
 20
0
 30
0
 70
128
 71
219
 72
179
 73
180
 74
220
 0
VERTEX
 8
CILINDRO_2
 10
0
 20
0
 30
0
 70
128
 71
220
 72
180
 73
181
 74
221
 0
VERTEX
 8
CILINDRO_2
 10
0
 20
0
 30
0
 70
128
 71
221
 72
181
 73
182
 74
222
 0
VERTEX
 8
CILINDRO_2
 10
0
 20
0
 30
0
 70
128
 71
222
 72
182
 73
183
 74
223
 0
VERTEX
 8
CILINDRO_2
 10
0
 20
0
 30
0
 70
128
 71
223
 72
183
 73
184
 74
224
 0
VERTEX
 8
CILINDRO_2
 10
0
 20
0
 30
0
 70
128
 71
224
 72
184
 73
185
 74
225
 0
VERTEX
 8
CILINDRO_2
 10
0
 20
0
 30
0
 70
128
 71
225
 72
185
 73
186
 74
226
 0
VERTEX
 8
CILINDRO_2
 10
0
 20
0
 30
0
 70
128
 71
226
 72
186
 73
187
 74
227
 0
VERTEX
 8
CILINDRO_2
 10
0
 20
0
 30
0
 70
128
 71
227
 72
187
 73
188
 74
228
 0
VERTEX
 8
CILINDRO_2
 10
0
 20
0
 30
0
 70
128
 71
228
 72
188
 73
189
 74
229
 0
VERTEX
 8
CILINDRO_2
 10
0
 20
0
 30
0
 70
128
 71
229
 72
189
 73
190
 74
230
 0
VERTEX
 8
CILINDRO_2
 10
0
 20
0
 30
0
 70
128
 71
230
 72
190
 73
191
 74
231
 0
VERTEX
 8
CILINDRO_2
 10
0
 20
0
 30
0
 70
128
 71
231
 72
191
 73
192
 74
232
 0
VERTEX
 8
CILINDRO_2
 10
0
 20
0
 30
0
 70
128
 71
232
 72
192
 73
193
 74
233
 0
VERTEX
 8
CILINDRO_2
 10
0
 20
0
 30
0
 70
128
 71
233
 72
193
 73
194
 74
234
 0
VERTEX
 8
CILINDRO_2
 10
0
 20
0
 30
0
 70
128
 71
234
 72
194
 73
195
 74
235
 0
VERTEX
 8
CILINDRO_2
 10
0
 20
0
 30
0
 70
128
 71
235
 72
195
 73
196
 74
236
 0
VERTEX
 8
CILINDRO_2
 10
0
 20
0
 30
0
 70
128
 71
236
 72
196
 73
197
 74
237
 0
VERTEX
 8
CILINDRO_2
 10
0
 20
0
 30
0
 70
128
 71
237
 72
197
 73
198
 74
238
 0
VERTEX
 8
CILINDRO_2
 10
0
 20
0
 30
0
 70
128
 71
238
 72
198
 73
199
 74
239
 0
VERTEX
 8
CILINDRO_2
 10
0
 20
0
 30
0
 70
128
 71
239
 72
199
 73
200
 74
240
 0
VERTEX
 8
CILINDRO_2
 10
0
 20
0
 30
0
 70
128
 71
240
 72
200
 73
201
 74
241
 0
VERTEX
 8
CILINDRO_2
 10
0
 20
0
 30
0
 70
128
 71
241
 72
201
 73
202
 74
242
 0
VERTEX
 8
CILINDRO_2
 10
0
 20
0
 30
0
 70
128
 71
242
 72
202
 73
163
 74
203
 0
SEQEND
 0
ENDSEC
 0
EOF
